  0
SECTION
  2
HEADER
  9
$ACADVER
  1
AC1021
  9
$DWGCODEPAGE
  3
ANSI_1252
  9
$EXTMAX
 10
558.8
 20
431.8
 30
0.0
  9
$EXTMIN
 10
0.0
 20
0.0
 30
0.0
  9
$LIMMIN
 10
0.0
 20
0.0
  9
$LIMMAX
 10
558.8
 20
431.8
  9
$VIEWCTR
 10
279.4
 20
215.9
  9
$VIEWSIZE
 40
431.8
  9
$CLAYER
  8
0
  9
$LTSCALE
 40
30.734
  9
$CELTYPE
  6
BYLAYER
  9
$DIMSCALE
 40
1.0
  9
$DIMASZ
 40
3.0
  9
$DIMEXO
 40
0.5
  9
$DIMDLI
 40
21.2344
  9
$DIMEXE
 40
1.5
  9
$DIMCEN
 40
5.0292
  9
$DIMLFAC
 40
1.0
  9
$DIMBLK
  1
_FILLED
  9
$DIMALT
 70
0
  9
$DIMALTF
 40
25.4
  9
$DIMTXT
 40
3.0
  9
$DIMTOL
 70
1
  9
$DIMLIM
 70
0
  9
$DIMTFAC
 40
1.0
  9
$DIMTP
 40
0.01
  9
$DIMTM
 40
0.01
  9
$DIMGAP
 40
0.625
  9
$DIMDSEP
 70
44
  9
$AUNITS
 70
0
  9
$PDMODE
 70
3
  9
$PDSIZE
 40
3.0
  9
$HANDSEED
  5
379
  9
$TILEMODE
 70
1
  9
$MEASUREMENT
 70
1
  9
$INSUNITS
 70
4
  0
ENDSEC
  0
SECTION
  2
CLASSES
  0
CLASS
  1
ACDBDICTIONARYWDFLT
  2
AcDbDictionaryWithDefault
  3
AutoCAD 2000
 90
0
 91
1
280
0
281
0
  0
CLASS
  1
ACDBPLACEHOLDER
  2
AcDbPlaceHolder
  3
AutoCAD 2000
 90
0
 91
1
280
0
281
0
  0
CLASS
  1
LAYOUT
  2
AcDbLayout
  3
AutoCAD 2000
 90
0
 91
0
280
0
281
0
  0
ENDSEC
  0
SECTION
  2
TABLES
  0
TABLE
  2
VPORT
  5
8
100
AcDbSymbolTable
 70
2
  0
VPORT
  5
1F4
100
AcDbSymbolTableRecord
100
AcDbViewportTableRecord
  2
*ACTIVE
 70
0
 10
0.0
 20
0.0
 11
1.0
 21
1.0
 12
279.4
 22
215.9
 13
0.0
 23
0.0
 14
1.0
 24
1.0
 15
0.0
 25
0.0
 16
0.0
 26
0.0
 36
1.0
 17
0.0
 27
0.0
 37
0.0
 40
431.8
 41
1.2941176471
 42
50.0
 43
0.0
 44
0.0
 50
0.0
 51
0.0
 71
0
 72
100
 73
1
 74
1
 75
0
 76
0
 77
0
 78
0
  0
ENDTAB
  0
TABLE
  2
LTYPE
  5
5
100
AcDbSymbolTable
 70
6
  0
LTYPE
  5
14
100
AcDbSymbolTableRecord
100
AcDbLinetypeTableRecord
  2
BYBLOCK
 70
0
  3

 72
65
 73
0
 40
0.0
  0
LTYPE
  5
15
100
AcDbSymbolTableRecord
100
AcDbLinetypeTableRecord
  2
BYLAYER
 70
0
  3

 72
65
 73
0
 40
0.0
  0
LTYPE
  5
16
100
AcDbSymbolTableRecord
100
AcDbLinetypeTableRecord
  2
CONTINUOUS
 70
64
  3
Solid line
 72
65
 73
0
 40
0.0
  0
LTYPE
  5
1F5
100
AcDbSymbolTableRecord
100
AcDbLinetypeTableRecord
  2
CENTER
 70
64
  3
____ _ ____ _ ____ _ ____ _ ____ _ ____ _ ____
 72
65
 73
4
 40
0.6
 49
0.375
 74
0
 49
-0.075
 74
0
 49
0.075
 74
0
 49
-0.075
 74
0
  0
LTYPE
  5
1F6
100
AcDbSymbolTableRecord
100
AcDbLinetypeTableRecord
  2
HIDDEN
 70
64
  3
- - - - - - - - - - - - - - - - - - - -
 72
65
 73
2
 40
0.2
 49
0.1
 74
0
 49
-0.1
 74
0
  0
LTYPE
  5
1F7
100
AcDbSymbolTableRecord
100
AcDbLinetypeTableRecord
  2
PHANTOM
 70
64
  3
_____ _ _ _____ _ _ _____ _ _ _____
 72
65
 73
6
 40
0.8
 49
0.45
 74
0
 49
-0.05
 74
0
 49
0.1
 74
0
 49
-0.05
 74
0
 49
0.1
 74
0
 49
-0.05
 74
0
  0
LTYPE
  5
1F8
100
AcDbSymbolTableRecord
100
AcDbLinetypeTableRecord
  2
DOT
 70
64
  3
. . . . . . . . . . . . . . . . . . . .
 72
65
 73
2
 40
0.2
 49
0.1
 74
0
 49
-0.1
 74
0
  0
LTYPE
  5
1F9
100
AcDbSymbolTableRecord
100
AcDbLinetypeTableRecord
  2
DASHED
 70
64
  3
- - - - - - - - - - - - - - - - - - - -
 72
65
 73
2
 40
0.2
 49
0.1
 74
0
 49
-0.1
 74
0
  0
ENDTAB
  0
TABLE
  2
LAYER
  5
2
100
AcDbSymbolTable
 70
36
  0
LAYER
  5
10
100
AcDbSymbolTableRecord
100
AcDbLayerTableRecord
  2
0
 70
0
 62
7
  6
CONTINUOUS
370
-3
390
F
  0
LAYER
  5
1FA
100
AcDbSymbolTableRecord
100
AcDbLayerTableRecord
  2
DEFAULT_1
 70
0
 62
7
  6
CENTER
370
-3
390
F
  0
LAYER
  5
1FB
100
AcDbSymbolTableRecord
100
AcDbLayerTableRecord
  2
DEFAULT_2
 70
0
 62
7
  6
HIDDEN
370
-3
390
F
  0
LAYER
  5
1FC
100
AcDbSymbolTableRecord
100
AcDbLayerTableRecord
  2
DEFAULT_3
 70
0
 62
7
  6
PHANTOM
370
-3
390
F
  0
LAYER
  5
1FD
100
AcDbSymbolTableRecord
100
AcDbLayerTableRecord
  2
ASSI
 70
0
 62
7
  6
CONTINUOUS
370
-3
390
F
  0
LAYER
  5
1FE
100
AcDbSymbolTableRecord
100
AcDbLayerTableRecord
  2
COORDINATE
 70
0
 62
7
  6
CONTINUOUS
370
-3
390
F
  0
LAYER
  5
1FF
100
AcDbSymbolTableRecord
100
AcDbLayerTableRecord
  2
COPY_PUBLISH
 70
0
 62
7
  6
CONTINUOUS
370
-3
390
F
  0
LAYER
  5
200
100
AcDbSymbolTableRecord
100
AcDbLayerTableRecord
  2
COSMETIC
 70
0
 62
7
  6
CONTINUOUS
370
-3
390
F
  0
LAYER
  5
201
100
AcDbSymbolTableRecord
100
AcDbLayerTableRecord
  2
COSMETICI
 70
0
 62
7
  6
CONTINUOUS
370
-3
390
F
  0
LAYER
  5
202
100
AcDbSymbolTableRecord
100
AcDbLayerTableRecord
  2
CURVE
 70
0
 62
7
  6
CONTINUOUS
370
-3
390
F
  0
LAYER
  5
203
100
AcDbSymbolTableRecord
100
AcDbLayerTableRecord
  2
DRAFT
 70
0
 62
7
  6
CONTINUOUS
370
-3
390
F
  0
LAYER
  5
204
100
AcDbSymbolTableRecord
100
AcDbLayerTableRecord
  2
IMPORT_IGES
 70
0
 62
7
  6
CONTINUOUS
370
-3
390
F
  0
LAYER
  5
205
100
AcDbSymbolTableRecord
100
AcDbLayerTableRecord
  2
INTF_1
 70
0
 62
7
  6
CONTINUOUS
370
-3
390
F
  0
LAYER
  5
206
100
AcDbSymbolTableRecord
100
AcDbLayerTableRecord
  2
NOTE
 70
0
 62
7
  6
CONTINUOUS
370
-3
390
F
  0
LAYER
  5
207
100
AcDbSymbolTableRecord
100
AcDbLayerTableRecord
  2
PIANI
 70
0
 62
7
  6
CONTINUOUS
370
-3
390
F
  0
LAYER
  5
208
100
AcDbSymbolTableRecord
100
AcDbLayerTableRecord
  2
PUNTI
 70
0
 62
7
  6
CONTINUOUS
370
-3
390
F
  0
LAYER
  5
209
100
AcDbSymbolTableRecord
100
AcDbLayerTableRecord
  2
RACCORDO
 70
0
 62
7
  6
CONTINUOUS
370
-3
390
F
  0
LAYER
  5
20A
100
AcDbSymbolTableRecord
100
AcDbLayerTableRecord
  2
RGB____0____0____0__
 70
0
 62
7
  6
CONTINUOUS
370
-3
390
F
  0
LAYER
  5
20B
100
AcDbSymbolTableRecord
100
AcDbLayerTableRecord
  2
SIMBOLI
 70
0
 62
7
  6
CONTINUOUS
370
-3
390
F
  0
LAYER
  5
20C
100
AcDbSymbolTableRecord
100
AcDbLayerTableRecord
  2
SMUSSO
 70
0
 62
7
  6
CONTINUOUS
370
-3
390
F
  0
LAYER
  5
20D
100
AcDbSymbolTableRecord
100
AcDbLayerTableRecord
  2
SNAPLINE
 70
0
 62
7
  6
CONTINUOUS
370
-3
390
F
  0
LAYER
  5
20E
100
AcDbSymbolTableRecord
100
AcDbLayerTableRecord
  2
SUPERFICI
 70
0
 62
7
  6
CONTINUOUS
370
-3
390
F
  0
LAYER
  5
20F
100
AcDbSymbolTableRecord
100
AcDbLayerTableRecord
  2
TRASH
 70
0
 62
7
  6
CONTINUOUS
370
-3
390
F
  0
ENDTAB
  0
TABLE
  2
STYLE
  5
3
100
AcDbSymbolTable
 70
1
  0
STYLE
  5
11
100
AcDbSymbolTableRecord
100
AcDbTextStyleTableRecord
  2
STANDARD
 70
0
 40
0.0
 41
0.8
 50
0.0
 71
0
 42
0.2
  3
txt
  4

  0
STYLE
  5
210
100
AcDbSymbolTableRecord
100
AcDbTextStyleTableRecord
  2
TEXTSTYLE_1
 70
0
 40
0.0
 41
0.8
 50
0.0
 71
0
 42
0.2
  3
gdt
  4

  0
ENDTAB
  0
TABLE
  2
VIEW
  5
6
100
AcDbSymbolTable
 70
0
  0
ENDTAB
  0
TABLE
  2
UCS
  5
7
100
AcDbSymbolTable
 70
0
  0
ENDTAB
  0
TABLE
  2
APPID
  5
9
100
AcDbSymbolTable
 70
1
  0
APPID
  5
211
100
AcDbSymbolTableRecord
100
AcDbRegAppTableRecord
  2
ACAD
 70
0
  0
ENDTAB
  0
TABLE
  2
BLOCK_RECORD
  5
1
100
AcDbSymbolTable
 70
0
  0
BLOCK_RECORD
  5
212
100
AcDbSymbolTableRecord
100
AcDbBlockTableRecord
  2
*Model_Space
  0
BLOCK_RECORD
  5
213
100
AcDbSymbolTableRecord
100
AcDbBlockTableRecord
  2
*Paper_Space
  0
ENDTAB
  0
TABLE
  2
DIMSTYLE
  5
A
100
AcDbSymbolTable
 70
1
100
AcDbDimStyleTable
 71
0
  0
DIMSTYLE
105
214
100
AcDbSymbolTableRecord
100
AcDbDimStyleTableRecord
  2
STANDARD
 70
0
  3

  4

 40
1.0
 41
3.0
 42
0.5
 43
0.38
 44
1.5
 45
0.0
 46
0.0
 47
0.01
 48
0.01
140
3.0
141
0.09
142
0.0
143
25.4
144
1.0
145
0.0
146
1.0
147
0.625
 71
1.0
 72
0.0
 73
0
 74
0
 75
0
 76
0
 77
1
 78
8
170
0
171
1
172
0
173
0
174
0
175
0
176
0
177
0
178
0
270
2
271
2
272
2
273
2
274
2
275
0
280
0
281
0
282
0
283
1
284
8
285
0
286
0
287
3
288
0
340
11
278
44
  0
ENDTAB
  0
ENDSEC
  0
SECTION
  2
BLOCKS
  0
BLOCK
  5
20
100
AcDbEntity
  8
0
100
AcDbBlockBegin
  2
*Model_Space
 70
0
 10
0.0
 20
0.0
 30
0.0
  3
*Model_Space
  1

  0
ENDBLK
  5
21
100
AcDbEntity
  8
0
100
AcDbBlockEnd
  0
BLOCK
  5
1C
100
AcDbEntity
  8
0
100
AcDbBlockBegin
  2
*Paper_Space
 70
0
 10
0.0
 20
0.0
 30
0.0
  3
*Paper_Space
  1

  0
ENDBLK
  5
1D
100
AcDbEntity
  8
0
100
AcDbBlockEnd
  0
ENDSEC
  0
SECTION
  2
ENTITIES
  0
LWPOLYLINE
  5
215
100
AcDbEntity
  8
RACCORDO
100
AcDbPolyline
 62
7
  6
CONTINUOUS
 90
25
 70
0
 10
-61.6294442681
 20
95.0925901501
 10
-61.821224712
 20
94.97561639
 10
-62.0080914934
 20
94.8488999873
 10
-62.1896656922
 20
94.7125374
 10
-62.3653996901
 20
94.5668034209
 10
-62.5351291556
 20
94.4117016996
 10
-62.6990141744
 20
94.2468635891
 10
-62.8567166076
 20
94.0723241465
 10
-63.0078112984
 20
93.888241643
 10
-63.1522546337
 20
93.694296532
 10
-63.2896935037
 20
93.4905037385
 10
-63.4197122141
 20
93.2769959208
 10
-63.542128088
 20
93.0535177827
 10
-63.6567119362
 20
92.8197846381
 10
-63.7629080866
 20
92.5761650552
 10
-63.8601176661
 20
92.3233665337
 10
-63.9480937941
 20
92.0613929053
 10
-64.0265271769
 20
91.7904366892
 10
-64.0949316873
 20
91.5115741522
 10
-64.1531875783
 20
91.2247722421
 10
-64.2010919756
 20
90.9303685196
 10
-64.2383185237
 20
90.6301434972
 10
-64.2648434939
 20
90.3248938794
 10
-64.2807540151
 20
90.0143264371
 10
-64.2860569162
 20
89.698672352
  0
LINE
  5
216
100
AcDbEntity
  8
ASSI
100
AcDbLine
 62
7
  6
CONTINUOUS
 10
-60.2152307057
 20
95.9091393367
 11
-61.6294442681
 21
95.0925901501
  0
LINE
  5
217
100
AcDbEntity
  8
RACCORDO
100
AcDbLine
 62
250
  6
CONTINUOUS
 10
-55.2149891043
 20
95.4137275599
 11
-56.6292026667
 21
94.5971783733
  0
LWPOLYLINE
  5
218
100
AcDbEntity
  8
0
100
AcDbPolyline
 62
7
  6
CONTINUOUS
 90
18
 70
0
 10
-52.472406303
 20
75.9664868038
 10
-52.5076610699
 20
75.9451581763
 10
-52.5755353639
 20
75.898160742
 10
-52.6397587998
 20
75.845402586
 10
-52.7003559842
 20
75.7869225354
 10
-52.7569166505
 20
75.7231165231
 10
-52.8094134081
 20
75.6539484086
 10
-52.8578736475
 20
75.5794543324
 10
-52.9019692741
 20
75.5001386484
 10
-52.9416706708
 20
75.4159686387
 10
-52.9770074546
 20
75.3269770213
 10
-53.0077403816
 20
75.2337663043
 10
-53.0338382115
 20
75.1363078581
 10
-53.0553321846
 20
75.0346303123
 10
-53.0720767784
 20
74.9294220636
 10
-53.0840234852
 20
74.8209125777
 10
-53.0912208127
 20
74.708872389
 10
-53.0936687608
 20
74.5933014975
  0
LWPOLYLINE
  5
219
100
AcDbEntity
  8
0
100
AcDbPolyline
 62
7
  6
CONTINUOUS
 90
18
 70
0
 10
-49.4722905314
 20
70.7704686311
 10
-49.4370357645
 20
70.7917972587
 10
-49.3691614705
 20
70.838794693
 10
-49.3049380346
 20
70.891552849
 10
-49.2443408502
 20
70.9500328995
 10
-49.1877801839
 20
71.0138389119
 10
-49.1352834264
 20
71.0830070264
 10
-49.0868231869
 20
71.1575011026
 10
-49.0427275603
 20
71.2368167866
 10
-49.0030261636
 20
71.3209867963
 10
-48.9676893798
 20
71.4099784137
 10
-48.9369564528
 20
71.5031891307
 10
-48.9108586229
 20
71.6006475769
 10
-48.8893646498
 20
71.7023251227
 10
-48.8726200561
 20
71.8075333713
 10
-48.8606733492
 20
71.9160428572
 10
-48.8534760218
 20
72.028083046
 10
-48.8510280737
 20
72.1436539375
  0
LWPOLYLINE
  5
21A
100
AcDbEntity
  8
0
100
AcDbPolyline
 62
7
  6
CONTINUOUS
 90
9
 70
0
 10
-51.7450186982
 20
76.0953207831
 10
-51.7636559624
 20
76.0512502372
 10
-51.7973429219
 20
75.9549293387
 10
-51.825990251
 20
75.8539036733
 10
-51.8495267279
 20
75.7484244069
 10
-51.8678938372
 20
75.6387537774
 10
-51.8810459154
 20
75.5251644434
 10
-51.8889502644
 20
75.4079388059
 10
-51.8915872328
 20
75.2873683061
  0
LWPOLYLINE
  5
21B
100
AcDbEntity
  8
RACCORDO
100
AcDbPolyline
 62
7
  6
CONTINUOUS
 90
43
 70
0
 10
-64.2860569162
 20
-18.8918744615
 10
-64.2811340826
 20
-19.2005874921
 10
-64.2664447006
 20
-19.5122769104
 10
-64.2421058923
 20
-19.8266530623
 10
-64.208200877
 20
-20.1436898933
 10
-64.1648558502
 20
-20.4628622075
 10
-64.1123203507
 20
-20.7830948695
 10
-64.0508050313
 20
-21.1039136358
 10
-63.9804592507
 20
-21.4251777197
 10
-63.9015412971
 20
-21.7462507704
 10
-63.8143032398
 20
-22.0666367434
 10
-63.7189009597
 20
-22.3862087432
 10
-63.6154680332
 20
-22.7048489553
 10
-63.5041764555
 20
-23.0222806022
 10
-63.3852215495
 20
-23.3381609991
 10
-63.2587610541
 20
-23.6522496401
 10
-63.1249749483
 20
-23.9642434331
 10
-62.9840497795
 20
-24.2738283367
 10
-62.836154016
 20
-24.580732735
 10
-62.6814923884
 20
-24.8846131048
 10
-62.5202339047
 20
-25.1852032651
 10
-62.3524877685
 20
-25.4823379966
 10
-62.1784339505
 20
-25.775714295
 10
-61.9982568101
 20
-26.065026559
 10
-61.8120578318
 20
-26.3500980355
 10
-61.6199943446
 20
-26.6306538611
 10
-61.4222671458
 20
-26.9063583848
 10
-61.2190313563
 20
-27.1769444852
 10
-61.0104653382
 20
-27.4421132503
 10
-60.7967539519
 20
-27.7015604231
 10
-60.5780503337
 20
-27.9550208984
 10
-60.3545424517
 20
-28.2021879559
 10
-60.1264050294
 20
-28.4427715352
 10
-59.8937503143
 20
-28.6765426535
 10
-59.6566942449
 20
-28.9032563806
 10
-59.4154715382
 20
-29.1225510498
 10
-59.1703486346
 20
-29.3340486768
 10
-58.9214609853
 20
-29.5374904408
 10
-58.6690227753
 20
-29.7325491413
 10
-58.4133942861
 20
-29.9187987104
 10
-58.1548023358
 20
-30.0959307747
 10
-57.8933606494
 20
-30.2637122922
 10
-57.629250987
 20
-30.4218563314
  0
LWPOLYLINE
  5
21C
100
AcDbEntity
  8
RACCORDO
100
AcDbPolyline
 62
250
  6
CONTINUOUS
 90
46
 70
0
 10
-63.7002704786
 20
-19.7084236481
 10
-63.6967939259
 20
-19.9387876029
 10
-63.6864683938
 20
-20.1722907452
 10
-63.6692938821
 20
-20.4089330748
 10
-63.6452329569
 20
-20.6490147218
 10
-63.6143230523
 20
-20.8922355561
 10
-63.5766764701
 20
-21.1376951882
 10
-63.5322682661
 20
-21.3853986997
 10
-63.4811233845
 20
-21.635341009
 10
-63.42342896
 20
-21.8866064814
 10
-63.3591614718
 20
-22.139197811
 10
-63.2883444406
 20
-22.3931123038
 10
-63.2112355629
 20
-22.6474262431
 10
-63.1278116186
 20
-22.9021421757
 10
-63.0380958278
 20
-23.1572575547
 10
-62.9424155467
 20
-23.4118410234
 10
-62.8407489671
 20
-23.6658905472
 10
-62.7331178972
 20
-23.9194081606
 10
-62.6199151179
 20
-24.1714686101
 10
-62.5011201543
 20
-24.4220667051
 10
-62.3767534813
 20
-24.6712076361
 10
-62.2472693041
 20
-24.9179817212
 10
-62.1126493921
 20
-25.1623795265
 10
-61.972911976
 20
-25.4044104858
 10
-61.8285659538
 20
-25.643193219
 10
-61.6795940879
 20
-25.8787165937
 10
-61.5260136159
 20
-26.1109917421
 10
-61.3683851484
 20
-26.3391706808
 10
-61.2066939381
 20
-26.5632383195
 10
-61.0409547323
 20
-26.7832097484
 10
-60.8717723844
 20
-26.9982822549
 10
-60.6991342014
 20
-27.2084380021
 10
-60.5230528764
 20
-27.4136948269
 10
-60.3441713411
 20
-27.6133035268
 10
-60.1624802046
 20
-27.807242719
 10
-59.9779888579
 20
-27.9955337862
 10
-59.7913684051
 20
-28.1774916746
 10
-59.6026094144
 20
-28.3530946406
 10
-59.4117213175
 20
-28.5223644277
 10
-59.2194035138
 20
-28.6846812132
 10
-59.0256467442
 20
-28.8400215978
 10
-58.8304602676
 20
-28.9884089806
 10
-58.6345712603
 20
-29.1292937357
 10
-58.4382221141
 20
-29.2624926545
 10
-58.241170437
 20
-29.3881889457
 10
-58.0434162291
 20
-29.5063826091
  0
LINE
  5
21D
100
AcDbEntity
  8
RACCORDO
100
AcDbLine
 62
7
  6
CONTINUOUS
 10
-64.2860569162
 20
89.698672352
 11
-64.2860569162
 21
-18.8918744615
  0
LINE
  5
21E
100
AcDbEntity
  8
RACCORDO
100
AcDbLine
 62
250
  6
CONTINUOUS
 10
-63.7002704786
 20
88.8821231653
 11
-63.7002704786
 21
-19.7084236481
  0
LWPOLYLINE
  5
21F
100
AcDbEntity
  8
RACCORDO
100
AcDbPolyline
 62
250
  6
CONTINUOUS
 90
16
 70
0
 10
-58.0434162291
 20
-29.5063826091
 10
-58.0414780985
 20
-29.5907250622
 10
-58.0356690192
 20
-29.6725982339
 10
-58.0260049134
 20
-29.7517777156
 10
-58.0125122697
 20
-29.8280464817
 10
-57.9952280705
 20
-29.9011954851
 10
-57.9741996906
 20
-29.9710242291
 10
-57.9494847674
 20
-30.0373413183
 10
-57.9211510427
 20
-30.099964982
 10
-57.8892761774
 20
-30.158723573
 10
-57.8539475381
 20
-30.2134560383
 10
-57.8152619583
 20
-30.2640123599
 10
-57.7733254723
 20
-30.3102539665
 10
-57.7282530253
 20
-30.3520541129
 10
-57.6801681577
 20
-30.389298228
 10
-57.629250987
 20
-30.4218563314
  0
LWPOLYLINE
  5
220
100
AcDbEntity
  8
RACCORDO
100
AcDbPolyline
 62
250
  6
CONTINUOUS
 90
31
 70
0
 10
-58.0434162291
 20
92.147688633
 10
-58.0414780985
 20
92.2342691905
 10
-58.0356690192
 20
92.3228505413
 10
-58.0260049134
 20
92.41318989
 10
-58.0125122698
 20
92.5050396227
 10
-57.9952280707
 20
92.5981479858
 10
-57.9741996909
 20
92.6922597757
 10
-57.9494847677
 20
92.7871170386
 10
-57.9211510431
 20
92.8824597772
 10
-57.8892761778
 20
92.9780266638
 10
-57.8539475386
 20
93.0735557562
 10
-57.8152619587
 20
93.1687852158
 10
-57.7733254728
 20
93.2634540253
 10
-57.7282530257
 20
93.357302704
 10
-57.6801681579
 20
93.4500740193
 10
-57.6292026667
 20
93.5415136913
 10
-57.5754962451
 20
93.6313710902
 10
-57.5191960985
 20
93.7193999233
 10
-57.4604565418
 20
93.8053589094
 10
-57.399438576
 20
93.889012441
 10
-57.3363094472
 20
93.9701312295
 10
-57.2712421879
 20
94.0484929341
 10
-57.2044151429
 20
94.1238827708
 10
-57.1360114805
 20
94.1960941012
 10
-57.0662186905
 20
94.2649289991
 10
-56.9952280699
 20
94.330198793
 10
-56.9232341992
 20
94.3917245827
 10
-56.8504344084
 20
94.4493377304
 10
-56.7770282369
 20
94.5028803226
 10
-56.7032168857
 20
94.5522056026
 10
-56.6292026667
 20
94.5971783733
  0
LINE
  5
221
100
AcDbEntity
  8
0
100
AcDbLine
 62
7
  6
CONTINUOUS
 10
0.6206003139
 20
-56.5137517434
 11
0.5955059652
 21
-56.5187445764
  0
LINE
  5
222
100
AcDbEntity
  8
0
100
AcDbLine
 62
7
  6
CONTINUOUS
 10
-1.0550162644
 20
-55.54627179
 11
-1.0801106306
 21
-55.5512646095
  0
LINE
  5
223
100
AcDbEntity
  8
0
100
AcDbLine
 62
7
  6
CONTINUOUS
 10
0.0514971848
 20
-55.2467360794
 11
0.073993743
 21
-55.2423662702
  0
LINE
  5
224
100
AcDbEntity
  8
0
100
AcDbLine
 62
7
  6
CONTINUOUS
 10
0.073993743
 20
-55.2423662702
 11
0.0981182165
 21
-55.2395534086
  0
LINE
  5
225
100
AcDbEntity
  8
0
100
AcDbLine
 62
7
  6
CONTINUOUS
 10
-1.6016226101
 20
-54.2748863895
 11
-1.5774982993
 21
-54.2720735589
  0
LWPOLYLINE
  5
226
100
AcDbEntity
  8
0
100
AcDbPolyline
 62
7
  6
CONTINUOUS
 90
9
 70
0
 10
0.5955059652
 20
-56.5187445764
 10
0.5699210455
 20
-56.5207667212
 10
0.5437399217
 20
-56.5201297122
 10
0.5171085561
 20
-56.5169911567
 10
0.4898809864
 20
-56.5111934472
 10
0.461513692
 20
-56.5025752963
 10
0.4318254997
 20
-56.4910829413
 10
0.4009975827
 20
-56.4767701448
 10
0.3690299412
 20
-56.4596369068
  0
LWPOLYLINE
  5
227
100
AcDbEntity
  8
0
100
AcDbPolyline
 62
7
  6
CONTINUOUS
 90
9
 70
0
 10
-1.0801106306
 20
-55.5512646095
 10
-1.1056955636
 20
-55.5532867436
 10
-1.1318766908
 20
-55.5526497281
 10
-1.1585080509
 20
-55.549511168
 10
-1.1857356051
 20
-55.5437134582
 10
-1.214102864
 20
-55.5350953189
 10
-1.2437909978
 20
-55.52360299
 10
-1.2746188362
 20
-55.5092902317
 10
-1.3065863793
 20
-55.4921570437
  0
LWPOLYLINE
  5
228
100
AcDbEntity
  8
0
100
AcDbPolyline
 62
7
  6
CONTINUOUS
 90
10
 70
0
 10
0.0981182165
 20
-55.2395534086
 10
0.1209835263
 20
-55.2389362405
 10
0.144531432
 20
-55.2402666128
 10
0.1687619336
 20
-55.2435445255
 10
0.1936460741
 20
-55.2487211909
 10
0.2192128106
 20
-55.2558453967
 10
0.2455490139
 20
-55.2650635059
 10
0.2726836411
 20
-55.2764243063
 10
0.3005877351
 20
-55.28987901
 10
0.3292612961
 20
-55.3054276171
  0
LWPOLYLINE
  5
229
100
AcDbEntity
  8
0
100
AcDbPolyline
 62
7
  6
CONTINUOUS
 90
10
 70
0
 10
-1.5774982993
 20
-54.2720735589
 10
-1.5546329085
 20
-54.2714563909
 10
-1.5310849403
 20
-54.272786763
 10
-1.5068543946
 20
-54.2760646751
 10
-1.4819702333
 20
-54.2812413396
 10
-1.4564034945
 20
-54.2883655441
 10
-1.4300672928
 20
-54.2975836515
 10
-1.4029326663
 20
-54.3089444495
 10
-1.3750285769
 20
-54.3223991503
 10
-1.3463550245
 20
-54.3379477541
  0
LWPOLYLINE
  5
22A
100
AcDbEntity
  8
0
100
AcDbPolyline
 62
7
  6
CONTINUOUS
 90
13
 70
0
 10
-2.7192174398
 20
-53.5034557704
 10
-2.7400550565
 20
-53.5037200917
 10
-2.7624023961
 20
-53.5020638561
 10
-2.786154248
 20
-53.4984874269
 10
-2.8113184284
 20
-53.4929610906
 10
-2.8378871212
 20
-53.4855145607
 10
-2.8657316682
 20
-53.4762373422
 10
-2.8948326332
 20
-53.465127221
 10
-2.9252094524
 20
-53.4521864113
 10
-2.9567917756
 20
-53.4375110593
 10
-2.9895561529
 20
-53.4211332139
 10
-3.0235260341
 20
-53.4030208263
 10
-3.0587014194
 20
-53.3831738965
  0
LWPOLYLINE
  5
22B
100
AcDbEntity
  8
RACCORDO
100
AcDbPolyline
 62
7
  6
CONTINUOUS
 90
25
 70
0
 10
54.8007272217
 20
-95.3375166705
 10
55.0778285531
 20
-95.4913404862
 10
55.3554898408
 20
-95.6331740257
 10
55.6335059394
 20
-95.7629372282
 10
55.9120847453
 20
-95.8807108802
 10
56.1906055184
 20
-95.9862036737
 10
56.4676146924
 20
-96.0789338246
 10
56.7427822985
 20
-96.158939004
 10
57.0160152532
 20
-96.2263309221
 10
57.2862019311
 20
-96.281017658
 10
57.5530147181
 20
-96.3231754186
 10
57.8163376609
 20
-96.3530237324
 10
58.075346707
 20
-96.3707367153
 10
58.329441748
 20
-96.3766047063
 10
58.5787609501
 20
-96.3709626444
 10
58.8235328064
 20
-96.3540811193
 10
59.0634358021
 20
-96.3262332098
 10
59.2982738665
 20
-96.2876974861
 10
59.5283823023
 20
-96.2386321112
 10
59.7534090506
 20
-96.179292694
 10
59.9731355822
 20
-96.1099254584
 10
60.1880071576
 20
-96.0305234109
 10
60.3979381424
 20
-95.9411811606
 10
60.602374045
 20
-95.8422066623
 10
60.8010171434
 20
-95.7338460919
  0
LWPOLYLINE
  5
22C
100
AcDbEntity
  8
RACCORDO
100
AcDbPolyline
 62
250
  6
CONTINUOUS
 90
46
 70
0
 10
54.3865619796
 20
-94.4220429482
 10
54.5843309996
 20
-94.5322180538
 10
54.7813939024
 20
-94.6340771907
 10
54.9777506882
 20
-94.7276203589
 10
55.1736425666
 20
-94.8129436062
 10
55.3688283279
 20
-94.8899508848
 10
55.562584343
 20
-94.9583540513
 10
55.7549025397
 20
-95.0181196427
 10
55.9457909903
 20
-95.069281122
 10
56.1345502827
 20
-95.1116507349
 10
56.3211709886
 20
-95.1451958791
 10
56.5056625364
 20
-95.1699491569
 10
56.6873537989
 20
-95.1858206205
 10
56.8662353704
 20
-95.192778028
 10
57.0423166566
 20
-95.1908536213
 10
57.2149547467
 20
-95.180054178
 10
57.3841369736
 20
-95.1603472032
 10
57.5498760044
 20
-95.1317651919
 10
57.7115669296
 20
-95.0944124065
 10
57.8691950154
 20
-95.0482566984
 10
58.0227749955
 20
-94.9933302162
 10
58.1717461617
 20
-94.9298336682
 10
58.3160912272
 20
-94.8577360229
 10
58.4558274786
 20
-94.7770683118
 10
58.5904460673
 20
-94.6881243378
 10
58.7199287323
 20
-94.5908736537
 10
58.8442937345
 20
-94.4853467067
 10
58.9630870075
 20
-94.3719286412
 10
59.0762881077
 20
-94.2505906249
 10
59.1839174785
 20
-94.12136149
 10
59.285582384
 20
-93.9847128775
 10
59.3812610293
 20
-93.8406175476
 10
59.4709752093
 20
-93.68910274
 10
59.5543975715
 20
-93.5307218156
 10
59.6315049015
 20
-93.3654505274
 10
59.7023204138
 20
-93.1933131223
 10
59.7665863997
 20
-93.0149357019
 10
59.8242793117
 20
-92.8302937799
 10
59.8754226974
 20
-92.6394118425
 10
59.9198294904
 20
-92.4429894509
 10
59.9574747959
 20
-92.24100154
 10
59.9883835087
 20
-92.0334731748
 10
60.0124432467
 20
-91.8211791107
 10
60.029616549
 20
-91.6043775995
 10
60.0399408765
 20
-91.3828103894
 10
60.0434162291
 20
-91.1564774805
  0
LINE
  5
22D
100
AcDbEntity
  8
RACCORDO
100
AcDbLine
 62
7
  6
CONTINUOUS
 10
-57.629250987
 20
-30.4218563314
 11
54.8007272217
 21
-95.3375166705
  0
LINE
  5
22E
100
AcDbEntity
  8
RACCORDO
100
AcDbLine
 62
250
  6
CONTINUOUS
 10
-58.0434162291
 20
-29.5063826091
 11
54.3865619796
 21
-94.4220429482
  0
LWPOLYLINE
  5
22F
100
AcDbEntity
  8
0
100
AcDbPolyline
 62
7
  6
CONTINUOUS
 90
51
 70
0
 10
-53.0936687608
 20
74.5933014975
 10
-53.0912208127
 20
74.4749037768
 10
-53.0840234852
 20
74.3545522947
 10
-53.0720767784
 20
74.2322470513
 10
-53.0553321846
 20
74.1077025655
 10
-53.0338382115
 20
73.9812043183
 10
-53.0077403816
 20
73.8536087523
 10
-52.9770074546
 20
73.7249084215
 10
-52.9416706708
 20
73.5951107719
 10
-52.9019692741
 20
73.4650945845
 10
-52.8578736475
 20
73.3348583762
 10
-52.8094134081
 20
73.2044036301
 10
-52.7569166505
 20
73.0746135759
 10
-52.7003559842
 20
72.9454927238
 10
-52.6397587998
 20
72.8170365636
 10
-52.5755353639
 20
72.6901147938
 10
-52.5076610699
 20
72.5647378261
 10
-52.4361605245
 20
72.4408952488
 10
-52.3615178143
 20
72.3194255245
 10
-52.2837116176
 20
72.2003447548
 10
-52.202763256
 20
72.0836368381
 10
-52.1192207818
 20
71.9700919327
 10
-52.0330665921
 20
71.859731502
 10
-51.9443182897
 20
71.7525340825
 10
-51.8535767353
 20
71.6492254429
 10
-51.7608284034
 20
71.5498319712
 10
-51.6660868196
 20
71.4543272794
 10
-51.5699934215
 20
71.3633579715
 10
-51.472539036
 20
71.2769548233
 10
-51.3737328363
 20
71.1950870592
 10
-51.2742437788
 20
71.1183089558
 10
-51.1740672301
 20
71.0466550501
 10
-51.0732078236
 20
70.9800908052
 10
-50.9723484172
 20
70.9190668871
 10
-50.8714890108
 20
70.8636208908
 10
-50.7706296044
 20
70.8137152213
 10
-50.6704530556
 20
70.7696877594
 10
-50.5709639982
 20
70.7315783931
 10
-50.4721577984
 20
70.6993472344
 10
-50.3747034129
 20
70.673212501
 10
-50.2786100148
 20
70.6532155614
 10
-50.183868431
 20
70.6393150471
 10
-50.0911200991
 20
70.6316050699
 10
-50.0003785448
 20
70.6301276371
 10
-49.9116302423
 20
70.6348407415
 10
-49.8254760526
 20
70.6457124734
 10
-49.7419335784
 20
70.6627846237
 10
-49.6609852169
 20
70.6860154015
 10
-49.5831790201
 20
70.7152475255
 10
-49.5085363099
 20
70.750521719
 10
-49.4722905314
 20
70.7704686311
  0
LWPOLYLINE
  5
230
100
AcDbEntity
  8
0
100
AcDbPolyline
 62
7
  6
CONTINUOUS
 90
51
 70
0
 10
-48.8510280737
 20
72.1436539375
 10
-48.8534760218
 20
72.2620516582
 10
-48.8606733492
 20
72.3824031402
 10
-48.8726200561
 20
72.5047083837
 10
-48.8893646498
 20
72.6292528695
 10
-48.9108586229
 20
72.7557511167
 10
-48.9369564528
 20
72.8833466827
 10
-48.9676893798
 20
73.0120470135
 10
-49.0030261636
 20
73.1418446631
 10
-49.0427275603
 20
73.2718608505
 10
-49.0868231869
 20
73.4020970587
 10
-49.1352834264
 20
73.5325518048
 10
-49.1877801839
 20
73.6623418591
 10
-49.2443408502
 20
73.7914627111
 10
-49.3049380346
 20
73.9199188713
 10
-49.3691614705
 20
74.0468406412
 10
-49.4370357645
 20
74.1722176089
 10
-49.5085363099
 20
74.2960601862
 10
-49.5831790201
 20
74.4175299105
 10
-49.6609852169
 20
74.5366106802
 10
-49.7419335784
 20
74.6533185969
 10
-49.8254760526
 20
74.7668635023
 10
-49.9116302423
 20
74.877223933
 10
-50.0003785448
 20
74.9844213525
 10
-50.0911200991
 20
75.0877299921
 10
-50.183868431
 20
75.1871234638
 10
-50.2786100148
 20
75.2826281556
 10
-50.3747034129
 20
75.3735974635
 10
-50.4721577984
 20
75.4600006117
 10
-50.5709639982
 20
75.5418683758
 10
-50.6704530556
 20
75.6186464792
 10
-50.7706296044
 20
75.6903003849
 10
-50.8714890108
 20
75.7568646298
 10
-50.9723484172
 20
75.8178885479
 10
-51.0732078236
 20
75.8733345442
 10
-51.1740672301
 20
75.9232402137
 10
-51.2742437788
 20
75.9672676755
 10
-51.3737328363
 20
76.0053770419
 10
-51.472539036
 20
76.0376082005
 10
-51.5699934215
 20
76.0637429339
 10
-51.6660868196
 20
76.0837398735
 10
-51.7608284034
 20
76.0976403879
 10
-51.8535767353
 20
76.1053503651
 10
-51.9443182897
 20
76.1068277979
 10
-52.0330665921
 20
76.1021146935
 10
-52.1192207818
 20
76.0912429615
 10
-52.202763256
 20
76.0741708113
 10
-52.2837116176
 20
76.0509400335
 10
-52.3615178143
 20
76.0217079095
 10
-52.4361605245
 20
75.986433716
 10
-52.472406303
 20
75.9664868038
  0
LWPOLYLINE
  5
231
100
AcDbEntity
  8
0
100
AcDbPolyline
 62
7
  6
CONTINUOUS
 90
18
 70
0
 10
-53.0936687608
 20
-17.6678397801
 10
-53.0912208127
 20
-17.5522688886
 10
-53.0840234852
 20
-17.4402286998
 10
-53.0720767784
 20
-17.331719214
 10
-53.0553321846
 20
-17.2265109653
 10
-53.0338382115
 20
-17.1248334195
 10
-53.0077403816
 20
-17.0273749733
 10
-52.9770074546
 20
-16.9341642563
 10
-52.9416706708
 20
-16.8451726389
 10
-52.9019692741
 20
-16.7610026292
 10
-52.8578736475
 20
-16.6816869452
 10
-52.8094134081
 20
-16.607192869
 10
-52.7569166505
 20
-16.5380247545
 10
-52.7003559842
 20
-16.4742187421
 10
-52.6397587998
 20
-16.4157386916
 10
-52.5755353639
 20
-16.3629805356
 10
-52.5076610699
 20
-16.3159831013
 10
-52.472406303
 20
-16.2946544737
  0
LWPOLYLINE
  5
232
100
AcDbEntity
  8
0
100
AcDbPolyline
 62
7
  6
CONTINUOUS
 90
18
 70
0
 10
-48.8510280737
 20
-20.1174873401
 10
-48.8534760218
 20
-20.2330582316
 10
-48.8606733492
 20
-20.3450984204
 10
-48.8726200561
 20
-20.4536079062
 10
-48.8893646498
 20
-20.5588161549
 10
-48.9108586229
 20
-20.6604937007
 10
-48.9369564528
 20
-20.7579521469
 10
-48.9676893798
 20
-20.8511628639
 10
-49.0030261636
 20
-20.9401544813
 10
-49.0427275603
 20
-21.024324491
 10
-49.0868231869
 20
-21.103640175
 10
-49.1352834264
 20
-21.1781342512
 10
-49.1877801839
 20
-21.2473023657
 10
-49.2443408502
 20
-21.3111083781
 10
-49.3049380346
 20
-21.3695884286
 10
-49.3691614705
 20
-21.4223465846
 10
-49.4370357645
 20
-21.4693440189
 10
-49.4722905314
 20
-21.4906726465
  0
LINE
  5
233
100
AcDbEntity
  8
0
100
AcDbLine
 62
7
  6
CONTINUOUS
 10
-1.624119053
 20
-54.2792561688
 11
-1.6016226101
 21
-54.2748863895
  0
LINE
  5
234
100
AcDbEntity
  8
0
100
AcDbLine
 62
7
  6
CONTINUOUS
 10
-0.0811838831
 20
-55.7699879677
 11
-0.3592273087
 21
-55.6366277392
  0
LINE
  5
235
100
AcDbEntity
  8
0
100
AcDbLine
 62
7
  6
CONTINUOUS
 10
-0.0458285441
 20
-55.749574238
 11
-0.3238719696
 21
-55.6162140096
  0
LINE
  5
236
100
AcDbEntity
  8
0
100
AcDbLine
 62
7
  6
CONTINUOUS
 10
-1.7568002036
 20
-54.8025081046
 11
-2.0348436292
 21
-54.6691478762
  0
LINE
  5
237
100
AcDbEntity
  8
0
100
AcDbLine
 62
7
  6
CONTINUOUS
 10
-1.7214448646
 20
-54.7820943749
 11
-1.9994882901
 21
-54.6487341465
  0
LWPOLYLINE
  5
238
100
AcDbEntity
  8
0
100
AcDbPolyline
 62
7
  6
CONTINUOUS
 90
14
 70
0
 10
0.3336746022
 20
-56.7314521848
 10
0.3855287599
 20
-56.759366493
 10
0.4347735447
 20
-56.7831120306
 10
0.4814089565
 20
-56.8026887977
 10
0.5251580662
 20
-56.8178356102
 10
0.566297803
 20
-56.828813652
 10
0.6056589536
 20
-56.8364064754
 10
0.6433321625
 20
-56.8408102792
 10
0.6792267854
 20
-56.8418288645
 10
0.7139016754
 20
-56.8396571866
 10
0.7474250818
 20
-56.8344726308
 10
0.7797287554
 20
-56.8260978118
 10
0.8111668019
 20
-56.8141955291
 10
0.8442788281
 20
-56.7972554507
  0
LWPOLYLINE
  5
239
100
AcDbEntity
  8
0
100
AcDbPolyline
 62
7
  6
CONTINUOUS
 90
14
 70
0
 10
-1.3419417184
 20
-55.7639723217
 10
-1.2900876353
 20
-55.7918865903
 10
-1.2408429123
 20
-55.8156320957
 10
-1.1942075494
 20
-55.835208838
 10
-1.1504584734
 20
-55.8503556349
 10
-1.1093187574
 20
-55.8613336686
 10
-1.0699576214
 20
-55.868926486
 10
-1.0322844216
 20
-55.8733302848
 10
-0.9963898019
 20
-55.8743488673
 10
-0.9617149126
 20
-55.8721771868
 10
-0.9281915051
 20
-55.8669926279
 10
-0.8958878281
 20
-55.858617806
 10
-0.8644497787
 20
-55.8467155209
 10
-0.8313377559
 20
-55.8297754438
  0
LWPOLYLINE
  5
23A
100
AcDbEntity
  8
0
100
AcDbPolyline
 62
7
  6
CONTINUOUS
 90
13
 70
0
 10
0.4352310751
 20
-55.0556989481
 10
0.4008942251
 20
-55.0368923789
 10
0.3667854392
 20
-55.0202741214
 10
0.3329047172
 20
-55.0058441753
 10
0.2993491675
 20
-54.9936019182
 10
0.2660216817
 20
-54.9835479726
 10
0.2326309356
 20
-54.9756842067
 10
0.199177867
 20
-54.9699301535
 10
0.1656615381
 20
-54.96636628
 10
0.1317878107
 20
-54.9652358554
 10
0.0974586388
 20
-54.9666199693
 10
0.0627720686
 20
-54.970437532
 10
0.0277281
 20
-54.9766885435
  0
LWPOLYLINE
  5
23B
100
AcDbEntity
  8
0
100
AcDbPolyline
 62
7
  6
CONTINUOUS
 90
13
 70
0
 10
-1.2403855025
 20
-54.0882189366
 10
-1.274722133
 20
-54.0694124826
 10
-1.3088307376
 20
-54.0527943139
 10
-1.3427113164
 20
-54.0383644303
 10
-1.3762667586
 20
-54.0261222062
 10
-1.409594175
 20
-54.0160682672
 10
-1.4429848975
 20
-54.0082044911
 10
-1.4764379942
 20
-54.0024504102
 10
-1.5099543971
 20
-53.9988864922
 10
-1.5438282341
 20
-53.9977560174
 10
-1.5781575478
 20
-53.9991400791
 10
-1.6128442956
 20
-54.002957584
 10
-1.6478884776
 20
-54.009208532
  0
LWPOLYLINE
  5
23C
100
AcDbEntity
  8
RACCORDO
100
AcDbPolyline
 62
250
  6
CONTINUOUS
 90
31
 70
0
 10
60.0434162291
 20
-91.1564774805
 10
60.1193685787
 20
-91.1980933107
 10
60.1989890094
 20
-91.2373569703
 10
60.2820592869
 20
-91.2741608402
 10
60.3683517214
 20
-91.3084040437
 10
60.4576297914
 20
-91.3399927224
 10
60.549648792
 20
-91.3688402941
 10
60.6441565053
 20
-91.3948676895
 10
60.7408938924
 20
-91.4180035693
 10
60.8395958027
 20
-91.4381845198
 10
60.9399917012
 20
-91.4553552262
 10
61.0418064098
 20
-91.469468625
 10
61.1447608614
 20
-91.4804860323
 10
61.2485728649
 20
-91.48837725
 10
61.352957879
 20
-91.493120649
 10
61.4576297914
 20
-91.4947032279
 10
61.5623017039
 20
-91.493120649
 10
61.666686718
 20
-91.48837725
 10
61.7704987215
 20
-91.4804860323
 10
61.8734531731
 20
-91.469468625
 10
61.9752678817
 20
-91.4553552262
 10
62.0756637802
 20
-91.4381845198
 10
62.1743656905
 20
-91.4180035693
 10
62.2711030776
 20
-91.3948676895
 10
62.3656107909
 20
-91.3688402941
 10
62.4576297914
 20
-91.3399927224
 10
62.5469078615
 20
-91.3084040437
 10
62.633200296
 20
-91.2741608402
 10
62.7162705735
 20
-91.2373569703
 10
62.7958910042
 20
-91.1980933107
 10
62.8718433538
 20
-91.1564774805
  0
LWPOLYLINE
  5
23D
100
AcDbEntity
  8
0
100
AcDbPolyline
 62
7
  6
CONTINUOUS
 90
16
 70
0
 10
-3.0984701931
 20
-53.6949074278
 10
-3.0220813005
 20
-53.7367975541
 10
-2.9516866175
 20
-53.7728549405
 10
-2.8872861441
 20
-53.803079587
 10
-2.8293405911
 20
-53.8269226022
 10
-2.7773892478
 20
-53.8449328775
 10
-2.7300499815
 20
-53.8587570872
 10
-2.6872563996
 20
-53.8685270572
 10
-2.6490748948
 20
-53.8741109616
 10
-2.6143225128
 20
-53.8767599967
 10
-2.5829446439
 20
-53.8766374866
 10
-2.5549958978
 20
-53.8735801071
 10
-2.5294571489
 20
-53.8683490827
 10
-2.5059886886
 20
-53.8611981547
 10
-2.4849302255
 20
-53.8518735817
 10
-2.4771391977
 20
-53.8475097764
  0
LWPOLYLINE
  5
23E
100
AcDbEntity
  8
0
100
AcDbPolyline
 62
7
  6
CONTINUOUS
 90
13
 70
0
 10
0.3998757361
 20
-55.0761126778
 10
0.3659170493
 20
-55.0574929338
 10
0.3321523845
 20
-55.0410109468
 10
0.2985817416
 20
-55.0266667168
 10
0.2653231889
 20
-55.0144543524
 10
0.2322586582
 20
-55.004379745
 10
0.1990339446
 20
-54.9964605687
 10
0.1656510041
 20
-54.9905968869
 10
0.1321078808
 20
-54.9868886362
 10
0.0980445021
 20
-54.9856533011
 10
0.0633408438
 20
-54.9869967096
 10
0.0281169301
 20
-54.9908130336
 10
-0.0076272391
 20
-54.9971022732
  0
LWPOLYLINE
  5
23F
100
AcDbEntity
  8
0
100
AcDbPolyline
 62
7
  6
CONTINUOUS
 90
13
 70
0
 10
-1.2757408415
 20
-54.1086326663
 10
-1.3096992872
 20
-54.090013047
 10
-1.3434637547
 20
-54.0735311552
 10
-1.3770342439
 20
-54.0591869911
 10
-1.4102926869
 20
-54.0469746589
 10
-1.4433571516
 20
-54.0369000542
 10
-1.476581842
 20
-54.0289808639
 10
-1.5099648004
 20
-54.0231171515
 10
-1.5435079843
 20
-54.0194088534
 10
-1.5775714703
 20
-54.0181734658
 10
-1.6122752837
 20
-54.0195168207
 10
-1.6474993992
 20
-54.023333086
 10
-1.6832438167
 20
-54.0296222617
  0
LINE
  5
240
100
AcDbEntity
  8
0
100
AcDbLine
 62
7
  6
CONTINUOUS
 10
-6.0710678119
 20
-57.4733895267
 11
2.4142135624
 21
-62.3726846466
  0
LINE
  5
241
100
AcDbEntity
  8
0
100
AcDbLine
 62
7
  6
CONTINUOUS
 10
-6.0357124728
 20
-57.452975797
 11
2.4142135624
 21
-62.3318571873
  0
LINE
  5
242
100
AcDbEntity
  8
0
100
AcDbLine
 62
7
  6
CONTINUOUS
 10
-4.7255392789
 20
-53.7678590186
 11
-4.4401401826
 21
-53.9326448799
  0
LINE
  5
243
100
AcDbEntity
  8
0
100
AcDbLine
 62
7
  6
CONTINUOUS
 10
-3.9370139687
 20
-54.2231436502
 11
-3.6516148401
 21
-54.3879295301
  0
LINE
  5
244
100
AcDbEntity
  8
0
100
AcDbLine
 62
7
  6
CONTINUOUS
 10
-3.6516148401
 20
-53.3755286411
 11
-3.0984701931
 21
-53.6949074278
  0
LINE
  5
245
100
AcDbEntity
  8
0
100
AcDbLine
 62
7
  6
CONTINUOUS
 10
-3.0940567585
 20
-53.4035876262
 11
-3.6516148401
 21
-53.0816605776
  0
LINE
  5
246
100
AcDbEntity
  8
0
100
AcDbLine
 62
7
  6
CONTINUOUS
 10
-3.0587014194
 20
-53.3831738965
 11
-3.6162595011
 21
-53.061246848
  0
LINE
  5
247
100
AcDbEntity
  8
0
100
AcDbLine
 62
7
  6
CONTINUOUS
 10
-1.5670244425
 20
-53.4274541367
 11
-0.7064138151
 21
-53.9243599269
  0
LINE
  5
248
100
AcDbEntity
  8
0
100
AcDbLine
 62
7
  6
CONTINUOUS
 10
0.1085918781
 20
-54.3949339998
 11
0.9692025054
 21
-54.89183979
  0
LINE
  5
249
100
AcDbEntity
  8
0
100
AcDbLine
 62
7
  6
CONTINUOUS
 10
-3.6516148401
 20
-52.1915632494
 11
-3.0999412951
 21
-52.5100926401
  0
LINE
  5
24A
100
AcDbEntity
  8
0
100
AcDbLine
 62
7
  6
CONTINUOUS
 10
0.9692025054
 20
-54.5996703541
 11
-0.1032509278
 21
-53.9804491828
  0
LINE
  5
24B
100
AcDbEntity
  8
0
100
AcDbLine
 62
7
  6
CONTINUOUS
 10
-0.7064138151
 20
-53.6321904911
 11
-1.7788672483
 21
-53.0129693197
  0
LINE
  5
24C
100
AcDbEntity
  8
0
100
AcDbLine
 62
7
  6
CONTINUOUS
 10
-3.1234794418
 20
-52.2026339458
 11
-3.9370139687
 21
-51.732909306
  0
LINE
  5
24D
100
AcDbEntity
  8
0
100
AcDbLine
 62
7
  6
CONTINUOUS
 10
-4.4401401826
 20
-51.4424105357
 11
-4.7255392789
 21
-51.2776246744
  0
LINE
  5
24E
100
AcDbEntity
  8
0
100
AcDbLine
 62
7
  6
CONTINUOUS
 10
1.0045578445
 20
-54.5792566245
 11
-0.0678955887
 21
-53.9600354531
  0
LINE
  5
24F
100
AcDbEntity
  8
0
100
AcDbLine
 62
7
  6
CONTINUOUS
 10
-0.671058476
 20
-53.6117767614
 11
-1.7435119092
 21
-52.9925555901
  0
LINE
  5
250
100
AcDbEntity
  8
0
100
AcDbLine
 62
7
  6
CONTINUOUS
 10
-4.4047848435
 20
-51.4219968061
 11
-4.6901839399
 21
-51.2572109447
  0
LINE
  5
251
100
AcDbEntity
  8
0
100
AcDbLine
 62
7
  6
CONTINUOUS
 10
2.4142135624
 20
-54.2079818787
 11
-6.0710678119
 21
-49.3086867588
  0
LWPOLYLINE
  5
252
100
AcDbEntity
  8
0
100
AcDbPolyline
 62
7
  6
CONTINUOUS
 90
10
 70
0
 10
-3.0999412951
 20
-52.5100926401
 10
-3.0540811369
 20
-52.5370901417
 10
-3.0125196407
 20
-52.5621696995
 10
-2.9752568064
 20
-52.5853313137
 10
-2.9425891328
 20
-52.6064669598
 10
-2.9142201211
 20
-52.6256846623
 10
-2.8892602753
 20
-52.6433084941
 10
-2.8674130968
 20
-52.6594464796
 10
-2.8489750841
 20
-52.6739905946
 10
-2.8339462374
 20
-52.6869408389
  0
LWPOLYLINE
  5
253
100
AcDbEntity
  8
RACCORDO
100
AcDbPolyline
 62
250
  6
CONTINUOUS
 90
16
 70
0
 10
-63.7002704786
 20
-19.7084236481
 10
-63.772346567
 20
-19.6645697134
 10
-63.8403488389
 20
-19.6185978748
 10
-63.9040909046
 20
-19.5706341377
 10
-63.9633980517
 20
-19.5208099676
 10
-64.0181077233
 20
-19.469261929
 10
-64.0680699641
 20
-19.4161313115
 10
-64.113147831
 20
-19.3615637423
 10
-64.1532177687
 20
-19.3057087875
 10
-64.1881699484
 20
-19.2487195415
 10
-64.2179085684
 20
-19.190752208
 10
-64.2423521174
 20
-19.1319656712
 10
-64.2614335972
 20
-19.0725210611
 10
-64.2751007069
 20
-19.0125813112
 10
-64.2833159857
 20
-18.9523107121
 10
-64.2860569162
 20
-18.8918744615
  0
LWPOLYLINE
  5
254
100
AcDbEntity
  8
0
100
AcDbPolyline
 62
7
  6
CONTINUOUS
 90
13
 70
0
 10
-1.3065863793
 20
-55.4921570437
 10
-1.3344281694
 20
-55.4750174956
 10
-1.3612046912
 20
-55.4568660572
 10
-1.3869159446
 20
-55.4377027284
 10
-1.4114937095
 20
-55.4175160301
 10
-1.435006206
 20
-55.3963174415
 10
-1.4576580947
 20
-55.3741414006
 10
-1.4794124351
 20
-55.3511038018
 10
-1.5003061677
 20
-55.3270887507
 10
-1.520654775
 20
-55.3017830011
 10
-1.5405634177
 20
-55.2750821376
 10
-1.5599269351
 20
-55.2470905756
 10
-1.5787453271
 20
-55.2178083152
  0
LWPOLYLINE
  5
255
100
AcDbEntity
  8
0
100
AcDbPolyline
 62
7
  6
CONTINUOUS
 90
13
 70
0
 10
0.3690299412
 20
-56.4596369068
 10
0.34118813
 20
-56.442497344
 10
0.3144115924
 20
-56.4243458925
 10
0.2887003282
 20
-56.4051825524
 10
0.2641225582
 20
-56.3849958442
 10
0.2406100617
 20
-56.3637972474
 10
0.217958177
 20
-56.3416212005
 10
0.1962038447
 20
-56.3185835983
 10
0.1753101242
 20
-56.2945685461
 10
0.1549615329
 20
-56.2692627985
 10
0.1350529098
 20
-56.2425619403
 10
0.1156894159
 20
-56.2145703867
 10
0.0968710511
 20
-56.1852881377
  0
LWPOLYLINE
  5
256
100
AcDbEntity
  8
0
100
AcDbPolyline
 62
7
  6
CONTINUOUS
 90
13
 70
0
 10
-1.3419417184
 20
-55.5125707734
 10
-1.3697449573
 20
-55.4954347981
 10
-1.3964292689
 20
-55.4773558397
 10
-1.4219946532
 20
-55.458333898
 10
-1.4463173124
 20
-55.438413468
 10
-1.4695210444
 20
-55.4175500547
 10
-1.491977242
 20
-55.3956101737
 10
-1.5137229746
 20
-55.3726558502
 10
-1.5347211729
 20
-55.348625059
 10
-1.5552320226
 20
-55.323198239
 10
-1.5753422524
 20
-55.2962688697
 10
-1.5949651335
 20
-55.2679434717
 10
-1.6141006661
 20
-55.2382220448
  0
LWPOLYLINE
  5
257
100
AcDbEntity
  8
0
100
AcDbPolyline
 62
7
  6
CONTINUOUS
 90
13
 70
0
 10
0.3336746022
 20
-56.4800506365
 10
0.3058713429
 20
-56.4629146471
 10
0.279187016
 20
-56.4448356761
 10
0.2536216214
 20
-56.4258137234
 10
0.2292989571
 20
-56.4058932838
 10
0.2060952251
 20
-56.3850298626
 10
0.1836390314
 20
-56.3630899758
 10
0.1618933067
 20
-56.340135649
 10
0.1408951203
 20
-56.3161048567
 10
0.1203842863
 20
-56.2906780384
 10
0.1002740759
 20
-56.263748674
 10
0.0806512178
 20
-56.2354232837
 10
0.061515712
 20
-56.2057018674
  0
LWPOLYLINE
  5
258
100
AcDbEntity
  8
0
100
AcDbPolyline
 62
7
  6
CONTINUOUS
 90
13
 70
0
 10
-1.3463550245
 20
-54.3379477541
 10
-1.3095082295
 20
-54.3608297004
 10
-1.2746881878
 20
-54.3845969973
 10
-1.2418948992
 20
-54.4092496447
 10
-1.211369946
 20
-54.4347145125
 10
-1.1828717459
 20
-54.4610647308
 10
-1.1556755528
 20
-54.4885196902
 10
-1.1296932237
 20
-54.5169892661
 10
-1.1050129015
 20
-54.546563583
 10
-1.0811742683
 20
-54.5777324051
 10
-1.0580238847
 20
-54.6106589871
 10
-1.03571519
 20
-54.6451800742
 10
-1.0142481844
 20
-54.6812956665
  0
LWPOLYLINE
  5
259
100
AcDbEntity
  8
0
100
AcDbPolyline
 62
7
  6
CONTINUOUS
 90
13
 70
0
 10
0.3292612961
 20
-55.3054276171
 10
0.366108091
 20
-55.3283095635
 10
0.4009281328
 20
-55.3520768603
 10
0.4337214213
 20
-55.3767295077
 10
0.4642463746
 20
-55.4021943755
 10
0.4927445746
 20
-55.4285445939
 10
0.5199407677
 20
-55.4559995533
 10
0.5459230968
 20
-55.4844691292
 10
0.570603419
 20
-55.5140434461
 10
0.5944420523
 20
-55.5452122682
 10
0.6175924358
 20
-55.5781388502
 10
0.6399011305
 20
-55.6126599373
 10
0.6613681362
 20
-55.6487755296
  0
LWPOLYLINE
  5
25A
100
AcDbEntity
  8
0
100
AcDbPolyline
 62
7
  6
CONTINUOUS
 90
20
 70
0
 10
-49.1189298155
 20
-18.7726133195
 10
-49.1502935773
 20
-18.7448006074
 10
-49.214716593
 20
-18.6829544332
 10
-49.2777893705
 20
-18.6176043588
 10
-49.3392984917
 20
-18.548971508
 10
-49.3990358291
 20
-18.4772881128
 10
-49.4567992504
 20
-18.4027967271
 10
-49.5123933025
 20
-18.3257494061
 10
-49.5656298728
 20
-18.2464068536
 10
-49.6163288254
 20
-18.1650375396
 10
-49.6643186114
 20
-18.0819167923
 10
-49.7094368483
 20
-17.9973258657
 10
-49.7515308704
 20
-17.911550989
 10
-49.7904582447
 20
-17.8248823971
 10
-49.8260872535
 20
-17.7376133491
 10
-49.8582973394
 20
-17.6500391358
 10
-49.8869795136
 20
-17.5624560806
 10
-49.9120367248
 20
-17.475160537
 10
-49.9333841874
 20
-17.3884478853
 10
-49.9417583828
 20
-17.3475261256
  0
LWPOLYLINE
  5
25B
100
AcDbEntity
  8
0
100
AcDbPolyline
 62
7
  6
CONTINUOUS
 90
9
 70
0
 10
-51.7450186982
 20
-16.1658204945
 10
-51.7636559624
 20
-16.2098910404
 10
-51.7973429219
 20
-16.3062119389
 10
-51.825990251
 20
-16.4072376042
 10
-51.8495267279
 20
-16.5127168707
 10
-51.8678938372
 20
-16.6223875001
 10
-51.8810459154
 20
-16.7359768342
 10
-51.8889502644
 20
-16.8532024717
 10
-51.8915872328
 20
-16.9737729715
  0
LINE
  5
25C
100
AcDbEntity
  8
0
100
AcDbLine
 62
7
  6
CONTINUOUS
 10
-1.9877675929
 20
-54.1714432705
 11
-1.7391467222
 21
-54.3523643201
  0
LINE
  5
25D
100
AcDbEntity
  8
0
100
AcDbLine
 62
7
  6
CONTINUOUS
 10
-0.3121510153
 20
-55.138923282
 11
-0.0635301446
 21
-55.3198443316
  0
LWPOLYLINE
  5
25E
100
AcDbEntity
  8
0
100
AcDbPolyline
 62
7
  6
CONTINUOUS
 90
10
 70
0
 10
-2.7600148043
 20
-52.3951281481
 10
-2.7927715567
 20
-52.3707392231
 10
-2.8264207458
 20
-52.346607318
 10
-2.8609623715
 20
-52.3227324329
 10
-2.8963530708
 20
-52.2992130983
 10
-2.9326362068
 20
-52.2759507836
 10
-2.9699418691
 20
-52.2526498972
 10
-3.0083134207
 20
-52.2292119085
 10
-3.0477074986
 20
-52.2057353482
 10
-3.9016586296
 20
-51.7124955763
  0
LWPOLYLINE
  5
25F
100
AcDbEntity
  8
0
100
AcDbPolyline
 62
7
  6
CONTINUOUS
 90
10
 70
0
 10
-2.7953701434
 20
-52.4155418778
 10
-2.8195365214
 20
-52.3971405049
 10
-2.8466315047
 20
-52.3774711122
 10
-2.8766550932
 20
-52.3565336996
 10
-2.9094153573
 20
-52.334389262
 10
-2.9451042267
 20
-52.3109768044
 10
-2.9842974909
 20
-52.2861133425
 10
-3.0271870797
 20
-52.2597378813
 10
-3.0735810634
 20
-52.2319114158
 10
-3.1234794418
 20
-52.2026339458
  0
LWPOLYLINE
  5
260
100
AcDbEntity
  8
0
100
AcDbPolyline
 62
7
  6
CONTINUOUS
 90
10
 70
0
 10
-2.8339462374
 20
-52.6869408389
 10
-2.8098973272
 20
-52.7093807695
 10
-2.7869459795
 20
-52.7330239654
 10
-2.7650921942
 20
-52.7578704267
 10
-2.7444407544
 20
-52.7837308035
 10
-2.7248868771
 20
-52.8107944456
 10
-2.7061162132
 20
-52.8396294028
 10
-2.6880239797
 20
-52.8704250252
 10
-2.6707149597
 20
-52.9029919628
 10
-2.654189153
 20
-52.9373302156
  0
LWPOLYLINE
  5
261
100
AcDbEntity
  8
0
100
AcDbPolyline
 62
7
  6
CONTINUOUS
 90
10
 70
0
 10
-2.4940293368
 20
-52.66663168
 10
-2.5171037112
 20
-52.6355303705
 10
-2.5417746891
 20
-52.604630412
 10
-2.5680422707
 20
-52.5739318045
 10
-2.5958754051
 20
-52.5433915993
 10
-2.6253051431
 20
-52.513052745
 10
-2.6564246368
 20
-52.4830440881
 10
-2.689264937
 20
-52.4534085774
 10
-2.7237949928
 20
-52.4241032641
 10
-2.7600148043
 20
-52.3951281481
  0
LWPOLYLINE
  5
262
100
AcDbEntity
  8
0
100
AcDbPolyline
 62
7
  6
CONTINUOUS
 90
10
 70
0
 10
-2.5293846758
 20
-52.6870454097
 10
-2.5513419037
 20
-52.6573222791
 10
-2.5750281996
 20
-52.6275443745
 10
-2.6004435637
 20
-52.597711696
 10
-2.6273611822
 20
-52.5678991878
 10
-2.6560078688
 20
-52.5380319057
 10
-2.6870640642
 20
-52.5078850169
 10
-2.7207565818
 20
-52.4773835772
 10
-2.7568586082
 20
-52.4466025308
 10
-2.7953701434
 20
-52.4155418778
  0
LWPOLYLINE
  5
263
100
AcDbEntity
  8
0
100
AcDbPolyline
 62
7
  6
CONTINUOUS
 90
13
 70
0
 10
-1.8233669133
 20
-55.2962283123
 10
-1.7938424275
 20
-55.3417497555
 10
-1.7628261435
 20
-55.3858682592
 10
-1.7303180614
 20
-55.4285838234
 10
-1.6965513607
 20
-55.4697448428
 10
-1.6612928619
 20
-55.5095029228
 10
-1.6238430263
 20
-55.5483128792
 10
-1.5843310871
 20
-55.5862596261
 10
-1.5426278111
 20
-55.6232582494
 10
-1.49764596
 20
-55.6595088232
 10
-1.4490231212
 20
-55.6950780389
 10
-1.3971217073
 20
-55.729899205
 10
-1.3419417184
 20
-55.7639723217
  0
LWPOLYLINE
  5
264
100
AcDbEntity
  8
0
100
AcDbPolyline
 62
7
  6
CONTINUOUS
 90
13
 70
0
 10
-0.1477504493
 20
-56.2637084052
 10
-0.1182260108
 20
-56.3092297772
 10
-0.0872097659
 20
-56.3533482225
 10
-0.0547017147
 20
-56.3960637414
 10
-0.0209350357
 20
-56.4372247304
 10
0.0143234497
 20
-56.4769827929
 10
0.0517732774
 20
-56.5157927383
 10
0.0912852152
 20
-56.5537394803
 10
0.1329884953
 20
-56.5907381052
 10
0.1779703507
 20
-56.6269886813
 10
0.2265931925
 20
-56.6625578979
 10
0.2784946097
 20
-56.6973790658
 10
0.3336746022
 20
-56.7314521848
  0
LWPOLYLINE
  5
265
100
AcDbEntity
  8
0
100
AcDbPolyline
 62
7
  6
CONTINUOUS
 90
40
 70
0
 10
-48.9973423388
 20
-20.9258404236
 10
-49.0946546789
 20
-20.9105502824
 10
-49.1957274943
 20
-20.8881908535
 10
-49.2982287051
 20
-20.8591446698
 10
-49.4019034773
 20
-20.8234839449
 10
-49.5064940589
 20
-20.7812973368
 10
-49.6117404214
 20
-20.7326897281
 10
-49.7173809056
 20
-20.6777819649
 10
-49.8231528728
 20
-20.6167105568
 10
-49.928793357
 20
-20.5496273366
 10
-50.0340397195
 20
-20.4766990841
 10
-50.1386303011
 20
-20.3981071102
 10
-50.2423050733
 20
-20.3140468069
 10
-50.3448062841
 20
-20.2247271615
 10
-50.4458790995
 20
-20.1303702367
 10
-50.5452722365
 20
-20.0312106186
 10
-50.6427385881
 20
-19.9274948337
 10
-50.7380358376
 20
-19.8194807358
 10
-50.830927061
 20
-19.7074368649
 10
-50.9211813161
 20
-19.5916417797
 10
-51.0085742165
 20
-19.4723833651
 10
-51.0928884899
 20
-19.3499581162
 10
-51.1739145175
 20
-19.2246704016
 10
-51.251450856
 20
-19.0968317063
 10
-51.3253047378
 20
-18.9667598573
 10
-51.3952925505
 20
-18.8347782338
 10
-51.4612402933
 20
-18.7012149629
 10
-51.5229840098
 20
-18.5664021039
 10
-51.5803701954
 20
-18.4306748229
 10
-51.6332561789
 20
-18.2943705592
 10
-51.6815104776
 20
-18.1578281867
 10
-51.7250131235
 20
-18.0213871713
 10
-51.7636559624
 20
-17.8853867269
 10
-51.7973429219
 20
-17.7501649719
 10
-51.825990251
 20
-17.616058089
 10
-51.8495267279
 20
-17.483399489
 10
-51.8678938372
 20
-17.3525189821
 10
-51.8810459154
 20
-17.2237419578
 10
-51.8889502644
 20
-17.0973885761
 10
-51.8915872328
 20
-16.9737729715
  0
LWPOLYLINE
  5
266
100
AcDbEntity
  8
0
100
AcDbPolyline
 62
7
  6
CONTINUOUS
 90
13
 70
0
 10
-1.6141006661
 20
-55.2382220448
 10
-1.6297411714
 20
-55.2120944807
 10
-1.6447678599
 20
-55.1844675793
 10
-1.6591807317
 20
-55.1553413409
 10
-1.6730023925
 20
-55.1249337017
 10
-1.6862102367
 20
-55.0930267255
 10
-1.6987364465
 20
-55.0589666027
 10
-1.7106563254
 20
-55.0227418441
 10
-1.72189457
 20
-54.9843639389
 10
-1.7321574529
 20
-54.9432135465
 10
-1.7413470649
 20
-54.8990842198
 10
-1.7495613151
 20
-54.8521824058
 10
-1.7568002036
 20
-54.8025081046
  0
LWPOLYLINE
  5
267
100
AcDbEntity
  8
0
100
AcDbPolyline
 62
7
  6
CONTINUOUS
 90
13
 70
0
 10
0.061515712
 20
-56.2057018674
 10
0.045875219
 20
-56.1795742963
 10
0.0308485378
 20
-56.1519473862
 10
0.0164356684
 20
-56.1228211372
 10
0.0026140037
 20
-56.0924134821
 10
-0.0105938491
 20
-56.060506488
 10
-0.0231200689
 20
-56.026446356
 10
-0.0350399585
 20
-55.9902216012
 10
-0.046278215
 20
-55.9518437083
 10
-0.0565411087
 20
-55.910693333
 10
-0.0657307296
 20
-55.8665640271
 10
-0.0739449878
 20
-55.8196622386
 10
-0.0811838831
 20
-55.7699879677
  0
LWPOLYLINE
  5
268
100
AcDbEntity
  8
0
100
AcDbPolyline
 62
7
  6
CONTINUOUS
 90
16
 70
0
 10
-0.7994622619
 20
-54.6099743886
 10
-0.8268027044
 20
-54.5642025923
 10
-0.8545343344
 20
-54.5205418406
 10
-0.8826571519
 20
-54.4789921333
 10
-0.9110930859
 20
-54.4397201498
 10
-0.9399202074
 20
-54.4025592107
 10
-0.9693727296
 20
-54.3670092784
 10
-0.9994223682
 20
-54.3330057079
 10
-1.0300974075
 20
-54.3006131441
 10
-1.061716913
 20
-54.2695254847
 10
-1.0942452039
 20
-54.2396835713
 10
-1.1277179611
 20
-54.2111465623
 10
-1.1625612927
 20
-54.1837858301
 10
-1.1989172346
 20
-54.1575584987
 10
-1.2366437509
 20
-54.1325074441
 10
-1.2757408415
 20
-54.1086326663
  0
LWPOLYLINE
  5
269
100
AcDbEntity
  8
0
100
AcDbPolyline
 62
7
  6
CONTINUOUS
 90
16
 70
0
 10
0.8761541224
 20
-55.5774545113
 10
0.8488136655
 20
-55.5316826627
 10
0.8210820236
 20
-55.4880218654
 10
0.7929591968
 20
-55.4464721194
 10
0.7645232555
 20
-55.4072001042
 10
0.7356961293
 20
-55.3700391402
 10
0.7062436063
 20
-55.3344891893
 10
0.6761939706
 20
-55.3004856063
 10
0.6455189382
 20
-55.2680930362
 10
0.6138994451
 20
-55.2370053764
 10
0.5813711719
 20
-55.2071634684
 10
0.5478984382
 20
-55.1786264707
 10
0.5130551382
 20
-55.1512657555
 10
0.476699237
 20
-55.125038447
 10
0.4389727696
 20
-55.0999874211
 10
0.3998757361
 20
-55.0761126778
  0
LWPOLYLINE
  5
26A
100
AcDbEntity
  8
0
100
AcDbPolyline
 62
7
  6
CONTINUOUS
 90
16
 70
0
 10
-0.7641069228
 20
-54.5895606589
 10
-0.7913876125
 20
-54.5438198154
 10
-0.8192094278
 20
-54.5000306695
 10
-0.8475723685
 20
-54.4581932211
 10
-0.8764820846
 20
-54.418363247
 10
-0.9059329263
 20
-54.3804849705
 10
-0.9359079438
 20
-54.344391061
 10
-0.96630687
 20
-54.3101428727
 10
-0.9972299722
 20
-54.2776790515
 10
-1.0289611018
 20
-54.2466482048
 10
-1.0614651966
 20
-54.2169937154
 10
-1.0947773189
 20
-54.1887722004
 10
-1.1292865068
 20
-54.1618021191
 10
-1.1651224397
 20
-54.1360229579
 10
-1.2021554383
 20
-54.1114952304
 10
-1.2403855025
 20
-54.0882189366
  0
LWPOLYLINE
  5
26B
100
AcDbEntity
  8
0
100
AcDbPolyline
 62
7
  6
CONTINUOUS
 90
16
 70
0
 10
0.9115094614
 20
-55.5570407816
 10
0.8842287645
 20
-55.5112998964
 10
0.8564069427
 20
-55.4675107124
 10
0.8280439959
 20
-55.4256732294
 10
0.7991342733
 20
-55.3858432234
 10
0.7696834257
 20
-55.3479649185
 10
0.7397084062
 20
-55.3118709873
 10
0.7093094825
 20
-55.2776227849
 10
0.6783863869
 20
-55.2451589561
 10
0.646655269
 20
-55.2141281076
 10
0.6141511907
 20
-55.1844736218
 10
0.5808390903
 20
-55.1562521163
 10
0.546329932
 20
-55.1292820502
 10
0.5104940375
 20
-55.10350291
 10
0.4734610852
 20
-55.0789752093
 10
0.4352310751
 20
-55.0556989481
  0
LWPOLYLINE
  5
26C
100
AcDbEntity
  8
0
100
AcDbPolyline
 62
7
  6
CONTINUOUS
 90
13
 70
0
 10
-1.5787453271
 20
-55.2178083152
 10
-1.5957137776
 20
-55.1892488064
 10
-1.6118280659
 20
-55.1593139598
 10
-1.627088192
 20
-55.1280037756
 10
-1.6415307414
 20
-55.0953678258
 10
-1.6551191286
 20
-55.0613565382
 10
-1.6677435972
 20
-55.0258211966
 10
-1.6794262189
 20
-54.9886460142
 10
-1.690144922
 20
-54.9499467778
 10
-1.6997237353
 20
-54.9099221313
 10
-1.7081040016
 20
-54.8686382893
 10
-1.715344378
 20
-54.8260290372
 10
-1.7214448646
 20
-54.7820943749
  0
LWPOLYLINE
  5
26D
100
AcDbEntity
  8
0
100
AcDbPolyline
 62
7
  6
CONTINUOUS
 90
13
 70
0
 10
0.0968710511
 20
-56.1852881377
 10
0.0799026162
 20
-56.1567286251
 10
0.0637883385
 20
-56.1267937762
 10
0.048528218
 20
-56.0954835908
 10
0.0340856687
 20
-56.0628476411
 10
0.0204972766
 20
-56.028836355
 10
0.0078727994
 20
-55.9933010164
 10
-0.0038098358
 20
-55.9561258391
 10
-0.0145285561
 20
-55.9174266093
 10
-0.0241073848
 20
-55.87740197
 10
-0.0324876629
 20
-55.8361181355
 10
-0.0397280493
 20
-55.7935088915
 10
-0.0458285441
 20
-55.749574238
  0
LWPOLYLINE
  5
26E
100
AcDbEntity
  8
0
100
AcDbPolyline
 62
7
  6
CONTINUOUS
 90
13
 70
0
 10
-1.0142481844
 20
-54.6812956665
 10
-0.9951805714
 20
-54.7163612144
 10
-0.9776013069
 20
-54.7520244419
 10
-0.9615103907
 20
-54.788285349
 10
-0.946917394
 20
-54.8249131286
 10
-0.9338127457
 20
-54.8621385879
 10
-0.9221677322
 20
-54.9006541479
 10
-0.9118617064
 20
-54.9404112112
 10
-0.9030153155
 20
-54.9814583752
 10
-0.8959617871
 20
-55.024633853
 10
-0.8908121972
 20
-55.0702170491
 10
-0.8874554698
 20
-55.117928559
 10
-0.885891605
 20
-55.1677683828
  0
LWPOLYLINE
  5
26F
100
AcDbEntity
  8
0
100
AcDbPolyline
 62
7
  6
CONTINUOUS
 90
13
 70
0
 10
0.6613681362
 20
-55.6487755296
 10
0.6804357981
 20
-55.6838411688
 10
0.6980151065
 20
-55.7195044795
 10
0.7141060616
 20
-55.7557654618
 10
0.7286990923
 20
-55.7923933135
 10
0.7418037697
 20
-55.8296188367
 10
0.753448806
 20
-55.8681344379
 10
0.7637548467
 20
-55.9078915154
 10
0.7726012464
 20
-55.9489386709
 10
0.7796547813
 20
-55.9921141154
 10
0.7848043766
 20
-56.0376972526
 10
0.7881611071
 20
-56.085408679
 10
0.7897249726
 20
-56.1352483943
  0
LWPOLYLINE
  5
270
100
AcDbEntity
  8
0
100
AcDbPolyline
 62
7
  6
CONTINUOUS
 90
10
 70
0
 10
-2.654189153
 20
-52.9373302156
 10
-2.6401292064
 20
-52.970157305
 10
-2.6276489607
 20
-53.0031257916
 10
-2.6167484159
 20
-53.0362356754
 10
-2.607408046
 20
-53.0692618518
 10
-2.599647377
 20
-53.1024294253
 10
-2.5935249873
 20
-53.1364137097
 10
-2.589060403
 20
-53.1714398093
 10
-2.5862340979
 20
-53.2072826196
 10
-2.5850460722
 20
-53.2439421408
  0
LWPOLYLINE
  5
271
100
AcDbEntity
  8
0
100
AcDbPolyline
 62
7
  6
CONTINUOUS
 90
10
 70
0
 10
-2.3573135025
 20
-53.0256764978
 10
-2.3739115872
 20
-52.9803032843
 10
-2.3911214987
 20
-52.937027397
 10
-2.408943237
 20
-52.8958488358
 10
-2.4273522598
 20
-52.8569815232
 10
-2.4463731095
 20
-52.8202115368
 10
-2.4660794131
 20
-52.7848971089
 10
-2.4864957133
 20
-52.7508243172
 10
-2.5075974675
 20
-52.7182070841
 10
-2.5293846758
 20
-52.6870454097
  0
LWPOLYLINE
  5
272
100
AcDbEntity
  8
0
100
AcDbPolyline
 62
7
  6
CONTINUOUS
 90
10
 70
0
 10
-2.3219581634
 20
-53.0052627681
 10
-2.3383346292
 20
-52.9603734266
 10
-2.3554149466
 20
-52.9173820331
 10
-2.3731991156
 20
-52.8762885873
 10
-2.3917114205
 20
-52.837202465
 10
-2.410927577
 20
-52.8000142904
 10
-2.4307747322
 20
-52.7643959373
 10
-2.4512286017
 20
-52.7302380301
 10
-2.4723134699
 20
-52.6976499444
 10
-2.4940293368
 20
-52.66663168
  0
LINE
  5
273
100
AcDbEntity
  8
0
100
AcDbLine
 62
7
  6
CONTINUOUS
 10
-2.0348436292
 20
-54.6691478762
 11
-2.0283598111
 21
-54.72941073
  0
LINE
  5
274
100
AcDbEntity
  8
0
100
AcDbLine
 62
7
  6
CONTINUOUS
 10
-6.1780544821
 20
3.2734495091
 11
-6.8030499025
 21
1.1056141399
  0
LINE
  5
275
100
AcDbEntity
  8
0
100
AcDbLine
 62
7
  6
CONTINUOUS
 10
-8.0956071574
 20
4.4214478506
 11
-8.1309624965
 21
4.4010341209
  0
LINE
  5
276
100
AcDbEntity
  8
0
100
AcDbLine
 62
7
  6
CONTINUOUS
 10
-7.3741637862
 20
4.0048954898
 11
-7.4095191253
 21
3.9844817602
  0
LWPOLYLINE
  5
277
100
AcDbEntity
  8
0
100
AcDbPolyline
 62
7
  6
CONTINUOUS
 90
51
 70
0
 10
-52.472406303
 20
-16.2946544737
 10
-52.4361605245
 20
-16.2747075616
 10
-52.3615178143
 20
-16.2394333681
 10
-52.2837116176
 20
-16.2102012441
 10
-52.202763256
 20
-16.1869704663
 10
-52.1192207818
 20
-16.169898316
 10
-52.0330665921
 20
-16.1590265841
 10
-51.9443182897
 20
-16.1543134797
 10
-51.8535767353
 20
-16.1557909125
 10
-51.7608284034
 20
-16.1635008897
 10
-51.6660868196
 20
-16.177401404
 10
-51.5699934215
 20
-16.1973983436
 10
-51.472539036
 20
-16.223533077
 10
-51.3737328363
 20
-16.2557642357
 10
-51.2742437788
 20
-16.2938736021
 10
-51.1740672301
 20
-16.3379010639
 10
-51.0732078236
 20
-16.3878067334
 10
-50.9723484172
 20
-16.4432527297
 10
-50.8714890108
 20
-16.5042766478
 10
-50.7706296044
 20
-16.5708408927
 10
-50.6704530556
 20
-16.6424947984
 10
-50.5709639982
 20
-16.7192729018
 10
-50.4721577984
 20
-16.8011406659
 10
-50.3747034129
 20
-16.8875438141
 10
-50.2786100148
 20
-16.978513122
 10
-50.183868431
 20
-17.0740178138
 10
-50.0911200991
 20
-17.1734112855
 10
-50.0003785448
 20
-17.2767199251
 10
-49.9116302423
 20
-17.3839173446
 10
-49.8254760526
 20
-17.4942777753
 10
-49.7419335784
 20
-17.6078226807
 10
-49.6609852169
 20
-17.7245305974
 10
-49.5831790201
 20
-17.8436113671
 10
-49.5085363099
 20
-17.9650810914
 10
-49.4370357645
 20
-18.0889236687
 10
-49.3691614705
 20
-18.2143006364
 10
-49.3049380346
 20
-18.3412224062
 10
-49.2443408502
 20
-18.4696785665
 10
-49.1877801839
 20
-18.5987994185
 10
-49.1352834264
 20
-18.7285894728
 10
-49.0868231869
 20
-18.8590442189
 10
-49.0427275603
 20
-18.9892804271
 10
-49.0030261636
 20
-19.1192966145
 10
-48.9676893798
 20
-19.2490942641
 10
-48.9369564528
 20
-19.3777945949
 10
-48.9108586229
 20
-19.5053901609
 10
-48.8893646498
 20
-19.6318884081
 10
-48.8726200561
 20
-19.7564328939
 10
-48.8606733492
 20
-19.8787381374
 10
-48.8534760218
 20
-19.9990896194
 10
-48.8510280737
 20
-20.1174873401
  0
LINE
  5
278
100
AcDbEntity
  8
0
100
AcDbLine
 62
7
  6
CONTINUOUS
 10
-8.1309624965
 20
4.4010341209
 11
-7.1223354843
 21
0.1449967053
  0
LWPOLYLINE
  5
279
100
AcDbEntity
  8
0
100
AcDbPolyline
 62
7
  6
CONTINUOUS
 90
12
 70
0
 10
-2.0283598111
 20
-54.72941073
 10
-2.019828589
 20
-54.7877335501
 10
-2.0092499629
 20
-54.8441163365
 10
-1.9965782294
 20
-54.8982504613
 10
-1.9818590919
 20
-54.9504445524
 10
-1.9652296605
 20
-55.0016244939
 10
-1.9468187576
 20
-55.0518407826
 10
-1.9264975607
 20
-55.1010429216
 10
-1.9040167136
 20
-55.1500053047
 10
-1.8792930972
 20
-55.1989860632
 10
-1.8524098304
 20
-55.2477270657
 10
-1.8233669133
 20
-55.2962283123
  0
LWPOLYLINE
  5
27A
100
AcDbEntity
  8
0
100
AcDbPolyline
 62
7
  6
CONTINUOUS
 90
12
 70
0
 10
-0.3527433977
 20
-55.6968908599
 10
-0.3442120985
 20
-55.755213886
 10
-0.3336334109
 20
-55.8115968175
 10
-0.320961632
 20
-55.8657310157
 10
-0.3062424649
 20
-55.9179251193
 10
-0.2896130187
 20
-55.9691050442
 10
-0.2712021171
 20
-56.019321291
 10
-0.2508809366
 20
-56.0685233591
 10
-0.2284001157
 20
-56.1174856631
 10
-0.2036765339
 20
-56.1664663412
 10
-0.1767933118
 20
-56.2152072553
 10
-0.1477504493
 20
-56.2637084052
  0
LINE
  5
27B
100
AcDbEntity
  8
0
100
AcDbLine
 62
7
  6
CONTINUOUS
 10
-0.3592273087
 20
-55.6366277392
 11
-0.3527433977
 21
-55.6968908599
  0
LINE
  5
27C
100
AcDbEntity
  8
0
100
AcDbLine
 62
7
  6
CONTINUOUS
 10
-1.0196009118
 20
-3.3786457517
 11
-1.3171153828
 21
0.4668041951
  0
LINE
  5
27D
100
AcDbEntity
  8
0
100
AcDbLine
 62
7
  6
CONTINUOUS
 10
-0.9842455727
 20
-3.358232022
 11
-1.2817600438
 21
0.4872179247
  0
LINE
  5
27E
100
AcDbEntity
  8
0
100
AcDbLine
 62
7
  6
CONTINUOUS
 10
-1.8057360681
 20
-0.5359042644
 11
-1.6692899152
 21
-3.0035234636
  0
LWPOLYLINE
  5
27F
100
AcDbEntity
  8
0
100
AcDbPolyline
 62
7
  6
CONTINUOUS
 90
16
 70
0
 10
-0.6049059754
 20
-55.302827403
 10
-0.6062110313
 20
-55.2503426358
 10
-0.6092765675
 20
-55.1992115878
 10
-0.6141025839
 20
-55.1494342591
 10
-0.6207624031
 20
-55.1011976854
 10
-0.6291827026
 20
-55.0543148308
 10
-0.6391435147
 20
-55.008224588
 10
-0.6505698935
 20
-54.9629036942
 10
-0.663536785
 20
-54.9183754122
 10
-0.6780490584
 20
-54.8741484223
 10
-0.6940388257
 20
-54.8302128991
 10
-0.711573975
 20
-54.7865786681
 10
-0.7308630399
 20
-54.7427838859
 10
-0.7519755316
 20
-54.6986746047
 10
-0.7748419389
 20
-54.6544047723
 10
-0.7994622619
 20
-54.6099743886
  0
LWPOLYLINE
  5
280
100
AcDbEntity
  8
0
100
AcDbPolyline
 62
7
  6
CONTINUOUS
 90
16
 70
0
 10
1.0707106023
 20
-56.2703074145
 10
1.0694055558
 20
-56.2178229217
 10
1.0663400273
 20
-56.16669209
 10
1.0615140166
 20
-56.1169149194
 10
1.0548542027
 20
-56.0686784366
 10
1.0464339067
 20
-56.0217956149
 10
1.0364730921
 20
-55.9757053738
 10
1.025046703
 20
-55.9303844536
 10
1.0120797953
 20
-55.885856114
 10
0.9975675009
 20
-55.841629054
 10
0.9815777063
 20
-55.7976934491
 10
0.9640425248
 20
-55.7540591236
 10
0.9447534286
 20
-55.7102642499
 10
0.923640908
 20
-55.6661548853
 10
0.9007744726
 20
-55.6218849724
 10
0.8761541224
 20
-55.5774545113
  0
LWPOLYLINE
  5
281
100
AcDbEntity
  8
0
100
AcDbPolyline
 62
7
  6
CONTINUOUS
 90
10
 70
0
 10
-2.2908202672
 20
-53.4036323707
 10
-2.2918356757
 20
-53.3606484013
 10
-2.2944650124
 20
-53.317980968
 10
-2.2987082771
 20
-53.2756300708
 10
-2.3045931311
 20
-53.2336881337
 10
-2.3120919132
 20
-53.1920627327
 10
-2.3211216397
 20
-53.1504765958
 10
-2.3316546495
 20
-53.108837299
 10
-2.3437186038
 20
-53.0672372663
 10
-2.3573135025
 20
-53.0256764978
  0
LWPOLYLINE
  5
282
100
AcDbEntity
  8
0
100
AcDbPolyline
 62
7
  6
CONTINUOUS
 90
10
 70
0
 10
-2.2554649281
 20
-53.383218641
 10
-2.2564800575
 20
-53.3401894303
 10
-2.2591164581
 20
-53.2974641475
 10
-2.26337413
 20
-53.2550427927
 10
-2.269290432
 20
-53.2129858987
 10
-2.2768280053
 20
-53.1712329326
 10
-2.2858747728
 20
-53.1296022963
 10
-2.2963933755
 20
-53.0880334571
 10
-2.3084211724
 20
-53.0465869477
 10
-2.3219581634
 20
-53.0052627681
  0
LWPOLYLINE
  5
283
100
AcDbEntity
  8
0
100
AcDbPolyline
 62
7
  6
CONTINUOUS
 90
16
 70
0
 10
-0.5695506363
 20
-55.2824136733
 10
-0.5707460544
 20
-55.230707904
 10
-0.5737655641
 20
-55.1799602606
 10
-0.5786091655
 20
-55.1301707428
 10
-0.5853681172
 20
-55.0813459698
 10
-0.5939511605
 20
-55.0334793225
 10
-0.6040845196
 20
-54.9865509444
 10
-0.615694393
 20
-54.9407122165
 10
-0.6288545821
 20
-54.8958117577
 10
-0.6435127153
 20
-54.851375568
 10
-0.6596034346
 20
-54.8073937737
 10
-0.677192098
 20
-54.7638762485
 10
-0.6964224083
 20
-54.7203786124
 10
-0.7173422663
 20
-54.6767527388
 10
-0.7399037711
 20
-54.6331467543
 10
-0.7641069228
 20
-54.5895606589
  0
LWPOLYLINE
  5
284
100
AcDbEntity
  8
0
100
AcDbPolyline
 62
7
  6
CONTINUOUS
 90
16
 70
0
 10
1.1060659413
 20
-56.2498936848
 10
1.1048705304
 20
-56.1981881503
 10
1.101851024
 20
-56.1474406873
 10
1.0970074223
 20
-56.0976512957
 10
1.0902484657
 20
-56.0488265807
 10
1.0816654137
 20
-56.0009599372
 10
1.0715320445
 20
-55.9540315496
 10
1.0599221613
 20
-55.9081928139
 10
1.0467619608
 20
-55.8632923342
 10
1.0321038118
 20
-55.818856107
 10
1.0160130697
 20
-55.7748742519
 10
0.998424379
 20
-55.7313566494
 10
0.9791940426
 20
-55.6878589374
 10
0.9582741613
 20
-55.644232995
 10
0.9357126343
 20
-55.6006269431
 10
0.9115094614
 20
-55.5570407816
  0
LINE
  5
285
100
AcDbEntity
  8
0
100
AcDbLine
 62
7
  6
CONTINUOUS
 10
-6.0710678119
 20
-49.3086867588
 11
-6.0710678119
 21
-57.4733895267
  0
LINE
  5
286
100
AcDbEntity
  8
0
100
AcDbLine
 62
7
  6
CONTINUOUS
 10
-6.0357124728
 20
-49.3291004884
 11
-6.0357124728
 21
-57.452975797
  0
LINE
  5
287
100
AcDbEntity
  8
0
100
AcDbLine
 62
7
  6
CONTINUOUS
 10
-5.2679274445
 20
2.7481740111
 11
-5.2679274445
 21
-0.9257152557
  0
LINE
  5
288
100
AcDbEntity
  8
0
100
AcDbLine
 62
7
  6
CONTINUOUS
 10
-4.7255392789
 20
-51.2776246744
 11
-4.7255392789
 21
-53.7678590186
  0
LINE
  5
289
100
AcDbEntity
  8
0
100
AcDbLine
 62
7
  6
CONTINUOUS
 10
-4.6038042703
 20
-1.309171653
 11
-4.6038042703
 21
2.3647176138
  0
LINE
  5
28A
100
AcDbEntity
  8
0
100
AcDbLine
 62
7
  6
CONTINUOUS
 10
-4.5684489313
 20
-1.2887579234
 11
-4.5684489313
 21
2.3851313435
  0
LINE
  5
28B
100
AcDbEntity
  8
0
100
AcDbLine
 62
7
  6
CONTINUOUS
 10
-4.4401401826
 20
-53.9326448799
 11
-4.4401401826
 21
-51.4424105357
  0
LINE
  5
28C
100
AcDbEntity
  8
0
100
AcDbLine
 62
7
  6
CONTINUOUS
 10
-4.4047848435
 20
-53.9122311503
 11
-4.4047848435
 21
-51.4219968061
  0
LINE
  5
28D
100
AcDbEntity
  8
0
100
AcDbLine
 62
7
  6
CONTINUOUS
 10
-3.9370139687
 20
-51.732909306
 11
-3.9370139687
 21
-54.2231436502
  0
LINE
  5
28E
100
AcDbEntity
  8
0
100
AcDbLine
 62
7
  6
CONTINUOUS
 10
-3.6516148401
 20
-54.3879295301
 11
-3.6516148401
 21
-53.3755286411
  0
LINE
  5
28F
100
AcDbEntity
  8
0
100
AcDbLine
 62
7
  6
CONTINUOUS
 10
-3.6516148401
 20
-53.0816605776
 11
-3.6516148401
 21
-52.1915632494
  0
LINE
  5
290
100
AcDbEntity
  8
0
100
AcDbLine
 62
7
  6
CONTINUOUS
 10
-3.6162595011
 20
-54.3675158004
 11
-3.6162595011
 21
-53.3959423708
  0
LINE
  5
291
100
AcDbEntity
  8
0
100
AcDbLine
 62
7
  6
CONTINUOUS
 10
-3.6162595011
 20
-53.061246848
 11
-3.6162595011
 21
-52.211976979
  0
LINE
  5
292
100
AcDbEntity
  8
0
100
AcDbLine
 62
7
  6
CONTINUOUS
 10
-0.7064138151
 20
-53.9243599269
 11
-0.7064138151
 21
-53.6321904911
  0
LINE
  5
293
100
AcDbEntity
  8
0
100
AcDbLine
 62
7
  6
CONTINUOUS
 10
-0.671058476
 20
-53.9039461973
 11
-0.671058476
 21
-53.6117767614
  0
LINE
  5
294
100
AcDbEntity
  8
0
100
AcDbLine
 62
7
  6
CONTINUOUS
 10
0.9692025054
 20
-54.89183979
 11
0.9692025054
 21
-54.5996703541
  0
LINE
  5
295
100
AcDbEntity
  8
0
100
AcDbLine
 62
7
  6
CONTINUOUS
 10
1.0045578445
 20
-54.8714260603
 11
1.0045578445
 21
-54.5792566245
  0
LWPOLYLINE
  5
296
100
AcDbEntity
  8
0
100
AcDbPolyline
 62
7
  6
CONTINUOUS
 90
12
 70
0
 10
-0.885891605
 20
-55.1677683828
 10
-0.8874851546
 20
-55.218529133
 10
-0.8909299644
 20
-55.2650178636
 10
-0.8962260345
 20
-55.3072345744
 10
-0.9034869061
 20
-55.3447751794
 10
-0.9125990379
 20
-55.3780437647
 10
-0.923221806
 20
-55.4082525888
 10
-0.9352444191
 20
-55.4355873546
 10
-0.9487776684
 20
-55.4598623592
 10
-0.9638133041
 20
-55.4817327525
 10
-0.9803485762
 20
-55.5014169177
 10
-0.9983862347
 20
-55.5186964716
  0
LWPOLYLINE
  5
297
100
AcDbEntity
  8
0
100
AcDbPolyline
 62
7
  6
CONTINUOUS
 90
12
 70
0
 10
-2.5850460722
 20
-53.2439421408
 10
-2.5864753386
 20
-53.283387277
 10
-2.5895156917
 20
-53.3192185625
 10
-2.5941671316
 20
-53.3514359974
 10
-2.6005259627
 20
-53.3796905204
 10
-2.6084958804
 20
-53.4043311928
 10
-2.6177879716
 20
-53.4264051981
 10
-2.628287593
 20
-53.446094589
 10
-2.6401093878
 20
-53.4632173129
 10
-2.6533083718
 20
-53.4782743963
 10
-2.6679028838
 20
-53.4914328481
 10
-2.6838745851
 20
-53.5025256593
  0
LINE
  5
298
100
AcDbEntity
  8
0
100
AcDbLine
 62
7
  6
CONTINUOUS
 10
-3.6109358399
 20
-1.8824414412
 11
-3.4676187304
 21
0.4336452679
  0
LINE
  5
299
100
AcDbEntity
  8
0
100
AcDbLine
 62
7
  6
CONTINUOUS
 10
-3.5755805008
 20
-1.8620277116
 11
-3.4398168395
 21
0.3319909413
  0
LINE
  5
29A
100
AcDbEntity
  8
0
100
AcDbLine
 62
7
  6
CONTINUOUS
 10
-3.9590063245
 20
1.9921989141
 11
-4.246286132
 21
-1.5155981454
  0
LINE
  5
29B
100
AcDbEntity
  8
0
100
AcDbLine
 62
7
  6
CONTINUOUS
 10
0.0607083432
 20
-2.7015092535
 11
0.3913861224
 21
-1.5290939412
  0
LINE
  5
29C
100
AcDbEntity
  8
0
100
AcDbLine
 62
7
  6
CONTINUOUS
 10
0.0960636823
 20
-2.6810955238
 11
0.4036019966
 21
-1.5907209913
  0
LINE
  5
29D
100
AcDbEntity
  8
0
100
AcDbLine
 62
7
  6
CONTINUOUS
 10
-0.2583976334
 20
-3.8181549845
 11
-0.0751417187
 21
-3.1905694103
  0
LINE
  5
29E
100
AcDbEntity
  8
0
100
AcDbLine
 62
7
  6
CONTINUOUS
 10
-0.2230422943
 20
-3.7977412548
 11
-0.049988073
 21
-3.2050928101
  0
LINE
  5
29F
100
AcDbEntity
  8
0
100
AcDbLine
 62
7
  6
CONTINUOUS
 10
0.0826343103
 20
-0.3413937348
 11
-0.9153160966
 21
-3.438858497
  0
LINE
  5
2A0
100
AcDbEntity
  8
0
100
AcDbLine
 62
7
  6
CONTINUOUS
 10
-6.5370766365
 20
-0.1929244184
 11
-5.5143852705
 21
2.890255224
  0
LINE
  5
2A1
100
AcDbEntity
  8
0
100
AcDbLine
 62
7
  6
CONTINUOUS
 10
-6.5017212975
 20
-0.1725106887
 11
-5.4790299314
 21
2.9106689537
  0
LINE
  5
2A2
100
AcDbEntity
  8
0
100
AcDbLine
 62
7
  6
CONTINUOUS
 10
-1.9742007232
 20
0.8461970354
 11
-2.6383231903
 21
-0.8099795387
  0
LINE
  5
2A3
100
AcDbEntity
  8
0
100
AcDbLine
 62
7
  6
CONTINUOUS
 10
-2.5953784741
 20
-2.4688115363
 11
-1.8057360681
 21
-0.5359042644
  0
LINE
  5
2A4
100
AcDbEntity
  8
0
100
AcDbLine
 62
7
  6
CONTINUOUS
 10
-2.5600231351
 20
-2.4483978066
 11
-1.8025153612
 21
-0.5941505253
  0
LINE
  5
2A5
100
AcDbEntity
  8
0
100
AcDbLine
 62
7
  6
CONTINUOUS
 10
-6.142699143
 20
3.2938632387
 11
-6.1780544821
 21
3.2734495091
  0
LINE
  5
2A6
100
AcDbEntity
  8
0
100
AcDbLine
 62
7
  6
CONTINUOUS
 10
-5.4790299314
 20
2.9106689537
 11
-5.5143852705
 21
2.890255224
  0
LINE
  5
2A7
100
AcDbEntity
  8
0
100
AcDbLine
 62
7
  6
CONTINUOUS
 10
-5.2325721055
 20
2.7685877408
 11
-5.2679274445
 21
2.7481740111
  0
LINE
  5
2A8
100
AcDbEntity
  8
0
100
AcDbLine
 62
7
  6
CONTINUOUS
 10
-4.5684489313
 20
2.3851313435
 11
-4.6038042703
 21
2.3647176138
  0
LINE
  5
2A9
100
AcDbEntity
  8
0
100
AcDbLine
 62
7
  6
CONTINUOUS
 10
-3.9236509854
 20
2.0126126438
 11
-3.9590063245
 21
1.9921989141
  0
LINE
  5
2AA
100
AcDbEntity
  8
0
100
AcDbLine
 62
7
  6
CONTINUOUS
 10
-6.5017212975
 20
-0.1725106887
 11
-6.5370766365
 21
-0.1929244184
  0
LINE
  5
2AB
100
AcDbEntity
  8
0
100
AcDbLine
 62
7
  6
CONTINUOUS
 10
-3.2600772332
 20
1.6294734758
 11
-3.2954325723
 21
1.6090597461
  0
LINE
  5
2AC
100
AcDbEntity
  8
0
100
AcDbLine
 62
7
  6
CONTINUOUS
 10
-1.9388453842
 20
0.866610765
 11
-1.9742007232
 21
0.8461970354
  0
LINE
  5
2AD
100
AcDbEntity
  8
0
100
AcDbLine
 62
7
  6
CONTINUOUS
 10
-4.5684489313
 20
-1.2887579234
 11
-4.6038042703
 21
-1.309171653
  0
LINE
  5
2AE
100
AcDbEntity
  8
0
100
AcDbLine
 62
7
  6
CONTINUOUS
 10
-1.2817600438
 20
0.4872179247
 11
-1.3171153828
 21
0.4668041951
  0
LINE
  5
2AF
100
AcDbEntity
  8
0
100
AcDbLine
 62
7
  6
CONTINUOUS
 10
-3.5755805008
 20
-1.8620277116
 11
-3.6109358399
 21
-1.8824414412
  0
LINE
  5
2B0
100
AcDbEntity
  8
0
100
AcDbLine
 62
7
  6
CONTINUOUS
 10
0.1179896494
 20
-0.3209800051
 11
0.0826343103
 21
-0.3413937348
  0
LINE
  5
2B1
100
AcDbEntity
  8
0
100
AcDbLine
 62
7
  6
CONTINUOUS
 10
-2.5600231351
 20
-2.4483978066
 11
-2.5953784741
 21
-2.4688115363
  0
LINE
  5
2B2
100
AcDbEntity
  8
0
100
AcDbLine
 62
7
  6
CONTINUOUS
 10
0.7604491931
 20
-0.6919280938
 11
0.725093854
 21
-0.7123418234
  0
LWPOLYLINE
  5
2B3
100
AcDbEntity
  8
0
100
AcDbPolyline
 62
7
  6
CONTINUOUS
 90
51
 70
0
 10
-49.4722905314
 20
-21.4906726465
 10
-49.5085363099
 20
-21.5106195586
 10
-49.5831790201
 20
-21.5458937521
 10
-49.6609852169
 20
-21.5751258761
 10
-49.7419335784
 20
-21.5983566539
 10
-49.8254760526
 20
-21.6154288042
 10
-49.9116302423
 20
-21.6263005361
 10
-50.0003785448
 20
-21.6310136405
 10
-50.0911200991
 20
-21.6295362077
 10
-50.183868431
 20
-21.6218262305
 10
-50.2786100148
 20
-21.6079257162
 10
-50.3747034129
 20
-21.5879287766
 10
-50.4721577984
 20
-21.5617940432
 10
-50.5709639982
 20
-21.5295628845
 10
-50.6704530556
 20
-21.4914535181
 10
-50.7706296044
 20
-21.4474260563
 10
-50.8714890108
 20
-21.3975203868
 10
-50.9723484172
 20
-21.3420743905
 10
-51.0732078236
 20
-21.2810504724
 10
-51.1740672301
 20
-21.2144862275
 10
-51.2742437788
 20
-21.1428323218
 10
-51.3737328363
 20
-21.0660542184
 10
-51.472539036
 20
-20.9841864543
 10
-51.5699934215
 20
-20.8977833061
 10
-51.6660868196
 20
-20.8068139982
 10
-51.7608284034
 20
-20.7113093064
 10
-51.8535767353
 20
-20.6119158347
 10
-51.9443182897
 20
-20.5086071951
 10
-52.0330665921
 20
-20.4014097756
 10
-52.1192207818
 20
-20.2910493449
 10
-52.202763256
 20
-20.1775044395
 10
-52.2837116176
 20
-20.0607965228
 10
-52.3615178143
 20
-19.9417157531
 10
-52.4361605245
 20
-19.8202460288
 10
-52.5076610699
 20
-19.6964034515
 10
-52.5755353639
 20
-19.5710264838
 10
-52.6397587998
 20
-19.444104714
 10
-52.7003559842
 20
-19.3156485537
 10
-52.7569166505
 20
-19.1865277017
 10
-52.8094134081
 20
-19.0567376474
 10
-52.8578736475
 20
-18.9262829013
 10
-52.9019692741
 20
-18.7960466931
 10
-52.9416706708
 20
-18.6660305057
 10
-52.9770074546
 20
-18.5362328561
 10
-53.0077403816
 20
-18.4075325253
 10
-53.0338382115
 20
-18.2799369593
 10
-53.0553321846
 20
-18.1534387121
 10
-53.0720767784
 20
-18.0288942263
 10
-53.0840234852
 20
-17.9065889828
 10
-53.0912208127
 20
-17.7862375008
 10
-53.0936687608
 20
-17.6678397801
  0
LWPOLYLINE
  5
2B4
100
AcDbEntity
  8
0
100
AcDbPolyline
 62
7
  6
CONTINUOUS
 90
7
 70
0
 10
3.6847677245
 20
-4.3094874461
 10
3.6923474491
 20
-4.3079319927
 10
3.7000751736
 20
-4.3061713251
 10
3.7079612069
 20
-4.3041384306
 10
3.716009141
 20
-4.3018246211
 10
3.7242153838
 20
-4.2992385848
 10
3.7325794674
 20
-4.2963393729
  0
LWPOLYLINE
  5
2B5
100
AcDbEntity
  8
0
100
AcDbPolyline
 62
7
  6
CONTINUOUS
 90
10
 70
0
 10
3.2644357232
 20
-3.6836397667
 10
3.2372558462
 20
-3.6849397703
 10
3.2083492265
 20
-3.6834238988
 10
3.1774477897
 20
-3.6790301114
 10
3.1444245147
 20
-3.6717842929
 10
3.1094064226
 20
-3.6616605585
 10
3.0725065026
 20
-3.6485192132
 10
3.0337624177
 20
-3.6323136921
 10
2.9931365049
 20
-3.6130905602
 10
2.9506287641
 20
-3.5908498175
  0
LWPOLYLINE
  5
2B6
100
AcDbEntity
  8
0
100
AcDbPolyline
 62
7
  6
CONTINUOUS
 90
13
 70
0
 10
3.6037321079
 20
-4.3115559487
 10
3.6099345753
 20
-4.3135826315
 10
3.6162237287
 20
-4.3150433447
 10
3.6225995679
 20
-4.3159380884
 10
3.6290535289
 20
-4.3161347017
 10
3.6355941758
 20
-4.3157653455
 10
3.6422472013
 20
-4.3152265023
 10
3.6490140942
 20
-4.314640694
 10
3.6558933658
 20
-4.3138853988
 10
3.662906242
 20
-4.3129895346
 10
3.6700549998
 20
-4.3119842892
 10
3.6773373621
 20
-4.3108384747
 10
3.6847677245
 20
-4.3094874461
  0
LINE
  5
2B7
100
AcDbEntity
  8
0
100
AcDbLine
 62
7
  6
CONTINUOUS
 10
2.5357336161
 20
-2.3836284519
 11
2.5980340329
 21
-2.4078797362
  0
LWPOLYLINE
  5
2B8
100
AcDbEntity
  8
0
100
AcDbPolyline
 62
7
  6
CONTINUOUS
 90
9
 70
0
 10
2.5980340329
 20
-2.4078797362
 10
2.6588354791
 20
-2.4336155067
 10
2.718137955
 20
-2.4608357633
 10
2.7754399848
 20
-2.4892784713
 10
2.8312430443
 20
-2.5192056655
 10
2.8870515596
 20
-2.5514034499
 10
2.9433670065
 20
-2.5861338592
 10
2.9996879094
 20
-2.6231348587
 10
3.0560142682
 20
-2.6624064484
  0
LINE
  5
2B9
100
AcDbEntity
  8
0
100
AcDbLine
 62
7
  6
CONTINUOUS
 10
-7.1223354843
 20
0.1449967053
 11
-6.5370766365
 21
-0.1929244184
  0
LINE
  5
2BA
100
AcDbEntity
  8
0
100
AcDbLine
 62
7
  6
CONTINUOUS
 10
-5.2679274445
 20
-0.9257152557
 11
-4.6038042703
 21
-1.309171653
  0
LINE
  5
2BB
100
AcDbEntity
  8
0
100
AcDbLine
 62
7
  6
CONTINUOUS
 10
-4.246286132
 20
-1.5155981454
 11
-3.6109358399
 21
-1.8824414412
  0
LINE
  5
2BC
100
AcDbEntity
  8
0
100
AcDbLine
 62
7
  6
CONTINUOUS
 10
-2.6885214078
 20
-2.4150319738
 11
-2.5953784741
 21
-2.4688115363
  0
LINE
  5
2BD
100
AcDbEntity
  8
0
100
AcDbLine
 62
7
  6
CONTINUOUS
 10
-1.6692899152
 20
-3.0035234636
 11
-1.0196009118
 21
-3.3786457517
  0
LINE
  5
2BE
100
AcDbEntity
  8
0
100
AcDbLine
 62
7
  6
CONTINUOUS
 10
-0.9153160966
 20
-3.438858497
 11
-0.2583976334
 21
-3.8181549845
  0
LINE
  5
2BF
100
AcDbEntity
  8
0
100
AcDbLine
 62
7
  6
CONTINUOUS
 10
1.0013265323
 20
-4.5455039297
 11
1.7012851711
 21
-4.9496512752
  0
LINE
  5
2C0
100
AcDbEntity
  8
0
100
AcDbLine
 62
7
  6
CONTINUOUS
 10
1.8963039946
 20
-5.0622522923
 11
2.5577549415
 21
-5.4441657791
  0
LINE
  5
2C1
100
AcDbEntity
  8
0
100
AcDbLine
 62
7
  6
CONTINUOUS
 10
3.5747679811
 20
-6.031376362
 11
4.2135772836
 21
-6.4002168471
  0
LINE
  5
2C2
100
AcDbEntity
  8
0
100
AcDbLine
 62
7
  6
CONTINUOUS
 10
-0.0751417187
 20
-3.1905694103
 11
0.8292839169
 21
-3.7127734372
  0
LINE
  5
2C3
100
AcDbEntity
  8
0
100
AcDbLine
 62
7
  6
CONTINUOUS
 10
0.696559267
 20
-3.0686416077
 11
0.0607083432
 21
-2.7015092535
  0
LINE
  5
2C4
100
AcDbEntity
  8
0
100
AcDbLine
 62
7
  6
CONTINUOUS
 10
0.6874203854
 20
-3.0225374727
 11
0.0960636823
 21
-2.6810955238
  0
LINE
  5
2C5
100
AcDbEntity
  8
0
100
AcDbLine
 62
7
  6
CONTINUOUS
 10
2.5577549415
 20
-4.006494949
 11
2.9138419196
 21
-4.2120951074
  0
LINE
  5
2C6
100
AcDbEntity
  8
0
100
AcDbLine
 62
7
  6
CONTINUOUS
 10
2.915273425
 20
-3.6112635471
 11
2.5357336161
 21
-3.3921220182
  0
LINE
  5
2C7
100
AcDbEntity
  8
0
100
AcDbLine
 62
7
  6
CONTINUOUS
 10
2.9506287641
 20
-3.5908498175
 11
2.5710889552
 21
-3.3717082885
  0
LINE
  5
2C8
100
AcDbEntity
  8
0
100
AcDbLine
 62
7
  6
CONTINUOUS
 10
0.725093854
 20
-0.7123418234
 11
0.0826343103
 21
-0.3413937348
  0
LINE
  5
2C9
100
AcDbEntity
  8
0
100
AcDbLine
 62
7
  6
CONTINUOUS
 10
-1.3171153828
 20
0.4668041951
 11
-1.9742007232
 21
0.8461970354
  0
LINE
  5
2CA
100
AcDbEntity
  8
0
100
AcDbLine
 62
7
  6
CONTINUOUS
 10
-3.2954325723
 20
1.6090597461
 11
-3.9590063245
 21
1.9921989141
  0
LINE
  5
2CB
100
AcDbEntity
  8
0
100
AcDbLine
 62
7
  6
CONTINUOUS
 10
-5.5143852705
 20
2.890255224
 11
-6.1780544821
 21
3.2734495091
  0
LINE
  5
2CC
100
AcDbEntity
  8
0
100
AcDbLine
 62
7
  6
CONTINUOUS
 10
-7.4095191253
 20
3.9844817602
 11
-8.1309624965
 21
4.4010341209
  0
LINE
  5
2CD
100
AcDbEntity
  8
0
100
AcDbLine
 62
7
  6
CONTINUOUS
 10
-4.6038042703
 20
2.3647176138
 11
-5.2679274445
 21
2.7481740111
  0
LINE
  5
2CE
100
AcDbEntity
  8
0
100
AcDbLine
 62
7
  6
CONTINUOUS
 10
0.7604491931
 20
-0.6919280938
 11
0.1179896494
 21
-0.3209800051
  0
LINE
  5
2CF
100
AcDbEntity
  8
0
100
AcDbLine
 62
7
  6
CONTINUOUS
 10
-1.2817600438
 20
0.4872179247
 11
-1.9388453842
 21
0.866610765
  0
LINE
  5
2D0
100
AcDbEntity
  8
0
100
AcDbLine
 62
7
  6
CONTINUOUS
 10
-3.2600772332
 20
1.6294734758
 11
-3.9236509854
 21
2.0126126438
  0
LINE
  5
2D1
100
AcDbEntity
  8
0
100
AcDbLine
 62
7
  6
CONTINUOUS
 10
-5.4790299314
 20
2.9106689537
 11
-6.142699143
 21
3.2938632387
  0
LINE
  5
2D2
100
AcDbEntity
  8
0
100
AcDbLine
 62
7
  6
CONTINUOUS
 10
-7.3741637862
 20
4.0048954898
 11
-8.0956071574
 21
4.4214478506
  0
LINE
  5
2D3
100
AcDbEntity
  8
0
100
AcDbLine
 62
7
  6
CONTINUOUS
 10
-4.5684489313
 20
2.3851313435
 11
-5.2325721055
 21
2.7685877408
  0
LWPOLYLINE
  5
2D4
100
AcDbEntity
  8
0
100
AcDbPolyline
 62
7
  6
CONTINUOUS
 90
19
 70
0
 10
2.9138419196
 20
-4.2120951074
 10
2.9408166022
 20
-4.2288424368
 10
2.9671956478
 20
-4.2472054598
 10
2.9929790567
 20
-4.2671841763
 10
3.0182730527
 20
-4.2888877178
 10
3.0429714119
 20
-4.3122069528
 10
3.066755462
 20
-4.336814487
 10
3.0894741964
 20
-4.3625425944
 10
3.1112786218
 20
-4.3895590011
 10
3.1323030863
 20
-4.4180394904
 10
3.1526010952
 20
-4.4479412414
 10
3.1721191431
 20
-4.4793070751
 10
3.1908310619
 20
-4.5124412375
 10
3.2087932502
 20
-4.5474179543
 10
3.2259493093
 20
-4.5841629998
 10
3.2421038747
 20
-4.6227579437
 10
3.2571918249
 20
-4.6632299757
 10
3.2712782814
 20
-4.705551906
 10
3.2843632443
 20
-4.7497237347
  0
LWPOLYLINE
  5
2D5
100
AcDbEntity
  8
0
100
AcDbPolyline
 62
7
  6
CONTINUOUS
 90
22
 70
0
 10
3.0560142682
 20
-2.6624064484
 10
3.0862095223
 20
-2.6851461621
 10
3.1158669876
 20
-2.7098079766
 10
3.1449866642
 20
-2.7363918921
 10
3.1738974547
 20
-2.7652883871
 10
3.2022704565
 20
-2.7961069829
 10
3.2291189611
 20
-2.8276762441
 10
3.2541814419
 20
-2.8597721571
 10
3.2777194255
 20
-2.8926187355
 10
3.2995307841
 20
-2.9257165844
 10
3.3195019339
 20
-2.9588900567
 10
3.3377464586
 20
-2.9923147995
 10
3.3544029819
 20
-3.0260183589
 10
3.3695223866
 20
-3.0600045056
 10
3.3830537897
 20
-3.0942694688
 10
3.3949831665
 20
-3.1288294822
 10
3.4053697195
 20
-3.1638444825
 10
3.4141542461
 20
-3.1991545328
 10
3.4211451135
 20
-3.2342960569
 10
3.4262784439
 20
-3.2691145293
 10
3.4296181152
 20
-3.3037644754
 10
3.4311641271
 20
-3.3382458952
  0
LWPOLYLINE
  5
2D6
100
AcDbEntity
  8
0
100
AcDbPolyline
 62
7
  6
CONTINUOUS
 90
19
 70
0
 10
3.57061377
 20
-2.3960806944
 10
3.5075991302
 20
-2.3353139433
 10
3.4411331349
 20
-2.2752721679
 10
3.3712157841
 20
-2.2159553683
 10
3.2977411754
 20
-2.1573332566
 10
3.2208152112
 20
-2.0994361207
 10
3.1407555996
 20
-2.0423548242
 10
3.057683412
 20
-1.9861584157
 10
2.971477577
 20
-1.9307778467
 10
2.8820925885
 20
-1.8760968356
 10
2.7895306715
 20
-1.8221255344
 10
2.693789601
 20
-1.7688537911
 10
2.5948171958
 20
-1.7161348679
 10
2.4926464711
 20
-1.6639215616
 10
2.3872444117
 20
-1.6122610754
 10
2.278459791
 20
-1.5611482813
 10
2.1662421999
 20
-1.5105814699
 10
2.0506420475
 20
-1.4605623506
 10
1.9316593337
 20
-1.4110909235
  0
LWPOLYLINE
  5
2D7
100
AcDbEntity
  8
0
100
AcDbPolyline
 62
7
  6
CONTINUOUS
 90
19
 70
0
 10
3.535258431
 20
-2.416494424
 10
3.4727560801
 20
-2.3561775192
 10
3.406725522
 20
-2.2964944628
 10
3.3371667568
 20
-2.237445255
 10
3.2639780069
 20
-2.1789897087
 10
3.1872610498
 20
-2.1211680109
 10
3.1073212183
 20
-2.0641007229
 10
3.0242407057
 20
-2.0078412122
 10
2.9379373187
 20
-1.9523361113
 10
2.84846981
 20
-1.8975458784
 10
2.7559015582
 20
-1.8435200261
 10
2.6601691846
 20
-1.7902090418
 10
2.5611413065
 20
-1.7374248468
 10
2.4588186365
 20
-1.6851010979
 10
2.3532004621
 20
-1.6333041383
 10
2.2441532627
 20
-1.5820449189
 10
2.1316325316
 20
-1.5313270901
 10
2.0156827756
 20
-1.4811470015
 10
1.8963039946
 20
-1.4315046531
  0
LWPOLYLINE
  5
2D8
100
AcDbEntity
  8
0
100
AcDbPolyline
 62
7
  6
CONTINUOUS
 90
3
 70
0
 10
3.6851193058
 20
-4.3646832098
 10
3.6621742278
 20
-4.3376701024
 10
3.6390874469
 20
-4.3128503957
  0
LINE
  5
2D9
100
AcDbEntity
  8
0
100
AcDbLine
 62
7
  6
CONTINUOUS
 10
-3.4676187304
 20
0.4336452679
 11
-2.6885214078
 21
-2.4150319738
  0
LINE
  5
2DA
100
AcDbEntity
  8
0
100
AcDbLine
 62
7
  6
CONTINUOUS
 10
-2.6383231903
 20
-0.8099795387
 11
-3.2954325723
 21
1.6090597461
  0
LINE
  5
2DB
100
AcDbEntity
  8
0
100
AcDbLine
 62
7
  6
CONTINUOUS
 10
-2.6139400779
 20
-0.7491733749
 11
-3.2600772332
 21
1.6294734758
  0
LINE
  5
2DC
100
AcDbEntity
  8
0
100
AcDbLine
 62
7
  6
CONTINUOUS
 10
1.7012851711
 20
-4.9496512752
 11
0.725093854
 21
-0.7123418234
  0
LINE
  5
2DD
100
AcDbEntity
  8
0
100
AcDbLine
 62
7
  6
CONTINUOUS
 10
1.7366405101
 20
-4.9292375455
 11
0.7604491931
 21
-0.6919280938
  0
LINE
  5
2DE
100
AcDbEntity
  8
0
100
AcDbLine
 62
7
  6
CONTINUOUS
 10
-6.8030499025
 20
1.1056141399
 11
-7.4095191253
 21
3.9844817602
  0
LINE
  5
2DF
100
AcDbEntity
  8
0
100
AcDbLine
 62
7
  6
CONTINUOUS
 10
-6.7801367206
 20
1.1850899322
 11
-7.3741637862
 21
4.0048954898
  0
LINE
  5
2E0
100
AcDbEntity
  8
0
100
AcDbLine
 62
7
  6
CONTINUOUS
 10
0.8292839169
 20
-3.7127734372
 11
1.0013265323
 21
-4.5455039297
  0
LINE
  5
2E1
100
AcDbEntity
  8
0
100
AcDbLine
 62
7
  6
CONTINUOUS
 10
0.3913861224
 20
-1.5290939412
 11
0.696559267
 21
-3.0686416077
  0
LINE
  5
2E2
100
AcDbEntity
  8
0
100
AcDbLine
 62
7
  6
CONTINUOUS
 10
1.8963039946
 20
-1.4315046531
 11
1.8963039946
 21
-5.0622522923
  0
LINE
  5
2E3
100
AcDbEntity
  8
0
100
AcDbLine
 62
7
  6
CONTINUOUS
 10
2.4142135624
 20
-62.3726846466
 11
2.4142135624
 21
-54.2079818787
  0
LINE
  5
2E4
100
AcDbEntity
  8
0
100
AcDbLine
 62
7
  6
CONTINUOUS
 10
2.5357336161
 20
-3.3921220182
 11
2.5357336161
 21
-2.3836284519
  0
LINE
  5
2E5
100
AcDbEntity
  8
0
100
AcDbLine
 62
7
  6
CONTINUOUS
 10
2.5577549415
 20
-5.4441657791
 11
2.5577549415
 21
-4.006494949
  0
LINE
  5
2E6
100
AcDbEntity
  8
0
100
AcDbLine
 62
7
  6
CONTINUOUS
 10
2.5710889552
 20
-3.3717082885
 11
2.5710889552
 21
-2.3973909984
  0
LINE
  5
2E7
100
AcDbEntity
  8
0
100
AcDbLine
 62
7
  6
CONTINUOUS
 10
2.5931102805
 20
-5.4237520494
 11
2.5931102805
 21
-4.0269086787
  0
LINE
  5
2E8
100
AcDbEntity
  8
0
100
AcDbLine
 62
7
  6
CONTINUOUS
 10
3.6037321079
 20
-4.3332641254
 11
3.6037321079
 21
-4.3115559487
  0
LWPOLYLINE
  5
2E9
100
AcDbEntity
  8
0
100
AcDbPolyline
 62
7
  6
CONTINUOUS
 90
12
 70
0
 10
3.4311641271
 20
-3.3382458952
 10
3.4307696274
 20
-3.3838331354
 10
3.4285072411
 20
-3.4261285677
 10
3.4243769683
 20
-3.465132192
 10
3.4183486361
 20
-3.5007433282
 10
3.4104524173
 20
-3.5330626563
 10
3.4007788309
 20
-3.5623922171
 10
3.3893122792
 20
-3.5886974165
 10
3.3760683599
 20
-3.6120128485
 10
3.3611843845
 20
-3.6327443357
 10
3.3446658239
 20
-3.6510570262
 10
3.3265072073
 20
-3.6667857719
  0
LWPOLYLINE
  5
2EA
100
AcDbEntity
  8
0
100
AcDbPolyline
 62
7
  6
CONTINUOUS
 90
12
 70
0
 10
0.7897249726
 20
-56.1352483943
 10
0.788131432
 20
-56.1860089573
 10
0.7846866287
 20
-56.2324975486
 10
0.7793905626
 20
-56.2747141683
 10
0.7721296933
 20
-56.3122547413
 10
0.7630175613
 20
-56.3455233426
 10
0.7523947886
 20
-56.375732197
 10
0.7403721644
 20
-56.4030670009
 10
0.7268388995
 20
-56.427342058
 10
0.711803248
 20
-56.449212504
 10
0.6952679612
 20
-56.4688967174
 10
0.6772302879
 20
-56.4861763197
  0
LINE
  5
2EB
100
AcDbEntity
  8
0
100
AcDbLine
 62
7
  6
CONTINUOUS
 10
-1.7788672483
 20
-53.0129693197
 11
-1.9877675929
 21
-54.1714432705
  0
LINE
  5
2EC
100
AcDbEntity
  8
0
100
AcDbLine
 62
7
  6
CONTINUOUS
 10
-1.6832438167
 20
-54.0296222617
 11
-1.5670244425
 21
-53.4274541367
  0
LINE
  5
2ED
100
AcDbEntity
  8
0
100
AcDbLine
 62
7
  6
CONTINUOUS
 10
-1.6478884776
 20
-54.009208532
 11
-1.5387588123
 21
-53.4437743573
  0
LINE
  5
2EE
100
AcDbEntity
  8
0
100
AcDbLine
 62
7
  6
CONTINUOUS
 10
3.3265072073
 20
-3.6667857719
 11
3.3067123084
 21
-3.6799080181
  0
LWPOLYLINE
  5
2EF
100
AcDbEntity
  8
0
100
AcDbPolyline
 62
7
  6
CONTINUOUS
 90
55
 70
0
 10
3.8430811153
 20
-4.2388136792
 10
3.8523478623
 20
-4.2328035594
 10
3.8617154886
 20
-4.2263921103
 10
3.871173558
 20
-4.2194870305
 10
3.8807240249
 20
-4.2120975284
 10
3.890364935
 20
-4.2042143956
 10
3.9000799895
 20
-4.1957177061
 10
3.909877197
 20
-4.1866128103
 10
3.9197485489
 20
-4.1768943577
 10
3.9296537203
 20
-4.166426371
 10
3.9396026061
 20
-4.1552157473
 10
3.9495853114
 20
-4.1432555896
 10
3.9595318266
 20
-4.1303892291
 10
3.9694523805
 20
-4.1166235428
 10
3.9793367444
 20
-4.1019516538
 10
3.9890842223
 20
-4.0861962628
 10
3.9987059107
 20
-4.0693661373
 10
4.0081907132
 20
-4.0514525098
 10
4.0174046444
 20
-4.0322517792
 10
4.0263629127
 20
-4.0117685528
 10
4.0350503098
 20
-3.9899982233
 10
4.0432872258
 20
-3.9667233677
 10
4.0510826005
 20
-3.9419476133
 10
4.0584274942
 20
-3.9156673329
 10
4.0651154776
 20
-3.8876542209
 10
4.0711571898
 20
-3.8579396853
 10
4.0765419918
 20
-3.8264923181
 10
4.0810315375
 20
-3.7929895898
 10
4.0846454581
 20
-3.7574413062
 10
4.0873641224
 20
-3.7198376614
 10
4.0888902907
 20
-3.6798267087
 10
4.0892966046
 20
-3.6373842555
 10
4.0885104225
 20
-3.5925344944
 10
4.0860165792
 20
-3.5449980563
 10
4.0819117522
 20
-3.4946909286
 10
4.076099264
 20
-3.4416971239
 10
4.0677739174
 20
-3.3859893104
 10
4.0568095092
 20
-3.3271431001
 10
4.0433322427
 20
-3.2655828811
 10
4.02691553
 20
-3.2025544854
 10
4.0072115387
 20
-3.1376929383
 10
3.9845681013
 20
-3.0713632146
 10
3.9596021271
 20
-3.0059060714
 10
3.9321882748
 20
-2.941648492
 10
3.9024518857
 20
-2.8782634931
 10
3.8713858927
 20
-2.8171108818
 10
3.8389818061
 20
-2.7584135323
 10
3.8052481157
 20
-2.7019485704
 10
3.7712032236
 20
-2.64840718
 10
3.7368836964
 20
-2.5977921823
 10
3.7022529676
 20
-2.550100756
 10
3.6682197402
 20
-2.506015622
 10
3.6350869153
 20
-2.4657643539
 10
3.6025515919
 20
-2.429119378
 10
3.57061377
 20
-2.3960806944
  0
LWPOLYLINE
  5
2F0
100
AcDbEntity
  8
0
100
AcDbPolyline
 62
7
  6
CONTINUOUS
 90
55
 70
0
 10
3.7941053806
 20
-4.2674337061
 10
3.7954697365
 20
-4.2666450099
 10
3.8050492808
 20
-4.2609145758
 10
3.8147587923
 20
-4.2547025711
 10
3.8246017677
 20
-4.2480176179
 10
3.8345747103
 20
-4.2408510941
 10
3.8446519423
 20
-4.2330888876
 10
3.854838752
 20
-4.2247382573
 10
3.8651298512
 20
-4.2157919444
 10
3.8754836971
 20
-4.2061140596
 10
3.885907781
 20
-4.1957123343
 10
3.8963946118
 20
-4.1845790371
 10
3.9068801728
 20
-4.1725550862
 10
3.9173743475
 20
-4.1596516033
 10
3.9278672524
 20
-4.1458574667
 10
3.9382652208
 20
-4.1309802284
 10
3.9485800224
 20
-4.115030639
 10
3.9587998874
 20
-4.097997948
 10
3.9687958401
 20
-4.0796574567
 10
3.9785848541
 20
-4.0600226061
 10
3.9881499558
 20
-4.0390799551
 10
3.9973112474
 20
-4.016564481
 10
4.0060844666
 20
-3.9924871021
 10
4.0144538758
 20
-3.9668369001
 10
4.0221923644
 20
-3.9393160978
 10
4.0293171308
 20
-3.9099285175
 10
4.0358109766
 20
-3.8786703367
 10
4.0413951958
 20
-3.845232311
 10
4.046085122
 20
-3.8096094721
 10
4.0498654217
 20
-3.7718067882
 10
4.0524113875
 20
-3.7315299188
 10
4.0537784069
 20
-3.688812981
 10
4.0539110924
 20
-3.6436218576
 10
4.0523185748
 20
-3.595559857
 10
4.0491663279
 20
-3.5446620814
 10
4.0442888778
 20
-3.4908934284
 10
4.0366989338
 20
-3.4337519
 10
4.0261027361
 20
-3.3721501933
 10
4.0127940445
 20
-3.3071756112
 10
3.9966668484
 20
-3.2415880635
 10
3.9775956006
 20
-3.1759399343
 10
3.9557058483
 20
-3.1096788396
 10
3.9312682225
 20
-3.0439075373
 10
3.9041022304
 20
-2.9785556356
 10
3.8743883648
 20
-2.9136935263
 10
3.8429387357
 20
-2.850635143
 10
3.8094477154
 20
-2.7892150297
 10
3.7742209315
 20
-2.7295986425
 10
3.7389873767
 20
-2.6735962827
 10
3.7041620264
 20
-2.6218337129
 10
3.6693299051
 20
-2.5736851706
 10
3.6349750783
 20
-2.5290836692
 10
3.6012589013
 20
-2.4880068799
 10
3.5680200189
 20
-2.4504771315
 10
3.535258431
 20
-2.416494424
  0
LINE
  5
2F1
100
AcDbEntity
  8
0
100
AcDbLine
 62
7
  6
CONTINUOUS
 10
1.9316593337
 20
-1.4110909235
 11
1.8963039946
 21
-1.4315046531
  0
LINE
  5
2F2
100
AcDbEntity
  8
RACCORDO
100
AcDbLine
 62
250
  6
CONTINUOUS
 10
57.2149891043
 20
30.4980672208
 11
55.800775542
 21
29.6815180342
  0
LINE
  5
2F3
100
AcDbEntity
  8
0
100
AcDbLine
 62
7
  6
CONTINUOUS
 10
0.0960636823
 20
-2.6810955238
 11
0.0607083432
 21
-2.7015092535
  0
LINE
  5
2F4
100
AcDbEntity
  8
0
100
AcDbLine
 62
7
  6
CONTINUOUS
 10
-0.9842455727
 20
-3.358232022
 11
-1.0196009118
 21
-3.3786457517
  0
LINE
  5
2F5
100
AcDbEntity
  8
0
100
AcDbLine
 62
7
  6
CONTINUOUS
 10
-0.2230422943
 20
-3.7977412548
 11
-0.2583976334
 21
-3.8181549845
  0
LINE
  5
2F6
100
AcDbEntity
  8
0
100
AcDbLine
 62
250
  6
CONTINUOUS
 10
3.57061377
 20
-2.3960806944
 11
3.535258431
 21
-2.416494424
  0
LINE
  5
2F7
100
AcDbEntity
  8
0
100
AcDbLine
 62
7
  6
CONTINUOUS
 10
2.5710889552
 20
-3.3717082885
 11
2.5357336161
 21
-3.3921220182
  0
LINE
  5
2F8
100
AcDbEntity
  8
0
100
AcDbLine
 62
250
  6
CONTINUOUS
 10
2.9506287641
 20
-3.5908498175
 11
2.915273425
 21
-3.6112635471
  0
LINE
  5
2F9
100
AcDbEntity
  8
0
100
AcDbLine
 62
7
  6
CONTINUOUS
 10
1.7366405101
 20
-4.9292375455
 11
1.7012851711
 21
-4.9496512752
  0
LINE
  5
2FA
100
AcDbEntity
  8
0
100
AcDbLine
 62
7
  6
CONTINUOUS
 10
3.633870332
 20
-4.3158626925
 11
3.6037321079
 21
-4.3332641254
  0
LINE
  5
2FB
100
AcDbEntity
  8
0
100
AcDbLine
 62
7
  6
CONTINUOUS
 10
2.5931102805
 20
-5.4237520494
 11
2.5577549415
 21
-5.4441657791
  0
LINE
  5
2FC
100
AcDbEntity
  8
0
100
AcDbLine
 62
250
  6
CONTINUOUS
 10
4.0218958599
 20
-5.2544088202
 11
3.9865405209
 21
-5.2748225498
  0
LINE
  5
2FD
100
AcDbEntity
  8
0
100
AcDbLine
 62
7
  6
CONTINUOUS
 10
4.2489326227
 20
-6.3798031174
 11
4.2135772836
 21
-6.4002168471
  0
LWPOLYLINE
  5
2FE
100
AcDbEntity
  8
0
100
AcDbPolyline
 62
7
  6
CONTINUOUS
 90
51
 70
0
 10
45.815436282
 20
19.2163183313
 10
45.8516820604
 20
19.2362652434
 10
45.9263247706
 20
19.2715394369
 10
46.0041309674
 20
19.3007715609
 10
46.0850793289
 20
19.3240023388
 10
46.1686218031
 20
19.341074489
 10
46.2547759928
 20
19.351946221
 10
46.3435242953
 20
19.3566593253
 10
46.4342658496
 20
19.3551818925
 10
46.5270141815
 20
19.3474719153
 10
46.6217557653
 20
19.333571401
 10
46.7178491634
 20
19.3135744614
 10
46.8153035489
 20
19.287439728
 10
46.9141097487
 20
19.2552085693
 10
47.0135988061
 20
19.217099203
 10
47.1137753549
 20
19.1730717411
 10
47.2146347613
 20
19.1231660716
 10
47.3154941677
 20
19.0677200753
 10
47.4163535741
 20
19.0066961572
 10
47.5172129806
 20
18.9401319123
 10
47.6173895293
 20
18.8684780067
 10
47.7168785868
 20
18.7916999033
 10
47.8156847865
 20
18.7098321391
 10
47.913139172
 20
18.623428991
 10
48.0092325701
 20
18.5324596831
 10
48.1039741539
 20
18.4369549912
 10
48.1967224858
 20
18.3375615195
 10
48.2874640402
 20
18.2342528799
 10
48.3762123426
 20
18.1270554605
 10
48.4623665323
 20
18.0166950297
 10
48.5459090065
 20
17.9031501243
 10
48.6268573681
 20
17.7864422076
 10
48.7046635648
 20
17.6673614379
 10
48.779306275
 20
17.5458917136
 10
48.8508068205
 20
17.4220491363
 10
48.9186811144
 20
17.2966721687
 10
48.9829045503
 20
17.1697503988
 10
49.0435017347
 20
17.0412942386
 10
49.100062401
 20
16.9121733865
 10
49.1525591586
 20
16.7823833323
 10
49.201019398
 20
16.6519285862
 10
49.2451150246
 20
16.5216923779
 10
49.2848164213
 20
16.3916761905
 10
49.3201532051
 20
16.2618785409
 10
49.3508861321
 20
16.1331782101
 10
49.376983962
 20
16.0055826442
 10
49.3984779351
 20
15.879084397
 10
49.4152225289
 20
15.7545399112
 10
49.4271692357
 20
15.6322346677
 10
49.4343665632
 20
15.5118831856
 10
49.4368145113
 20
15.393485465
  0
LWPOLYLINE
  5
2FF
100
AcDbEntity
  8
0
100
AcDbPolyline
 62
7
  6
CONTINUOUS
 90
13
 70
0
 10
3.3067123084
 20
-3.6799080181
 10
3.2858749046
 20
-3.6902222115
 10
3.2634012185
 20
-3.6979299053
 10
3.2388020705
 20
-3.7028754639
 10
3.2119793819
 20
-3.7051542
 10
3.1830312314
 20
-3.7046708008
 10
3.1516455497
 20
-3.7010507604
 10
3.117579267
 20
-3.6942228913
 10
3.0810754531
 20
-3.6842583809
 10
3.0425512479
 20
-3.6709962856
 10
3.0021456982
 20
-3.6543829576
 10
2.9597197572
 20
-3.6344720448
 10
2.915273425
 20
-3.6112635471
  0
LWPOLYLINE
  5
300
100
AcDbEntity
  8
0
100
AcDbPolyline
 62
7
  6
CONTINUOUS
 90
4
 70
0
 10
3.3254630324
 20
-3.6674779664
 10
3.313722863
 20
-3.6726285964
 10
3.2899426644
 20
-3.6795421191
 10
3.2644357232
 20
-3.6836397667
  0
LWPOLYLINE
  5
301
100
AcDbEntity
  8
0
100
AcDbPolyline
 62
7
  6
CONTINUOUS
 90
8
 70
0
 10
3.7325794674
 20
-4.2963393729
 10
3.741102804
 20
-4.2931245729
 10
3.7497839814
 20
-4.2895965974
 10
3.7586182949
 20
-4.2857217352
 10
3.7676068366
 20
-4.2815042292
 10
3.7767485144
 20
-4.2769398366
 10
3.786035347
 20
-4.2719821184
 10
3.7941053806
 20
-4.2674337061
  0
LWPOLYLINE
  5
302
100
AcDbEntity
  8
0
100
AcDbPolyline
 62
7
  6
CONTINUOUS
 90
5
 70
0
 10
3.2843632443
 20
-4.7497237347
 10
3.3073865749
 20
-4.843296835
 10
3.33045318
 20
-4.9391487627
 10
3.3535630595
 20
-5.037279518
 10
3.3765778569
 20
-5.1376093407
  0
LINE
  5
303
100
AcDbEntity
  8
0
100
AcDbLine
 62
7
  6
CONTINUOUS
 10
3.3765778569
 20
-5.1376093407
 11
3.5223686032
 21
-5.7917768418
  0
LINE
  5
304
100
AcDbEntity
  8
0
100
AcDbLine
 62
7
  6
CONTINUOUS
 10
3.5223686032
 20
-5.7917768418
 11
3.5747679811
 21
-6.031376362
  0
LWPOLYLINE
  5
305
100
AcDbEntity
  8
0
100
AcDbPolyline
 62
7
  6
CONTINUOUS
 90
22
 70
0
 10
4.065227376
 20
-5.6608617997
 10
3.9739147231
 20
-5.2123892696
 10
3.9609427965
 20
-5.1514988435
 10
3.947624741
 20
-5.0921512715
 10
3.9340771202
 20
-5.03429582
 10
3.9201833705
 20
-4.9779832225
 10
3.9055938011
 20
-4.9233656799
 10
3.8902264025
 20
-4.8704526085
 10
3.8741631842
 20
-4.8192345919
 10
3.8573004837
 20
-4.7698355812
 10
3.8395876478
 20
-4.7222136473
 10
3.8210753298
 20
-4.6764107193
 10
3.8018118271
 20
-4.6326765359
 10
3.7817487105
 20
-4.5911044083
 10
3.7609344092
 20
-4.5516010253
 10
3.7395625095
 20
-4.5141361917
 10
3.7175596363
 20
-4.4786565911
 10
3.6949991646
 20
-4.4452155399
 10
3.6722948049
 20
-4.4139427923
 10
3.6495844606
 20
-4.3848815997
 10
3.6267302282
 20
-4.3579887107
 10
3.6037321079
 20
-4.3332641254
  0
LWPOLYLINE
  5
306
100
AcDbEntity
  8
0
100
AcDbPolyline
 62
7
  6
CONTINUOUS
 90
20
 70
0
 10
4.1004966293
 20
-5.6400195423
 10
4.0094298728
 20
-5.1927547601
 10
3.9966035996
 20
-5.1325110495
 10
3.9834170402
 20
-5.0736776884
 10
3.9699887339
 20
-5.0161956376
 10
3.9562001415
 20
-4.9601239363
 10
3.9416956449
 20
-4.9056397024
 10
3.9263882721
 20
-4.8527352613
 10
3.9103649951
 20
-4.8014182876
 10
3.8935311118
 20
-4.7518889222
 10
3.8758488729
 20
-4.7041391806
 10
3.8573560278
 20
-4.6581770474
 10
3.8380711223
 20
-4.6142266177
 10
3.8179204436
 20
-4.5723377117
 10
3.7969777047
 20
-4.5324605093
 10
3.7754825904
 20
-4.4946696452
 10
3.7533781051
 20
-4.4589543103
 10
3.7307212445
 20
-4.4253253137
 10
3.7079226811
 20
-4.3938897178
 10
3.6851193058
 20
-4.3646832098
  0
LINE
  5
307
100
AcDbEntity
  8
0
100
AcDbLine
 62
7
  6
CONTINUOUS
 10
4.2135772836
 20
-6.4002168471
 11
4.065227376
 21
-5.6608617997
  0
LINE
  5
308
100
AcDbEntity
  8
0
100
AcDbLine
 62
7
  6
CONTINUOUS
 10
4.2489326227
 20
-6.3798031174
 11
4.1004966293
 21
-5.6400195423
  0
LINE
  5
309
100
AcDbEntity
  8
0
100
AcDbLine
 62
7
  6
CONTINUOUS
 10
-0.1032509278
 20
-53.9804491828
 11
-0.3121510153
 21
-55.138923282
  0
LINE
  5
30A
100
AcDbEntity
  8
0
100
AcDbLine
 62
7
  6
CONTINUOUS
 10
-0.0076272391
 20
-54.9971022732
 11
0.1085918781
 21
-54.3949339998
  0
LINE
  5
30B
100
AcDbEntity
  8
0
100
AcDbLine
 62
7
  6
CONTINUOUS
 10
0.0277281
 20
-54.9766885435
 11
0.1368575239
 21
-54.4112542294
  0
LINE
  5
30C
100
AcDbEntity
  8
RACCORDO
100
AcDbLine
 62
250
  6
CONTINUOUS
 10
64.2860569162
 20
18.2506185196
 11
62.8718433538
 21
17.434069333
  0
LWPOLYLINE
  5
30D
100
AcDbEntity
  8
0
100
AcDbPolyline
 62
7
  6
CONTINUOUS
 90
51
 70
0
 10
48.8155520535
 20
14.0203001586
 10
48.779306275
 20
14.0003532465
 10
48.7046635648
 20
13.9650790529
 10
48.6268573681
 20
13.9358469289
 10
48.5459090065
 20
13.9126161511
 10
48.4623665323
 20
13.8955440009
 10
48.3762123426
 20
13.8846722689
 10
48.2874640402
 20
13.8799591645
 10
48.1967224858
 20
13.8814365974
 10
48.1039741539
 20
13.8891465745
 10
48.0092325701
 20
13.9030470889
 10
47.913139172
 20
13.9230440285
 10
47.8156847865
 20
13.9491787619
 10
47.7168785868
 20
13.9814099205
 10
47.6173895293
 20
14.0195192869
 10
47.5172129806
 20
14.0635467487
 10
47.4163535741
 20
14.1134524183
 10
47.3154941677
 20
14.1688984146
 10
47.2146347613
 20
14.2299223327
 10
47.1137753549
 20
14.2964865775
 10
47.0135988061
 20
14.3681404832
 10
46.9141097487
 20
14.4449185866
 10
46.8153035489
 20
14.5267863508
 10
46.7178491634
 20
14.6131894989
 10
46.6217557653
 20
14.7041588068
 10
46.5270141815
 20
14.7996634987
 10
46.4342658496
 20
14.8990569703
 10
46.3435242953
 20
15.00236561
 10
46.2547759928
 20
15.1095630294
 10
46.1686218031
 20
15.2199234602
 10
46.0850793289
 20
15.3334683655
 10
46.0041309674
 20
15.4501762822
 10
45.9263247706
 20
15.569257052
 10
45.8516820604
 20
15.6907267762
 10
45.780181515
 20
15.8145693536
 10
45.712307221
 20
15.9399463212
 10
45.6480837851
 20
16.0668680911
 10
45.5874866007
 20
16.1953242513
 10
45.5309259344
 20
16.3244451033
 10
45.4784291769
 20
16.4542351576
 10
45.4299689374
 20
16.5846899037
 10
45.3858733108
 20
16.7149261119
 10
45.3461719141
 20
16.8449422994
 10
45.3108351303
 20
16.9747399489
 10
45.2801022033
 20
17.1034402797
 10
45.2540043734
 20
17.2310358457
 10
45.2325104003
 20
17.3575340929
 10
45.2157658066
 20
17.4820785787
 10
45.2038190997
 20
17.6043838222
 10
45.1966217723
 20
17.7247353043
 10
45.1941738242
 20
17.8431330249
  0
LWPOLYLINE
  5
30E
100
AcDbEntity
  8
0
100
AcDbPolyline
 62
7
  6
CONTINUOUS
 90
20
 70
0
 10
-49.1189298155
 20
73.4885279581
 10
-49.1502935773
 20
73.5163406701
 10
-49.214716593
 20
73.5781868443
 10
-49.2777893705
 20
73.6435369188
 10
-49.3392984917
 20
73.7121697696
 10
-49.3990358291
 20
73.7838531648
 10
-49.4567992504
 20
73.8583445505
 10
-49.5123933025
 20
73.9353918715
 10
-49.5656298728
 20
74.014734424
 10
-49.6163288254
 20
74.0961037379
 10
-49.6643186114
 20
74.1792244853
 10
-49.7094368483
 20
74.2638154118
 10
-49.7515308704
 20
74.3495902886
 10
-49.7904582447
 20
74.4362588805
 10
-49.8260872535
 20
74.5235279285
 10
-49.8582973394
 20
74.6111021418
 10
-49.8869795136
 20
74.698685197
 10
-49.9120367248
 20
74.7859807406
 10
-49.9333841874
 20
74.8726933923
 10
-49.9417583828
 20
74.913615152
  0
LWPOLYLINE
  5
30F
100
AcDbEntity
  8
0
100
AcDbPolyline
 62
7
  6
CONTINUOUS
 90
5
 70
0
 10
-1.7391467222
 20
-54.3523643201
 10
-1.7266529687
 20
-54.3375736184
 10
-1.7128794437
 20
-54.3242204359
 10
-1.6978261471
 20
-54.3123047724
 10
-1.6813802404
 20
-54.3016532442
  0
LWPOLYLINE
  5
310
100
AcDbEntity
  8
0
100
AcDbPolyline
 62
7
  6
CONTINUOUS
 90
5
 70
0
 10
-0.0635301446
 20
-55.3198443316
 10
-0.0510365258
 20
-55.3050536433
 10
-0.0372631088
 20
-55.291700464
 10
-0.0222098935
 20
-55.2797847936
 10
-0.0057636609
 20
-55.2691330188
  0
LINE
  5
311
100
AcDbEntity
  8
0
100
AcDbLine
 62
7
  6
CONTINUOUS
 10
-1.7037913831
 20
-54.3319505904
 11
-1.6911712812
 21
-54.317048394
  0
LINE
  5
312
100
AcDbEntity
  8
0
100
AcDbLine
 62
7
  6
CONTINUOUS
 10
-0.0281748055
 20
-55.2994306019
 11
-0.0155548322
 21
-55.2845284118
  0
LWPOLYLINE
  5
313
100
AcDbEntity
  8
0
100
AcDbPolyline
 62
7
  6
CONTINUOUS
 90
12
 70
0
 10
-0.74820525
 20
-55.7637067824
 10
-0.7237686731
 20
-55.7355035059
 10
-0.7016655627
 20
-55.7048968563
 10
-0.681948061
 20
-55.6720266535
 10
-0.6645640256
 20
-55.6367530776
 10
-0.6493570295
 20
-55.5986566692
 10
-0.6362235986
 20
-55.557861772
 10
-0.6252672069
 20
-55.5142440423
 10
-0.6166418493
 20
-55.4670109897
 10
-0.6103988573
 20
-55.4158984504
 10
-0.6064868993
 20
-55.3611705882
 10
-0.6049059754
 20
-55.302827403
  0
LWPOLYLINE
  5
314
100
AcDbEntity
  8
0
100
AcDbPolyline
 62
7
  6
CONTINUOUS
 90
12
 70
0
 10
0.9274113276
 20
-56.7311867939
 10
0.9518479045
 20
-56.7029835174
 10
0.973951015
 20
-56.6723768678
 10
0.9936685167
 20
-56.639506665
 10
1.011052552
 20
-56.6042330891
 10
1.0262595481
 20
-56.5661366807
 10
1.039392979
 20
-56.5253417835
 10
1.0503493707
 20
-56.4817240539
 10
1.0589747283
 20
-56.4344910012
 10
1.0652177203
 20
-56.383378462
 10
1.0691296783
 20
-56.3286505997
 10
1.0707106023
 20
-56.2703074145
  0
LWPOLYLINE
  5
315
100
AcDbEntity
  8
0
100
AcDbPolyline
 62
7
  6
CONTINUOUS
 90
11
 70
0
 10
-2.4131831188
 20
-53.7958324766
 10
-2.3903389493
 20
-53.7698032466
 10
-2.3700444849
 20
-53.7414064547
 10
-2.352220121
 20
-53.7105044718
 10
-2.3366270444
 20
-53.6766844106
 10
-2.3231348255
 20
-53.6401059104
 10
-2.3118738938
 20
-53.600609332
 10
-2.3029967245
 20
-53.5573028693
 10
-2.2965541429
 20
-53.5098892539
 10
-2.2924953238
 20
-53.4586657544
 10
-2.2908202672
 20
-53.4036323707
  0
LWPOLYLINE
  5
316
100
AcDbEntity
  8
0
100
AcDbPolyline
 62
7
  6
CONTINUOUS
 90
13
 70
0
 10
-0.7396199542
 20
-55.7690929563
 10
-0.712647397
 20
-55.7430733981
 10
-0.6880466977
 20
-55.7146193649
 10
-0.6658178565
 20
-55.6837308566
 10
-0.6460056018
 20
-55.6504907554
 10
-0.6285652052
 20
-55.6148161792
 10
-0.6133624806
 20
-55.5764584819
 10
-0.6003274492
 20
-55.5355961072
 10
-0.5895300899
 20
-55.4920506114
 10
-0.5810461538
 20
-55.4450380179
 10
-0.5749008914
 20
-55.3942970008
 10
-0.5710690522
 20
-55.340088886
 10
-0.5695506363
 20
-55.2824136733
  0
LINE
  5
317
100
AcDbEntity
  8
0
100
AcDbLine
 62
7
  6
CONTINUOUS
 10
-0.7749752933
 20
-55.7895066859
 11
-0.74820525
 21
-55.7637067824
  0
LWPOLYLINE
  5
318
100
AcDbEntity
  8
0
100
AcDbPolyline
 62
7
  6
CONTINUOUS
 90
12
 70
0
 10
-2.4029138543
 20
-53.7987590964
 10
-2.377407152
 20
-53.774989859
 10
-2.3544063136
 20
-53.7486539218
 10
-2.3339752339
 20
-53.7198191354
 10
-2.3160500181
 20
-53.6884176492
 10
-2.3004389816
 20
-53.6542459111
 10
-2.2870605347
 20
-53.6175106796
 10
-2.2759962671
 20
-53.5780051961
 10
-2.2672992642
 20
-53.5349056333
 10
-2.2609872209
 20
-53.4879373819
 10
-2.2570424422
 20
-53.4373750511
 10
-2.2554649281
 20
-53.383218641
  0
LWPOLYLINE
  5
319
100
AcDbEntity
  8
0
100
AcDbPolyline
 62
7
  6
CONTINUOUS
 90
20
 70
0
 10
48.3460842021
 20
-74.0976945981
 10
48.3544583976
 20
-74.1386163578
 10
48.3758058601
 20
-74.2253290095
 10
48.4008630713
 20
-74.3126245532
 10
48.4295452456
 20
-74.4002076083
 10
48.4617553314
 20
-74.4877818216
 10
48.4973843402
 20
-74.5750508696
 10
48.5363117146
 20
-74.6617194616
 10
48.5784057366
 20
-74.7474943383
 10
48.6235239736
 20
-74.8320852648
 10
48.6715137595
 20
-74.9152060122
 10
48.7222127122
 20
-74.9965753261
 10
48.7754492824
 20
-75.0759178787
 10
48.8310433346
 20
-75.1529651997
 10
48.8888067559
 20
-75.2274565854
 10
48.9485440932
 20
-75.2991399806
 10
49.0100532144
 20
-75.3677728313
 10
49.073125992
 20
-75.4331229058
 10
49.1375490077
 20
-75.49496908
 10
49.1689127694
 20
-75.522781792
  0
LWPOLYLINE
  5
31A
100
AcDbEntity
  8
0
100
AcDbPolyline
 62
7
  6
CONTINUOUS
 90
40
 70
0
 10
46.3962553522
 20
-73.723941444
 10
46.3988923205
 20
-73.8475570487
 10
46.4067966695
 20
-73.9739104303
 10
46.4199487477
 20
-74.1026874546
 10
46.4383158571
 20
-74.2335679615
 10
46.461852334
 20
-74.3662265616
 10
46.4904996631
 20
-74.5003334445
 10
46.5241866226
 20
-74.6355551995
 10
46.5628294614
 20
-74.7715556439
 10
46.6063321073
 20
-74.9079966593
 10
46.654586406
 20
-75.0445390317
 10
46.7074723896
 20
-75.1808432954
 10
46.7648585751
 20
-75.3165705765
 10
46.8266022917
 20
-75.4513834354
 10
46.8925500345
 20
-75.5849467063
 10
46.9625378471
 20
-75.7169283298
 10
47.0363917289
 20
-75.8470001788
 10
47.1139280674
 20
-75.9748388742
 10
47.1949540951
 20
-76.1001265888
 10
47.2792683684
 20
-76.2225518376
 10
47.3666612689
 20
-76.3418102522
 10
47.456915524
 20
-76.4576053374
 10
47.5498067473
 20
-76.5696492083
 10
47.6451039968
 20
-76.6776633063
 10
47.7425703484
 20
-76.7813790912
 10
47.8419634854
 20
-76.8805387093
 10
47.9430363008
 20
-76.9748956341
 10
48.0455375117
 20
-77.0642152795
 10
48.1492122838
 20
-77.1482755827
 10
48.2538028655
 20
-77.2268675566
 10
48.3590492279
 20
-77.2997958092
 10
48.4646897122
 20
-77.3668790293
 10
48.5704616793
 20
-77.4279504375
 10
48.6761021635
 20
-77.4828582006
 10
48.781348526
 20
-77.5314658093
 10
48.8859391076
 20
-77.5736524174
 10
48.9896138798
 20
-77.6093131424
 10
49.0921150907
 20
-77.638359326
 10
49.1931879061
 20
-77.6607187549
 10
49.2905002461
 20
-77.6760088962
  0
LWPOLYLINE
  5
31B
100
AcDbEntity
  8
0
100
AcDbPolyline
 62
7
  6
CONTINUOUS
 90
40
 70
0
 10
46.3962553522
 20
18.5371998336
 10
46.3988923205
 20
18.4135842289
 10
46.4067966695
 20
18.2872308473
 10
46.4199487477
 20
18.158453823
 10
46.4383158571
 20
18.027573316
 10
46.461852334
 20
17.894914716
 10
46.4904996631
 20
17.7608078331
 10
46.5241866226
 20
17.6255860781
 10
46.5628294614
 20
17.4895856337
 10
46.6063321073
 20
17.3531446183
 10
46.654586406
 20
17.2166022458
 10
46.7074723896
 20
17.0802979822
 10
46.7648585751
 20
16.9445707011
 10
46.8266022917
 20
16.8097578422
 10
46.8925500345
 20
16.6761945712
 10
46.9625378471
 20
16.5442129477
 10
47.0363917289
 20
16.4141410988
 10
47.1139280674
 20
16.2863024034
 10
47.1949540951
 20
16.1610146888
 10
47.2792683684
 20
16.03858944
 10
47.3666612689
 20
15.9193310254
 10
47.456915524
 20
15.8035359402
 10
47.5498067473
 20
15.6914920692
 10
47.6451039968
 20
15.5834779713
 10
47.7425703484
 20
15.4797621864
 10
47.8419634854
 20
15.3806025683
 10
47.9430363008
 20
15.2862456435
 10
48.0455375117
 20
15.1969259981
 10
48.1492122838
 20
15.1128656949
 10
48.2538028655
 20
15.034273721
 10
48.3590492279
 20
14.9613454684
 10
48.4646897122
 20
14.8942622483
 10
48.5704616793
 20
14.8331908401
 10
48.6761021635
 20
14.778283077
 10
48.781348526
 20
14.7296754683
 10
48.8859391076
 20
14.6874888602
 10
48.9896138798
 20
14.6518281352
 10
49.0921150907
 20
14.6227819516
 10
49.1931879061
 20
14.6004225226
 10
49.2905002461
 20
14.5851323814
  0
LWPOLYLINE
  5
31C
100
AcDbEntity
  8
0
100
AcDbPolyline
 62
7
  6
CONTINUOUS
 90
51
 70
0
 10
45.1941738242
 20
-74.4180082527
 10
45.1966217723
 20
-74.5364059733
 10
45.2038190997
 20
-74.6567574554
 10
45.2157658066
 20
-74.7790626989
 10
45.2325104003
 20
-74.9036071847
 10
45.2540043734
 20
-75.0301054319
 10
45.2801022033
 20
-75.1577009978
 10
45.3108351303
 20
-75.2864013287
 10
45.3461719141
 20
-75.4161989782
 10
45.3858733108
 20
-75.5462151657
 10
45.4299689374
 20
-75.6764513739
 10
45.4784291769
 20
-75.80690612
 10
45.5309259344
 20
-75.9366961743
 10
45.5874866007
 20
-76.0658170263
 10
45.6480837851
 20
-76.1942731865
 10
45.712307221
 20
-76.3211949564
 10
45.780181515
 20
-76.446571924
 10
45.8516820604
 20
-76.5704145013
 10
45.9263247706
 20
-76.6918842256
 10
46.0041309674
 20
-76.8109649954
 10
46.0850793289
 20
-76.9276729121
 10
46.1686218031
 20
-77.0412178174
 10
46.2547759928
 20
-77.1515782482
 10
46.3435242953
 20
-77.2587756676
 10
46.4342658496
 20
-77.3620843072
 10
46.5270141815
 20
-77.4614777789
 10
46.6217557653
 20
-77.5569824708
 10
46.7178491634
 20
-77.6479517787
 10
46.8153035489
 20
-77.7343549268
 10
46.9141097487
 20
-77.816222691
 10
47.0135988061
 20
-77.8930007944
 10
47.1137753549
 20
-77.9646547
 10
47.2146347613
 20
-78.0312189449
 10
47.3154941677
 20
-78.092242863
 10
47.4163535741
 20
-78.1476888593
 10
47.5172129806
 20
-78.1975945289
 10
47.6173895293
 20
-78.2416219907
 10
47.7168785868
 20
-78.2797313571
 10
47.8156847865
 20
-78.3119625157
 10
47.913139172
 20
-78.3380972491
 10
48.0092325701
 20
-78.3580941887
 10
48.1039741539
 20
-78.3719947031
 10
48.1967224858
 20
-78.3797046802
 10
48.2874640402
 20
-78.381182113
 10
48.3762123426
 20
-78.3764690087
 10
48.4623665323
 20
-78.3655972767
 10
48.5459090065
 20
-78.3485251265
 10
48.6268573681
 20
-78.3252943486
 10
48.7046635648
 20
-78.2960622246
 10
48.779306275
 20
-78.2607880311
 10
48.8155520535
 20
-78.240841119
  0
LWPOLYLINE
  5
31D
100
AcDbEntity
  8
0
100
AcDbPolyline
 62
7
  6
CONTINUOUS
 90
18
 70
0
 10
45.1941738242
 20
17.8431330249
 10
45.1966217723
 20
17.9587039165
 10
45.2038190997
 20
18.0707441052
 10
45.2157658066
 20
18.1792535911
 10
45.2325104003
 20
18.2844618397
 10
45.2540043734
 20
18.3861393855
 10
45.2801022033
 20
18.4835978317
 10
45.3108351303
 20
18.5768085488
 10
45.3461719141
 20
18.6658001661
 10
45.3858733108
 20
18.7499701758
 10
45.4299689374
 20
18.8292858598
 10
45.4784291769
 20
18.9037799361
 10
45.5309259344
 20
18.9729480506
 10
45.5874866007
 20
19.0367540629
 10
45.6480837851
 20
19.0952341135
 10
45.712307221
 20
19.1479922694
 10
45.780181515
 20
19.1949897037
 10
45.815436282
 20
19.2163183313
  0
LWPOLYLINE
  5
31E
100
AcDbEntity
  8
0
100
AcDbPolyline
 62
7
  6
CONTINUOUS
 90
9
 70
0
 10
46.3962553522
 20
18.5371998336
 10
46.3988923205
 20
18.6577703333
 10
46.4067966695
 20
18.7749959709
 10
46.4199487477
 20
18.8885853049
 10
46.4383158571
 20
18.9982559343
 10
46.461852334
 20
19.1037352008
 10
46.4904996631
 20
19.2047608661
 10
46.5241866226
 20
19.3010817647
 10
46.5428238867
 20
19.3451523105
  0
LWPOLYLINE
  5
31F
100
AcDbEntity
  8
0
100
AcDbPolyline
 62
7
  6
CONTINUOUS
 90
13
 70
0
 10
0.9359966234
 20
-56.7365729678
 10
0.9629691806
 20
-56.7105534096
 10
0.9875698799
 20
-56.6820993764
 10
1.0097987212
 20
-56.6512108682
 10
1.0296109758
 20
-56.6179707669
 10
1.0470513725
 20
-56.5822961907
 10
1.062254097
 20
-56.5439384934
 10
1.0752891284
 20
-56.5030761187
 10
1.0860864878
 20
-56.4595306229
 10
1.0945704238
 20
-56.4125180294
 10
1.1007156862
 20
-56.3617770123
 10
1.1045475254
 20
-56.3075688975
 10
1.1060659413
 20
-56.2498936848
  0
LINE
  5
320
100
AcDbEntity
  8
0
100
AcDbLine
 62
7
  6
CONTINUOUS
 10
0.9006412843
 20
-56.7569866974
 11
0.9274113276
 21
-56.7311867939
  0
LINE
  5
321
100
AcDbEntity
  8
0
100
AcDbLine
 62
7
  6
CONTINUOUS
 10
-0.9983862347
 20
-55.5186964716
 11
-1.0179262796
 21
-55.5335714142
  0
LINE
  5
322
100
AcDbEntity
  8
0
100
AcDbLine
 62
7
  6
CONTINUOUS
 10
0.6772302879
 20
-56.4861763197
 11
0.6576902279
 21
-56.5010513109
  0
LINE
  5
323
100
AcDbEntity
  8
0
100
AcDbLine
 62
7
  6
CONTINUOUS
 10
-2.4309264205
 20
-53.819961634
 11
-2.4029138543
 21
-53.7987590964
  0
LWPOLYLINE
  5
324
100
AcDbEntity
  8
0
100
AcDbPolyline
 62
7
  6
CONTINUOUS
 90
3
 70
0
 10
-2.4662817595
 20
-53.8403753637
 10
-2.4384973889
 20
-53.8193565156
 10
-2.4131831188
 20
-53.7958324766
  0
LINE
  5
325
100
AcDbEntity
  8
0
100
AcDbLine
 62
7
  6
CONTINUOUS
 10
-2.4771391977
 20
-53.8475097764
 11
-2.4662817595
 21
-53.8403753637
  0
LWPOLYLINE
  5
326
100
AcDbEntity
  8
0
100
AcDbPolyline
 62
7
  6
CONTINUOUS
 90
3
 70
0
 10
-0.795934801
 20
-55.809443817
 10
-0.7676939465
 20
-55.7911876711
 10
-0.7396199542
 20
-55.7690929563
  0
LWPOLYLINE
  5
327
100
AcDbEntity
  8
0
100
AcDbPolyline
 62
7
  6
CONTINUOUS
 90
3
 70
0
 10
-0.8313377559
 20
-55.8297754438
 10
-0.8039344941
 20
-55.8121037608
 10
-0.7749752933
 20
-55.7895066859
  0
LINE
  5
328
100
AcDbEntity
  8
0
100
AcDbLine
 62
7
  6
CONTINUOUS
 10
-1.0179262796
 20
-55.5335714142
 11
-1.0337124939
 21
-55.5432393517
  0
LINE
  5
329
100
AcDbEntity
  8
0
100
AcDbLine
 62
7
  6
CONTINUOUS
 10
-2.6838745851
 20
-53.5025256593
 11
-2.6865378709
 21
-53.5040972943
  0
LINE
  5
32A
100
AcDbEntity
  8
0
100
AcDbLine
 62
7
  6
CONTINUOUS
 10
-4.6901839399
 20
-51.2572109447
 11
-4.7255392789
 21
-51.2776246744
  0
LINE
  5
32B
100
AcDbEntity
  8
0
100
AcDbLine
 62
7
  6
CONTINUOUS
 10
-4.4047848435
 20
-51.4219968061
 11
-4.4401401826
 21
-51.4424105357
  0
LINE
  5
32C
100
AcDbEntity
  8
0
100
AcDbLine
 62
7
  6
CONTINUOUS
 10
-3.9016586296
 20
-51.7124955763
 11
-3.9370139687
 21
-51.732909306
  0
LINE
  5
32D
100
AcDbEntity
  8
0
100
AcDbLine
 62
250
  6
CONTINUOUS
 10
-3.0881241027
 20
-52.1822202161
 11
-3.1234794418
 21
-52.2026339458
  0
LINE
  5
32E
100
AcDbEntity
  8
0
100
AcDbLine
 62
250
  6
CONTINUOUS
 10
-2.7600148043
 20
-52.3951281481
 11
-2.7953701434
 21
-52.4155418778
  0
LINE
  5
32F
100
AcDbEntity
  8
0
100
AcDbLine
 62
7
  6
CONTINUOUS
 10
-3.6162595011
 20
-53.061246848
 11
-3.6516148401
 21
-53.0816605776
  0
LINE
  5
330
100
AcDbEntity
  8
0
100
AcDbLine
 62
250
  6
CONTINUOUS
 10
-2.4940293368
 20
-52.66663168
 11
-2.5293846758
 21
-52.6870454097
  0
LINE
  5
331
100
AcDbEntity
  8
0
100
AcDbLine
 62
7
  6
CONTINUOUS
 10
-4.4047848435
 20
-53.9122311503
 11
-4.4401401826
 21
-53.9326448799
  0
LINE
  5
332
100
AcDbEntity
  8
0
100
AcDbLine
 62
250
  6
CONTINUOUS
 10
-3.0587014194
 20
-53.3831738965
 11
-3.0940567585
 21
-53.4035876262
  0
LINE
  5
333
100
AcDbEntity
  8
0
100
AcDbLine
 62
250
  6
CONTINUOUS
 10
-2.3219581634
 20
-53.0052627681
 11
-2.3573135025
 21
-53.0256764978
  0
LINE
  5
334
100
AcDbEntity
  8
0
100
AcDbLine
 62
7
  6
CONTINUOUS
 10
-1.7435119092
 20
-52.9925555901
 11
-1.7788672483
 21
-53.0129693197
  0
LINE
  5
335
100
AcDbEntity
  8
0
100
AcDbLine
 62
250
  6
CONTINUOUS
 10
-2.2554649281
 20
-53.383218641
 11
-2.2908202672
 21
-53.4036323707
  0
LINE
  5
336
100
AcDbEntity
  8
0
100
AcDbLine
 62
7
  6
CONTINUOUS
 10
-3.6162595011
 20
-54.3675158004
 11
-3.6516148401
 21
-54.3879295301
  0
LINE
  5
337
100
AcDbEntity
  8
0
100
AcDbLine
 62
7
  6
CONTINUOUS
 10
-2.4772957715
 20
-53.8472417148
 11
-2.4660622156
 21
-53.8407556004
  0
LINE
  5
338
100
AcDbEntity
  8
0
100
AcDbLine
 62
7
  6
CONTINUOUS
 10
-1.6478884776
 20
-54.009208532
 11
-1.6832438167
 21
-54.0296222617
  0
LINE
  5
339
100
AcDbEntity
  8
0
100
AcDbLine
 62
7
  6
CONTINUOUS
 10
-0.671058476
 20
-53.6117767614
 11
-0.7064138151
 21
-53.6321904911
  0
LINE
  5
33A
100
AcDbEntity
  8
0
100
AcDbLine
 62
7
  6
CONTINUOUS
 10
-1.7037913831
 20
-54.3319505904
 11
-1.7391467222
 21
-54.3523643201
  0
LINE
  5
33B
100
AcDbEntity
  8
0
100
AcDbLine
 62
250
  6
CONTINUOUS
 10
-1.2403855025
 20
-54.0882189366
 11
-1.2757408415
 21
-54.1086326663
  0
LINE
  5
33C
100
AcDbEntity
  8
0
100
AcDbLine
 62
7
  6
CONTINUOUS
 10
-1.9994882901
 20
-54.6487341465
 11
-2.0348436292
 21
-54.6691478762
  0
LINE
  5
33D
100
AcDbEntity
  8
0
100
AcDbLine
 62
7
  6
CONTINUOUS
 10
-0.671058476
 20
-53.9039461973
 11
-0.7064138151
 21
-53.9243599269
  0
LINE
  5
33E
100
AcDbEntity
  8
0
100
AcDbLine
 62
7
  6
CONTINUOUS
 10
-1.7214448646
 20
-54.7820943749
 11
-1.7568002036
 21
-54.8025081046
  0
LINE
  5
33F
100
AcDbEntity
  8
0
100
AcDbLine
 62
7
  6
CONTINUOUS
 10
-0.0678955887
 20
-53.9600354531
 11
-0.1032509278
 21
-53.9804491828
  0
LINE
  5
340
100
AcDbEntity
  8
0
100
AcDbLine
 62
7
  6
CONTINUOUS
 10
-6.0710678119
 20
-57.4733895267
 11
-6.0357124728
 21
-57.452975797
  0
LINE
  5
341
100
AcDbEntity
  8
0
100
AcDbLine
 62
250
  6
CONTINUOUS
 10
-0.7641069228
 20
-54.5895606589
 11
-0.7994622619
 21
-54.6099743886
  0
LINE
  5
342
100
AcDbEntity
  8
0
100
AcDbLine
 62
250
  6
CONTINUOUS
 10
-1.5787453271
 20
-55.2178083152
 11
-1.6141006661
 21
-55.2382220448
  0
LINE
  5
343
100
AcDbEntity
  8
0
100
AcDbLine
 62
7
  6
CONTINUOUS
 10
-2.6865378709
 20
-53.5040972943
 11
-2.7012234757
 21
-53.5115528301
  0
LWPOLYLINE
  5
344
100
AcDbEntity
  8
RACCORDO
100
AcDbPolyline
 62
250
  6
CONTINUOUS
 90
31
 70
0
 10
60.0434162291
 20
17.434069333
 10
60.1193685786
 20
17.3924535028
 10
60.1989890091
 20
17.3531898433
 10
60.2820592864
 20
17.3163859734
 10
60.3683517208
 20
17.28214277
 10
60.4576297906
 20
17.2505540913
 10
60.549648791
 20
17.2217065196
 10
60.6441565042
 20
17.1956791242
 10
60.7408938911
 20
17.1725432444
 10
60.8395958014
 20
17.1523622939
 10
60.9399917
 20
17.1351915874
 10
61.0418064086
 20
17.1210781886
 10
61.1447608603
 20
17.1100607813
 10
61.2485728641
 20
17.1021695635
 10
61.3529578785
 20
17.0974261644
 10
61.4576297914
 20
17.0958435855
 10
61.5623017042
 20
17.0974261644
 10
61.6666867186
 20
17.1021695635
 10
61.7704987224
 20
17.1100607813
 10
61.8734531741
 20
17.1210781886
 10
61.9752678828
 20
17.1351915874
 10
62.0756637813
 20
17.1523622939
 10
62.1743656916
 20
17.1725432444
 10
62.2711030786
 20
17.1956791242
 10
62.3656107918
 20
17.2217065196
 10
62.4576297922
 20
17.2505540913
 10
62.5469078621
 20
17.28214277
 10
62.6332002965
 20
17.3163859734
 10
62.7162705738
 20
17.3531898433
 10
62.7958910043
 20
17.3924535028
 10
62.8718433538
 20
17.434069333
  0
LWPOLYLINE
  5
345
100
AcDbEntity
  8
RACCORDO
100
AcDbPolyline
 62
250
  6
CONTINUOUS
 90
16
 70
0
 10
-63.7002704786
 20
88.8821231653
 10
-63.7723465672
 20
88.9259771001
 10
-63.8403488391
 20
88.9719489389
 10
-63.9040909049
 20
89.019912676
 10
-63.9633980521
 20
89.0697368462
 10
-64.0181077238
 20
89.1212848849
 10
-64.0680699646
 20
89.1744155025
 10
-64.1131478315
 20
89.2289830718
 10
-64.1532177692
 20
89.2848380266
 10
-64.1881699488
 20
89.3418272727
 10
-64.2179085688
 20
89.3997946062
 10
-64.2423521177
 20
89.4585811429
 10
-64.2614335974
 20
89.5180257529
 10
-64.2751007069
 20
89.5779655027
 10
-64.2833159857
 20
89.6382361015
 10
-64.2860569162
 20
89.698672352
  0
LWPOLYLINE
  5
346
100
AcDbEntity
  8
RACCORDO
100
AcDbPolyline
 62
250
  6
CONTINUOUS
 90
16
 70
0
 10
54.3865619796
 20
-94.4220429482
 10
54.3885001101
 20
-94.5063854011
 10
54.3943091894
 20
-94.5882585727
 10
54.4039732952
 20
-94.6674380543
 10
54.4174659389
 20
-94.7437068203
 10
54.434750138
 20
-94.8168558235
 10
54.4557785178
 20
-94.8866845675
 10
54.4804934409
 20
-94.9530016566
 10
54.5088271655
 20
-95.0156253203
 10
54.5407020309
 20
-95.0743839114
 10
54.5760306701
 20
-95.1291163768
 10
54.6147162499
 20
-95.1796726985
 10
54.6566527359
 20
-95.2259143051
 10
54.701725183
 20
-95.2677144517
 10
54.7498100508
 20
-95.304958567
 10
54.8007272217
 20
-95.3375166705
  0
LWPOLYLINE
  5
347
100
AcDbEntity
  8
0
100
AcDbPolyline
 62
7
  6
CONTINUOUS
 90
51
 70
0
 10
49.4368145113
 20
-76.8676558126
 10
49.4343665632
 20
-76.749258092
 10
49.4271692357
 20
-76.6289066099
 10
49.4152225289
 20
-76.5066013664
 10
49.3984779351
 20
-76.3820568806
 10
49.376983962
 20
-76.2555586334
 10
49.3508861321
 20
-76.1279630675
 10
49.3201532051
 20
-75.9992627367
 10
49.2848164213
 20
-75.8694650871
 10
49.2451150246
 20
-75.7394488997
 10
49.201019398
 20
-75.6092126914
 10
49.1525591586
 20
-75.4787579453
 10
49.100062401
 20
-75.348967891
 10
49.0435017347
 20
-75.219847039
 10
48.9829045503
 20
-75.0913908788
 10
48.9186811144
 20
-74.9644691089
 10
48.8508068205
 20
-74.8390921413
 10
48.779306275
 20
-74.715249564
 10
48.7046635648
 20
-74.5937798397
 10
48.6268573681
 20
-74.4746990699
 10
48.5459090065
 20
-74.3579911533
 10
48.4623665323
 20
-74.2444462479
 10
48.3762123426
 20
-74.1340858171
 10
48.2874640402
 20
-74.0268883977
 10
48.1967224858
 20
-73.9235797581
 10
48.1039741539
 20
-73.8241862864
 10
48.0092325701
 20
-73.7286815945
 10
47.913139172
 20
-73.6377122866
 10
47.8156847865
 20
-73.5513091385
 10
47.7168785868
 20
-73.4694413743
 10
47.6173895293
 20
-73.3926632709
 10
47.5172129806
 20
-73.3210093653
 10
47.4163535741
 20
-73.2544451204
 10
47.3154941677
 20
-73.1934212023
 10
47.2146347613
 20
-73.137975206
 10
47.1137753549
 20
-73.0880695364
 10
47.0135988061
 20
-73.0440420746
 10
46.9141097487
 20
-73.0059327083
 10
46.8153035489
 20
-72.9737015496
 10
46.7178491634
 20
-72.9475668162
 10
46.6217557653
 20
-72.9275698766
 10
46.5270141815
 20
-72.9136693623
 10
46.4342658496
 20
-72.9059593851
 10
46.3435242953
 20
-72.9044819523
 10
46.2547759928
 20
-72.9091950566
 10
46.1686218031
 20
-72.9200667886
 10
46.0850793289
 20
-72.9371389388
 10
46.0041309674
 20
-72.9603697167
 10
45.9263247706
 20
-72.9896018407
 10
45.8516820604
 20
-73.0248760342
 10
45.815436282
 20
-73.0448229463
  0
LWPOLYLINE
  5
348
100
AcDbEntity
  8
0
100
AcDbPolyline
 62
7
  6
CONTINUOUS
 90
18
 70
0
 10
49.4368145113
 20
15.393485465
 10
49.4343665632
 20
15.2779145734
 10
49.4271692357
 20
15.1658743847
 10
49.4152225289
 20
15.0573648988
 10
49.3984779351
 20
14.9521566501
 10
49.376983962
 20
14.8504791043
 10
49.3508861321
 20
14.7530206581
 10
49.3201532051
 20
14.6598099411
 10
49.2848164213
 20
14.5708183237
 10
49.2451150246
 20
14.486648314
 10
49.201019398
 20
14.4073326301
 10
49.1525591586
 20
14.3328385538
 10
49.100062401
 20
14.2636704393
 10
49.0435017347
 20
14.199864427
 10
48.9829045503
 20
14.1413843764
 10
48.9186811144
 20
14.0886262204
 10
48.8508068205
 20
14.0416287862
 10
48.8155520535
 20
14.0203001586
  0
LWPOLYLINE
  5
349
100
AcDbEntity
  8
0
100
AcDbPolyline
 62
7
  6
CONTINUOUS
 90
9
 70
0
 10
46.3962553522
 20
-73.723941444
 10
46.3988923205
 20
-73.6033709443
 10
46.4067966695
 20
-73.4861453067
 10
46.4199487477
 20
-73.3725559727
 10
46.4383158571
 20
-73.2628853432
 10
46.461852334
 20
-73.1574060768
 10
46.4904996631
 20
-73.0563804115
 10
46.5241866226
 20
-72.9600595129
 10
46.5428238867
 20
-72.9159889671
  0
LWPOLYLINE
  5
34A
100
AcDbEntity
  8
RACCORDO
100
AcDbPolyline
 62
250
  6
CONTINUOUS
 90
31
 70
0
 10
54.3865619796
 20
27.2320282939
 10
54.3885001101
 20
27.3186088516
 10
54.3943091895
 20
27.4071902025
 10
54.4039732953
 20
27.4975295513
 10
54.417465939
 20
27.5893792843
 10
54.4347501382
 20
27.6824876475
 10
54.455778518
 20
27.7765994376
 10
54.4804934412
 20
27.8714567006
 10
54.5088271659
 20
27.9667994393
 10
54.5407020313
 20
28.0623663259
 10
54.5760306706
 20
28.1578954183
 10
54.6147162504
 20
28.2531248778
 10
54.6566527363
 20
28.3477936871
 10
54.7017251833
 20
28.4416423656
 10
54.749810051
 20
28.5344136805
 10
54.800775542
 20
28.6258533522
 10
54.8544819634
 20
28.7157107509
 10
54.9107821099
 20
28.8037395836
 10
54.9695216664
 20
28.8896985696
 10
55.030539632
 20
28.973352101
 10
55.0936687608
 20
29.0544708895
 10
55.15873602
 20
29.1328325941
 10
55.225563065
 20
29.2082224308
 10
55.2939667274
 20
29.2804337613
 10
55.3637595175
 20
29.3492686594
 10
55.4347501382
 20
29.4145384533
 10
55.506744009
 20
29.4760642432
 10
55.5795437999
 20
29.5336773911
 10
55.6529499716
 20
29.5872199833
 10
55.7267613228
 20
29.6365452634
 10
55.800775542
 20
29.6815180342
  0
LWPOLYLINE
  5
34B
100
AcDbEntity
  8
0
100
AcDbPolyline
 62
7
  6
CONTINUOUS
 90
3
 70
0
 10
0.8796817831
 20
-56.7769238242
 10
0.9079226333
 20
-56.7586676812
 10
0.9359966234
 20
-56.7365729678
  0
LWPOLYLINE
  5
34C
100
AcDbEntity
  8
0
100
AcDbPolyline
 62
7
  6
CONTINUOUS
 90
3
 70
0
 10
0.8442788281
 20
-56.7972554507
 10
0.871682084
 20
-56.7795837718
 10
0.9006412843
 20
-56.7569866974
  0
LINE
  5
34D
100
AcDbEntity
  8
0
100
AcDbLine
 62
7
  6
CONTINUOUS
 10
0.6576902279
 20
-56.5010513109
 11
0.6419037921
 21
-56.5107194001
  0
LINE
  5
34E
100
AcDbEntity
  8
0
100
AcDbLine
 62
250
  6
CONTINUOUS
 10
-1.3065863793
 20
-55.4921570437
 11
-1.3419417184
 21
-55.5125707734
  0
LINE
  5
34F
100
AcDbEntity
  8
0
100
AcDbLine
 62
250
  6
CONTINUOUS
 10
-0.5695506363
 20
-55.2824136733
 11
-0.6049059754
 21
-55.302827403
  0
LINE
  5
350
100
AcDbEntity
  8
0
100
AcDbLine
 62
7
  6
CONTINUOUS
 10
0.0277281
 20
-54.9766885435
 11
-0.0076272391
 21
-54.9971022732
  0
LINE
  5
351
100
AcDbEntity
  8
0
100
AcDbLine
 62
7
  6
CONTINUOUS
 10
1.0045578445
 20
-54.5792566245
 11
0.9692025054
 21
-54.5996703541
  0
LINE
  5
352
100
AcDbEntity
  8
0
100
AcDbLine
 62
7
  6
CONTINUOUS
 10
-0.0281748055
 20
-55.2994306019
 11
-0.0635301446
 21
-55.3198443316
  0
LINE
  5
353
100
AcDbEntity
  8
0
100
AcDbLine
 62
250
  6
CONTINUOUS
 10
0.4352310751
 20
-55.0556989481
 11
0.3998757361
 21
-55.0761126778
  0
LINE
  5
354
100
AcDbEntity
  8
0
100
AcDbLine
 62
250
  6
CONTINUOUS
 10
-0.7396199542
 20
-55.7690929563
 11
-0.7749752933
 21
-55.7895066859
  0
LINE
  5
355
100
AcDbEntity
  8
0
100
AcDbLine
 62
7
  6
CONTINUOUS
 10
-0.3238719696
 20
-55.6162140096
 11
-0.3592273087
 21
-55.6366277392
  0
LINE
  5
356
100
AcDbEntity
  8
0
100
AcDbLine
 62
7
  6
CONTINUOUS
 10
1.0045578445
 20
-54.8714260603
 11
0.9692025054
 21
-54.89183979
  0
LINE
  5
357
100
AcDbEntity
  8
0
100
AcDbLine
 62
7
  6
CONTINUOUS
 10
-0.0458285441
 20
-55.749574238
 11
-0.0811838831
 21
-55.7699879677
  0
LINE
  5
358
100
AcDbEntity
  8
0
100
AcDbLine
 62
250
  6
CONTINUOUS
 10
0.9115094614
 20
-55.5570407816
 11
0.8761541224
 21
-55.5774545113
  0
LINE
  5
359
100
AcDbEntity
  8
0
100
AcDbLine
 62
250
  6
CONTINUOUS
 10
0.0968710511
 20
-56.1852881377
 11
0.061515712
 21
-56.2057018674
  0
LINE
  5
35A
100
AcDbEntity
  8
0
100
AcDbLine
 62
250
  6
CONTINUOUS
 10
0.3690299412
 20
-56.4596369068
 11
0.3336746022
 21
-56.4800506365
  0
LINE
  5
35B
100
AcDbEntity
  8
0
100
AcDbLine
 62
250
  6
CONTINUOUS
 10
1.1060659413
 20
-56.2498936848
 11
1.0707106023
 21
-56.2703074145
  0
LINE
  5
35C
100
AcDbEntity
  8
0
100
AcDbLine
 62
250
  6
CONTINUOUS
 10
0.9359966234
 20
-56.7365729678
 11
0.9006412843
 21
-56.7569866974
  0
LWPOLYLINE
  5
35D
100
AcDbEntity
  8
0
100
AcDbPolyline
 62
7
  6
CONTINUOUS
 90
13
 70
0
 10
-1.0337124939
 20
-55.5432393517
 10
-1.0415398835
 20
-55.5475091614
 10
-1.0655525482
 20
-55.5585123338
 10
-1.0899642737
 20
-55.5665809315
 10
-1.1146562623
 20
-55.5716175315
 10
-1.1397473118
 20
-55.5737195568
 10
-1.1655938146
 20
-55.5731792757
 10
-1.1921408063
 20
-55.5701853299
 10
-1.2194432514
 20
-55.5645490778
 10
-1.2480224365
 20
-55.5559968618
 10
-1.2780521238
 20
-55.5444374628
 10
-1.3093585511
 20
-55.5299621
 10
-1.3419417184
 20
-55.5125707734
  0
LWPOLYLINE
  5
35E
100
AcDbEntity
  8
0
100
AcDbPolyline
 62
7
  6
CONTINUOUS
 90
13
 70
0
 10
0.6419037921
 20
-56.5107194001
 10
0.6340766554
 20
-56.5149890782
 10
0.6100640176
 20
-56.5259922686
 10
0.5856523144
 20
-56.534060882
 10
0.5609603455
 20
-56.5390974963
 10
0.5358693113
 20
-56.5411995337
 10
0.5100228126
 20
-56.5406592604
 10
0.4834758155
 20
-56.5376653206
 10
0.4561733541
 20
-56.5320290703
 10
0.4275941317
 20
-56.5234768432
 10
0.3975643828
 20
-56.5119174176
 10
0.3662578729
 20
-56.4974420154
 10
0.3336746022
 20
-56.4800506365
  0
LWPOLYLINE
  5
35F
100
AcDbEntity
  8
0
100
AcDbPolyline
 62
7
  6
CONTINUOUS
 90
4
 70
0
 10
-1.6813802404
 20
-54.3016532442
 10
-1.6641123035
 20
-54.2927063831
 10
-1.6449876282
 20
-54.2851828967
 10
-1.624119053
 20
-54.2792561688
  0
LWPOLYLINE
  5
360
100
AcDbEntity
  8
0
100
AcDbPolyline
 62
7
  6
CONTINUOUS
 90
4
 70
0
 10
-0.0057636609
 20
-55.2691330188
 10
0.0115038539
 20
-55.260186354
 10
0.0306285421
 20
-55.2526628364
 10
0.0514971848
 20
-55.2467360794
  0
LWPOLYLINE
  5
361
100
AcDbEntity
  8
0
100
AcDbPolyline
 62
7
  6
CONTINUOUS
 90
13
 70
0
 10
-2.7012234757
 20
-53.5115528301
 10
-2.7169036805
 20
-53.5179053004
 10
-2.7351578019
 20
-53.522038645
 10
-2.7559858401
 20
-53.5239528641
 10
-2.7790781698
 20
-53.5239722445
 10
-2.8047444161
 20
-53.5217724993
 10
-2.8339134549
 20
-53.5163807677
 10
-2.8665351826
 20
-53.5078974044
 10
-2.9026597027
 20
-53.4962220547
 10
-2.9433662017
 20
-53.4800807944
 10
-2.9890144084
 20
-53.4590489822
 10
-3.039244594
 20
-53.4335512595
 10
-3.0940567585
 20
-53.4035876262
  0
LWPOLYLINE
  5
362
100
AcDbEntity
  8
0
100
AcDbPolyline
 62
7
  6
CONTINUOUS
 90
4
 70
0
 10
-2.6693208214
 20
-53.492417647
 10
-2.6821415149
 20
-53.4971652141
 10
-2.699924616
 20
-53.5012707708
 10
-2.7192174398
 20
-53.5034557704
  0
LWPOLYLINE
  5
363
100
AcDbEntity
  8
RACCORDO
100
AcDbPolyline
 62
250
  6
CONTINUOUS
 90
46
 70
0
 10
-58.0434162291
 20
92.147688633
 10
-58.241185249
 20
92.2578637387
 10
-58.4382481519
 20
92.3597228756
 10
-58.6346049377
 20
92.4532660438
 10
-58.8304968161
 20
92.5385892911
 10
-59.0256825774
 20
92.6155965697
 10
-59.2194385925
 20
92.6839997362
 10
-59.4117567892
 20
92.7437653275
 10
-59.6026452398
 20
92.7949268068
 10
-59.7914045322
 20
92.8372964197
 10
-59.9780252381
 20
92.8708415639
 10
-60.1625167859
 20
92.8955948417
 10
-60.3442080483
 20
92.9114663053
 10
-60.5230896199
 20
92.9184237128
 10
-60.6991709061
 20
92.9164993061
 10
-60.8718089962
 20
92.9056998628
 10
-61.0409912231
 20
92.885992888
 10
-61.2067302539
 20
92.8574108767
 10
-61.3684211791
 20
92.8200580913
 10
-61.5260492649
 20
92.7739023832
 10
-61.679629245
 20
92.718975901
 10
-61.8286004111
 20
92.655479353
 10
-61.9729454767
 20
92.5833817077
 10
-62.1126817281
 20
92.5027139966
 10
-62.2473003167
 20
92.4137700226
 10
-62.3767829818
 20
92.3165193385
 10
-62.501147984
 20
92.2109923916
 10
-62.619941257
 20
92.097574326
 10
-62.7331423571
 20
91.9762363097
 10
-62.840771728
 20
91.8470071748
 10
-62.9424366335
 20
91.7103585624
 10
-63.0381152788
 20
91.5662632324
 10
-63.1278294588
 20
91.4147484249
 10
-63.211251821
 20
91.2563675004
 10
-63.288359151
 20
91.0910962122
 10
-63.3591746633
 20
90.9189588071
 10
-63.4234406491
 20
90.7405813867
 10
-63.4811335612
 20
90.5559394647
 10
-63.5322769469
 20
90.3650575274
 10
-63.5766837399
 20
90.1686351357
 10
-63.6143290454
 20
89.9666472248
 10
-63.6452377582
 20
89.7591188596
 10
-63.6692974962
 20
89.5468247955
 10
-63.6864707985
 20
89.3300232843
 10
-63.696795126
 20
89.1084560743
 10
-63.7002704786
 20
88.8821231653
  0
LWPOLYLINE
  5
364
100
AcDbEntity
  8
RACCORDO
100
AcDbPolyline
 62
250
  6
CONTINUOUS
 90
24
 70
0
 10
-56.6292026667
 20
94.5971783733
 10
-56.8759472728
 20
94.7346731944
 10
-57.12239926
 20
94.8620596339
 10
-57.3682583799
 20
94.9791815378
 10
-57.6132268855
 20
95.0858959905
 10
-57.8570043937
 20
95.1820710581
 10
-58.0992883501
 20
95.2675867436
 10
-58.3397829963
 20
95.3423383937
 10
-58.5781957793
 20
95.4062348101
 10
-58.8142323952
 20
95.4591970629
 10
-59.0476032843
 20
95.5011605101
 10
-59.278026229
 20
95.5320747385
 10
-59.5052228293
 20
95.5519024346
 10
-59.7289171956
 20
95.5606193253
 10
-59.9488357493
 20
95.5582145505
 10
-60.1647098861
 20
95.5446909653
 10
-60.3762764688
 20
95.520065027
 10
-60.5832778174
 20
95.4843667019
 10
-60.78546143
 20
95.437639523
 10
-60.9825810644
 20
95.3799404038
 10
-61.1743964556
 20
95.3113396766
 10
-61.3606733803
 20
95.2319211767
 10
-61.5411843916
 20
95.1417820617
 10
-61.6294442681
 20
95.0925901501
  0
LINE
  5
365
100
AcDbEntity
  8
RACCORDO
100
AcDbLine
 62
250
  6
CONTINUOUS
 10
54.3865619796
 20
27.2320282939
 11
-58.0434162291
 21
92.147688633
  0
LINE
  5
366
100
AcDbEntity
  8
RACCORDO
100
AcDbLine
 62
250
  6
CONTINUOUS
 10
55.800775542
 20
29.6815180342
 11
-56.6292026667
 21
94.5971783733
  0
LINE
  5
367
100
AcDbEntity
  8
0
100
AcDbLine
 62
7
  6
CONTINUOUS
 10
57.2149891043
 20
30.4980672208
 11
-55.2149891043
 21
95.4137275599
  0
LWPOLYLINE
  5
368
100
AcDbEntity
  8
0
100
AcDbPolyline
 62
7
  6
CONTINUOUS
 90
20
 70
0
 10
48.3460842021
 20
18.1634466795
 10
48.3544583976
 20
18.1225249198
 10
48.3758058601
 20
18.0358122681
 10
48.4008630713
 20
17.9485167244
 10
48.4295452456
 20
17.8609336693
 10
48.4617553314
 20
17.773359456
 10
48.4973843402
 20
17.6860904079
 10
48.5363117146
 20
17.599421816
 10
48.5784057366
 20
17.5136469393
 10
48.6235239736
 20
17.4290560128
 10
48.6715137595
 20
17.3459352654
 10
48.7222127122
 20
17.2645659514
 10
48.7754492824
 20
17.1852233989
 10
48.8310433346
 20
17.1081760779
 10
48.8888067559
 20
17.0336846922
 10
48.9485440932
 20
16.962001297
 10
49.0100532144
 20
16.8933684463
 10
49.073125992
 20
16.8280183718
 10
49.1375490077
 20
16.7661721976
 10
49.1689127694
 20
16.7383594856
  0
LWPOLYLINE
  5
369
100
AcDbEntity
  8
RACCORDO
100
AcDbPolyline
 62
250
  6
CONTINUOUS
 90
46
 70
0
 10
60.0434162291
 20
17.434069333
 10
60.0399396764
 20
17.6644332878
 10
60.0296141443
 20
17.89793643
 10
60.0124396326
 20
18.1345787597
 10
59.9883787075
 20
18.3746604066
 10
59.9574688028
 20
18.617881241
 10
59.9198222206
 20
18.8633408731
 10
59.8754140166
 20
19.1110443846
 10
59.824269135
 20
19.3609866938
 10
59.7665747105
 20
19.6122521663
 10
59.7023072223
 20
19.8648434959
 10
59.6314901911
 20
20.1187579887
 10
59.5543813134
 20
20.3730719279
 10
59.4709573691
 20
20.6277878605
 10
59.3812415783
 20
20.8829032395
 10
59.2855612972
 20
21.1374867082
 10
59.1838947176
 20
21.391536232
 10
59.0762636477
 20
21.6450538455
 10
58.9630608684
 20
21.897114295
 10
58.8442659048
 20
22.1477123899
 10
58.7198992318
 20
22.3968533209
 10
58.5904150546
 20
22.643627406
 10
58.4557951426
 20
22.8880252113
 10
58.3160577265
 20
23.1300561707
 10
58.1717117043
 20
23.3688389038
 10
58.0227398384
 20
23.6043622785
 10
57.8691593664
 20
23.8366374269
 10
57.7115308989
 20
24.0648163656
 10
57.5498396886
 20
24.2888840043
 10
57.3841004828
 20
24.5088554332
 10
57.2149181349
 20
24.7239279397
 10
57.042279952
 20
24.934083687
 10
56.8661986269
 20
25.1393405118
 10
56.6873170916
 20
25.3389492117
 10
56.5056259551
 20
25.5328884038
 10
56.3211346084
 20
25.721179471
 10
56.1345141556
 20
25.9031373594
 10
55.9457551649
 20
26.0787403254
 10
55.754867068
 20
26.2480101126
 10
55.5625492643
 20
26.410326898
 10
55.3687924947
 20
26.5656672826
 10
55.1736060182
 20
26.7140546654
 10
54.9777170108
 20
26.8549394206
 10
54.7813678646
 20
26.9881383394
 10
54.5843161875
 20
27.1138346305
 10
54.3865619796
 20
27.2320282939
  0
LINE
  5
36A
100
AcDbEntity
  8
RACCORDO
100
AcDbLine
 62
250
  6
CONTINUOUS
 10
60.0434162291
 20
-91.1564774805
 11
60.0434162291
 21
17.434069333
  0
LWPOLYLINE
  5
36B
100
AcDbEntity
  8
0
100
AcDbPolyline
 62
7
  6
CONTINUOUS
 90
22
 70
0
 10
-55.2149891043
 20
95.4137275599
 10
-55.479998149
 20
95.5609645119
 10
-55.74390095
 20
95.696226036
 10
-56.0066975074
 20
95.8195121321
 10
-56.2687519318
 20
95.9309616002
 10
-56.5297001126
 20
96.0304356404
 10
-56.7884497179
 20
96.1175178533
 10
-57.0449915315
 20
96.1921562941
 10
-57.2993347694
 20
96.2544029075
 10
-57.5504147483
 20
96.3039971286
 10
-57.7982177888
 20
96.3408859203
 10
-58.0427575701
 20
96.3651223197
 10
-58.2830104461
 20
96.376604873
 10
-58.5189584466
 20
96.3752801177
 10
-58.7506195417
 20
96.3612015163
 10
-58.9770239955
 20
96.3344280019
 10
-59.1981497729
 20
96.2949063592
 10
-59.414018909
 20
96.2426898035
 10
-59.6237277733
 20
96.1779969139
 10
-59.8272505427
 20
96.1007753914
 10
-60.0246130402
 20
96.011077535
 10
-60.2152307057
 20
95.9091393366
  0
LWPOLYLINE
  5
36C
100
AcDbEntity
  8
0
100
AcDbPolyline
 62
7
  6
CONTINUOUS
 90
43
 70
0
 10
64.2860569162
 20
18.2506185196
 10
64.2810546364
 20
18.5595030015
 10
64.266234173
 20
18.8727790407
 10
64.241595526
 20
19.1904466371
 10
64.2070768304
 20
19.5129619359
 10
64.1627399512
 20
19.839868792
 10
64.108770483
 20
20.1697987696
 10
64.0451280475
 20
20.5027645412
 10
63.9718530229
 20
20.8387534344
 10
63.8892521394
 20
21.1763589959
 10
63.7972863044
 20
21.5155880026
 10
63.6959946104
 20
21.8564336776
 10
63.5858010656
 20
22.1974692372
 10
63.4666683548
 20
22.5386954773
 10
63.3386337933
 20
22.880111602
 10
63.202233335
 20
23.2202884396
 10
63.0574319114
 20
23.5592207953
 10
62.9042645912
 20
23.8969138638
 10
62.7433725343
 20
24.2319540584
 10
62.5747233599
 20
24.5643302584
 10
62.3983494488
 20
24.8940535845
 10
62.2149891043
 20
25.2197438112
 10
62.0246130402
 20
25.5413840322
 10
61.8272505427
 20
25.8589911537
 10
61.6237277733
 20
26.1712356689
 10
61.414018909
 20
26.4780950984
 10
61.1981497729
 20
26.7795919215
 10
60.9770239955
 20
27.0744640692
 10
60.7506195417
 20
27.3626837719
 10
60.5189584466
 20
27.6442787991
 10
60.2830104461
 20
27.9180703911
 10
60.0427575701
 20
28.1840258369
 10
59.7982177888
 20
28.4421778474
 10
59.5504147483
 20
28.6914457954
 10
59.2993347694
 20
28.9317924403
 10
59.0449915315
 20
29.1632550227
 10
58.7884497179
 20
29.3848646378
 10
58.5297001126
 20
29.5965799833
 10
58.2687519318
 20
29.7984423614
 10
58.0066975074
 20
29.9896067741
 10
57.74390095
 20
30.1697915551
 10
57.479998149
 20
30.3392783707
 10
57.2149891043
 20
30.4980672208
  0
LWPOLYLINE
  5
36D
100
AcDbEntity
  8
RACCORDO
100
AcDbPolyline
 62
250
  6
CONTINUOUS
 90
46
 70
0
 10
62.8718433538
 20
17.434069333
 10
62.8675369713
 20
17.7214627349
 10
62.8546225151
 20
18.0134884544
 10
62.8331148862
 20
18.3097912021
 10
62.8030392
 20
18.6100126789
 10
62.7644314007
 20
18.9137852899
 10
62.7173388565
 20
19.2207323368
 10
62.6618188253
 20
19.5304792581
 10
62.5979386154
 20
19.8426493906
 10
62.5257770353
 20
20.1568574096
 10
62.4454228955
 20
20.4727176928
 10
62.3569736579
 20
20.7898481006
 10
62.2605362205
 20
21.1078654534
 10
62.1562275195
 20
21.4263836739
 10
62.0441749523
 20
21.7450133134
 10
61.9245153063
 20
22.0633652447
 10
61.7973944161
 20
22.3810514303
 10
61.6629670863
 20
22.6976849541
 10
61.521397282
 20
23.0128795899
 10
61.3728574263
 20
23.3262514562
 10
61.217528575
 20
23.6374185882
 10
61.0556004569
 20
23.94600099
 10
60.8872709498
 20
24.2516217847
 10
60.7127447194
 20
24.5539095856
 10
60.5322333034
 20
24.8524980004
 10
60.3459560091
 20
25.1470240782
 10
60.1541402775
 20
25.4371280256
 10
59.9570203079
 20
25.7224555687
 10
59.754836356
 20
26.0026589348
 10
59.5478346716
 20
26.277396843
 10
59.3362677581
 20
26.5463341743
 10
59.1203932862
 20
26.8091434101
 10
58.9004744015
 20
27.0655042169
 10
58.6767797376
 20
27.3151035291
 10
58.4495828889
 20
27.5576362718
 10
58.2191597321
 20
27.7928081458
 10
57.9857886546
 20
28.0203349905
 10
57.7497518769
 20
28.2399413198
 10
57.5113389566
 20
28.4513574031
 10
57.2708441752
 20
28.6543223352
 10
57.0285594264
 20
28.8485899951
 10
56.7847811203
 20
29.0339229364
 10
56.5398137881
 20
29.210090391
 10
56.2939584935
 20
29.3768772091
 10
56.0475123322
 20
29.5340831969
 10
55.800775542
 20
29.6815180342
  0
LINE
  5
36E
100
AcDbEntity
  8
RACCORDO
100
AcDbLine
 62
250
  6
CONTINUOUS
 10
62.8718433538
 20
-91.1564774805
 11
62.8718433538
 21
17.434069333
  0
LINE
  5
36F
100
AcDbEntity
  8
0
100
AcDbLine
 62
7
  6
CONTINUOUS
 10
64.2860569162
 20
-90.3399282938
 11
64.2860569162
 21
18.2506185196
  0
LWPOLYLINE
  5
370
100
AcDbEntity
  8
0
100
AcDbPolyline
 62
7
  6
CONTINUOUS
 90
40
 70
0
 10
-48.9973423388
 20
71.335300854
 10
-49.0946546789
 20
71.3505909952
 10
-49.1957274943
 20
71.3729504241
 10
-49.2982287051
 20
71.4019966078
 10
-49.4019034773
 20
71.4376573327
 10
-49.5064940589
 20
71.4798439408
 10
-49.6117404214
 20
71.5284515495
 10
-49.7173809056
 20
71.5833593126
 10
-49.8231528728
 20
71.6444307208
 10
-49.928793357
 20
71.7115139409
 10
-50.0340397195
 20
71.7844421935
 10
-50.1386303011
 20
71.8630341674
 10
-50.2423050733
 20
71.9470944707
 10
-50.3448062841
 20
72.036414116
 10
-50.4458790995
 20
72.1307710409
 10
-50.5452722365
 20
72.2299306589
 10
-50.6427385881
 20
72.3336464439
 10
-50.7380358376
 20
72.4416605418
 10
-50.830927061
 20
72.5537044127
 10
-50.9211813161
 20
72.6694994979
 10
-51.0085742165
 20
72.7887579125
 10
-51.0928884899
 20
72.9111831614
 10
-51.1739145175
 20
73.0364708759
 10
-51.251450856
 20
73.1643095713
 10
-51.3253047378
 20
73.2943814203
 10
-51.3952925505
 20
73.4263630438
 10
-51.4612402933
 20
73.5599263147
 10
-51.5229840098
 20
73.6947391737
 10
-51.5803701954
 20
73.8304664547
 10
-51.6332561789
 20
73.9667707184
 10
-51.6815104776
 20
74.1033130909
 10
-51.7250131235
 20
74.2397541062
 10
-51.7636559624
 20
74.3757545507
 10
-51.7973429219
 20
74.5109763057
 10
-51.825990251
 20
74.6450831886
 10
-51.8495267279
 20
74.7777417886
 10
-51.8678938372
 20
74.9086222955
 10
-51.8810459154
 20
75.0373993198
 10
-51.8889502644
 20
75.1637527015
 10
-51.8915872328
 20
75.2873683061
  0
LWPOLYLINE
  5
371
100
AcDbEntity
  8
0
100
AcDbPolyline
 62
7
  6
CONTINUOUS
 90
18
 70
0
 10
45.815436282
 20
-73.0448229463
 10
45.780181515
 20
-73.0661515739
 10
45.712307221
 20
-73.1131490082
 10
45.6480837851
 20
-73.1659071641
 10
45.5874866007
 20
-73.2243872147
 10
45.5309259344
 20
-73.288193227
 10
45.4784291769
 20
-73.3573613415
 10
45.4299689374
 20
-73.4318554178
 10
45.3858733108
 20
-73.5111711018
 10
45.3461719141
 20
-73.5953411114
 10
45.3108351303
 20
-73.6843327288
 10
45.2801022033
 20
-73.7775434458
 10
45.2540043734
 20
-73.875001892
 10
45.2325104003
 20
-73.9766794379
 10
45.2157658066
 20
-74.0818876865
 10
45.2038190997
 20
-74.1903971724
 10
45.1966217723
 20
-74.3024373611
 10
45.1941738242
 20
-74.4180082527
  0
LWPOLYLINE
  5
372
100
AcDbEntity
  8
0
100
AcDbPolyline
 62
7
  6
CONTINUOUS
 90
18
 70
0
 10
48.8155520535
 20
-78.240841119
 10
48.8508068205
 20
-78.2195124914
 10
48.9186811144
 20
-78.1725150572
 10
48.9829045503
 20
-78.1197569012
 10
49.0435017347
 20
-78.0612768506
 10
49.100062401
 20
-77.9974708383
 10
49.1525591586
 20
-77.9283027238
 10
49.201019398
 20
-77.8538086475
 10
49.2451150246
 20
-77.7744929635
 10
49.2848164213
 20
-77.6903229539
 10
49.3201532051
 20
-77.6013313365
 10
49.3508861321
 20
-77.5081206195
 10
49.376983962
 20
-77.4106621733
 10
49.3984779351
 20
-77.3089846274
 10
49.4152225289
 20
-77.2037763788
 10
49.4271692357
 20
-77.0952668929
 10
49.4343665632
 20
-76.9832267042
 10
49.4368145113
 20
-76.8676558126
  0
LWPOLYLINE
  5
373
100
AcDbEntity
  8
0
100
AcDbPolyline
 62
7
  6
CONTINUOUS
 90
22
 70
0
 10
62.2152307057
 20
-94.9172969052
 10
62.3983494488
 20
-94.8034860925
 10
62.5747233599
 20
-94.6774349379
 10
62.7433725343
 20
-94.5398105771
 10
62.9042645912
 20
-94.3905644969
 10
63.0574319114
 20
-94.2297452105
 10
63.202233335
 20
-94.0580259093
 10
63.3386337933
 20
-93.8753609019
 10
63.4666683548
 20
-93.6817958796
 10
63.5858010656
 20
-93.4781411077
 10
63.6959946104
 20
-93.2643542915
 10
63.7972863044
 20
-93.0404777257
 10
63.8892521394
 20
-92.8074485602
 10
63.9718530229
 20
-92.5652284284
 10
64.0451280475
 20
-92.3138556969
 10
64.108770483
 20
-92.0543826146
 10
64.1627399512
 20
-91.7867752261
 10
64.2070768304
 20
-91.5110674867
 10
64.241595526
 20
-91.2284135123
 10
64.266234173
 20
-90.9391980079
 10
64.2810546364
 20
-90.6430362684
 10
64.2860569162
 20
-90.3399282938
  0
LWPOLYLINE
  5
374
100
AcDbEntity
  8
RACCORDO
100
AcDbPolyline
 62
250
  6
CONTINUOUS
 90
24
 70
0
 10
60.8010171434
 20
-95.7338460919
 10
60.8872830667
 20
-95.6822879732
 10
61.0556121191
 20
-95.571049144
 10
61.2175397533
 20
-95.4494565681
 10
61.3728681004
 20
-95.3176586159
 10
61.5214074516
 20
-95.1758161735
 10
61.6629767564
 20
-95.0241021188
 10
61.7974035844
 20
-94.8627012285
 10
61.9245239684
 20
-94.6918103863
 10
62.0441831077
 20
-94.5116377353
 10
62.1562351619
 20
-94.3224029133
 10
62.2605433293
 20
-94.1243371145
 10
62.3569802092
 20
-93.9176826884
 10
62.4454288744
 20
-93.7026906676
 10
62.525782434
 20
-93.4796207783
 10
62.5979434261
 20
-93.248742617
 10
62.6618230425
 20
-93.0103392483
 10
62.7173424804
 20
-92.7647049687
 10
62.7644345466
 20
-92.5121380206
 10
62.8030418195
 20
-92.2529475033
 10
62.8331167219
 20
-91.9874575773
 10
62.8546234689
 20
-91.7159952082
 10
62.8675372442
 20
-91.4388891128
 10
62.8718433538
 20
-91.1564774805
  0
LINE
  5
375
100
AcDbEntity
  8
RACCORDO
100
AcDbLine
 62
250
  6
CONTINUOUS
 10
64.2860569162
 20
-90.3399282938
 11
62.8718433538
 21
-91.1564774805
  0
LINE
  5
376
100
AcDbEntity
  8
ASSI
100
AcDbLine
 62
7
  6
CONTINUOUS
 10
62.2152307057
 20
-94.9172969053
 11
60.8010171434
 21
-95.7338460919
  0
ENDSEC
  0
SECTION
  2
OBJECTS
  0
DICTIONARY
  5
C
100
AcDbDictionary
280
0
281
1
  3
ACAD_GROUP
350
D
  3
ACAD_MLINESTYLE
350
17
  3
ACAD_LAYOUT
350
1A
  3
ACAD_PLOTSETTINGS
350
19
  3
ACAD_PLOTSTYLENAME
350
E
  0
DICTIONARY
  5
D
102
{ACAD_REACTORS
330
C
102
}
100
AcDbDictionary
280
0
281
1
  0
ACDBDICTIONARYWDFLT
  5
E
102
{ACAD_REACTORS
330
C
102
}
100
AcDbDictionary
281
1
  3
Normal
350
F
100
AcDbDictionaryWithDefault
340
F
  0
DICTIONARY
  5
17
102
{ACAD_REACTORS
330
C
102
}
100
AcDbDictionary
280
0
281
1
  3
Standard
350
18
  0
DICTIONARY
  5
19
102
{ACAD_REACTORS
330
C
102
}
100
AcDbDictionary
281
1
  0
DICTIONARY
  5
1A
102
{ACAD_REACTORS
330
C
102
}
100
AcDbDictionary
281
1
  3
Model
350
377
  3
Layout1
350
378
  0
ACDBPLACEHOLDER
  5
F
102
{ACAD_REACTORS
330
E
102
}
  0
MLINESTYLE
  5
18
102
{ACAD_REACTORS
330
17
102
}
100
AcDbMlineStyle
  2
STANDARD
 70
0
  3

 62
256
 51
90.0
 52
90.0
 71
2
 49
0.5
 62
256
  6
BYLAYER
 49
-0.5
 62
256
  6
BYLAYER
  0
LAYOUT
  5
377
102
{ACAD_REACTORS
330
1A
102
}
100
AcDbPlotSettings
  1

  2
none_device
  4
ANSI_C_(22.00_x_17.00_Inches)
  6

 40
0.0
 41
0.0
 42
0.0
 43
0.0
 44
558.8
 45
431.8
 46
0.0
 47
0.0
 48
0.0
 49
0.0
140
0.0
141
0.0
142
1.0
143
1.0
 70
1024
 72
1
 73
0
 74
0
  7

 75
0
147
1.0
148
0.0
149
0.0
100
AcDbLayout
  1
Model
 70
0
 71
0
 10
0.0
 20
0.0
 11
558.8
 21
431.8
 12
0.0
 22
0.0
 32
0.0
 14
0.0
 24
0.0
 34
0.0
 15
0.0
 25
0.0
 35
0.0
146
0.0
 13
0.0
 23
0.0
 33
0.0
 16
1.0
 26
0.0
 36
0.0
 17
0.0
 27
1.0
 37
0.0
 76
0
330
212
345
0
346
0
  0
LAYOUT
  5
378
102
{ACAD_REACTORS
330
1A
102
}
100
AcDbPlotSettings
  1

  2
none_device
  4
ANSI_C_(22.00_x_17.00_Inches)
  6

 40
0.0
 41
0.0
 42
0.0
 43
0.0
 44
558.8
 45
431.8
 46
0.0
 47
0.0
 48
0.0
 49
0.0
140
0.0
141
0.0
142
1.0
143
1.0
 70
0
 72
1
 73
0
 74
0
  7

 75
0
147
1.0
148
0.0
149
0.0
100
AcDbLayout
  1
Layout1
 70
0
 71
1
 10
0.0
 20
0.0
 11
558.8
 21
431.8
 12
0.0
 22
0.0
 32
0.0
 14
0.0
 24
0.0
 34
0.0
 15
0.0
 25
0.0
 35
0.0
146
0.0
 13
0.0
 23
0.0
 33
0.0
 16
1.0
 26
0.0
 36
0.0
 17
0.0
 27
1.0
 37
0.0
 76
0
330
213
345
0
346
0
  0
ENDSEC
  0
EOF
