  0
SECTION
  2
HEADER
  9
$ACADVER
  1
AC1021
  9
$DWGCODEPAGE
  3
ANSI_1252
  9
$EXTMAX
 10
297.0
 20
210.0
 30
0.0
  9
$EXTMIN
 10
0.0
 20
0.0
 30
0.0
  9
$LIMMIN
 10
0.0
 20
0.0
  9
$LIMMAX
 10
297.0
 20
210.0
  9
$VIEWCTR
 10
148.5
 20
105.0
  9
$VIEWSIZE
 40
210.0
  9
$CLAYER
  8
0
  9
$LTSCALE
 40
16.335
  9
$CELTYPE
  6
BYLAYER
  9
$DIMSCALE
 40
1.0
  9
$DIMASZ
 40
3.0
  9
$DIMEXO
 40
0.5
  9
$DIMDLI
 40
11.286
  9
$DIMEXE
 40
1.5
  9
$DIMCEN
 40
2.673
  9
$DIMLFAC
 40
1.0
  9
$DIMBLK
  1
_FILLED
  9
$DIMALT
 70
0
  9
$DIMALTF
 40
25.4
  9
$DIMTXT
 40
3.0
  9
$DIMTOL
 70
1
  9
$DIMLIM
 70
0
  9
$DIMTFAC
 40
1.0
  9
$DIMTP
 40
0.01
  9
$DIMTM
 40
0.01
  9
$DIMGAP
 40
0.625
  9
$DIMDSEP
 70
44
  9
$AUNITS
 70
0
  9
$PDMODE
 70
3
  9
$PDSIZE
 40
3.0
  9
$HANDSEED
  5
26E
  9
$TILEMODE
 70
1
  9
$MEASUREMENT
 70
1
  9
$INSUNITS
 70
4
  0
ENDSEC
  0
SECTION
  2
CLASSES
  0
CLASS
  1
ACDBDICTIONARYWDFLT
  2
AcDbDictionaryWithDefault
  3
AutoCAD 2000
 90
0
 91
1
280
0
281
0
  0
CLASS
  1
ACDBPLACEHOLDER
  2
AcDbPlaceHolder
  3
AutoCAD 2000
 90
0
 91
1
280
0
281
0
  0
CLASS
  1
LAYOUT
  2
AcDbLayout
  3
AutoCAD 2000
 90
0
 91
0
280
0
281
0
  0
ENDSEC
  0
SECTION
  2
TABLES
  0
TABLE
  2
VPORT
  5
8
100
AcDbSymbolTable
 70
2
  0
VPORT
  5
1F4
100
AcDbSymbolTableRecord
100
AcDbViewportTableRecord
  2
*ACTIVE
 70
0
 10
0.0
 20
0.0
 11
1.0
 21
1.0
 12
148.5
 22
105.0
 13
0.0
 23
0.0
 14
1.0
 24
1.0
 15
0.0
 25
0.0
 16
0.0
 26
0.0
 36
1.0
 17
0.0
 27
0.0
 37
0.0
 40
210.0
 41
1.4142857143
 42
50.0
 43
0.0
 44
0.0
 50
0.0
 51
0.0
 71
0
 72
100
 73
1
 74
1
 75
0
 76
0
 77
0
 78
0
  0
ENDTAB
  0
TABLE
  2
LTYPE
  5
5
100
AcDbSymbolTable
 70
6
  0
LTYPE
  5
14
100
AcDbSymbolTableRecord
100
AcDbLinetypeTableRecord
  2
BYBLOCK
 70
0
  3

 72
65
 73
0
 40
0.0
  0
LTYPE
  5
15
100
AcDbSymbolTableRecord
100
AcDbLinetypeTableRecord
  2
BYLAYER
 70
0
  3

 72
65
 73
0
 40
0.0
  0
LTYPE
  5
16
100
AcDbSymbolTableRecord
100
AcDbLinetypeTableRecord
  2
CONTINUOUS
 70
64
  3
Solid line
 72
65
 73
0
 40
0.0
  0
LTYPE
  5
1F5
100
AcDbSymbolTableRecord
100
AcDbLinetypeTableRecord
  2
CENTER
 70
64
  3
____ _ ____ _ ____ _ ____ _ ____ _ ____ _ ____
 72
65
 73
4
 40
0.6
 49
0.375
 74
0
 49
-0.075
 74
0
 49
0.075
 74
0
 49
-0.075
 74
0
  0
LTYPE
  5
1F6
100
AcDbSymbolTableRecord
100
AcDbLinetypeTableRecord
  2
HIDDEN
 70
64
  3
- - - - - - - - - - - - - - - - - - - -
 72
65
 73
2
 40
0.2
 49
0.1
 74
0
 49
-0.1
 74
0
  0
LTYPE
  5
1F7
100
AcDbSymbolTableRecord
100
AcDbLinetypeTableRecord
  2
PHANTOM
 70
64
  3
_____ _ _ _____ _ _ _____ _ _ _____
 72
65
 73
6
 40
0.8
 49
0.45
 74
0
 49
-0.05
 74
0
 49
0.1
 74
0
 49
-0.05
 74
0
 49
0.1
 74
0
 49
-0.05
 74
0
  0
LTYPE
  5
1F8
100
AcDbSymbolTableRecord
100
AcDbLinetypeTableRecord
  2
DOT
 70
64
  3
. . . . . . . . . . . . . . . . . . . .
 72
65
 73
2
 40
0.2
 49
0.1
 74
0
 49
-0.1
 74
0
  0
LTYPE
  5
1F9
100
AcDbSymbolTableRecord
100
AcDbLinetypeTableRecord
  2
DASHED
 70
64
  3
- - - - - - - - - - - - - - - - - - - -
 72
65
 73
2
 40
0.2
 49
0.1
 74
0
 49
-0.1
 74
0
  0
ENDTAB
  0
TABLE
  2
LAYER
  5
2
100
AcDbSymbolTable
 70
36
  0
LAYER
  5
10
100
AcDbSymbolTableRecord
100
AcDbLayerTableRecord
  2
0
 70
0
 62
7
  6
CONTINUOUS
370
-3
390
F
  0
LAYER
  5
1FA
100
AcDbSymbolTableRecord
100
AcDbLayerTableRecord
  2
DEFAULT_1
 70
0
 62
7
  6
CENTER
370
-3
390
F
  0
LAYER
  5
1FB
100
AcDbSymbolTableRecord
100
AcDbLayerTableRecord
  2
DEFAULT_2
 70
0
 62
7
  6
HIDDEN
370
-3
390
F
  0
LAYER
  5
1FC
100
AcDbSymbolTableRecord
100
AcDbLayerTableRecord
  2
DEFAULT_3
 70
0
 62
7
  6
PHANTOM
370
-3
390
F
  0
LAYER
  5
1FD
100
AcDbSymbolTableRecord
100
AcDbLayerTableRecord
  2
ASSI
 70
0
 62
7
  6
CONTINUOUS
370
-3
390
F
  0
LAYER
  5
1FE
100
AcDbSymbolTableRecord
100
AcDbLayerTableRecord
  2
COLOR5
 70
0
 62
7
  6
CONTINUOUS
370
-3
390
F
  0
LAYER
  5
1FF
100
AcDbSymbolTableRecord
100
AcDbLayerTableRecord
  2
COORDINATE
 70
0
 62
7
  6
CONTINUOUS
370
-3
390
F
  0
LAYER
  5
200
100
AcDbSymbolTableRecord
100
AcDbLayerTableRecord
  2
COORD_ORIGINE
 70
0
 62
7
  6
CONTINUOUS
370
-3
390
F
  0
LAYER
  5
201
100
AcDbSymbolTableRecord
100
AcDbLayerTableRecord
  2
COPY_PUBLISH
 70
0
 62
7
  6
CONTINUOUS
370
-3
390
F
  0
LAYER
  5
202
100
AcDbSymbolTableRecord
100
AcDbLayerTableRecord
  2
COSMETICI
 70
0
 62
7
  6
CONTINUOUS
370
-3
390
F
  0
LAYER
  5
203
100
AcDbSymbolTableRecord
100
AcDbLayerTableRecord
  2
CURVE
 70
0
 62
7
  6
CONTINUOUS
370
-3
390
F
  0
LAYER
  5
204
100
AcDbSymbolTableRecord
100
AcDbLayerTableRecord
  2
DRAFT
 70
0
 62
7
  6
CONTINUOUS
370
-3
390
F
  0
LAYER
  5
205
100
AcDbSymbolTableRecord
100
AcDbLayerTableRecord
  2
IMPORT_IGES
 70
0
 62
7
  6
CONTINUOUS
370
-3
390
F
  0
LAYER
  5
206
100
AcDbSymbolTableRecord
100
AcDbLayerTableRecord
  2
INTF_1
 70
0
 62
7
  6
CONTINUOUS
370
-3
390
F
  0
LAYER
  5
207
100
AcDbSymbolTableRecord
100
AcDbLayerTableRecord
  2
INTF_11
 70
0
 62
7
  6
CONTINUOUS
370
-3
390
F
  0
LAYER
  5
208
100
AcDbSymbolTableRecord
100
AcDbLayerTableRecord
  2
NOTE
 70
0
 62
7
  6
CONTINUOUS
370
-3
390
F
  0
LAYER
  5
209
100
AcDbSymbolTableRecord
100
AcDbLayerTableRecord
  2
PIANI
 70
0
 62
7
  6
CONTINUOUS
370
-3
390
F
  0
LAYER
  5
20A
100
AcDbSymbolTableRecord
100
AcDbLayerTableRecord
  2
PIANI_ORIGINE
 70
0
 62
7
  6
CONTINUOUS
370
-3
390
F
  0
LAYER
  5
20B
100
AcDbSymbolTableRecord
100
AcDbLayerTableRecord
  2
PUNTI
 70
0
 62
7
  6
CONTINUOUS
370
-3
390
F
  0
LAYER
  5
20C
100
AcDbSymbolTableRecord
100
AcDbLayerTableRecord
  2
RACCORDO
 70
0
 62
7
  6
CONTINUOUS
370
-3
390
F
  0
LAYER
  5
20D
100
AcDbSymbolTableRecord
100
AcDbLayerTableRecord
  2
RGB____0____0____0__
 70
0
 62
7
  6
CONTINUOUS
370
-3
390
F
  0
LAYER
  5
20E
100
AcDbSymbolTableRecord
100
AcDbLayerTableRecord
  2
SIMBOLI
 70
0
 62
7
  6
CONTINUOUS
370
-3
390
F
  0
LAYER
  5
20F
100
AcDbSymbolTableRecord
100
AcDbLayerTableRecord
  2
SMUSSO
 70
0
 62
7
  6
CONTINUOUS
370
-3
390
F
  0
LAYER
  5
210
100
AcDbSymbolTableRecord
100
AcDbLayerTableRecord
  2
SUPERFICI
 70
0
 62
7
  6
CONTINUOUS
370
-3
390
F
  0
LAYER
  5
211
100
AcDbSymbolTableRecord
100
AcDbLayerTableRecord
  2
TRASH
 70
0
 62
7
  6
CONTINUOUS
370
-3
390
F
  0
ENDTAB
  0
TABLE
  2
STYLE
  5
3
100
AcDbSymbolTable
 70
1
  0
STYLE
  5
11
100
AcDbSymbolTableRecord
100
AcDbTextStyleTableRecord
  2
STANDARD
 70
0
 40
0.0
 41
0.8
 50
0.0
 71
0
 42
0.2
  3
txt
  4

  0
STYLE
  5
212
100
AcDbSymbolTableRecord
100
AcDbTextStyleTableRecord
  2
TEXTSTYLE_1
 70
0
 40
0.0
 41
0.8
 50
0.0
 71
0
 42
0.2
  3
gdt
  4

  0
ENDTAB
  0
TABLE
  2
VIEW
  5
6
100
AcDbSymbolTable
 70
0
  0
ENDTAB
  0
TABLE
  2
UCS
  5
7
100
AcDbSymbolTable
 70
0
  0
ENDTAB
  0
TABLE
  2
APPID
  5
9
100
AcDbSymbolTable
 70
1
  0
APPID
  5
213
100
AcDbSymbolTableRecord
100
AcDbRegAppTableRecord
  2
ACAD
 70
0
  0
ENDTAB
  0
TABLE
  2
BLOCK_RECORD
  5
1
100
AcDbSymbolTable
 70
0
  0
BLOCK_RECORD
  5
214
100
AcDbSymbolTableRecord
100
AcDbBlockTableRecord
  2
*Model_Space
  0
BLOCK_RECORD
  5
215
100
AcDbSymbolTableRecord
100
AcDbBlockTableRecord
  2
*Paper_Space
  0
ENDTAB
  0
TABLE
  2
DIMSTYLE
  5
A
100
AcDbSymbolTable
 70
1
100
AcDbDimStyleTable
 71
0
  0
DIMSTYLE
105
216
100
AcDbSymbolTableRecord
100
AcDbDimStyleTableRecord
  2
STANDARD
 70
0
  3

  4

 40
1.0
 41
3.0
 42
0.5
 43
0.38
 44
1.5
 45
0.0
 46
0.0
 47
0.01
 48
0.01
140
3.0
141
0.09
142
0.0
143
25.4
144
1.0
145
0.0
146
1.0
147
0.625
 71
1.0
 72
0.0
 73
0
 74
0
 75
0
 76
0
 77
1
 78
8
170
0
171
1
172
0
173
0
174
0
175
0
176
0
177
0
178
0
270
2
271
2
272
2
273
2
274
2
275
0
280
0
281
0
282
0
283
1
284
8
285
0
286
0
287
3
288
0
340
11
278
44
  0
ENDTAB
  0
ENDSEC
  0
SECTION
  2
BLOCKS
  0
BLOCK
  5
20
100
AcDbEntity
  8
0
100
AcDbBlockBegin
  2
*Model_Space
 70
0
 10
0.0
 20
0.0
 30
0.0
  3
*Model_Space
  1

  0
ENDBLK
  5
21
100
AcDbEntity
  8
0
100
AcDbBlockEnd
  0
BLOCK
  5
1C
100
AcDbEntity
  8
0
100
AcDbBlockBegin
  2
*Paper_Space
 70
0
 10
0.0
 20
0.0
 30
0.0
  3
*Paper_Space
  1

  0
ENDBLK
  5
1D
100
AcDbEntity
  8
0
100
AcDbBlockEnd
  0
ENDSEC
  0
SECTION
  2
ENTITIES
  0
LWPOLYLINE
  5
217
100
AcDbEntity
  8
RACCORDO
100
AcDbPolyline
 62
7
  6
CONTINUOUS
 90
21
 70
0
 10
-24.4347865256
 20
28.4063466625
 10
-24.5352691226
 20
28.3344732494
 10
-24.6327529536
 20
28.2560068803
 10
-24.7270014603
 20
28.1708585844
 10
-24.8176147725
 20
28.0791123553
 10
-24.9040768202
 20
27.9810538608
 10
-24.9861260589
 20
27.8767708234
 10
-25.0635391554
 20
27.7663410055
 10
-25.1359580629
 20
27.6500938189
 10
-25.2031985332
 20
27.5281638139
 10
-25.2651156569
 20
27.4006507401
 10
-25.3214926547
 20
27.2678504518
 10
-25.3722060449
 20
27.12990545
 10
-25.4171615006
 20
26.9869182322
 10
-25.4562313221
 20
26.8391265084
 10
-25.4893239339
 20
26.6866715509
 10
-25.516365403
 20
26.529655295
 10
-25.5372674183
 20
26.3682610592
 10
-25.5519495735
 20
26.2026433692
 10
-25.560345736
 20
26.0329540896
 10
-25.5624879748
 20
25.8912981688
  0
LINE
  5
218
100
AcDbEntity
  8
RACCORDO
100
AcDbLine
 62
7
  6
CONTINUOUS
 10
-24.4347865256
 20
28.4063466625
 11
-24.2236293827
 21
28.5460076346
  0
LWPOLYLINE
  5
219
100
AcDbEntity
  8
RACCORDO
100
AcDbPolyline
 62
253
  6
CONTINUOUS
 90
3
 70
0
 10
-24.2261307863
 20
28.5265631999
 10
-24.3208366567
 20
28.4769495985
 10
-24.4186896606
 20
28.41708165
  0
LINE
  5
21A
100
AcDbEntity
  8
RACCORDO
100
AcDbLine
 62
253
  6
CONTINUOUS
 10
-24.1281110143
 20
28.5701834408
 11
-24.2261307863
 21
28.5265631999
  0
LWPOLYLINE
  5
21B
100
AcDbEntity
  8
RACCORDO
100
AcDbPolyline
 62
7
  6
CONTINUOUS
 90
40
 70
0
 10
-25.5624879741
 20
1.8162341352
 10
-25.5606449598
 20
1.6829664939
 10
-25.5531111385
 20
1.5131251807
 10
-25.5398528825
 20
1.341685218
 10
-25.5209597051
 20
1.1688950203
 10
-25.4965277126
 20
0.994959197
 10
-25.4666479203
 20
0.8200751161
 10
-25.4314108808
 20
0.6444470456
 10
-25.3909176391
 20
0.4683078085
 10
-25.3452734041
 20
0.2919194973
 10
-25.294583932
 20
0.1155125681
 10
-25.2389567619
 20
-0.0606927087
 10
-25.1785107965
 20
-0.2364337015
 10
-25.1133740402
 20
-0.41145758
 10
-25.0436556814
 20
-0.5855657016
 10
-24.9694588625
 20
-0.7585659325
 10
-24.8909157483
 20
-0.9302178405
 10
-24.8081416751
 20
-1.1003148307
 10
-24.7212220374
 20
-1.2687107429
 10
-24.6302834897
 20
-1.435184238
 10
-24.535450524
 20
-1.5995129361
 10
-24.4368095725
 20
-1.7615487183
 10
-24.3344890783
 20
-1.9210728652
 10
-24.2286175747
 20
-2.0778634587
 10
-24.1192824186
 20
-2.2317708027
 10
-24.0066040542
 20
-2.3825901114
 10
-23.8907247736
 20
-2.530087844
 10
-23.7717617351
 20
-2.6740768285
 10
-23.6498321939
 20
-2.8143613401
 10
-23.5250913707
 20
-2.9507065821
 10
-23.3977070775
 20
-3.0828778369
 10
-23.2678155803
 20
-3.2106714987
 10
-23.1355645659
 20
-3.3338831175
 10
-23.0011282362
 20
-3.4522890632
 10
-22.8646575209
 20
-3.5656851153
 10
-22.7262834583
 20
-3.6738933094
 10
-22.586131012
 20
-3.7767356369
 10
-22.4443311176
 20
-3.8740256267
 10
-22.3010554334
 20
-3.9655617311
 10
-22.1841153207
 20
-4.03530183
  0
LINE
  5
21C
100
AcDbEntity
  8
RACCORDO
100
AcDbLine
 62
7
  6
CONTINUOUS
 10
-25.5624879751
 20
25.8913102256
 11
-25.5624879751
 21
1.816211798
  0
LWPOLYLINE
  5
21D
100
AcDbEntity
  8
RACCORDO
100
AcDbPolyline
 62
253
  6
CONTINUOUS
 90
43
 70
0
 10
-25.342818061
 20
1.5100058537
 10
-25.3404530424
 20
1.3760724394
 10
-25.3340053798
 20
1.2412956397
 10
-25.3234750733
 20
1.1056754545
 10
-25.3088403673
 20
0.9693613782
 10
-25.2901230173
 20
0.8322039163
 10
-25.2673882897
 20
0.6937545865
 10
-25.2406131704
 20
0.553653462
 10
-25.2098206734
 20
0.4122604695
 10
-25.1751451081
 20
0.2702069058
 10
-25.1365739565
 20
0.1275115213
 10
-25.0941197365
 20
-0.0158444344
 10
-25.0479543114
 20
-0.1592859156
 10
-24.9980615318
 20
-0.3028178317
 10
-24.944457547
 20
-0.4464352735
 10
-24.8873626683
 20
-0.5895484676
 10
-24.8267628584
 20
-0.7321546365
 10
-24.7626721545
 20
-0.8742565579
 10
-24.6953529796
 20
-1.0152727906
 10
-24.6247924098
 20
-1.1551985564
 10
-24.5510033689
 20
-1.2940386336
 10
-24.4742870513
 20
-1.4312259167
 10
-24.3946305167
 20
-1.5667551816
 10
-24.3120467055
 20
-1.7006316524
 10
-24.2268756318
 20
-1.8323038958
 10
-24.1391113486
 20
-1.9617571137
 10
-24.0487598031
 20
-2.0890061041
 10
-23.9561788508
 20
-2.213543828
 10
-23.861337112
 20
-2.3353837924
 10
-23.7642659664
 20
-2.4545124903
 10
-23.665417409
 20
-2.5703823613
 10
-23.5650724105
 20
-2.6827238992
 10
-23.4629500001
 20
-2.7918066102
 10
-23.3586592607
 20
-2.8978914526
 10
-23.2519438882
 20
-3.0012899432
 10
-23.1430601867
 20
-3.1016905652
 10
-23.0323861503
 20
-3.1984197275
 10
-22.9197535534
 20
-3.2915624504
 10
-22.8053306217
 20
-3.3810337136
 10
-22.6900000263
 20
-3.4659048651
 10
-22.5740559911
 20
-3.5458663544
 10
-22.4572042924
 20
-3.621227732
 10
-22.3394449299
 20
-3.691988998
  0
LINE
  5
21E
100
AcDbEntity
  8
RACCORDO
100
AcDbLine
 62
253
  6
CONTINUOUS
 10
-25.342818061
 20
25.5851042806
 11
-25.342818061
 21
1.5100058537
  0
LWPOLYLINE
  5
21F
100
AcDbEntity
  8
RACCORDO
100
AcDbPolyline
 62
253
  6
CONTINUOUS
 90
25
 70
0
 10
-22.3394449299
 20
27.3188791228
 10
-22.3383593419
 20
27.3586669204
 10
-22.3351070216
 20
27.3995454391
 10
-22.3297012838
 20
27.441347322
 10
-22.3221642591
 20
27.483901432
 10
-22.3125268038
 20
27.5270335522
 10
-22.3008283733
 20
27.5705670991
 10
-22.2871168609
 20
27.614323846
 10
-22.2714484011
 20
27.6581246522
 10
-22.2538871408
 20
27.7017901964
 10
-22.2345049754
 20
27.7451417112
 10
-22.2133812558
 20
27.7880017149
 10
-22.1906024624
 20
27.8301947375
 10
-22.1662618518
 20
27.8715480401
 10
-22.1404590747
 20
27.9118923215
 10
-22.1132997679
 20
27.9510624111
 10
-22.0848951221
 20
27.9888979458
 10
-22.0553614262
 20
28.025244026
 10
-22.0248195917
 20
28.0599518497
 10
-21.9933946574
 20
28.0928793225
 10
-21.9612152775
 20
28.1238916385
 10
-21.9284131952
 20
28.1528618322
 10
-21.895122703
 20
28.179671299
 10
-21.8614800925
 20
28.2042102804
 10
-21.6391576494
 20
28.3509451166
  0
LWPOLYLINE
  5
220
100
AcDbEntity
  8
RACCORDO
100
AcDbPolyline
 62
253
  6
CONTINUOUS
 90
13
 70
0
 10
-22.3394449299
 20
-3.691988998
 10
-22.3383593404
 20
-3.7305232094
 10
-22.3351070163
 20
-3.7676460497
 10
-22.3297012726
 20
-3.8032055373
 10
-22.3221642405
 20
-3.8370560912
 10
-22.3125267768
 20
-3.8690591268
 10
-22.3008283373
 20
-3.8990836231
 10
-22.2871168157
 20
-3.9270066595
 10
-22.2714483471
 20
-3.9527139186
 10
-22.2538870784
 20
-3.9761001546
 10
-22.2345049058
 20
-3.9970696237
 10
-22.2133811801
 20
-4.0155364769
 10
-22.1906023822
 20
-4.0314251104
  0
LWPOLYLINE
  5
221
100
AcDbEntity
  8
RACCORDO
100
AcDbPolyline
 62
253
  6
CONTINUOUS
 90
43
 70
0
 10
19.7240770528
 20
-27.9789394111
 10
19.8388879052
 20
-28.0424989581
 10
19.9523876551
 20
-28.1005874116
 10
20.0645763024
 20
-28.1532047715
 10
20.1753134985
 20
-28.2002448822
 10
20.2847395921
 20
-28.2418138994
 10
20.3932756293
 20
-28.2782302906
 10
20.5012218175
 20
-28.3096408181
 10
20.6082779495
 20
-28.3358987196
 10
20.7139644494
 20
-28.3568821761
 10
20.8182588189
 20
-28.3725637432
 10
20.9211835565
 20
-28.3829708653
 10
21.0223265819
 20
-28.3880640567
 10
21.1216840713
 20
-28.3878224624
 10
21.2192598486
 20
-28.3822669373
 10
21.3146533049
 20
-28.3714205601
 10
21.4078550154
 20
-28.3552616808
 10
21.4988744048
 20
-28.3338119494
 10
21.5873391386
 20
-28.3071593947
 10
21.6732386158
 20
-28.2752829731
 10
21.7565834372
 20
-28.2382037282
 10
21.8370330711
 20
-28.196072819
 10
21.9145765222
 20
-28.1488689557
 10
21.9892247857
 20
-28.0966134283
 10
22.0606703146
 20
-28.0395212649
 10
22.128897319
 20
-27.977576482
 10
22.1939215888
 20
-27.9107950632
 10
22.2554829461
 20
-27.8394399879
 10
22.3135773974
 20
-27.7634727172
 10
22.3682089362
 20
-27.6829317899
 10
22.4191293654
 20
-27.5981958022
 10
22.4662457772
 20
-27.5095355369
 10
22.5096510794
 20
-27.4166802111
 10
22.5493757983
 20
-27.3191960725
 10
22.5855615596
 20
-27.2168689493
 10
22.6180667376
 20
-27.1099130133
 10
22.6464969819
 20
-26.9985370277
 10
22.6708418035
 20
-26.8825406923
 10
22.6911116915
 20
-26.7621243071
 10
22.7069437618
 20
-26.6380975359
 10
22.7182170534
 20
-26.5107302663
 10
22.7250525274
 20
-26.3797526107
 10
22.7274501838
 20
-26.2451645689
  0
LWPOLYLINE
  5
222
100
AcDbEntity
  8
RACCORDO
100
AcDbPolyline
 62
7
  6
CONTINUOUS
 90
22
 70
0
 10
19.8793774832
 20
-28.3222353962
 10
20.0007877233
 20
-28.3899554031
 10
20.1520898054
 20
-28.4677214979
 10
20.3030089984
 20
-28.5379932841
 10
20.4533817396
 20
-28.600753585
 10
20.6030351905
 20
-28.6559951503
 10
20.7517655481
 20
-28.7037013601
 10
20.8994468711
 20
-28.7438870131
 10
21.0459098341
 20
-28.7765594584
 10
21.190882608
 20
-28.8017081506
 10
21.3342292807
 20
-28.8193667807
 10
21.475764176
 20
-28.8295702672
 10
21.6151218888
 20
-28.8323568496
 10
21.7521443444
 20
-28.8278050308
 10
21.8866215674
 20
-28.8160061669
 10
22.0180871859
 20
-28.7971044263
 10
22.1463631793
 20
-28.7712575199
 10
22.271241824
 20
-28.7386480153
 10
22.3922146902
 20
-28.6995794415
 10
22.5090091591
 20
-28.6543592005
 10
22.6215845529
 20
-28.6032379414
 10
22.8482065536
 20
-28.4901391687
  0
LINE
  5
223
100
AcDbEntity
  8
RACCORDO
100
AcDbLine
 62
7
  6
CONTINUOUS
 10
-22.1841329642
 20
-4.0352916439
 11
19.8793890191
 21
-28.3222420573
  0
LINE
  5
224
100
AcDbEntity
  8
RACCORDO
100
AcDbLine
 62
253
  6
CONTINUOUS
 10
-22.3394449299
 20
-3.691988998
 11
19.7240770528
 21
-27.9789394111
  0
LWPOLYLINE
  5
225
100
AcDbEntity
  8
0
100
AcDbPolyline
 62
7
  6
CONTINUOUS
 90
30
 70
0
 10
23.9713834888
 20
-6.7987387967
 10
23.9863402574
 20
-6.7960664939
 10
24.0259819268
 20
-6.7928267243
 10
24.0668565396
 20
-6.7931868613
 10
24.1087934975
 20
-6.7971374161
 10
24.1516174143
 20
-6.804652718
 10
24.1951489062
 20
-6.8156910301
 10
24.2392054005
 20
-6.8301947373
 10
24.2836019582
 20
-6.8480906059
 10
24.3281521076
 20
-6.8692901138
 10
24.3726686846
 20
-6.8936898495
 10
24.4169646768
 20
-6.9211719779
 10
24.4608540655
 20
-6.9516047719
 10
24.5041526648
 20
-6.9848432055
 10
24.5466789515
 20
-7.0207296076
 10
24.5882548829
 20
-7.0590943732
 10
24.6287066998
 20
-7.0997567267
 10
24.6678657093
 20
-7.1425255378
 10
24.705569045
 20
-7.1872001821
 10
24.7416604013
 20
-7.2335714456
 10
24.7759907379
 20
-7.2814224678
 10
24.8084189512
 20
-7.3305297187
 10
24.8388125104
 20
-7.3806640067
 10
24.8670480549
 20
-7.4315915111
 10
24.8930119504
 20
-7.4830748364
 10
24.9166008006
 20
-7.5348740816
 10
24.9377219139
 20
-7.5867479223
 10
24.9562937203
 20
-7.6384546974
 10
24.9722461398
 20
-7.6897534992
 10
24.9855208978
 20
-7.7404052583
  0
LWPOLYLINE
  5
226
100
AcDbEntity
  8
RACCORDO
100
AcDbPolyline
 62
253
  6
CONTINUOUS
 90
24
 70
0
 10
22.7274501838
 20
-26.2451645689
 10
22.7624513017
 20
-26.2641201642
 10
22.7994803036
 20
-26.2817445433
 10
22.8383855921
 20
-26.297965552
 10
22.8790078886
 20
-26.3127167811
 10
22.9211808846
 20
-26.3259378389
 10
22.9647319234
 20
-26.3375745982
 10
23.0094827063
 20
-26.347579418
 10
23.0552500231
 20
-26.3559113383
 10
23.1018465016
 20
-26.3625362481
 10
23.1490813753
 20
-26.3674270251
 10
23.1967612637
 20
-26.3705636462
 10
23.2446909649
 20
-26.37193327
 10
23.2926742539
 20
-26.3715302895
 10
23.3405146864
 20
-26.3693563542
 10
23.388016403
 20
-26.3654203645
 10
23.434984931
 20
-26.3597384342
 10
23.4812279805
 20
-26.3523338252
 10
23.5265562319
 20
-26.3432368522
 10
23.5707841106
 20
-26.3324847583
 10
23.613730547
 20
-26.3201215627
 10
23.6552197179
 20
-26.3061978806
 10
23.6950817659
 20
-26.2907707156
 10
23.7331534953
 20
-26.2739032268
  0
LWPOLYLINE
  5
227
100
AcDbEntity
  8
RACCORDO
100
AcDbPolyline
 62
253
  6
CONTINUOUS
 90
13
 70
0
 10
-25.342818061
 20
1.5100058537
 10
-25.3756479799
 20
1.5302150473
 10
-25.4061723184
 20
1.5515951157
 10
-25.4342661091
 20
1.5740585289
 10
-25.4598143352
 20
1.5975133217
 10
-25.4827124016
 20
1.6218634701
 10
-25.5028665627
 20
1.6470092843
 10
-25.5201943066
 20
1.6728478174
 10
-25.5346246927
 20
1.699273286
 10
-25.5460986423
 20
1.726177504
 10
-25.5545691803
 20
1.7534503252
 10
-25.5600016278
 20
1.7809800943
 10
-25.5623737437
 20
1.8086541038
  0
LWPOLYLINE
  5
228
100
AcDbEntity
  8
0
100
AcDbPolyline
 62
7
  6
CONTINUOUS
 90
37
 70
0
 10
24.2515130295
 20
-6.8351558362
 10
24.2795964121
 20
-6.8317119534
 10
24.3110876589
 20
-6.8306592233
 10
24.3432432765
 20
-6.8322822211
 10
24.3759265615
 20
-6.8365341178
 10
24.4090000425
 20
-6.8433568652
 10
24.4423261123
 20
-6.852681584
 10
24.475767654
 20
-6.8644289973
 10
24.5091886581
 20
-6.8785099079
 10
24.5424548287
 20
-6.8948257155
 10
24.5754341744
 20
-6.9132689719
 10
24.607997583
 20
-6.9337239711
 10
24.6400193763
 20
-6.956067371
 10
24.6713778437
 20
-6.9801688434
 10
24.7019557514
 20
-7.0058917497
 10
24.731640825
 20
-7.0330938378
 10
24.760326205
 20
-7.061627958
 10
24.7879108711
 20
-7.0913427928
 10
24.8143000356
 20
-7.1220835991
 10
24.8394055034
 20
-7.153692957
 10
24.8631459974
 20
-7.1860115238
 10
24.8854474481
 20
-7.218878787
 10
24.9062432466
 20
-7.2521338163
 10
24.9254744602
 20
-7.2856160071
 10
24.9430900098
 20
-7.3191658157
 10
24.9590468082
 20
-7.3526254801
 10
24.9733098608
 20
-7.3858397251
 10
24.985852326
 20
-7.4186564472
 10
24.9966555376
 20
-7.4509273771
 10
25.0057089889
 20
-7.4825087165
 10
25.0130102782
 20
-7.5132617468
 10
25.0185650175
 20
-7.5430534066
 10
25.0223867043
 20
-7.5717568365
 10
25.0244965581
 20
-7.5992518875
 10
25.0249233226
 20
-7.6254255929
 10
25.0237030346
 20
-7.6501726001
 10
25.0208787618
 20
-7.6733955617
  0
LWPOLYLINE
  5
229
100
AcDbEntity
  8
0
100
AcDbPolyline
 62
7
  6
CONTINUOUS
 90
7
 70
0
 10
23.9713834888
 20
-6.8148131225
 10
23.9906265878
 20
-6.813240454
 10
24.0315012005
 20
-6.8136005909
 10
24.0734381584
 20
-6.8175511457
 10
24.1162620752
 20
-6.8250664477
 10
24.1597935672
 20
-6.8361047598
 10
24.2038500615
 20
-6.850608467
  0
LINE
  5
22A
100
AcDbEntity
  8
0
100
AcDbLine
 62
7
  6
CONTINUOUS
 10
25.5623737465
 20
-6.8624236374
 11
24.6161396856
 21
-6.8963402805
  0
LWPOLYLINE
  5
22B
100
AcDbEntity
  8
0
100
AcDbPolyline
 62
7
  6
CONTINUOUS
 90
29
 70
0
 10
24.4069248837
 20
-6.9149430875
 10
24.4272610592
 20
-6.9190317765
 10
24.4616297752
 20
-6.9285876241
 10
24.4961779401
 20
-6.9407818641
 10
24.5307465152
 20
-6.9555255846
 10
24.5651759522
 20
-6.9727163863
 10
24.5993086741
 20
-6.9922396082
 10
24.6329903561
 20
-7.0139695254
 10
24.6660681608
 20
-7.0377685242
 10
24.6983923156
 20
-7.0634879821
 10
24.729818445
 20
-7.0909702438
 10
24.7602068687
 20
-7.1200483884
 10
24.7894234893
 20
-7.1505470806
 10
24.8173411553
 20
-7.1822841132
 10
24.8438398519
 20
-7.215070885
 10
24.8688078881
 20
-7.2487140645
 10
24.892142463
 20
-7.2830167734
 10
24.91374931
 20
-7.3177783599
 10
24.9335440055
 20
-7.3527965491
 10
24.9514526841
 20
-7.3878692462
 10
24.9674113406
 20
-7.4227936963
 10
24.9813666818
 20
-7.45736825
 10
24.9932768403
 20
-7.4913945528
 10
25.0031121274
 20
-7.5246814193
 10
25.0108515669
 20
-7.557033574
 10
25.0164858045
 20
-7.5882546563
 10
25.0200208462
 20
-7.6181643047
 10
25.0214753938
 20
-7.6465978079
 10
25.0208787618
 20
-7.6733955617
  0
LWPOLYLINE
  5
22C
100
AcDbEntity
  8
0
100
AcDbPolyline
 62
7
  6
CONTINUOUS
 90
22
 70
0
 10
23.9713834888
 20
-6.9994885487
 10
23.9818178917
 20
-7.0033679688
 10
24.0263254249
 20
-7.0231719807
 10
24.0708791423
 20
-7.0462220542
 10
24.1152918642
 20
-7.0724064373
 10
24.1593770465
 20
-7.101599252
 10
24.2029496215
 20
-7.1336610611
 10
24.2458268314
 20
-7.1684394969
 10
24.2878290526
 20
-7.2057699481
 10
24.3287806052
 20
-7.2454763013
 10
24.3685105445
 20
-7.2873717352
 10
24.4068534314
 20
-7.3312595621
 10
24.4436500784
 20
-7.3769341147
 10
24.478748267
 20
-7.4241816732
 10
24.5120034334
 20
-7.4727814279
 10
24.5432793202
 20
-7.5225064751
 10
24.5724485907
 20
-7.5731248392
 10
24.5993934027
 20
-7.6244005186
 10
24.6240059396
 20
-7.676094549
 10
24.646188896
 20
-7.7279660808
 10
24.665855917
 20
-7.7797734642
 10
24.6829319867
 20
-7.8312753386
  0
LWPOLYLINE
  5
22D
100
AcDbEntity
  8
0
100
AcDbPolyline
 62
7
  6
CONTINUOUS
 90
3
 70
0
 10
24.2038500615
 20
-6.850608467
 10
24.2482466192
 20
-6.8685043356
 10
24.2927967685
 20
-6.8897038435
  0
LWPOLYLINE
  5
22E
100
AcDbEntity
  8
0
100
AcDbPolyline
 62
7
  6
CONTINUOUS
 90
35
 70
0
 10
23.9713834888
 20
-7.0348704846
 10
23.9909700859
 20
-7.0435857104
 10
24.0355238032
 20
-7.0666357838
 10
24.0799365251
 20
-7.092820167
 10
24.1240217075
 20
-7.1220129817
 10
24.1675942824
 20
-7.1540747908
 10
24.2104714923
 20
-7.1888532266
 10
24.2524737136
 20
-7.2261836778
 10
24.2934252662
 20
-7.265890031
 10
24.3331552054
 20
-7.3077854648
 10
24.3714980923
 20
-7.3516732917
 10
24.4082947394
 20
-7.3973478444
 10
24.443392928
 20
-7.4445954029
 10
24.4766480943
 20
-7.4931951576
 10
24.5079239811
 20
-7.5429202048
 10
24.5370932517
 20
-7.5935385689
 10
24.5640380637
 20
-7.6448142483
 10
24.5886506005
 20
-7.6965082787
 10
24.610833557
 20
-7.7483798104
 10
24.630500578
 20
-7.8001871939
 10
24.6475766477
 20
-7.8516890683
 10
24.6619984276
 20
-7.9026454501
 10
24.6737145421
 20
-7.9528188141
 10
24.6826858099
 20
-8.0019751641
 10
24.6888854206
 20
-8.0498850876
 10
24.6922990558
 20
-8.0963247898
 10
24.6929249533
 20
-8.141077102
 10
24.6907739152
 20
-8.1839324606
 10
24.6858692592
 20
-8.2246898515
 10
24.6782467134
 20
-8.2631577162
 10
24.6679542555
 20
-8.2991548147
 10
24.6550518964
 20
-8.3325110431
 10
24.6396114099
 20
-8.3630681996
 10
24.6217160088
 20
-8.3906806978
 10
24.6014599704
 20
-8.4152162228
  0
LINE
  5
22F
100
AcDbEntity
  8
RACCORDO
100
AcDbLine
 62
253
  6
CONTINUOUS
 10
20.2358988856
 20
3.9394279002
 11
20.4380033346
 21
4.0561197151
  0
LWPOLYLINE
  5
230
100
AcDbEntity
  8
0
100
AcDbPolyline
 62
7
  6
CONTINUOUS
 90
21
 70
0
 10
24.2927967685
 20
-6.8897038435
 10
24.3373133456
 20
-6.9141035792
 10
24.3816093377
 20
-6.9415857076
 10
24.4254987264
 20
-6.9720185016
 10
24.4687973258
 20
-7.0052569351
 10
24.5113236124
 20
-7.0411433373
 10
24.5528995438
 20
-7.0795081028
 10
24.5933513607
 20
-7.1201704564
 10
24.6325103702
 20
-7.1629392675
 10
24.6702137059
 20
-7.2076139118
 10
24.7063050623
 20
-7.2539851753
 10
24.7406353989
 20
-7.3018361974
 10
24.7730636121
 20
-7.3509434484
 10
24.8034571713
 20
-7.4010777364
 10
24.8316927158
 20
-7.4520052408
 10
24.8576566113
 20
-7.503488566
 10
24.8812454616
 20
-7.5552878113
 10
24.9023665748
 20
-7.6071616519
 10
24.9209383812
 20
-7.6588684271
 10
24.9368908007
 20
-7.7101672289
 10
24.9501655587
 20
-7.760818988
  0
LWPOLYLINE
  5
231
100
AcDbEntity
  8
RACCORDO
100
AcDbPolyline
 62
253
  6
CONTINUOUS
 90
25
 70
0
 10
22.7274501838
 20
-2.170066142
 10
22.762451279
 20
-2.1890217256
 10
22.7994802582
 20
-2.206646096
 10
22.8383855247
 20
-2.2228670986
 10
22.8790078004
 20
-2.2376183241
 10
22.9211807776
 20
-2.2508393806
 10
22.9647317997
 20
-2.2624761405
 10
23.0094825686
 20
-2.2724809626
 10
23.0552498742
 20
-2.2808128867
 10
23.1018463446
 20
-2.2874378013
 10
23.1490812133
 20
-2.2923285838
 10
23.1967611002
 20
-2.2954652109
 10
23.2446908028
 20
-2.2968348408
 10
23.2926740962
 20
-2.2964318662
 10
23.3405145361
 20
-2.2942579363
 10
23.3880162626
 20
-2.2903219512
 10
23.4349848026
 20
-2.2846400247
 10
23.4812278663
 20
-2.2772354184
 10
23.5265561331
 20
-2.2681384468
 10
23.5707840283
 20
-2.2573863529
 10
23.6137304819
 20
-2.2450231558
 10
23.6552196699
 20
-2.2310994707
 10
23.6950817346
 20
-2.2156723014
 10
23.7331534801
 20
-2.198804807
 10
23.7692790398
 20
-2.180566043
  0
LWPOLYLINE
  5
232
100
AcDbEntity
  8
RACCORDO
100
AcDbPolyline
 62
253
  6
CONTINUOUS
 90
14
 70
0
 10
-25.342818061
 20
25.5851042806
 10
-25.3756479999
 20
25.6053134874
 10
-25.4061723534
 20
25.626693569
 10
-25.4342661545
 20
25.649156995
 10
-25.4598143868
 20
25.6726117998
 10
-25.4827124554
 20
25.6969619592
 10
-25.5028666152
 20
25.7221077832
 10
-25.5201943549
 20
25.7479463244
 10
-25.5346247345
 20
25.7743717995
 10
-25.5460986757
 20
25.8012760222
 10
-25.5545692041
 20
25.8285488462
 10
-25.5600016412
 20
25.8560786163
 10
-25.5623737465
 20
25.883752625
 10
-25.5624879748
 20
25.8912981688
  0
LWPOLYLINE
  5
233
100
AcDbEntity
  8
0
100
AcDbPolyline
 62
7
  6
CONTINUOUS
 90
20
 70
0
 10
24.0245368434
 20
-7.387765002
 10
24.0487138528
 20
-7.4061615604
 10
24.0816191042
 20
-7.4337987421
 10
24.1137797266
 20
-7.4634575137
 10
24.144813751
 20
-7.4947553411
 10
24.1745494503
 20
-7.5274508343
 10
24.2029166013
 20
-7.5613965285
 10
24.2297307413
 20
-7.5962933028
 10
24.2548072555
 20
-7.631789441
 10
24.27818513
 20
-7.6678246072
 10
24.3000002612
 20
-7.704550362
 10
24.3201985381
 20
-7.7418718767
 10
24.3386371937
 20
-7.7795211948
 10
24.3552721514
 20
-7.8174053231
 10
24.3700564044
 20
-7.8554511135
 10
24.3828510623
 20
-7.8933397289
 10
24.3935151859
 20
-7.9306129952
 10
24.4020111752
 20
-7.9669995042
 10
24.4083567552
 20
-8.0024057792
 10
24.4125532608
 20
-8.0366588169
  0
LWPOLYLINE
  5
234
100
AcDbEntity
  8
0
100
AcDbPolyline
 62
7
  6
CONTINUOUS
 90
20
 70
0
 10
24.3056644013
 20
-7.2230629837
 10
24.3339167134
 20
-7.2447465015
 10
24.3656290802
 20
-7.2715184466
 10
24.396483677
 20
-7.3000137591
 10
24.4264345172
 20
-7.3301604163
 10
24.4553716131
 20
-7.3618295249
 10
24.4831520988
 20
-7.3948453544
 10
24.5096779488
 20
-7.4290713619
 10
24.5347847988
 20
-7.4642690465
 10
24.558417503
 20
-7.5003330312
 10
24.5806163548
 20
-7.5373354877
 10
24.6013334869
 20
-7.5752625563
 10
24.6203422375
 20
-7.6137700659
 10
24.6374235247
 20
-7.6524296655
 10
24.6525048027
 20
-7.6910578939
 10
24.6655056658
 20
-7.7294277866
 10
24.6762919749
 20
-7.7670498165
 10
24.6848445183
 20
-7.8036445012
 10
24.6912049337
 20
-7.8391323831
 10
24.6953959292
 20
-7.873349005
  0
LWPOLYLINE
  5
235
100
AcDbEntity
  8
0
100
AcDbPolyline
 62
7
  6
CONTINUOUS
 90
16
 70
0
 10
23.9713834888
 20
-7.3393375999
 10
23.98721462
 20
-7.3528789092
 10
24.0286348807
 20
-7.3915955483
 10
24.068905708
 20
-7.4325820967
 10
24.107859225
 20
-7.4756459628
 10
24.1453334922
 20
-7.5205851929
 10
24.1811732369
 20
-7.5671893808
 10
24.2152305533
 20
-7.6152406166
 10
24.2473655689
 20
-7.6645144685
 10
24.2774470748
 20
-7.7147809944
 10
24.3053531176
 20
-7.7658057783
 10
24.3309715483
 20
-7.8173509866
 10
24.3542005284
 20
-7.8691764403
 10
24.3749489886
 20
-7.9210406975
 10
24.393137039
 20
-7.9727021411
 10
24.4086963296
 20
-8.0239200684
  0
LWPOLYLINE
  5
236
100
AcDbEntity
  8
RACCORDO
100
AcDbPolyline
 62
253
  6
CONTINUOUS
 90
43
 70
0
 10
-22.3394449299
 20
27.3188791228
 10
-22.4542557824
 20
27.3824386697
 10
-22.5677555323
 20
27.4405271232
 10
-22.6799441796
 20
27.4931444832
 10
-22.7906813757
 20
27.5401845939
 10
-22.9001074693
 20
27.5817536111
 10
-23.0086435065
 20
27.6181700023
 10
-23.1165896947
 20
27.6495805297
 10
-23.2236458266
 20
27.6758384312
 10
-23.3293323266
 20
27.6968218877
 10
-23.4336266961
 20
27.7125034549
 10
-23.5365514337
 20
27.722910577
 10
-23.6376944591
 20
27.7280037684
 10
-23.7370519485
 20
27.727762174
 10
-23.8346277258
 20
27.7222066489
 10
-23.930021182
 20
27.7113602717
 10
-24.0232228925
 20
27.6952013924
 10
-24.114242282
 20
27.6737516611
 10
-24.2027070158
 20
27.6470991063
 10
-24.288606493
 20
27.6152226848
 10
-24.3719513144
 20
27.5781434398
 10
-24.4524009482
 20
27.5360125306
 10
-24.5299443994
 20
27.4888086674
 10
-24.6045926629
 20
27.4365531399
 10
-24.6760381918
 20
27.3794609766
 10
-24.7442651962
 20
27.3175161936
 10
-24.8092894659
 20
27.2507347749
 10
-24.8708508232
 20
27.1793796995
 10
-24.9289452745
 20
27.1034124288
 10
-24.9835768134
 20
27.0228715016
 10
-25.0344972426
 20
26.9381355139
 10
-25.0816136544
 20
26.8494752485
 10
-25.1250189565
 20
26.7566199227
 10
-25.1647436755
 20
26.6591357841
 10
-25.2009294367
 20
26.556808661
 10
-25.2334346148
 20
26.449852725
 10
-25.261864859
 20
26.3384767394
 10
-25.2862096807
 20
26.2224804039
 10
-25.3064795686
 20
26.1020640188
 10
-25.322311639
 20
25.9780372475
 10
-25.3335849306
 20
25.850669978
 10
-25.3404204046
 20
25.7196923224
 10
-25.342818061
 20
25.5851042806
  0
LINE
  5
237
100
AcDbEntity
  8
RACCORDO
100
AcDbLine
 62
253
  6
CONTINUOUS
 10
19.7240770528
 20
3.0319287097
 11
-22.3394449299
 21
27.3188791228
  0
LWPOLYLINE
  5
238
100
AcDbEntity
  8
0
100
AcDbPolyline
 62
7
  6
CONTINUOUS
 90
29
 70
0
 10
23.9713834888
 20
-7.3915424446
 10
23.9932795417
 20
-7.412009278
 10
24.0335503689
 20
-7.4529958263
 10
24.0725038859
 20
-7.4960596925
 10
24.1099781531
 20
-7.5409989225
 10
24.1458178979
 20
-7.5876031105
 10
24.1798752143
 20
-7.6356543463
 10
24.2120102298
 20
-7.6849281982
 10
24.2420917357
 20
-7.7351947241
 10
24.2699977785
 20
-7.7862195079
 10
24.2956162093
 20
-7.8377647162
 10
24.3188451894
 20
-7.88959017
 10
24.3395936495
 20
-7.9414544272
 10
24.3577816999
 20
-7.9931158708
 10
24.3733409906
 20
-8.044333798
 10
24.3862150192
 20
-8.094869505
 10
24.396359386
 20
-8.1444873624
 10
24.4037419936
 20
-8.192955878
 10
24.408343192
 20
-8.2400487393
 10
24.4101558667
 20
-8.285545834
 10
24.4091854713
 20
-8.329234242
 10
24.4054500024
 20
-8.3709091948
 10
24.3989799189
 20
-8.4103749984
 10
24.3898180044
 20
-8.4474459156
 10
24.3780191745
 20
-8.4819470029
 10
24.3636502296
 20
-8.5137148987
 10
24.3467895532
 20
-8.5425985602
 10
24.3275267592
 20
-8.5684599435
 10
24.3059622877
 20
-8.5911746263
  0
LINE
  5
239
100
AcDbEntity
  8
RACCORDO
100
AcDbLine
 62
253
  6
CONTINUOUS
 10
23.7692790398
 20
-2.180566043
 11
23.9713834888
 21
-2.0638742281
  0
LWPOLYLINE
  5
23A
100
AcDbEntity
  8
0
100
AcDbPolyline
 62
7
  6
CONTINUOUS
 90
43
 70
0
 10
24.2336318199
 20
-6.8283598755
 10
24.2471403619
 20
-6.823637898
 10
24.2764698832
 20
-6.8164795665
 10
24.3067553101
 20
-6.8120283762
 10
24.3378662907
 20
-6.8102643951
 10
24.3696703175
 20
-6.8111560443
 10
24.4020333439
 20
-6.8146603674
 10
24.4348204017
 20
-6.8207233474
 10
24.4678962165
 20
-6.829280272
 10
24.501125818
 20
-6.8402561417
 10
24.5343751428
 20
-6.853566122
 10
24.5675116259
 20
-6.8691160342
 10
24.6004047802
 20
-6.8868028846
 10
24.6329267599
 20
-6.9065154274
 10
24.664952906
 20
-6.9281347591
 10
24.6963622712
 20
-6.9515349425
 10
24.7270381226
 20
-6.9765836547
 10
24.7568684199
 20
-7.0031428581
 10
24.7857462663
 20
-7.03106949
 10
24.8135703317
 20
-7.0602161677
 10
24.8402452457
 20
-7.0904319056
 10
24.8656819585
 20
-7.1215628409
 10
24.8897980697
 20
-7.1534529649
 10
24.9125181225
 20
-7.1859448552
 10
24.9337738623
 20
-7.2188804073
 10
24.9535044605
 20
-7.2521015602
 10
24.971656701
 20
-7.2854510146
 10
24.9881851291
 20
-7.3187729388
 10
25.0030521637
 20
-7.35191366
 10
25.0162281721
 20
-7.3847223383
 10
25.0276915063
 20
-7.4170516192
 10
25.0374285029
 20
-7.4487582634
 10
25.0454334455
 20
-7.4797037492
 10
25.0517084915
 20
-7.5097548474
 10
25.0562635622
 20
-7.5387841641
 10
25.059116199
 20
-7.5666706503
 10
25.060291386
 20
-7.5933000764
 10
25.059821339
 20
-7.618565469
 10
25.0577452647
 20
-7.6423675093
 10
25.0541090894
 20
-7.6646148905
 10
25.0489651596
 20
-7.6852246341
 10
25.0423719168
 20
-7.7041223634
 10
25.0343935465
 20
-7.7212425334
  0
LWPOLYLINE
  5
23B
100
AcDbEntity
  8
RACCORDO
100
AcDbPolyline
 62
253
  6
CONTINUOUS
 90
20
 70
0
 10
-21.8276230971
 20
28.2263783132
 10
-21.96306626
 20
28.3007929911
 10
-22.0972927214
 20
28.3687003405
 10
-22.2301157754
 20
28.4301370526
 10
-22.3610158502
 20
28.4850180149
 10
-22.4901725377
 20
28.5335657372
 10
-22.6184382794
 20
28.5761568656
 10
-22.7459787455
 20
28.6128244083
 10
-22.8722620544
 20
28.6433896093
 10
-22.9970745505
 20
28.6677927014
 10
-23.1202242564
 20
28.6860011793
 10
-23.2415586718
 20
28.6979985876
 10
-23.3609283931
 20
28.7037668328
 10
-23.4781719353
 20
28.70329913
 10
-23.5931217849
 20
28.6965978552
 10
-23.7056237438
 20
28.6836696748
 10
-23.8155222935
 20
28.6645332187
 10
-23.9226652708
 20
28.639216324
 10
-24.0269092444
 20
28.607751947
 10
-24.1281110143
 20
28.5701834408
  0
LINE
  5
23C
100
AcDbEntity
  8
RACCORDO
100
AcDbLine
 62
253
  6
CONTINUOUS
 10
20.2358988856
 20
3.9394279002
 11
-21.8276230971
 21
28.2263783132
  0
LINE
  5
23D
100
AcDbEntity
  8
RACCORDO
100
AcDbLine
 62
7
  6
CONTINUOUS
 10
20.4380033346
 20
4.0561197151
 11
-21.6391576494
 21
28.3509451166
  0
LINE
  5
23E
100
AcDbEntity
  8
CURVE
100
AcDbLine
 62
252
  6
CONTINUOUS
 10
23.9713834888
 20
-6.4541490441
 11
24.4133252271
 21
-6.1989774233
  0
LWPOLYLINE
  5
23F
100
AcDbEntity
  8
0
100
AcDbPolyline
 62
7
  6
CONTINUOUS
 90
12
 70
0
 10
23.9713834888
 20
-7.7942744991
 10
23.9943877308
 20
-7.8296005912
 10
24.0164314802
 20
-7.8665831002
 10
24.0369637049
 20
-7.9044220727
 10
24.055768054
 20
-7.9427746878
 10
24.0726344932
 20
-7.9812115933
 10
24.0874961138
 20
-8.019540304
 10
24.1002890828
 20
-8.0575520315
 10
24.1108993667
 20
-8.0947988305
 10
24.1193144506
 20
-8.1310189948
 10
24.125576049
 20
-8.1661281438
 10
24.1297103435
 20
-8.1999687725
  0
LWPOLYLINE
  5
240
100
AcDbEntity
  8
0
100
AcDbPolyline
 62
7
  6
CONTINUOUS
 90
8
 70
0
 10
23.9713834888
 20
-7.8393970968
 10
23.982048552
 20
-7.8565704332
 10
24.0108956946
 20
-7.907301185
 10
24.0375017613
 20
-7.9586540305
 10
24.061760462
 20
-8.0103896568
 10
24.0835760861
 20
-8.0622670258
 10
24.1028639341
 20
-8.1140444607
 10
24.1195506991
 20
-8.1654807352
  0
LWPOLYLINE
  5
241
100
AcDbEntity
  8
0
100
AcDbPolyline
 62
7
  6
CONTINUOUS
 90
21
 70
0
 10
23.9713834888
 20
-7.9204046248
 10
23.9755403556
 20
-7.9277149147
 10
24.0021464223
 20
-7.9790677602
 10
24.0264051229
 20
-8.0308033864
 10
24.0482207471
 20
-8.0826807554
 10
24.0675085951
 20
-8.1344581904
 10
24.08419536
 20
-8.1858944648
 10
24.0982194582
 20
-8.2367498901
 10
24.1095313063
 20
-8.2867873954
 10
24.1180935453
 20
-8.3357735961
 10
24.1238812085
 20
-8.3834798462
 10
24.1268818344
 20
-8.4296832682
 10
24.1270955224
 20
-8.4741677579
 10
24.1245349329
 20
-8.5167249584
 10
24.1192252295
 20
-8.557155199
 10
24.1112039666
 20
-8.5952683953
 10
24.100520919
 20
-8.6308849058
 10
24.0872378587
 20
-8.6638363416
 10
24.0714282754
 20
-8.6939663252
 10
24.0531770461
 20
-8.7211311954
 10
24.0325800522
 20
-8.7452006549
  0
LWPOLYLINE
  5
242
100
AcDbEntity
  8
RACCORDO
100
AcDbPolyline
 62
253
  6
CONTINUOUS
 90
14
 70
0
 10
19.7240770528
 20
-27.9789394111
 10
19.725162641
 20
-28.0174735987
 10
19.7284149614
 20
-28.0545964194
 10
19.7338206994
 20
-28.0901558917
 10
19.7413577243
 20
-28.1240064344
 10
19.7509951797
 20
-28.1560094627
 10
19.7626936103
 20
-28.1860339553
 10
19.7764051228
 20
-28.2139569912
 10
19.7920735826
 20
-28.2396642529
 10
19.809634843
 20
-28.2630504937
 10
19.8290170084
 20
-28.2840199699
 10
19.8501407281
 20
-28.3024868315
 10
19.8729195215
 20
-28.3183754745
 10
19.8793774832
 20
-28.3222353962
  0
LWPOLYLINE
  5
243
100
AcDbEntity
  8
RACCORDO
100
AcDbPolyline
 62
253
  6
CONTINUOUS
 90
25
 70
0
 10
19.7240770528
 20
3.0319287097
 10
19.7251626423
 20
3.0717165327
 10
19.7284149664
 20
3.1125950753
 10
19.7338207102
 20
3.1543969803
 10
19.7413577422
 20
3.1969511099
 10
19.750995206
 20
3.2400832471
 10
19.7626936454
 20
3.2836168081
 10
19.7764051671
 20
3.3273735659
 10
19.7920736357
 20
3.3711743798
 10
19.8096349043
 20
3.4148399286
 10
19.829017077
 20
3.4581914449
 10
19.8501408026
 20
3.501051447
 10
19.8729196006
 20
3.5432444653
 10
19.897260214
 20
3.5845977612
 10
19.9230629921
 20
3.6249420335
 10
19.9502222979
 20
3.6641121122
 10
19.9786269409
 20
3.7019476345
 10
20.008160632
 20
3.7382937012
 10
20.0387024598
 20
3.773001511
 10
20.0701273857
 20
3.8059289696
 10
20.1023067556
 20
3.8369412715
 10
20.1351088267
 20
3.8659114519
 10
20.1683993068
 20
3.8927209064
 10
20.2020419042
 20
3.9172598768
 10
20.2358988856
 20
3.9394279002
  0
LINE
  5
244
100
AcDbEntity
  8
0
100
AcDbLine
 62
7
  6
CONTINUOUS
 10
24.8515429597
 20
-8.2813412634
 11
24.8283905206
 21
-8.2965955977
  0
LINE
  5
245
100
AcDbEntity
  8
0
100
AcDbLine
 62
7
  6
CONTINUOUS
 10
24.2822069525
 20
-8.6106323682
 11
24.2627050022
 21
-8.6232153217
  0
LINE
  5
246
100
AcDbEntity
  8
0
100
AcDbLine
 62
7
  6
CONTINUOUS
 10
23.9798622385
 20
-8.7865251934
 11
24.0152175776
 21
-8.7661114638
  0
LINE
  5
247
100
AcDbEntity
  8
0
100
AcDbLine
 62
7
  6
CONTINUOUS
 10
24.2627050022
 20
-8.6232153217
 11
24.2980603413
 21
-8.602801592
  0
LINE
  5
248
100
AcDbEntity
  8
0
100
AcDbLine
 62
7
  6
CONTINUOUS
 10
24.5455479106
 20
-8.4599053684
 11
24.5809032497
 21
-8.4394916388
  0
LINE
  5
249
100
AcDbEntity
  8
0
100
AcDbLine
 62
7
  6
CONTINUOUS
 10
24.8283905206
 20
-8.2965955977
 11
24.8637458597
 21
-8.2761818681
  0
LWPOLYLINE
  5
24A
100
AcDbEntity
  8
0
100
AcDbPolyline
 62
7
  6
CONTINUOUS
 90
7
 70
0
 10
24.2627050022
 20
-8.6232153217
 10
24.2563814413
 20
-8.6267376077
 10
24.2286157725
 20
-8.6394098934
 10
24.1990487082
 20
-8.6485842456
 10
24.1678271299
 20
-8.65421145
 10
24.1351053754
 20
-8.6562582792
 10
24.1163072079
 20
-8.6554024831
  0
LWPOLYLINE
  5
24B
100
AcDbEntity
  8
0
100
AcDbPolyline
 62
7
  6
CONTINUOUS
 90
7
 70
0
 10
24.5455479106
 20
-8.4599053684
 10
24.5276275112
 20
-8.4692489658
 10
24.4990771176
 20
-8.4804384223
 10
24.4687869329
 20
-8.4881070398
 10
24.4369070974
 20
-8.4922123899
 10
24.403594916
 20
-8.492728104
 10
24.3994326751
 20
-8.4923568914
  0
LINE
  5
24C
100
AcDbEntity
  8
0
100
AcDbLine
 62
7
  6
CONTINUOUS
 10
23.9798622385
 20
-8.7865251934
 11
23.9713834888
 21
-8.7908431116
  0
LWPOLYLINE
  5
24D
100
AcDbEntity
  8
0
100
AcDbPolyline
 62
7
  6
CONTINUOUS
 90
6
 70
0
 10
24.8283905206
 20
-8.2965955977
 10
24.7985288356
 20
-8.3111333299
 10
24.769219308
 20
-8.3208290342
 10
24.7382330267
 20
-8.3269838575
 10
24.7057232699
 20
-8.3295621938
 10
24.6819432496
 20
-8.3288477791
  0
LWPOLYLINE
  5
24E
100
AcDbEntity
  8
RACCORDO
100
AcDbPolyline
 62
253
  6
CONTINUOUS
 90
43
 70
0
 10
22.7274501838
 20
-2.170066142
 10
22.7250851652
 20
-2.0361327278
 10
22.7186375026
 20
-1.901355928
 10
22.7081071961
 20
-1.7657357429
 10
22.6934724901
 20
-1.6294216665
 10
22.6747551401
 20
-1.4922642047
 10
22.6520204126
 20
-1.3538148748
 10
22.6252452932
 20
-1.2137137503
 10
22.5944527962
 20
-1.0723207578
 10
22.5597772309
 20
-0.9302671941
 10
22.5212060793
 20
-0.7875718096
 10
22.4787518593
 20
-0.644215854
 10
22.4325864342
 20
-0.5007743727
 10
22.3826936546
 20
-0.3572424566
 10
22.3290896699
 20
-0.2136250149
 10
22.2719947911
 20
-0.0705118208
 10
22.2113949812
 20
0.0720943482
 10
22.1473042774
 20
0.2141962695
 10
22.0799851024
 20
0.3552125023
 10
22.0094245326
 20
0.4951382681
 10
21.9356354917
 20
0.6339783453
 10
21.8589191741
 20
0.7711656284
 10
21.7792626396
 20
0.9066948933
 10
21.6966788283
 20
1.0405713641
 10
21.6115077546
 20
1.1722436075
 10
21.5237434715
 20
1.3016968253
 10
21.4333919259
 20
1.4289458158
 10
21.3408109737
 20
1.5534835397
 10
21.2459692348
 20
1.6753235041
 10
21.1488980892
 20
1.794452202
 10
21.0500495318
 20
1.910322073
 10
20.9497045333
 20
2.0226636109
 10
20.8475821229
 20
2.1317463218
 10
20.7432913835
 20
2.2378311643
 10
20.6365760111
 20
2.3412296548
 10
20.5276923095
 20
2.4416302768
 10
20.4170182731
 20
2.5383594392
 10
20.3043856762
 20
2.6315021621
 10
20.1899627445
 20
2.7209734252
 10
20.0746321492
 20
2.8058445768
 10
19.958688114
 20
2.8858060661
 10
19.8418364152
 20
2.9611674437
 10
19.7240770528
 20
3.0319287097
  0
LINE
  5
24F
100
AcDbEntity
  8
RACCORDO
100
AcDbLine
 62
253
  6
CONTINUOUS
 10
22.7274501838
 20
-26.2451645689
 11
22.7274501838
 21
-2.170066142
  0
LWPOLYLINE
  5
250
100
AcDbEntity
  8
0
100
AcDbPolyline
 62
7
  6
CONTINUOUS
 90
4
 70
0
 10
24.6014599704
 20
-8.4152162228
 10
24.5789482114
 20
-8.4365563276
 10
24.5542958147
 20
-8.4545969669
 10
24.5455479106
 20
-8.4599053684
  0
LINE
  5
251
100
AcDbEntity
  8
0
100
AcDbLine
 62
7
  6
CONTINUOUS
 10
24.0325800522
 20
-8.7452006549
 11
24.0097437475
 21
-8.7660583571
  0
LINE
  5
252
100
AcDbEntity
  8
0
100
AcDbLine
 62
7
  6
CONTINUOUS
 10
24.8749813758
 20
-8.2613949061
 11
24.8515429597
 21
-8.2813412634
  0
LINE
  5
253
100
AcDbEntity
  8
0
100
AcDbLine
 62
7
  6
CONTINUOUS
 10
24.3059622877
 20
-8.5911746263
 11
24.2822069525
 21
-8.6106323682
  0
LWPOLYLINE
  5
254
100
AcDbEntity
  8
0
100
AcDbPolyline
 62
7
  6
CONTINUOUS
 90
3
 70
0
 10
24.0097437475
 20
-8.7660583571
 10
23.9847846782
 20
-8.783602431
 10
23.9798622385
 20
-8.7865251934
  0
LWPOLYLINE
  5
255
100
AcDbEntity
  8
0
100
AcDbPolyline
 62
7
  6
CONTINUOUS
 90
19
 70
0
 10
24.8899897177
 20
-7.4770821075
 10
24.8824055537
 20
-7.4554249002
 10
24.8665389778
 20
-7.4156347003
 10
24.8488571022
 20
-7.3761518714
 10
24.8294464254
 20
-7.3371695473
 10
24.8084019039
 20
-7.2988784154
 10
24.7858264843
 20
-7.2614657782
 10
24.7618306014
 20
-7.2251146398
 10
24.7365316396
 20
-7.1900028134
 10
24.7100533547
 20
-7.1563020462
 10
24.682525271
 20
-7.124177182
 10
24.654082049
 20
-7.0937853575
 10
24.6248628229
 20
-7.0652752284
 10
24.5950105218
 20
-7.038786245
 10
24.564671173
 20
-7.0144479723
 10
24.5339931829
 20
-6.9923794517
 10
24.5031266134
 20
-6.9726886218
 10
24.4722224503
 20
-6.9554717908
 10
24.453743974
 20
-6.946674652
  0
LINE
  5
256
100
AcDbEntity
  8
0
100
AcDbLine
 62
7
  6
CONTINUOUS
 10
24.6829319867
 20
-7.8312753386
 11
24.6973537667
 21
-7.8822317204
  0
LINE
  5
257
100
AcDbEntity
  8
0
100
AcDbLine
 62
7
  6
CONTINUOUS
 10
24.1195506991
 20
-8.1654807352
 11
24.1335747972
 21
-8.2163361605
  0
LWPOLYLINE
  5
258
100
AcDbEntity
  8
0
100
AcDbPolyline
 62
7
  6
CONTINUOUS
 90
17
 70
0
 10
24.4086963296
 20
-8.0239200684
 10
24.4215703583
 20
-8.0744557753
 10
24.431714725
 20
-8.1240736327
 10
24.4390973327
 20
-8.1725421483
 10
24.443698531
 20
-8.2196350096
 10
24.4455112058
 20
-8.2651321044
 10
24.4445408104
 20
-8.3088205124
 10
24.4408053415
 20
-8.3504954651
 10
24.434335258
 20
-8.3899612687
 10
24.4251733434
 20
-8.427032186
 10
24.4133745136
 20
-8.4615332732
 10
24.3990055687
 20
-8.4933011691
 10
24.3821448923
 20
-8.5221848305
 10
24.3628820983
 20
-8.5480462139
 10
24.3413176268
 20
-8.5707608966
 10
24.3175622915
 20
-8.5902186385
 10
24.2980603413
 20
-8.602801592
  0
LWPOLYLINE
  5
259
100
AcDbEntity
  8
0
100
AcDbPolyline
 62
7
  6
CONTINUOUS
 90
17
 70
0
 10
24.6973537667
 20
-7.8822317204
 10
24.7090698811
 20
-7.9324050844
 10
24.7180411489
 20
-7.9815614344
 10
24.7242407597
 20
-8.0294713579
 10
24.7276543949
 20
-8.0759110601
 10
24.7282802924
 20
-8.1206633723
 10
24.7261292543
 20
-8.163518731
 10
24.7212245982
 20
-8.2042761219
 10
24.7136020524
 20
-8.2427439865
 10
24.7033095945
 20
-8.278741085
 10
24.6904072355
 20
-8.3120973134
 10
24.6749667489
 20
-8.3426544699
 10
24.6570713479
 20
-8.3702669681
 10
24.6368153095
 20
-8.3948024931
 10
24.6143035504
 20
-8.416142598
 10
24.5896511537
 20
-8.4341832372
 10
24.5809032497
 20
-8.4394916388
  0
LWPOLYLINE
  5
25A
100
AcDbEntity
  8
0
100
AcDbPolyline
 62
7
  6
CONTINUOUS
 90
17
 70
0
 10
24.1335747972
 20
-8.2163361605
 10
24.1448866454
 20
-8.2663736657
 10
24.1534488843
 20
-8.3153598665
 10
24.1592365476
 20
-8.3630661166
 10
24.1622371735
 20
-8.4092695385
 10
24.1624508615
 20
-8.4537540282
 10
24.1598902719
 20
-8.4963112287
 10
24.1545805686
 20
-8.5367414693
 10
24.1465593056
 20
-8.5748546656
 10
24.1358762581
 20
-8.6104711761
 10
24.1225931977
 20
-8.6434226119
 10
24.1067836144
 20
-8.6735525955
 10
24.0885323851
 20
-8.7007174658
 10
24.0679353913
 20
-8.7247869252
 10
24.0450990865
 20
-8.7456446274
 10
24.0201400172
 20
-8.7631887014
 10
24.0152175776
 20
-8.7661114638
  0
LWPOLYLINE
  5
25B
100
AcDbEntity
  8
0
100
AcDbPolyline
 62
7
  6
CONTINUOUS
 90
14
 70
0
 10
24.9501655587
 20
-7.760818988
 10
24.960716449
 20
-7.8105875515
 10
24.9685095417
 20
-7.8592407467
 10
24.9735233361
 20
-7.9065514281
 10
24.9757488582
 20
-7.9522985008
 10
24.9751897003
 20
-7.9962679171
 10
24.9718620055
 20
-8.0382536409
 10
24.9657943947
 20
-8.0780585769
 10
24.9570278374
 20
-8.1154954583
 10
24.9456154674
 20
-8.1503876913
 10
24.9316223431
 20
-8.1825701508
 10
24.9151251543
 20
-8.2118899243
 10
24.8962118769
 20
-8.2382070017
 10
24.8749813758
 20
-8.2613949061
  0
LWPOLYLINE
  5
25C
100
AcDbEntity
  8
0
100
AcDbPolyline
 62
7
  6
CONTINUOUS
 90
16
 70
0
 10
24.9855208978
 20
-7.7404052583
 10
24.9960717881
 20
-7.7901738218
 10
25.0038648807
 20
-7.838827017
 10
25.0088786752
 20
-7.8861376985
 10
25.0111041972
 20
-7.9318847712
 10
25.0105450393
 20
-7.9758541874
 10
25.0072173446
 20
-8.0178399112
 10
25.0011497338
 20
-8.0576448472
 10
24.9923831765
 20
-8.0950817286
 10
24.9809708064
 20
-8.1299739617
 10
24.9669776821
 20
-8.1621564211
 10
24.9504804934
 20
-8.1914761946
 10
24.931567216
 20
-8.2177932721
 10
24.9103367148
 20
-8.2409811764
 10
24.8868982987
 20
-8.2609275337
 10
24.8637458597
 20
-8.2761818681
  0
LWPOLYLINE
  5
25D
100
AcDbEntity
  8
RACCORDO
100
AcDbPolyline
 62
253
  6
CONTINUOUS
 90
43
 70
0
 10
23.7692790398
 20
-2.180566043
 10
23.7659980574
 20
-2.02387041
 10
23.7576897884
 20
-1.8656084187
 10
23.744479371
 20
-1.7060629394
 10
23.7265529037
 20
-1.5459275472
 10
23.7040132877
 20
-1.3850639828
 10
23.6767604574
 20
-1.222451602
 10
23.644740156
 20
-1.0578543918
 10
23.6080635374
 20
-0.8919391223
 10
23.5667856787
 20
-0.7249993764
 10
23.5209744264
 20
-0.5572888219
 10
23.4706917861
 20
-0.3890092128
 10
23.4159967977
 20
-0.2203792251
 10
23.356964335
 20
-0.0516231727
 10
23.29368022
 20
0.1170241653
 10
23.2262273336
 20
0.285328096
 10
23.1546995765
 20
0.4530579069
 10
23.0791971457
 20
0.6199861325
 10
22.9998203064
 20
0.7858838837
 10
22.9166782113
 20
0.9505236382
 10
22.8298861404
 20
1.1136812935
 10
22.7395606074
 20
1.2751353402
 10
22.6458234082
 20
1.4346660242
 10
22.5488045822
 20
1.5920533364
 10
22.4486396045
 20
1.7470791185
 10
22.3454693084
 20
1.8995228526
 10
22.2394300663
 20
2.0491833233
 10
22.1306555919
 20
2.19587544
 10
22.019266645
 20
2.3394270571
 10
21.9054380341
 20
2.4796070772
 10
21.7893920323
 20
2.6161524238
 10
21.671609688
 20
2.7485277472
 10
21.5519392968
 20
2.8769268908
 10
21.429623099
 20
3.0021056426
 10
21.304488374
 20
3.1240960985
 10
21.17697738
 20
3.2423167392
 10
21.0472302638
 20
3.3565100761
 10
20.9152401653
 20
3.4665391681
 10
20.7813436329
 20
3.5719874375
 10
20.6462168577
 20
3.6722341851
 10
20.5102180246
 20
3.7669618352
 10
20.3733785548
 20
3.8560917768
 10
20.2358988856
 20
3.9394279002
  0
LINE
  5
25E
100
AcDbEntity
  8
RACCORDO
100
AcDbLine
 62
253
  6
CONTINUOUS
 10
23.7692790398
 20
-26.2556644699
 11
23.7692790398
 21
-2.180566043
  0
LINE
  5
25F
100
AcDbEntity
  8
RACCORDO
100
AcDbLine
 62
7
  6
CONTINUOUS
 10
23.9713834888
 20
-26.1547211098
 11
23.9713834888
 21
-2.0638742281
  0
LWPOLYLINE
  5
260
100
AcDbEntity
  8
0
100
AcDbPolyline
 62
7
  6
CONTINUOUS
 90
3
 70
0
 10
25.0208787618
 20
-7.6733955617
 10
25.020718856
 20
-7.6915942112
 10
25.0192190269
 20
-7.7082683835
  0
LWPOLYLINE
  5
261
100
AcDbEntity
  8
0
100
AcDbPolyline
 62
7
  6
CONTINUOUS
 90
5
 70
0
 10
25.0192190269
 20
-7.7082683835
 10
25.0164349579
 20
-7.7233614651
 10
25.0124274719
 20
-7.7368219812
 10
25.0072599974
 20
-7.7486115362
 10
25.0041106249
 20
-7.7541119505
  0
LINE
  5
262
100
AcDbEntity
  8
0
100
AcDbLine
 62
7
  6
CONTINUOUS
 10
25.0343935465
 20
-7.7212425334
 11
25.0250996063
 21
-7.7365286163
  0
LINE
  5
263
100
AcDbEntity
  8
0
100
AcDbLine
 62
7
  6
CONTINUOUS
 10
25.5623737465
 20
-6.8624236374
 11
25.0501093612
 21
-7.6806402595
  0
LINE
  5
264
100
AcDbEntity
  8
0
100
AcDbLine
 62
7
  6
CONTINUOUS
 10
25.0041106249
 20
-7.7541119505
 11
24.9923941097
 21
-7.7728262078
  0
LWPOLYLINE
  5
265
100
AcDbEntity
  8
0
100
AcDbPolyline
 62
7
  6
CONTINUOUS
 90
4
 70
0
 10
25.0250996063
 20
-7.7365286163
 10
25.0145646315
 20
-7.7499332437
 10
25.0028677237
 20
-7.7614183024
 10
24.996613306
 20
-7.7660870773
  0
LWPOLYLINE
  5
266
100
AcDbEntity
  8
RACCORDO
100
AcDbPolyline
 62
253
  6
CONTINUOUS
 90
21
 70
0
 10
22.8051011964
 20
-28.4992501295
 10
22.8928928922
 20
-28.437803889
 10
22.9770661456
 20
-28.3705511589
 10
23.0575004001
 20
-28.2975885883
 10
23.134089585
 20
-28.2190131409
 10
23.2067402653
 20
-28.134920287
 10
23.2753637396
 20
-28.0454040966
 10
23.3398472781
 20
-27.9506036395
 10
23.4000741895
 20
-27.8506996712
 10
23.4558213799
 20
-27.7461248838
 10
23.5071808692
 20
-27.6367683765
 10
23.554428293
 20
-27.5219037968
 10
23.5975050791
 20
-27.4012877937
 10
23.6361287514
 20
-27.2752718261
 10
23.6701463914
 20
-27.1439297062
 10
23.6994359703
 20
-27.0071873508
 10
23.7238050001
 20
-26.8653192393
 10
23.7430540502
 20
-26.7189873102
 10
23.7570871933
 20
-26.5685574902
 10
23.7658520607
 20
-26.4140490145
 10
23.7692790398
 20
-26.2556644699
  0
LWPOLYLINE
  5
267
100
AcDbEntity
  8
RACCORDO
100
AcDbPolyline
 62
253
  6
CONTINUOUS
 90
3
 70
0
 10
22.6390374553
 20
-28.5946107551
 10
22.7138122509
 20
-28.554805004
 10
22.8051011964
 20
-28.4992501295
  0
LINE
  5
268
100
AcDbEntity
  8
RACCORDO
100
AcDbLine
 62
253
  6
CONTINUOUS
 10
23.7331534953
 20
-26.2739032268
 11
23.9713834888
 21
-26.1547211098
  0
ELLIPSE
  5
269
100
AcDbEntity
  8
RACCORDO
100
AcDbEllipse
 62
7
  6
CONTINUOUS
 10
20.4336945184
 20
-24.1071286038
 30
0.0
 11
-2.5031673008
 21
4.3353346435
 31
0.0
 40
0.5766289216
 41
-3.1764551
 42
-2.3568516818
  0
ELLIPSE
  5
26A
100
AcDbEntity
  8
RACCORDO
100
AcDbEllipse
 62
7
  6
CONTINUOUS
 10
20.4336945184
 20
-0.0262321864
 30
0.0
 11
-2.5001212432
 21
4.3300570169
 31
0.0
 40
0.5780352736
 41
-2.355633942
 42
-0.7860555904
  0
ELLIPSE
  5
26B
100
AcDbEntity
  8
RACCORDO
100
AcDbEllipse
 62
7
  6
CONTINUOUS
 10
-21.6348488332
 20
24.2636175021
 30
0.0
 11
-2.5031673008
 21
4.3353346435
 31
0.0
 40
0.5766289216
 41
-0.7848373798
 42
0.0348624464
  0
ENDSEC
  0
SECTION
  2
OBJECTS
  0
DICTIONARY
  5
C
100
AcDbDictionary
280
0
281
1
  3
ACAD_GROUP
350
D
  3
ACAD_MLINESTYLE
350
17
  3
ACAD_LAYOUT
350
1A
  3
ACAD_PLOTSETTINGS
350
19
  3
ACAD_PLOTSTYLENAME
350
E
  0
DICTIONARY
  5
D
102
{ACAD_REACTORS
330
C
102
}
100
AcDbDictionary
280
0
281
1
  0
ACDBDICTIONARYWDFLT
  5
E
102
{ACAD_REACTORS
330
C
102
}
100
AcDbDictionary
281
1
  3
Normal
350
F
100
AcDbDictionaryWithDefault
340
F
  0
DICTIONARY
  5
17
102
{ACAD_REACTORS
330
C
102
}
100
AcDbDictionary
280
0
281
1
  3
Standard
350
18
  0
DICTIONARY
  5
19
102
{ACAD_REACTORS
330
C
102
}
100
AcDbDictionary
281
1
  0
DICTIONARY
  5
1A
102
{ACAD_REACTORS
330
C
102
}
100
AcDbDictionary
281
1
  3
Model
350
26C
  3
Layout1
350
26D
  0
ACDBPLACEHOLDER
  5
F
102
{ACAD_REACTORS
330
E
102
}
  0
MLINESTYLE
  5
18
102
{ACAD_REACTORS
330
17
102
}
100
AcDbMlineStyle
  2
STANDARD
 70
0
  3

 62
256
 51
90.0
 52
90.0
 71
2
 49
0.5
 62
256
  6
BYLAYER
 49
-0.5
 62
256
  6
BYLAYER
  0
LAYOUT
  5
26C
102
{ACAD_REACTORS
330
1A
102
}
100
AcDbPlotSettings
  1

  2
none_device
  4
ISO_A4_(297.00_x_210.00_MM)
  6

 40
0.0
 41
0.0
 42
0.0
 43
0.0
 44
297.0
 45
210.0
 46
0.0
 47
0.0
 48
0.0
 49
0.0
140
0.0
141
0.0
142
1.0
143
1.0
 70
1024
 72
1
 73
0
 74
0
  7

 75
0
147
1.0
148
0.0
149
0.0
100
AcDbLayout
  1
Model
 70
0
 71
0
 10
0.0
 20
0.0
 11
297.0
 21
210.0
 12
0.0
 22
0.0
 32
0.0
 14
0.0
 24
0.0
 34
0.0
 15
0.0
 25
0.0
 35
0.0
146
0.0
 13
0.0
 23
0.0
 33
0.0
 16
1.0
 26
0.0
 36
0.0
 17
0.0
 27
1.0
 37
0.0
 76
0
330
214
345
0
346
0
  0
LAYOUT
  5
26D
102
{ACAD_REACTORS
330
1A
102
}
100
AcDbPlotSettings
  1

  2
none_device
  4
ISO_A4_(297.00_x_210.00_MM)
  6

 40
0.0
 41
0.0
 42
0.0
 43
0.0
 44
297.0
 45
210.0
 46
0.0
 47
0.0
 48
0.0
 49
0.0
140
0.0
141
0.0
142
1.0
143
1.0
 70
0
 72
1
 73
0
 74
0
  7

 75
0
147
1.0
148
0.0
149
0.0
100
AcDbLayout
  1
Layout1
 70
0
 71
1
 10
0.0
 20
0.0
 11
297.0
 21
210.0
 12
0.0
 22
0.0
 32
0.0
 14
0.0
 24
0.0
 34
0.0
 15
0.0
 25
0.0
 35
0.0
146
0.0
 13
0.0
 23
0.0
 33
0.0
 16
1.0
 26
0.0
 36
0.0
 17
0.0
 27
1.0
 37
0.0
 76
0
330
215
345
0
346
0
  0
ENDSEC
  0
EOF
