  0
SECTION
  2
HEADER
  9
$ACADVER
  1
AC1024
  9
$DWGCODEPAGE
  3
ANSI_1252
  9
$EXTMAX
 10
297.0
 20
210.0
 30
0.0
  9
$EXTMIN
 10
0.0
 20
0.0
 30
0.0
  9
$LIMMIN
 10
0.0
 20
0.0
  9
$LIMMAX
 10
297.0
 20
210.0
  9
$VIEWCTR
 10
148.5
 20
105.0
  9
$VIEWSIZE
 40
210.0
  9
$CLAYER
  8
0
  9
$LTSCALE
 40
16.335
  9
$CELTYPE
  6
BYLAYER
  9
$DIMSCALE
 40
1.0
  9
$DIMASZ
 40
3.0
  9
$DIMEXO
 40
0.5
  9
$DIMDLI
 40
11.286
  9
$DIMEXE
 40
1.5
  9
$DIMCEN
 40
2.673
  9
$DIMLFAC
 40
1.0
  9
$DIMBLK
  1
_FILLED
  9
$DIMALT
 70
0
  9
$DIMALTF
 40
0.0393700787
  9
$DIMTXT
 40
3.0
  9
$DIMTOL
 70
1
  9
$DIMLIM
 70
0
  9
$DIMTFAC
 40
1.0
  9
$DIMTP
 40
0.01
  9
$DIMTM
 40
0.01
  9
$DIMGAP
 40
0.625
  9
$DIMDSEP
 70
44
  9
$AUNITS
 70
0
  9
$PDMODE
 70
3
  9
$PDSIZE
 40
3.0
  9
$HANDSEED
  5
2AF
  9
$TILEMODE
 70
1
  9
$MEASUREMENT
 70
1
  9
$INSUNITS
 70
4
  0
ENDSEC
  0
SECTION
  2
CLASSES
  0
CLASS
  1
ACDBDICTIONARYWDFLT
  2
AcDbDictionaryWithDefault
  3
AutoCAD 2000
 90
0
 91
1
280
0
281
0
  0
CLASS
  1
ACDBPLACEHOLDER
  2
AcDbPlaceHolder
  3
AutoCAD 2000
 90
0
 91
1
280
0
281
0
  0
CLASS
  1
LAYOUT
  2
AcDbLayout
  3
AutoCAD 2000
 90
0
 91
0
280
0
281
0
  0
ENDSEC
  0
SECTION
  2
TABLES
  0
TABLE
  2
VPORT
  5
8
100
AcDbSymbolTable
 70
2
  0
VPORT
  5
1F4
100
AcDbSymbolTableRecord
100
AcDbViewportTableRecord
  2
*ACTIVE
 70
0
 10
0.0
 20
0.0
 11
1.0
 21
1.0
 12
148.5
 22
105.0
 13
0.0
 23
0.0
 14
1.0
 24
1.0
 15
0.0
 25
0.0
 16
0.0
 26
0.0
 36
1.0
 17
0.0
 27
0.0
 37
0.0
 40
210.0
 41
1.4142857143
 42
50.0
 43
0.0
 44
0.0
 50
0.0
 51
0.0
 71
0
 72
100
 73
1
 74
1
 75
0
 76
0
 77
0
 78
0
  0
ENDTAB
  0
TABLE
  2
LTYPE
  5
5
100
AcDbSymbolTable
 70
6
  0
LTYPE
  5
14
100
AcDbSymbolTableRecord
100
AcDbLinetypeTableRecord
  2
BYBLOCK
 70
0
  3

 72
65
 73
0
 40
0.0
  0
LTYPE
  5
15
100
AcDbSymbolTableRecord
100
AcDbLinetypeTableRecord
  2
BYLAYER
 70
0
  3

 72
65
 73
0
 40
0.0
  0
LTYPE
  5
16
100
AcDbSymbolTableRecord
100
AcDbLinetypeTableRecord
  2
CONTINUOUS
 70
64
  3
Solid line
 72
65
 73
0
 40
0.0
  0
LTYPE
  5
1F5
100
AcDbSymbolTableRecord
100
AcDbLinetypeTableRecord
  2
CENTER
 70
64
  3
____ _ ____ _ ____ _ ____ _ ____ _ ____ _ ____
 72
65
 73
4
 40
0.6
 49
0.375
 74
0
 49
-0.075
 74
0
 49
0.075
 74
0
 49
-0.075
 74
0
  0
LTYPE
  5
1F6
100
AcDbSymbolTableRecord
100
AcDbLinetypeTableRecord
  2
HIDDEN
 70
64
  3
- - - - - - - - - - - - - - - - - - - -
 72
65
 73
2
 40
0.2
 49
0.1
 74
0
 49
-0.1
 74
0
  0
LTYPE
  5
1F7
100
AcDbSymbolTableRecord
100
AcDbLinetypeTableRecord
  2
PHANTOM
 70
64
  3
_____ _ _ _____ _ _ _____ _ _ _____
 72
65
 73
6
 40
0.8
 49
0.45
 74
0
 49
-0.05
 74
0
 49
0.1
 74
0
 49
-0.05
 74
0
 49
0.1
 74
0
 49
-0.05
 74
0
  0
LTYPE
  5
1F8
100
AcDbSymbolTableRecord
100
AcDbLinetypeTableRecord
  2
DOT
 70
64
  3
. . . . . . . . . . . . . . . . . . . .
 72
65
 73
2
 40
0.2
 49
0.1
 74
0
 49
-0.1
 74
0
  0
LTYPE
  5
1F9
100
AcDbSymbolTableRecord
100
AcDbLinetypeTableRecord
  2
DASHED
 70
64
  3
- - - - - - - - - - - - - - - - - - - -
 72
65
 73
2
 40
0.2
 49
0.1
 74
0
 49
-0.1
 74
0
  0
ENDTAB
  0
TABLE
  2
LAYER
  5
2
100
AcDbSymbolTable
 70
36
  0
LAYER
  5
10
100
AcDbSymbolTableRecord
100
AcDbLayerTableRecord
  2
0
 70
0
 62
7
  6
CONTINUOUS
370
-3
390
F
  0
LAYER
  5
1FA
100
AcDbSymbolTableRecord
100
AcDbLayerTableRecord
  2
DEFAULT_1
 70
0
 62
7
  6
CENTER
370
-3
390
F
  0
LAYER
  5
1FB
100
AcDbSymbolTableRecord
100
AcDbLayerTableRecord
  2
DEFAULT_2
 70
0
 62
7
  6
HIDDEN
370
-3
390
F
  0
LAYER
  5
1FC
100
AcDbSymbolTableRecord
100
AcDbLayerTableRecord
  2
DEFAULT_3
 70
0
 62
7
  6
PHANTOM
370
-3
390
F
  0
LAYER
  5
1FD
100
AcDbSymbolTableRecord
100
AcDbLayerTableRecord
  2
ASSI
 70
0
 62
7
  6
CONTINUOUS
370
-3
390
F
  0
LAYER
  5
1FE
100
AcDbSymbolTableRecord
100
AcDbLayerTableRecord
  2
COLOR5
 70
0
 62
7
  6
CONTINUOUS
370
-3
390
F
  0
LAYER
  5
1FF
100
AcDbSymbolTableRecord
100
AcDbLayerTableRecord
  2
COORDINATE
 70
0
 62
7
  6
CONTINUOUS
370
-3
390
F
  0
LAYER
  5
200
100
AcDbSymbolTableRecord
100
AcDbLayerTableRecord
  2
COORD_ORIGINE
 70
0
 62
7
  6
CONTINUOUS
370
-3
390
F
  0
LAYER
  5
201
100
AcDbSymbolTableRecord
100
AcDbLayerTableRecord
  2
COPY_PUBLISH
 70
0
 62
7
  6
CONTINUOUS
370
-3
390
F
  0
LAYER
  5
202
100
AcDbSymbolTableRecord
100
AcDbLayerTableRecord
  2
COSMETICI
 70
0
 62
7
  6
CONTINUOUS
370
-3
390
F
  0
LAYER
  5
203
100
AcDbSymbolTableRecord
100
AcDbLayerTableRecord
  2
CURVE
 70
0
 62
7
  6
CONTINUOUS
370
-3
390
F
  0
LAYER
  5
204
100
AcDbSymbolTableRecord
100
AcDbLayerTableRecord
  2
DRAFT
 70
0
 62
7
  6
CONTINUOUS
370
-3
390
F
  0
LAYER
  5
205
100
AcDbSymbolTableRecord
100
AcDbLayerTableRecord
  2
IMPORT_IGES
 70
0
 62
7
  6
CONTINUOUS
370
-3
390
F
  0
LAYER
  5
206
100
AcDbSymbolTableRecord
100
AcDbLayerTableRecord
  2
INTF_1
 70
0
 62
7
  6
CONTINUOUS
370
-3
390
F
  0
LAYER
  5
207
100
AcDbSymbolTableRecord
100
AcDbLayerTableRecord
  2
INTF_11
 70
0
 62
7
  6
CONTINUOUS
370
-3
390
F
  0
LAYER
  5
208
100
AcDbSymbolTableRecord
100
AcDbLayerTableRecord
  2
NOTE
 70
0
 62
7
  6
CONTINUOUS
370
-3
390
F
  0
LAYER
  5
209
100
AcDbSymbolTableRecord
100
AcDbLayerTableRecord
  2
PIANI
 70
0
 62
7
  6
CONTINUOUS
370
-3
390
F
  0
LAYER
  5
20A
100
AcDbSymbolTableRecord
100
AcDbLayerTableRecord
  2
PIANI_ORIGINE
 70
0
 62
7
  6
CONTINUOUS
370
-3
390
F
  0
LAYER
  5
20B
100
AcDbSymbolTableRecord
100
AcDbLayerTableRecord
  2
PUNTI
 70
0
 62
7
  6
CONTINUOUS
370
-3
390
F
  0
LAYER
  5
20C
100
AcDbSymbolTableRecord
100
AcDbLayerTableRecord
  2
RACCORDO
 70
0
 62
7
  6
CONTINUOUS
370
-3
390
F
  0
LAYER
  5
20D
100
AcDbSymbolTableRecord
100
AcDbLayerTableRecord
  2
RGB____0____0____0__
 70
0
 62
7
  6
CONTINUOUS
370
-3
390
F
  0
LAYER
  5
20E
100
AcDbSymbolTableRecord
100
AcDbLayerTableRecord
  2
SIMBOLI
 70
0
 62
7
  6
CONTINUOUS
370
-3
390
F
  0
LAYER
  5
20F
100
AcDbSymbolTableRecord
100
AcDbLayerTableRecord
  2
SMUSSO
 70
0
 62
7
  6
CONTINUOUS
370
-3
390
F
  0
LAYER
  5
210
100
AcDbSymbolTableRecord
100
AcDbLayerTableRecord
  2
SNAPLINE
 70
0
 62
7
  6
CONTINUOUS
370
-3
390
F
  0
LAYER
  5
211
100
AcDbSymbolTableRecord
100
AcDbLayerTableRecord
  2
SUPERFICI
 70
0
 62
7
  6
CONTINUOUS
370
-3
390
F
  0
LAYER
  5
212
100
AcDbSymbolTableRecord
100
AcDbLayerTableRecord
  2
TRASH
 70
0
 62
7
  6
CONTINUOUS
370
-3
390
F
  0
ENDTAB
  0
TABLE
  2
STYLE
  5
3
100
AcDbSymbolTable
 70
1
  0
STYLE
  5
11
100
AcDbSymbolTableRecord
100
AcDbTextStyleTableRecord
  2
STANDARD
 70
0
 40
0.0
 41
0.8
 50
0.0
 71
0
 42
0.2
  3
txt
  4

  0
STYLE
  5
213
100
AcDbSymbolTableRecord
100
AcDbTextStyleTableRecord
  2
TEXTSTYLE_1
 70
0
 40
0.0
 41
0.8
 50
0.0
 71
0
 42
0.2
  3
gdt
  4

  0
ENDTAB
  0
TABLE
  2
VIEW
  5
6
100
AcDbSymbolTable
 70
0
  0
ENDTAB
  0
TABLE
  2
UCS
  5
7
100
AcDbSymbolTable
 70
0
  0
ENDTAB
  0
TABLE
  2
APPID
  5
9
100
AcDbSymbolTable
 70
1
  0
APPID
  5
214
100
AcDbSymbolTableRecord
100
AcDbRegAppTableRecord
  2
ACAD
 70
0
  0
ENDTAB
  0
TABLE
  2
BLOCK_RECORD
  5
1
100
AcDbSymbolTable
 70
0
  0
BLOCK_RECORD
  5
215
100
AcDbSymbolTableRecord
100
AcDbBlockTableRecord
  2
*Model_Space
  0
BLOCK_RECORD
  5
216
100
AcDbSymbolTableRecord
100
AcDbBlockTableRecord
  2
*Paper_Space
  0
BLOCK_RECORD
  5
217
100
AcDbSymbolTableRecord
100
AcDbBlockTableRecord
  2
_FILLED
  0
ENDTAB
  0
TABLE
  2
DIMSTYLE
  5
A
100
AcDbSymbolTable
 70
1
100
AcDbDimStyleTable
 71
0
  0
DIMSTYLE
105
218
100
AcDbSymbolTableRecord
100
AcDbDimStyleTableRecord
  2
STANDARD
 70
0
  3

  4

 40
1.0
 41
3.0
 42
0.5
 43
0.38
 44
1.5
 45
0.0
 46
0.0
 47
0.01
 48
0.01
140
3.0
141
0.09
142
0.0
143
25.4
144
1.0
145
0.0
146
1.0
147
0.625
 71
1
 72
0
 73
0
 74
0
 75
0
 76
0
 77
1
 78
8
 79
2
170
0
171
1
172
0
173
0
174
0
175
0
176
0
177
0
178
0
270
2
179
2
271
2
272
2
273
2
274
2
275
0
280
0
281
0
282
0
283
1
284
8
285
0
286
0
287
3
288
0
340
11
278
44
341
217
342
217
343
217
344
217
  0
ENDTAB
  0
ENDSEC
  0
SECTION
  2
BLOCKS
  0
BLOCK
  5
20
100
AcDbEntity
  8
0
100
AcDbBlockBegin
  2
*Model_Space
 70
0
 10
0.0
 20
0.0
 30
0.0
  3
*Model_Space
  1

  0
ENDBLK
  5
21
100
AcDbEntity
  8
0
100
AcDbBlockEnd
  0
BLOCK
  5
1C
100
AcDbEntity
  8
0
100
AcDbBlockBegin
  2
*Paper_Space
 70
0
 10
0.0
 20
0.0
 30
0.0
  3
*Paper_Space
  1

  0
ENDBLK
  5
1D
100
AcDbEntity
  8
0
100
AcDbBlockEnd
  0
BLOCK
  5
219
100
AcDbEntity
  8
0
100
AcDbBlockBegin
  2
_FILLED
 70
64
 10
0.0
 20
0.0
  3
_FILLED
  1

  0
SOLID
  5
21A
100
AcDbEntity
  8
0
  6
BYBLOCK
 62
0
100
AcDbTrace
 10
0.0
 20
0.0
 11
-1.0
 21
0.3166666667
 12
-1.0
 22
-0.3166666667
 13
-1.0
 23
-0.3166666667
  0
ENDBLK
  5
21B
100
AcDbEntity
  8
0
  6
BYBLOCK
 62
0
100
AcDbBlockEnd
  0
ENDSEC
  0
SECTION
  2
ENTITIES
  0
LWPOLYLINE
  5
21C
100
AcDbEntity
  8
RACCORDO
100
AcDbPolyline
 62
7
  6
CONTINUOUS
 90
21
 70
0
 10
91.4567174112
 20
174.4551657372
 10
91.2557522171
 20
174.3114189108
 10
91.0607845552
 20
174.1544861727
 10
90.8722875417
 20
173.9841895809
 10
90.6910609173
 20
173.8006971228
 10
90.5181368219
 20
173.6045801337
 10
90.3540383446
 20
173.3960140589
 10
90.1992121515
 20
173.1751544231
 10
90.0543743365
 20
172.9426600498
 10
89.9198933959
 20
172.6988000399
 10
89.7960591485
 20
172.4437738922
 10
89.683305153
 20
172.1781733157
 10
89.5818783724
 20
171.902283312
 10
89.491967461
 20
171.6163088765
 10
89.4138278181
 20
171.3207254289
 10
89.3476425946
 20
171.0158155138
 10
89.2935596563
 20
170.7017830021
 10
89.2517556256
 20
170.3789945305
 10
89.2223913154
 20
170.0477591506
 10
89.2055989904
 20
169.7083805914
 10
89.2013145126
 20
169.4250687496
  0
LINE
  5
21D
100
AcDbEntity
  8
RACCORDO
100
AcDbLine
 62
7
  6
CONTINUOUS
 10
91.4567174112
 20
174.4551657372
 11
91.8790316969
 21
174.7344876812
  0
LWPOLYLINE
  5
21E
100
AcDbEntity
  8
RACCORDO
100
AcDbPolyline
 62
250
  6
CONTINUOUS
 90
3
 70
0
 10
91.8740288897
 20
174.6955988118
 10
91.6846171489
 20
174.596371609
 10
91.488911141
 20
174.476635712
  0
LINE
  5
21F
100
AcDbEntity
  8
RACCORDO
100
AcDbLine
 62
250
  6
CONTINUOUS
 10
92.0700684338
 20
174.7828392936
 11
91.8740288897
 21
174.6955988118
  0
LWPOLYLINE
  5
220
100
AcDbEntity
  8
RACCORDO
100
AcDbPolyline
 62
250
  6
CONTINUOUS
 90
43
 70
0
 10
89.6406543403
 20
120.6624841195
 10
89.6453843775
 20
120.3946172909
 10
89.6582797027
 20
120.1250636914
 10
89.6793403158
 20
119.8538233211
 10
89.7086097278
 20
119.5811951684
 10
89.7460444277
 20
119.3068802447
 10
89.7915138828
 20
119.029981585
 10
89.8450641216
 20
118.749779336
 10
89.9066491155
 20
118.466993351
 10
89.9760002461
 20
118.1828862236
 10
90.0531425494
 20
117.8974954546
 10
90.1380509893
 20
117.6107835433
 10
90.2303818396
 20
117.3239005808
 10
90.3301673988
 20
117.0368367486
 10
90.4373753683
 20
116.7496018651
 10
90.5515651257
 20
116.4633754769
 10
90.6727647455
 20
116.178163139
 10
90.8009461533
 20
115.8939592963
 10
90.9355845031
 20
115.6119268308
 10
91.0767056427
 20
115.3320752993
 10
91.2242837245
 20
115.0543951448
 10
91.3777163598
 20
114.7800205786
 10
91.5370294288
 20
114.5089620488
 10
91.7021970514
 20
114.2412091072
 10
91.8725391988
 20
113.9778646205
 10
92.048067765
 20
113.7189581847
 10
92.2287708561
 20
113.4644602039
 10
92.4139327606
 20
113.2153847561
 10
92.6036162383
 20
112.9717048272
 10
92.7977585295
 20
112.7334474314
 10
92.9954556444
 20
112.5017076894
 10
93.1961456414
 20
112.2770246137
 10
93.4003904621
 20
112.0588591917
 10
93.608971941
 20
111.8466895068
 10
93.8224026859
 20
111.6398925257
 10
94.0401700889
 20
111.4390912817
 10
94.2615181617
 20
111.2456329571
 10
94.4867833555
 20
111.0593475113
 10
94.715629219
 20
110.8804049849
 10
94.9462904096
 20
110.7106626818
 10
95.17817848
 20
110.5507397033
 10
95.4118818776
 20
110.400016948
 10
95.6474006024
 20
110.258494416
  0
LWPOLYLINE
  5
221
100
AcDbEntity
  8
RACCORDO
100
AcDbPolyline
 62
7
  6
CONTINUOUS
 90
40
 70
0
 10
89.201314514
 20
121.2749406825
 10
89.2050005428
 20
121.0084053998
 10
89.2200681852
 20
120.6687227735
 10
89.2465846973
 20
120.3258428481
 10
89.2843710521
 20
119.9802624526
 10
89.333235037
 20
119.632390806
 10
89.3929946218
 20
119.2826226443
 10
89.4634687006
 20
118.9313665033
 10
89.5444551841
 20
118.5790880291
 10
89.6357436541
 20
118.2263114066
 10
89.7371225984
 20
117.8734975483
 10
89.8483769385
 20
117.5210869946
 10
89.9692688693
 20
117.1696050091
 10
90.0995423819
 20
116.819557252
 10
90.2389790995
 20
116.4713410089
 10
90.3873727372
 20
116.1253405471
 10
90.5444589656
 20
115.7820367311
 10
90.7100071121
 20
115.4418427506
 10
90.8838463876
 20
115.1050509263
 10
91.065723483
 20
114.7721039361
 10
91.2553894142
 20
114.4434465398
 10
91.4526713174
 20
114.1193749754
 10
91.6573123058
 20
113.8003266817
 10
91.8690553129
 20
113.4867454947
 10
92.087725625
 20
113.1789308066
 10
92.3130823539
 20
112.8772921893
 10
92.5448409152
 20
112.582296724
 10
92.7827669922
 20
112.294318755
 10
93.0266260746
 20
112.0137497319
 10
93.2761077208
 20
111.7410592478
 10
93.5308763072
 20
111.4767167382
 10
93.7906593017
 20
111.2211294146
 10
94.0551613305
 20
110.9747061771
 10
94.32403399
 20
110.7378942857
 10
94.5969754206
 20
110.5111021814
 10
94.8737235458
 20
110.2946857931
 10
95.1540284383
 20
110.0890011383
 10
95.4376282272
 20
109.8944211587
 10
95.7241795956
 20
109.7113489499
 10
95.9580598208
 20
109.5718687521
  0
LINE
  5
222
100
AcDbEntity
  8
RACCORDO
100
AcDbLine
 62
7
  6
CONTINUOUS
 10
89.201314512
 20
169.4250928632
 11
89.201314512
 21
121.2748960081
  0
LINE
  5
223
100
AcDbEntity
  8
RACCORDO
100
AcDbLine
 62
250
  6
CONTINUOUS
 10
89.6406543403
 20
168.8126809732
 11
89.6406543403
 21
120.6624841195
  0
LWPOLYLINE
  5
224
100
AcDbEntity
  8
RACCORDO
100
AcDbPolyline
 62
250
  6
CONTINUOUS
 90
13
 70
0
 10
95.6474006024
 20
110.258494416
 10
95.6495717815
 20
110.1814259932
 10
95.6560764298
 20
110.1071803127
 10
95.6668879172
 20
110.0360613374
 10
95.6819619813
 20
109.9683602296
 10
95.7012369088
 20
109.9043541584
 10
95.7246337877
 20
109.8443051658
 10
95.752056831
 20
109.788459093
 10
95.7833937682
 20
109.7370445748
 10
95.8185163055
 20
109.6902721029
 10
95.8572806508
 20
109.6483331646
 10
95.8995281022
 20
109.6113994583
 10
95.945085698
 20
109.5796221914
  0
LWPOLYLINE
  5
225
100
AcDbEntity
  8
RACCORDO
100
AcDbPolyline
 62
250
  6
CONTINUOUS
 90
25
 70
0
 10
95.6474006024
 20
172.2802306576
 10
95.6495717785
 20
172.3598062528
 10
95.6560764191
 20
172.4415632902
 10
95.6668878947
 20
172.525167056
 10
95.6819619441
 20
172.610275276
 10
95.7012368548
 20
172.6965395164
 10
95.7246337157
 20
172.7836066102
 10
95.7520567406
 20
172.8711201041
 10
95.78339366
 20
172.9587217165
 10
95.8185161808
 20
173.0460528048
 10
95.8572805114
 20
173.1327558345
 10
95.8995279508
 20
173.2184758418
 10
95.9450855375
 20
173.3028618871
 10
95.9937667587
 20
173.3855684923
 10
96.045372313
 20
173.4662570552
 10
96.0996909264
 20
173.5445972343
 10
96.1565002181
 20
173.6202683036
 10
96.21556761
 20
173.692960464
 10
96.2766512789
 20
173.7623761115
 10
96.3395011474
 20
173.828231057
 10
96.4038599073
 20
173.890255689
 10
96.4694640718
 20
173.9481960764
 10
96.5360450563
 20
174.00181501
 10
96.6033302773
 20
174.0508929728
 10
97.0479751635
 20
174.3443626452
  0
LWPOLYLINE
  5
226
100
AcDbEntity
  8
RACCORDO
100
AcDbPolyline
 62
250
  6
CONTINUOUS
 90
43
 70
0
 10
179.7744445679
 20
61.6845935899
 10
180.0040662727
 20
61.5574744959
 10
180.2310657725
 20
61.441297589
 10
180.4554430672
 20
61.336062869
 10
180.6769174594
 20
61.2419826476
 10
180.8957696465
 20
61.1588446133
 10
181.112841721
 20
61.0860118308
 10
181.3287340974
 20
61.0231907759
 10
181.5428463612
 20
60.9706749729
 10
181.7542193612
 20
60.9287080599
 10
181.9628081002
 20
60.8973449257
 10
182.1686575753
 20
60.8765306814
 10
182.3709436261
 20
60.8663442987
 10
182.569658605
 20
60.8668274873
 10
182.7648101595
 20
60.8779385375
 10
182.955597072
 20
60.8996312919
 10
183.142000493
 20
60.9319490505
 10
183.324039272
 20
60.9748485132
 10
183.5009687396
 20
61.0281536227
 10
183.6727676939
 20
61.0919064659
 10
183.8394573368
 20
61.1660649557
 10
184.0003566044
 20
61.2503267741
 10
184.1554435068
 20
61.3447345006
 10
184.3047400338
 20
61.4492455555
 10
184.4476310915
 20
61.5634298823
 10
184.5840851003
 20
61.6873194481
 10
184.7141336398
 20
61.8208822857
 10
184.8372563544
 20
61.9635924363
 10
184.953445257
 20
62.1155269777
 10
185.0627083347
 20
62.2766088322
 10
185.1645491931
 20
62.4460808076
 10
185.2587820167
 20
62.6234013383
 10
185.345592621
 20
62.8091119899
 10
185.4250420589
 20
63.0040802671
 10
185.4974135814
 20
63.2087345135
 10
185.5624239375
 20
63.4226463854
 10
185.6192844261
 20
63.6453983566
 10
185.6679740694
 20
63.8773910275
 10
185.7085138452
 20
64.1182237978
 10
185.740177986
 20
64.3662773403
 10
185.7627245691
 20
64.6210118794
 10
185.7763955171
 20
64.8829671907
 10
185.78119083
 20
65.1521432742
  0
LWPOLYLINE
  5
227
100
AcDbEntity
  8
RACCORDO
100
AcDbPolyline
 62
7
  6
CONTINUOUS
 90
22
 70
0
 10
180.0850454287
 20
60.9980016198
 10
180.327865909
 20
60.8625616057
 10
180.6304700731
 20
60.7070294162
 10
180.9323084591
 20
60.5664858439
 10
181.2330539416
 20
60.4409652421
 10
181.5323608434
 20
60.3304821114
 10
181.8298215584
 20
60.2350696919
 10
182.1251842046
 20
60.1546983859
 10
182.4181101305
 20
60.0893534952
 10
182.7080556783
 20
60.0390561108
 10
182.9947490236
 20
60.0037388507
 10
183.2778188143
 20
59.9833318777
 10
183.5565342399
 20
59.9777587129
 10
183.8305791511
 20
59.9868623504
 10
184.0995335972
 20
60.0104600783
 10
184.3624648341
 20
60.0482635594
 10
184.6190168209
 20
60.0999573722
 10
184.8687741103
 20
60.1651763814
 10
185.1107198427
 20
60.2433135291
 10
185.3443087804
 20
60.333754011
 10
185.5694595681
 20
60.4359965293
 10
186.0227035696
 20
60.6621940746
  0
LINE
  5
228
100
AcDbEntity
  8
RACCORDO
100
AcDbLine
 62
7
  6
CONTINUOUS
 10
95.958024534
 20
109.5718891243
 11
180.0850685006
 21
60.9979882975
  0
LINE
  5
229
100
AcDbEntity
  8
RACCORDO
100
AcDbLine
 62
250
  6
CONTINUOUS
 10
95.6474006024
 20
110.258494416
 11
179.7744445679
 21
61.6845935899
  0
LWPOLYLINE
  5
22A
100
AcDbEntity
  8
0
100
AcDbPolyline
 62
7
  6
CONTINUOUS
 90
42
 70
0
 10
189.2209261582
 20
104.6173471435
 10
189.2972555375
 20
104.6387184756
 10
189.3769484342
 20
104.6523268869
 10
189.459642448
 20
104.6581232058
 10
189.5449603534
 20
104.6560968509
 10
189.6325119636
 20
104.6462758828
 10
189.7218960579
 20
104.628726866
 10
189.8127023631
 20
104.6035545395
 10
189.9045135811
 20
104.5709012999
 10
189.9969074493
 20
104.5309464977
 10
190.0894588269
 20
104.4839055516
 10
190.1817417954
 20
104.4300288842
 10
190.2733317616
 20
104.369600685
 10
190.3638075559
 20
104.3029375067
 10
190.4527535124
 20
104.2303867015
 10
190.5397615219
 20
104.1523247048
 10
190.6244330484
 20
104.0691551766
 10
190.7063810977
 20
103.9813070066
 10
190.7852321286
 20
103.8892321961
 10
190.8606278986
 20
103.7934036252
 10
190.9322272333
 20
103.6943127167
 10
190.999707712
 20
103.5924670086
 10
191.0627672598
 20
103.4883876473
 10
191.1211256406
 20
103.3826068126
 10
191.1745258406
 20
103.2756650898
 10
191.2227353386
 20
103.1681087982
 10
191.2655472539
 20
103.0604872934
 10
191.3027813691
 20
102.9533502532
 10
191.3342850195
 20
102.8472449621
 10
191.3599338476
 20
102.7427136082
 10
191.3796324176
 20
102.6402906048
 10
191.3933146866
 20
102.5404999503
 10
191.4009443308
 20
102.4438526403
 10
191.4025149249
 20
102.3508441426
 10
191.3980499743
 20
102.2619519505
 10
191.3876027983
 20
102.1776332235
 10
191.3712562674
 20
102.0983225295
 10
191.3491223933
 20
102.0244296975
 10
191.3213417762
 20
101.956337794
 10
191.2880829098
 20
101.8944012297
 10
191.2495413492
 20
101.8389440098
 10
191.2059387448
 20
101.7902581328
  0
LWPOLYLINE
  5
22B
100
AcDbEntity
  8
0
100
AcDbPolyline
 62
7
  6
CONTINUOUS
 90
44
 70
0
 10
188.26905744
 20
104.0319060144
 10
188.296773058
 20
104.0373453013
 10
188.3787770209
 20
104.0450286994
 10
188.4634971331
 20
104.0448884457
 10
188.5505461608
 20
104.0369432847
 10
188.639525366
 20
104.0212505154
 10
188.7300264761
 20
103.9979057083
 10
188.8216337006
 20
103.967042233
 10
188.9139257853
 20
103.9288305997
 10
189.0064780926
 20
103.8834776166
 10
189.0988646999
 20
103.8312253686
 10
189.1906605029
 20
103.7723500212
 10
189.2814433159
 20
103.7071604567
 10
189.370795957
 20
103.6359967479
 10
189.4583083091
 20
103.5592284785
 10
189.5435793459
 20
103.4772529175
 10
189.6262191124
 20
103.3904930564
 10
189.7058506518
 20
103.2993955202
 10
189.7821118669
 20
103.204428361
 10
189.8546573094
 20
103.1060787459
 10
189.923159886
 20
103.0048505502
 10
189.9873124742
 20
102.9012618691
 10
190.0468294395
 20
102.7958424578
 10
190.1014480461
 20
102.6891311148
 10
190.1509297551
 20
102.5816730206
 10
190.1950614028
 20
102.4740170441
 10
190.2336562533
 20
102.3667130321
 10
190.2665549213
 20
102.2603090924
 10
190.2936261593
 20
102.1553488869
 10
190.3147675059
 20
102.0523689455
 10
190.3299057921
 20
101.9518960161
 10
190.3389975023
 20
101.8544444628
 10
190.34202899
 20
101.7605137244
 10
190.3390165443
 20
101.670585848
 10
190.3300063102
 20
101.5851231072
 10
190.3150740602
 20
101.5045657192
 10
190.2943248203
 20
101.4293296696
 10
190.2678923508
 20
101.3598046581
 10
190.2359384861
 20
101.296352173
 10
190.1986523348
 20
101.2393037057
 10
190.1562493457
 20
101.1889591136
 10
190.1089702436
 20
101.1455851381
 10
190.0570798401
 20
101.1094140878
 10
190.0501420327
 20
101.1053277025
  0
LWPOLYLINE
  5
22C
100
AcDbEntity
  8
RACCORDO
100
AcDbPolyline
 62
250
  6
CONTINUOUS
 90
24
 70
0
 10
185.78119083
 20
65.1521432742
 10
185.8511930658
 20
65.1142320837
 10
185.9252510695
 20
65.0789833254
 10
186.0030616466
 20
65.046541308
 10
186.0843062394
 20
65.0170388498
 10
186.1686522315
 20
64.9905967342
 10
186.2557543091
 20
64.9673232156
 10
186.345255875
 20
64.9473135761
 10
186.4367905085
 20
64.9306497355
 10
186.5299834656
 20
64.9173999158
 10
186.6244532128
 20
64.9076183619
 10
186.7198129898
 20
64.9013451197
 10
186.8156723921
 20
64.898605872
 10
186.9116389701
 20
64.8994118331
 10
187.0073198351
 20
64.9037597036
 10
187.1023232683
 20
64.9116316831
 10
187.1962603243
 20
64.9229955437
 10
187.2887464233
 20
64.9378047616
 10
187.3794029261
 20
64.9559987076
 10
187.4678586835
 20
64.9775028954
 10
187.5537515564
 20
65.0022292866
 10
187.6367298981
 20
65.0300766509
 10
187.7164539942
 20
65.0609309809
 10
187.7925974529
 20
65.0946659585
  0
LWPOLYLINE
  5
22D
100
AcDbEntity
  8
RACCORDO
100
AcDbPolyline
 62
250
  6
CONTINUOUS
 90
13
 70
0
 10
89.6406543403
 20
120.6624841195
 10
89.5749945025
 20
120.7029025066
 10
89.5139458256
 20
120.7456626434
 10
89.4577582442
 20
120.7905894698
 10
89.4066617918
 20
120.8374990554
 10
89.360865659
 20
120.8861993522
 10
89.3205573369
 20
120.9364909807
 10
89.2859018491
 20
120.9881680468
 10
89.2570410769
 20
121.0410189841
 10
89.2340931777
 20
121.0948274201
 10
89.2171521016
 20
121.1493730624
 10
89.2062872067
 20
121.2044326006
 10
89.201542975
 20
121.2597806197
  0
LWPOLYLINE
  5
22E
100
AcDbEntity
  8
0
100
AcDbPolyline
 62
7
  6
CONTINUOUS
 90
40
 70
0
 10
188.26905744
 20
104.0005462834
 10
188.3080663428
 20
104.0042012401
 10
188.392786455
 20
104.0040609864
 10
188.4798354827
 20
103.9961158253
 10
188.5688146879
 20
103.9804230561
 10
188.659315798
 20
103.957078249
 10
188.7509230225
 20
103.9262147737
 10
188.8432151071
 20
103.8880031404
 10
188.9357674145
 20
103.8426501572
 10
189.0281540218
 20
103.7903979092
 10
189.1199498248
 20
103.7315225619
 10
189.2107326378
 20
103.6663329974
 10
189.3000852789
 20
103.5951692886
 10
189.387597631
 20
103.5184010192
 10
189.4728686678
 20
103.4364254581
 10
189.5555084343
 20
103.349665597
 10
189.6351399736
 20
103.2585680609
 10
189.7114011888
 20
103.1636009017
 10
189.7839466313
 20
103.0652512865
 10
189.8524492079
 20
102.9640230909
 10
189.9166017961
 20
102.8604344098
 10
189.9761187614
 20
102.7550149985
 10
190.0307373679
 20
102.6483036555
 10
190.080219077
 20
102.5408455612
 10
190.1243507247
 20
102.4331895848
 10
190.1629455751
 20
102.3258855728
 10
190.1958442431
 20
102.2194816331
 10
190.2229154811
 20
102.1145214276
 10
190.2440568278
 20
102.0115414861
 10
190.2591951139
 20
101.9110685568
 10
190.2682868242
 20
101.8136170034
 10
190.2713183119
 20
101.7196862651
 10
190.2683058662
 20
101.6297583886
 10
190.2592956321
 20
101.5442956479
 10
190.2443633821
 20
101.4637382599
 10
190.2236141421
 20
101.3885022103
 10
190.1971816727
 20
101.3189771988
 10
190.165227808
 20
101.2555247136
 10
190.1279416567
 20
101.1984762464
 10
190.0855386675
 20
101.1481316542
  0
LINE
  5
22F
100
AcDbEntity
  8
0
100
AcDbLine
 62
7
  6
CONTINUOUS
 10
194.9865718612
 20
105.9589981039
 11
193.0613816507
 21
105.8899919331
  0
LWPOLYLINE
  5
230
100
AcDbEntity
  8
0
100
AcDbPolyline
 62
7
  6
CONTINUOUS
 90
13
 70
0
 10
192.5248474031
 20
105.7704742577
 10
192.5603034267
 20
105.7644328769
 10
192.6337808812
 20
105.7462649105
 10
192.7074661969
 20
105.722570927
 10
192.7806712644
 20
105.6937458836
 10
192.8534215264
 20
105.6599537475
 10
192.9263559226
 20
105.6209349642
 10
192.9996073159
 20
105.5765084628
 10
193.0723493619
 20
105.5270696343
 10
193.1437802213
 20
105.4731631158
 10
193.2134243962
 20
105.4152193077
 10
193.2811089193
 20
105.3534580851
 10
193.3465191277
 20
105.288229688
  0
LWPOLYLINE
  5
231
100
AcDbEntity
  8
0
100
AcDbPolyline
 62
7
  6
CONTINUOUS
 90
37
 70
0
 10
188.26905744
 20
103.6347843943
 10
188.2908950355
 20
103.6267844752
 10
188.3833360937
 20
103.5858379188
 10
188.4758758675
 20
103.5378377108
 10
188.5680884944
 20
103.4830390143
 10
188.6595497279
 20
103.4217305751
 10
188.7498390334
 20
103.354233296
 10
188.8385416652
 20
103.280898651
 10
188.9252507157
 20
103.2021069496
 10
189.0095691253
 20
103.1182654577
 10
189.0911116434
 20
103.0298063862
 10
189.169506732
 20
102.9371847558
 10
189.2443984007
 20
102.840876149
 10
189.3154479653
 20
102.7413743614
 10
189.3823357209
 20
102.639188962
 10
189.4447625208
 20
102.5348427761
 10
189.5024512549
 20
102.428869303
 10
189.5551482177
 20
102.32181008
 10
189.6026243623
 20
102.2142120081
 10
189.6446764315
 20
102.1066246496
 10
189.6811279617
 20
101.9995975142
 10
189.711830155
 20
101.8936773438
 10
189.7366626139
 20
101.7894054123
 10
189.7555339359
 20
101.6873148515
 10
189.7683821655
 20
101.5879280176
 10
189.7751750998
 20
101.4917539109
 10
189.7759104478
 20
101.3992856616
 10
189.7706158415
 20
101.3109980936
 10
189.7593486998
 20
101.2273453792
 10
189.7421959444
 20
101.1487587953
 10
189.7192735705
 20
101.0756445934
 10
189.6907260743
 20
101.0083819925
 10
189.6567257384
 20
100.9473213059
 10
189.6174717814
 20
100.8927822108
 10
189.5731893737
 20
100.8450521693
 10
189.5241285249
 20
100.8043850079
 10
189.4844564443
 20
100.778707919
  0
LWPOLYLINE
  5
232
100
AcDbEntity
  8
0
100
AcDbPolyline
 62
7
  6
CONTINUOUS
 90
34
 70
0
 10
188.26905744
 20
103.5643087951
 10
188.3126254155
 20
103.5450104595
 10
188.4051651894
 20
103.4970102515
 10
188.4973778163
 20
103.4422115549
 10
188.5888390498
 20
103.3809031158
 10
188.6791283553
 20
103.3134058367
 10
188.7678309871
 20
103.2400711917
 10
188.8545400376
 20
103.1612794902
 10
188.9388584472
 20
103.0774379984
 10
189.0204009653
 20
102.9889789269
 10
189.0987960539
 20
102.8963572965
 10
189.1736877226
 20
102.8000486897
 10
189.2447372872
 20
102.7005469021
 10
189.3116250428
 20
102.5983615027
 10
189.3740518427
 20
102.4940153168
 10
189.4317405767
 20
102.3880418436
 10
189.4844375395
 20
102.2809826207
 10
189.5319136842
 20
102.1733845487
 10
189.5739657533
 20
102.0657971903
 10
189.6104172836
 20
101.9587700548
 10
189.6411194769
 20
101.8528498845
 10
189.6659519357
 20
101.748577953
 10
189.6848232578
 20
101.6464873922
 10
189.6976714873
 20
101.5471005582
 10
189.7044644216
 20
101.4509264516
 10
189.7051997696
 20
101.3584582023
 10
189.6999051634
 20
101.2701706343
 10
189.6886380217
 20
101.1865179199
 10
189.6714852663
 20
101.107931336
 10
189.6485628924
 20
101.0348171341
 10
189.6200153962
 20
100.9675545332
 10
189.5860150602
 20
100.9064938466
 10
189.5467611033
 20
100.8519547515
 10
189.5024786956
 20
100.8042247099
  0
LINE
  5
233
100
AcDbEntity
  8
RACCORDO
100
AcDbLine
 62
250
  6
CONTINUOUS
 10
180.7980882335
 20
125.5213282124
 11
181.2022971316
 21
125.7547118422
  0
LWPOLYLINE
  5
234
100
AcDbEntity
  8
RACCORDO
100
AcDbPolyline
 62
250
  6
CONTINUOUS
 90
14
 70
0
 10
89.6406543403
 20
168.8126809732
 10
89.5749944626
 20
168.8530993868
 10
89.5139457555
 20
168.89585955
 10
89.4577581532
 20
168.940786402
 10
89.4066616887
 20
168.9876960117
 10
89.3608655516
 20
169.0363963304
 10
89.3205572319
 20
169.0866879784
 10
89.2859017525
 20
169.1383650608
 10
89.2570409934
 20
169.191216011
 10
89.2340931109
 20
169.2450244564
 10
89.2171520542
 20
169.2995701045
 10
89.20628718
 20
169.3546296446
 10
89.2015429693
 20
169.4099776621
 10
89.2013145126
 20
169.4250687496
  0
LWPOLYLINE
  5
235
100
AcDbEntity
  8
0
100
AcDbPolyline
 62
7
  6
CONTINUOUS
 90
20
 70
0
 10
188.291232365
 20
102.9376791113
 10
188.3444836643
 20
102.9026615766
 10
188.4158034753
 20
102.8500438224
 10
188.48614541
 20
102.7922979671
 10
188.5547042078
 20
102.7300744485
 10
188.6211241717
 20
102.6637422227
 10
188.6850516876
 20
102.5937039918
 10
188.7457813625
 20
102.5208454978
 10
188.8027575328
 20
102.4460642998
 10
188.8560837946
 20
102.369463925
 10
188.9060325358
 20
102.2907444844
 10
188.9525303241
 20
102.2099558825
 10
188.9950500685
 20
102.127944128
 10
189.0331658391
 20
102.0455816928
 10
189.0667024394
 20
101.9633737871
 10
189.0955210499
 20
101.8818008702
 10
189.1194118219
 20
101.8016932462
 10
189.1383255176
 20
101.7236185459
 10
189.1523043114
 20
101.6478915096
 10
189.1613806264
 20
101.5749192084
  0
LWPOLYLINE
  5
236
100
AcDbEntity
  8
0
100
AcDbPolyline
 62
7
  6
CONTINUOUS
 90
20
 70
0
 10
189.9902700727
 20
103.9162562599
 10
190.0434131058
 20
103.881213411
 10
190.1150187424
 20
103.8282193321
 10
190.1856182693
 20
103.7700668173
 10
190.2542452255
 20
103.7075635291
 10
190.320510846
 20
103.6411599094
 10
190.3841287396
 20
103.5712433672
 10
190.4444040219
 20
103.4987374093
 10
190.5007334426
 20
103.424661061
 10
190.5533394194
 20
103.3490245314
 10
190.6027219692
 20
103.2712113785
 10
190.6488184049
 20
103.1912202119
 10
190.6910736759
 20
103.1099075248
 10
190.7291513374
 20
103.0278981561
 10
190.7628953837
 20
102.9454988727
 10
190.7920141601
 20
102.8633880489
 10
190.8161458387
 20
102.7827455585
 10
190.8352161058
 20
102.7042558642
 10
190.8493027281
 20
102.6281289671
 10
190.8584376211
 20
102.5547786479
  0
LWPOLYLINE
  5
237
100
AcDbEntity
  8
0
100
AcDbPolyline
 62
7
  6
CONTINUOUS
 90
20
 70
0
 10
190.5521276073
 20
104.2454978669
 10
190.6132394305
 20
104.204926679
 10
190.6849582749
 20
104.1515030728
 10
190.7556316222
 20
104.0929221825
 10
190.82428837
 20
104.0300037711
 10
190.8905403863
 20
103.9632038416
 10
190.9541002409
 20
103.8929166585
 10
191.0142691541
 20
103.820080287
 10
191.070530562
 20
103.7456063781
 10
191.1230165491
 20
103.669615782
 10
191.1720066162
 20
103.5918610813
 10
191.2173341324
 20
103.5126541228
 10
191.2586991311
 20
103.4325702667
 10
191.2960608334
 20
103.3517080058
 10
191.3293093801
 20
103.2702063188
 10
191.3580680184
 20
103.1888768068
 10
191.3819780148
 20
103.1088204787
 10
191.4009386857
 20
103.0306980975
 10
191.4149873399
 20
102.9547486113
 10
191.4241222954
 20
102.8813978892
  0
LWPOLYLINE
  5
238
100
AcDbEntity
  8
0
100
AcDbPolyline
 62
7
  6
CONTINUOUS
 90
20
 70
0
 10
191.1178271188
 20
104.5721547404
 10
191.1807701955
 20
104.5302452371
 10
191.2526506248
 20
104.4765419486
 10
191.3234643667
 20
104.4176658974
 10
191.3922318479
 20
104.3544481375
 10
191.4585455965
 20
104.287369034
 10
191.5221364292
 20
104.2168109106
 10
191.5823493478
 20
104.1436621115
 10
191.6386918907
 20
104.0687914976
 10
191.6912541493
 20
103.9923592516
 10
191.7402623376
 20
103.9141918649
 10
191.7856240372
 20
103.8344728538
 10
191.8269541203
 20
103.7539181972
 10
191.864003319
 20
103.6731189243
 10
191.896587645
 20
103.5926284513
 10
191.924623963
 20
103.5128205502
 10
191.9480480902
 20
103.4340174522
 10
191.9667712881
 20
103.3566300244
 10
191.980706628
 20
103.2811506849
 10
191.98980785
 20
103.2080176387
  0
LWPOLYLINE
  5
239
100
AcDbEntity
  8
0
100
AcDbPolyline
 62
7
  6
CONTINUOUS
 90
20
 70
0
 10
188.8555005566
 20
103.2654882654
 10
188.9190666098
 20
103.2230329186
 10
188.9886003389
 20
103.1710944337
 10
189.0566855771
 20
103.1147091543
 10
189.1231684644
 20
103.0540418135
 10
189.1878405921
 20
102.9892821697
 10
189.2502309578
 20
102.9209037509
 10
189.3098163834
 20
102.8495338953
 10
189.366090036
 20
102.7759082001
 10
189.4190460942
 20
102.7001688509
 10
189.4688759299
 20
102.622049723
 10
189.5154567959
 20
102.5416048926
 10
189.5582402959
 20
102.4596336741
 10
189.5967612601
 20
102.3769854699
 10
189.6308406406
 20
102.2940442336
 10
189.6602224197
 20
102.2114317744
 10
189.6845438176
 20
102.1303548372
 10
189.7037389633
 20
102.0515087573
 10
189.7178986598
 20
101.9750989917
 10
189.727066116
 20
101.9015389204
  0
LWPOLYLINE
  5
23A
100
AcDbEntity
  8
0
100
AcDbPolyline
 62
7
  6
CONTINUOUS
 90
20
 70
0
 10
189.4197532226
 20
103.5930500728
 10
189.4849267185
 20
103.5495296924
 10
189.5554998173
 20
103.4967581565
 10
189.6247999106
 20
103.4392130291
 10
189.6919623212
 20
103.377683206
 10
189.7564286136
 20
103.3128548728
 10
189.8181820768
 20
103.2449236873
 10
189.8772064073
 20
103.1740176466
 10
189.933137554
 20
103.1006638537
 10
189.9858103325
 20
103.0251735175
 10
190.0354092778
 20
102.9472754095
 10
190.0818159446
 20
102.8670006669
 10
190.1244664339
 20
102.7851590774
 10
190.1628661779
 20
102.7026492286
 10
190.1968306552
 20
102.619870438
 10
190.2261141155
 20
102.5374237802
 10
190.2503554782
 20
102.4565120333
 10
190.2694895733
 20
102.3778273131
 10
190.2836073327
 20
102.3015726755
 10
190.2927520802
 20
102.2281589064
  0
LWPOLYLINE
  5
23B
100
AcDbEntity
  8
RACCORDO
100
AcDbPolyline
 62
250
  6
CONTINUOUS
 90
25
 70
0
 10
185.78119083
 20
113.302340128
 10
185.8511930204
 20
113.2644289608
 10
185.9252509787
 20
113.22918022
 10
186.0030615117
 20
113.1967382149
 10
186.0843060632
 20
113.1672357639
 10
186.1686520175
 20
113.1407936509
 10
186.2557540616
 20
113.117520131
 10
186.3452555994
 20
113.0975104868
 10
186.4367902107
 20
113.0808466387
 10
186.5299831515
 20
113.0675968094
 10
186.6244528889
 20
113.0578152444
 10
186.7198126626
 20
113.0515419903
 10
186.8156720678
 20
113.0488027304
 10
186.9116386547
 20
113.0496086797
 10
187.0073195346
 20
113.0539565394
 10
187.1023229874
 20
113.0618285096
 10
187.1962600676
 20
113.0731923627
 10
187.2887461949
 20
113.0880015753
 10
187.3794027285
 20
113.1061955185
 10
187.4678585188
 20
113.1276997064
 10
187.5537514261
 20
113.1524261005
 10
187.6367298022
 20
113.1802734706
 10
187.7164539316
 20
113.2111278092
 10
187.7925974225
 20
113.2448627981
 10
187.8648485419
 20
113.281340326
  0
LWPOLYLINE
  5
23C
100
AcDbEntity
  8
0
100
AcDbPolyline
 62
7
  6
CONTINUOUS
 90
20
 70
0
 10
191.6852387745
 20
104.8976519247
 10
191.74575777
 20
104.8573580434
 10
191.8164322207
 20
104.8046619716
 10
191.8860748504
 20
104.7469708024
 10
191.9539396557
 20
104.684895736
 10
192.0196841401
 20
104.6187927891
 10
192.0829578053
 20
104.549060403
 10
192.1430919029
 20
104.4765407445
 10
192.1995453298
 20
104.4021021792
 10
192.2524085503
 20
104.3258494857
 10
192.3019447925
 20
104.2474826227
 10
192.3480783102
 20
104.1670456639
 10
192.3902836218
 20
104.0853743181
 10
192.4281321125
 20
104.0033370677
 10
192.4614550028
 20
103.9214096692
 10
192.490098635
 20
103.8400914948
 10
192.5138302929
 20
103.7602805476
 10
192.5326043015
 20
103.6825606283
 10
192.5464787418
 20
103.6072138236
 10
192.5554938136
 20
103.5346376244
  0
LWPOLYLINE
  5
23D
100
AcDbEntity
  8
0
100
AcDbPolyline
 62
7
  6
CONTINUOUS
 90
20
 70
0
 10
192.2479825256
 20
105.2263190574
 10
192.3138775693
 20
105.1822577555
 10
192.3834146651
 20
105.1302607636
 10
192.4514911613
 20
105.0738251598
 10
192.5179263834
 20
105.0131435938
 10
192.5824878594
 20
104.9484409169
 10
192.6447390969
 20
104.8801696329
 10
192.704214577
 20
104.8088955993
 10
192.76042735
 20
104.7353201967
 10
192.8133451735
 20
104.6596091917
 10
192.8631426522
 20
104.5815158591
 10
192.9096935793
 20
104.5010988525
 10
192.9524525806
 20
104.4191515612
 10
192.9909511011
 20
104.336529175
 10
193.0250095211
 20
104.2536174588
 10
193.0543732605
 20
104.1710354213
 10
193.0786799821
 20
104.0899887739
 10
193.0978639612
 20
104.011172165
 10
193.1120159877
 20
103.9347907139
 10
193.1211792885
 20
103.8612573279
  0
LWPOLYLINE
  5
23E
100
AcDbEntity
  8
0
100
AcDbPolyline
 62
7
  6
CONTINUOUS
 90
31
 70
0
 10
188.26905744
 20
102.9566929375
 10
188.3059938968
 20
102.925021878
 10
188.3918424469
 20
102.844266035
 10
188.4751527825
 20
102.7586214818
 10
188.5555446334
 20
102.6685293343
 10
188.632652146
 20
102.5744526784
 10
188.7061256903
 20
102.4768742827
 10
188.7756335874
 20
102.3762942137
 10
188.8408637479
 20
102.2732273654
 10
188.9015252132
 20
102.1682009161
 10
188.957349593
 20
102.0617517242
 10
189.0080923912
 20
101.954423676
 10
189.0535342136
 20
101.8467649994
 10
189.0934818512
 20
101.7393255554
 10
189.1277692356
 20
101.6326541224
 10
189.1562582583
 20
101.5272956847
 10
189.1788394536
 20
101.423788741
 10
189.1954325389
 20
101.3226626441
 10
189.205986812
 20
101.224434986
 10
189.2104814005
 20
101.1296090409
 10
189.2089253658
 20
101.0386712797
 10
189.201357658
 20
100.9520889664
 10
189.1878469235
 20
100.8703078501
 10
189.1684911659
 20
100.7937499633
 10
189.143417262
 20
100.7228115368
 10
189.112780335
 20
100.6578610425
 10
189.076762988
 20
100.5992373736
 10
189.0355744025
 20
100.5472481698
 10
188.9894493046
 20
100.5021682985
 10
188.9386468059
 20
100.4642384962
 10
188.9187717538
 20
100.4520886817
  0
LWPOLYLINE
  5
23F
100
AcDbEntity
  8
0
100
AcDbPolyline
 62
7
  6
CONTINUOUS
 90
27
 70
0
 10
188.26905744
 20
102.8524237515
 10
188.3211317688
 20
102.8034385757
 10
188.4044421044
 20
102.7177940225
 10
188.4848339553
 20
102.627701875
 10
188.5619414679
 20
102.5336252191
 10
188.6354150121
 20
102.4360468234
 10
188.7049229093
 20
102.3354667544
 10
188.7701530698
 20
102.2323999061
 10
188.830814535
 20
102.1273734568
 10
188.8866389149
 20
102.0209242649
 10
188.9373817131
 20
101.9135962167
 10
188.9828235354
 20
101.8059375401
 10
189.0227711731
 20
101.6984980961
 10
189.0570585575
 20
101.591826663
 10
189.0855475802
 20
101.4864682254
 10
189.1081287754
 20
101.3829612817
 10
189.1247218608
 20
101.2818351848
 10
189.1352761338
 20
101.1836075266
 10
189.1397707223
 20
101.0887815816
 10
189.1382146877
 20
100.9978438204
 10
189.1306469799
 20
100.911261507
 10
189.1171362454
 20
100.8294803908
 10
189.0977804878
 20
100.752922504
 10
189.0727065839
 20
100.6819840775
 10
189.0420696569
 20
100.6170335832
 10
189.0060523099
 20
100.5584099142
 10
188.9648637244
 20
100.5064207105
  0
LINE
  5
240
100
AcDbEntity
  8
RACCORDO
100
AcDbLine
 62
250
  6
CONTINUOUS
 10
187.8648485419
 20
113.281340326
 11
188.26905744
 21
113.5147239558
  0
LWPOLYLINE
  5
241
100
AcDbEntity
  8
0
100
AcDbPolyline
 62
7
  6
CONTINUOUS
 90
37
 70
0
 10
192.021751726
 20
106.0601781388
 10
192.0880422869
 20
106.0817635829
 10
192.15697291
 20
106.0966844696
 10
192.2282182322
 20
106.1049597949
 10
192.3014452983
 20
106.1066401121
 10
192.3763152475
 20
106.1018069627
 10
192.4524850125
 20
106.0905721616
 10
192.5296090229
 20
106.0730769415
 10
192.6073409028
 20
106.0494909631
 10
192.6853351565
 20
106.0200111949
 10
192.7632488324
 20
105.9848606713
 10
192.8407431582
 20
105.9442871363
 10
192.9174851387
 20
105.8985615784
 10
192.9931491094
 20
105.8479766682
 10
193.0674182385
 20
105.7928451045
 10
193.13998597
 20
105.7334978795
 10
193.2105574014
 20
105.6702824719
 10
193.278850591
 20
105.6035609778
 10
193.3445977864
 20
105.5337081894
 10
193.4075465719
 20
105.4611096304
 10
193.4674609278
 20
105.3861595602
 10
193.5241221982
 20
105.3092589553
 10
193.5773299624
 20
105.2308134789
 10
193.6269028085
 20
105.1512314497
 10
193.6726790037
 20
105.0709218176
 10
193.7145170611
 20
104.9902921599
 10
193.7522962001
 20
104.9097467036
 10
193.7859166999
 20
104.8296843878
 10
193.8153001444
 20
104.7504969709
 10
193.8403895596
 20
104.6725671961
 10
193.861149443
 20
104.5962670198
 10
193.8775656859
 20
104.5219559137
 10
193.8896453913
 20
104.4499792481
 10
193.8974165877
 20
104.3806667616
 10
193.9009278422
 20
104.3143311267
 10
193.9002477766
 20
104.251266616
 10
193.8954644876
 20
104.1917478746
  0
LWPOLYLINE
  5
242
100
AcDbEntity
  8
0
100
AcDbPolyline
 62
7
  6
CONTINUOUS
 90
42
 70
0
 10
190.907741271
 20
105.5936547887
 10
190.9835793026
 20
105.6160904458
 10
191.0628295478
 20
105.6307729924
 10
191.1451317933
 20
105.6376479515
 10
191.2301107494
 20
105.636699414
 10
191.3173779045
 20
105.6279501166
 10
191.4065334434
 20
105.61146133
 10
191.4971682231
 20
105.5873325564
 10
191.5888657934
 20
105.5557010374
 10
191.6812044539
 20
105.5167410765
 10
191.7737593376
 20
105.470663178
 10
191.8661045095
 20
105.4177130071
 10
191.9578150702
 20
105.3581701762
 10
192.0484692553
 20
105.2923468642
 10
192.1376505187
 20
105.2205862739
 10
192.22494959
 20
105.1432609368
 10
192.3099664965
 20
105.0607708732
 10
192.3923125388
 20
104.9735416155
 10
192.4716122108
 20
104.8820221071
 10
192.547505055
 20
104.7866824839
 10
192.6196474426
 20
104.6880117524
 10
192.6877142712
 20
104.5865153738
 10
192.7514005706
 20
104.4827127677
 10
192.8104230096
 20
104.3771347456
 10
192.8645212951
 20
104.2703208894
 10
192.9134594582
 20
104.1628168857
 10
192.9570270199
 20
104.05517183
 10
192.9950400305
 20
103.947935515
 10
193.0273419786
 20
103.8416557142
 10
193.0538045641
 20
103.7368754759
 10
193.0743283318
 20
103.6341304414
 10
193.088843163
 20
103.5339461983
 10
193.0973086217
 20
103.4368356845
 10
193.0997141543
 20
103.3432966546
 10
193.0960791418
 20
103.2538092208
 10
193.0864528041
 20
103.1688334815
 10
193.0709139569
 20
103.0888072484
 10
193.0495706222
 20
103.0141438838
 10
193.0225594948
 20
102.9452302586
 10
192.9900452672
 20
102.8824248416
 10
192.9522198158
 20
102.8260559284
 10
192.9093012531
 20
102.7764200198
  0
LWPOLYLINE
  5
243
100
AcDbEntity
  8
RACCORDO
100
AcDbPolyline
 62
250
  6
CONTINUOUS
 90
43
 70
0
 10
95.6474006024
 20
172.2802306576
 10
95.4177788976
 20
172.4073497515
 10
95.1907793978
 20
172.5235266585
 10
94.9664021031
 20
172.6287613785
 10
94.7449277109
 20
172.7228415998
 10
94.5260755238
 20
172.8059796342
 10
94.3090034493
 20
172.8788124166
 10
94.0931110729
 20
172.9416334715
 10
93.878998809
 20
172.9941492745
 10
93.6676258091
 20
173.0361161875
 10
93.4590370701
 20
173.0674793218
 10
93.2531875949
 20
173.0882935661
 10
93.0509015442
 20
173.0984799488
 10
92.8521865653
 20
173.0979967601
 10
92.6570350107
 20
173.0868857099
 10
92.4662480982
 20
173.0651929555
 10
92.2798446772
 20
173.0328751969
 10
92.0978058983
 20
172.9899757342
 10
91.9208764307
 20
172.9366706247
 10
91.7490774764
 20
172.8729177816
 10
91.5823878335
 20
172.7987592917
 10
91.4214885659
 20
172.7144974733
 10
91.2664016635
 20
172.6200897469
 10
91.1171051365
 20
172.5155786919
 10
90.9742140788
 20
172.4013943652
 10
90.8377600699
 20
172.2775047993
 10
90.7077115304
 20
172.1439419618
 10
90.5845888158
 20
172.0012318111
 10
90.4683999132
 20
171.8492972697
 10
90.3591368356
 20
171.6882154152
 10
90.2572959772
 20
171.5187434398
 10
90.1630631536
 20
171.3414229091
 10
90.0762525492
 20
171.1557122575
 10
89.9968031114
 20
170.9607439803
 10
89.9244315888
 20
170.756089734
 10
89.8594212328
 20
170.5421778621
 10
89.8025607442
 20
170.3194258908
 10
89.7538711009
 20
170.0874332199
 10
89.713331325
 20
169.8466004496
 10
89.6816671843
 20
169.5985469071
 10
89.6591206012
 20
169.3438123681
 10
89.6454496532
 20
169.0818570568
 10
89.6406543403
 20
168.8126809732
  0
LINE
  5
244
100
AcDbEntity
  8
RACCORDO
100
AcDbLine
 62
250
  6
CONTINUOUS
 10
179.7744445679
 20
123.7063298314
 11
95.6474006024
 21
172.2802306576
  0
LINE
  5
245
100
AcDbEntity
  8
RACCORDO
100
AcDbLine
 62
250
  6
CONTINUOUS
 10
180.7980882335
 20
125.5213282124
 11
96.671044268
 21
174.0952290386
  0
LINE
  5
246
100
AcDbEntity
  8
RACCORDO
100
AcDbLine
 62
7
  6
CONTINUOUS
 10
181.2022971316
 20
125.7547118422
 11
97.0479751635
 21
174.3443626452
  0
LINE
  5
247
100
AcDbEntity
  8
0
100
AcDbLine
 62
7
  6
CONTINUOUS
 10
190.8356588107
 20
105.5635587966
 11
190.907741271
 21
105.5936547887
  0
LINE
  5
248
100
AcDbEntity
  8
0
100
AcDbLine
 62
7
  6
CONTINUOUS
 10
189.1483060819
 20
104.588300409
 11
189.2209261582
 21
104.6173471435
  0
LWPOLYLINE
  5
249
100
AcDbEntity
  8
0
100
AcDbPolyline
 62
7
  6
CONTINUOUS
 90
42
 70
0
 10
190.2968568859
 20
105.2492512425
 10
190.3704034779
 20
105.2764543475
 10
190.4475774718
 20
105.2959574279
 10
190.52802891
 20
105.3076821948
 10
190.611391645
 20
105.3115887822
 10
190.6972851482
 20
105.3076759445
 10
190.7853163898
 20
105.2959810618
 10
190.8750817799
 20
105.2765799558
 10
190.9661691623
 20
105.2495865152
 10
191.0581598508
 20
105.215152133
 10
191.1506306968
 20
105.1734649588
 10
191.24315618
 20
105.124748969
 10
191.3353105102
 20
105.069262861
 10
191.4266697307
 20
105.0072987747
 10
191.5168138123
 20
104.9391808499
 10
191.6053287286
 20
104.8652636247
 10
191.6918085008
 20
104.7859302844
 10
191.775857203
 20
104.7015907689
 10
191.8570909186
 20
104.6126797469
 10
191.9351396362
 20
104.5196544696
 10
192.0096490777
 20
104.4229925114
 10
192.080282448
 20
104.3231894114
 10
192.1467220991
 20
104.2207562246
 10
192.2086710988
 20
104.1162169985
 10
192.2658546979
 20
104.0101061835
 10
192.3180216869
 20
103.9029659937
 10
192.3649456374
 20
103.7953437275
 10
192.4064260203
 20
103.6877890652
 10
192.4422891964
 20
103.5808513526
 10
192.4723892743
 20
103.4750768882
 10
192.4966088307
 20
103.3710062242
 10
192.514859491
 20
103.2691714965
 10
192.5270823653
 20
103.1700937958
 10
192.5332483397
 20
103.074280594
 10
192.5333582197
 20
102.9822232368
 10
192.5274427269
 20
102.8943945171
 10
192.5155623462
 20
102.8112463394
 10
192.4978070283
 20
102.7332074871
 10
192.4742957441
 20
102.6606815051
 10
192.445175898
 20
102.5940447057
 10
192.4106225992
 20
102.5336443103
 10
192.3708377968
 20
102.4797967338
  0
LWPOLYLINE
  5
24A
100
AcDbEntity
  8
0
100
AcDbPolyline
 62
7
  6
CONTINUOUS
 90
42
 70
0
 10
188.6097121853
 20
104.2735963845
 10
188.6837789684
 20
104.2997440153
 10
188.7614259326
 20
104.3181785656
 10
188.8423007845
 20
104.3288270247
 10
188.9260352856
 20
104.3316548429
 10
189.0122470714
 20
104.3266661029
 10
189.1005415401
 20
104.3139034992
 10
189.1905138022
 20
104.2934481274
 10
189.2817506801
 20
104.2654190836
 10
189.3738327492
 20
104.2299728758
 10
189.4663364101
 20
104.1873026512
 10
189.5588359807
 20
104.137637242
 10
189.650905799
 20
104.0812400347
 10
189.7421223261
 20
104.0184076695
 10
189.832066238
 20
103.9494685746
 10
189.920324497
 20
103.8747813442
 10
190.0064923923
 20
103.7947329666
 10
190.090175539
 20
103.7097369132
 10
190.1709918261
 20
103.6202310956
 10
190.2485733043
 20
103.5266757026
 10
190.3225680034
 20
103.4295509271
 10
190.3926416712
 20
103.3293545935
 10
190.4584794241
 20
103.2265996995
 10
190.5197873034
 20
103.1218118812
 10
190.5762937264
 20
103.0155268168
 10
190.6277508287
 20
102.9082875808
 10
190.6739356884
 20
102.8006419609
 10
190.7146514269
 20
102.6931397524
 10
190.7497281822
 20
102.5863300422
 10
190.7790239471
 20
102.4807584962
 10
190.8024252715
 20
102.3769646644
 10
190.819847822
 20
102.2754793152
 10
190.8312367993
 20
102.1768218136
 10
190.8365672084
 20
102.0814975559
 10
190.835843982
 20
101.9899954727
 10
190.8291019567
 20
101.9027856143
 10
190.8164057001
 20
101.8203168283
 10
190.7978491927
 20
101.7430145425
 10
190.773555363
 20
101.6712786636
 10
190.7436754806
 20
101.6054816013
 10
190.7083884088
 20
101.5459664293
 10
190.6678997214
 20
101.49304519
  0
LWPOLYLINE
  5
24B
100
AcDbEntity
  8
0
100
AcDbPolyline
 62
7
  6
CONTINUOUS
 90
33
 70
0
 10
191.4456215203
 20
105.9097529183
 10
191.5200743581
 20
105.9351076208
 10
191.5980717532
 20
105.9527399038
 10
191.6792596803
 20
105.9625807187
 10
191.7632683539
 20
105.9645995051
 10
191.8497140543
 20
105.9588043417
 10
191.9382010235
 20
105.9452419062
 10
192.0283234202
 20
105.9239972448
 10
192.1196673241
 20
105.8951933525
 10
192.2118127812
 20
105.8589905648
 10
192.3043358778
 20
105.8155857663
 10
192.3968108347
 20
105.7652114179
 10
192.4888121105
 20
105.7081344086
 10
192.5799165036
 20
105.6446547369
 10
192.6697052427
 20
105.5751040292
 10
192.7577660557
 20
105.4998439013
 10
192.8436952056
 20
105.4192641725
 10
192.9270994858
 20
105.3337809397
 10
193.0075981616
 20
105.2438345221
 10
193.0848248513
 20
105.149887286
 10
193.1584293362
 20
105.0524213609
 10
193.2280792903
 20
104.951936258
 10
193.2934619221
 20
104.8489464025
 10
193.3542855198
 20
104.7439785928
 10
193.4102808919
 20
104.6375693977
 10
193.4612026975
 20
104.5302625064
 10
193.5068306578
 20
104.4226060427
 10
193.5469706445
 20
104.3151498569
 10
193.5814556385
 20
104.2084428105
 10
193.6101465552
 20
104.1030300641
 10
193.6329329315
 20
103.999450385
 10
193.6497334712
 20
103.8982334857
 10
193.6604278764
 20
103.8005239038
  0
LWPOLYLINE
  5
24C
100
AcDbEntity
  8
0
100
AcDbPolyline
 62
7
  6
CONTINUOUS
 90
42
 70
0
 10
189.7586173815
 20
104.9338489249
 10
189.8335799856
 20
104.958143302
 10
189.9120392923
 20
104.9747034269
 10
189.9936389932
 20
104.9834655482
 10
190.078007267
 20
104.9844044351
 10
190.1647586163
 20
104.9775335022
 10
190.253495772
 20
104.9629047424
 10
190.3438116555
 20
104.9406084711
 10
190.4352913896
 20
104.9107728791
 10
190.5275143482
 20
104.8735634001
 10
190.6200562339
 20
104.829181893
 10
190.7124911736
 20
104.7778656452
 10
190.804393823
 20
104.7198861998
 10
190.8953414669
 20
104.6555480149
 10
190.9849161079
 20
104.5851869592
 10
191.072706531
 20
104.5091686531
 10
191.1583103347
 20
104.4278866625
 10
191.2413359192
 20
104.3417605548
 10
191.3214044205
 20
104.251233826
 10
191.398151582
 20
104.1567717102
 10
191.4712295539
 20
104.0588588816
 10
191.5403086113
 20
103.9579970599
 10
191.6050787833
 20
103.8547025321
 10
191.6652513839
 20
103.7495036022
 10
191.7205604381
 20
103.6429379815
 10
191.7707639957
 20
103.5355501323
 10
191.8156453269
 20
103.4278885786
 10
191.8550139921
 20
103.3205031962
 10
191.8887067834
 20
103.2139424965
 10
191.9165885303
 20
103.1087509175
 10
191.9385527678
 20
103.0054661335
 10
191.9545222619
 20
102.9046164
 10
191.9644493914
 20
102.8067179434
 10
191.9683163829
 20
102.7122724117
 10
191.966135399
 20
102.621764396
 10
191.9579484777
 20
102.5356590371
 10
191.9438273251
 20
102.4543997273
 10
191.9238729611
 20
102.3784059206
 10
191.8982152202
 20
102.3080710605
 10
191.8670121105
 20
102.2437606366
 10
191.8304490328
 20
102.1858103791
 10
191.788737865
 20
102.1345246002
  0
LWPOLYLINE
  5
24D
100
AcDbEntity
  8
RACCORDO
100
AcDbPolyline
 62
250
  6
CONTINUOUS
 90
20
 70
0
 10
96.671044268
 20
174.0952290386
 10
96.4001579422
 20
174.2440583943
 10
96.1317050196
 20
174.3798730931
 10
95.8660589115
 20
174.5027465172
 10
95.6042587619
 20
174.6125084419
 10
95.3459453869
 20
174.7096038865
 10
95.0894139036
 20
174.7947861433
 10
94.8343329713
 20
174.8681212286
 10
94.5817663536
 20
174.9292516306
 10
94.3321413613
 20
174.9780578148
 10
94.0858419495
 20
175.0144747707
 10
93.8431731187
 20
175.0384695872
 10
93.6044336761
 20
175.0500060777
 10
93.3699465918
 20
175.0490706721
 10
93.1400468924
 20
175.0356681224
 10
92.9150429748
 20
175.0098117617
 10
92.6952458754
 20
174.9715388495
 10
92.4809599207
 20
174.92090506
 10
92.2724719735
 20
174.857976306
 10
92.0700684338
 20
174.7828392936
  0
LWPOLYLINE
  5
24E
100
AcDbEntity
  8
0
100
AcDbPolyline
 62
7
  6
CONTINUOUS
 90
21
 70
0
 10
193.3465191277
 20
105.288229688
 10
193.404914763
 20
105.2171711621
 10
193.4600691671
 20
105.1440389218
 10
193.5117457966
 20
105.0692627093
 10
193.5597273271
 20
104.9932806389
 10
193.6038178622
 20
104.9165351902
 10
193.6438437176
 20
104.8394707417
 10
193.6796530144
 20
104.7625335513
 10
193.7111171121
 20
104.6861686469
 10
193.7381320081
 20
104.6108157662
 10
193.760618046
 20
104.5369090606
 10
193.7785211303
 20
104.4648725666
 10
193.7918128115
 20
104.3951173893
 10
193.8004896446
 20
104.3280427027
 10
193.8045737628
 20
104.2640323712
 10
193.8041128794
 20
104.2034510051
 10
193.7991797597
 20
104.1466435741
 10
193.7898720654
 20
104.0939340422
 10
193.7763119527
 20
104.0456225329
 10
193.758645319
 20
104.0019833006
 10
193.7399023284
 20
103.9677495156
  0
LWPOLYLINE
  5
24F
100
AcDbEntity
  8
0
100
AcDbPolyline
 62
7
  6
CONTINUOUS
 90
12
 70
0
 10
188.26905744
 20
102.0734831166
 10
188.2971311937
 20
102.0326585719
 10
188.3461511801
 20
101.9544731087
 10
188.3916541675
 20
101.8744926631
 10
188.433160582
 20
101.7935448063
 10
188.4702957645
 20
101.7124638003
 10
188.5028596114
 20
101.6318946058
 10
188.5308291636
 20
101.5521243858
 10
188.5541648464
 20
101.4734513808
 10
188.5727956679
 20
101.3962735904
 10
188.5866492148
 20
101.3210810539
 10
188.5956959466
 20
101.2482999639
  0
LWPOLYLINE
  5
250
100
AcDbEntity
  8
0
100
AcDbPolyline
 62
7
  6
CONTINUOUS
 90
23
 70
0
 10
188.26905744
 20
101.9555037703
 10
188.2987429581
 20
101.9069673981
 10
188.3575997343
 20
101.8013377276
 10
188.4115238059
 20
101.6944909604
 10
188.4602800648
 20
101.5869729456
 10
188.5036589306
 20
101.479332848
 10
188.5414773857
 20
101.3721204355
 10
188.5735798799
 20
101.2658833635
 10
188.5998390984
 20
101.1611644691
 10
188.6201565907
 20
101.0584990905
 10
188.634463257
 20
100.9584124216
 10
188.6427196897
 20
100.8614169182
 10
188.6449163679
 20
100.7680097668
 10
188.6410737041
 20
100.6786704279
 10
188.6312419443
 20
100.5938582682
 10
188.6155009187
 20
100.5140102912
 10
188.593959648
 20
100.4395389785
 10
188.5667558051
 20
100.3708302523
 10
188.5340550341
 20
100.308241569
 10
188.496050133
 20
100.2521001535
 10
188.4529601009
 20
100.2027013827
 10
188.4050290561
 20
100.1603073264
 10
188.3530862541
 20
100.1254689747
  0
LWPOLYLINE
  5
251
100
AcDbEntity
  8
RACCORDO
100
AcDbPolyline
 62
250
  6
CONTINUOUS
 90
14
 70
0
 10
179.7744445679
 20
61.6845935899
 10
179.7766157443
 20
61.6075252146
 10
179.7831203852
 20
61.5332795733
 10
179.7939318612
 20
61.4621606287
 10
179.8090059108
 20
61.3944595433
 10
179.8282808217
 20
61.3304534867
 10
179.8516776828
 20
61.2704045015
 10
179.8791007079
 20
61.2145584296
 10
179.9104376275
 20
61.1631439063
 10
179.9455601484
 20
61.1163714246
 10
179.9843244791
 20
61.0744324723
 10
180.0265719185
 20
61.0374987491
 10
180.0721295053
 20
61.005721463
 10
180.0850454287
 20
60.9980016198
  0
LINE
  5
252
100
AcDbEntity
  8
0
100
AcDbLine
 62
7
  6
CONTINUOUS
 10
191.9042318139
 20
106.000717345
 11
191.9290393439
 21
106.0159688748
  0
LWPOLYLINE
  5
253
100
AcDbEntity
  8
0
100
AcDbPolyline
 62
7
  6
CONTINUOUS
 90
47
 70
0
 10
188.5979012028
 20
104.2736974143
 10
188.6102708699
 20
104.2806742444
 10
188.6804228635
 20
104.3144238439
 10
188.7544896465
 20
104.3405714746
 10
188.8321366107
 20
104.359006025
 10
188.9130114626
 20
104.369654484
 10
188.9967459637
 20
104.3724823022
 10
189.0829577495
 20
104.3674935622
 10
189.1712522182
 20
104.3547309585
 10
189.2612244803
 20
104.3342755868
 10
189.3524613582
 20
104.3062465429
 10
189.4445434273
 20
104.2708003351
 10
189.5370470882
 20
104.2281301106
 10
189.6295466588
 20
104.1784647013
 10
189.7216164771
 20
104.1220674941
 10
189.8128330042
 20
104.0592351288
 10
189.9027769161
 20
103.990296034
 10
189.9910351751
 20
103.9156088035
 10
190.0772030704
 20
103.8355604259
 10
190.1608862171
 20
103.7505643725
 10
190.2417025042
 20
103.6610585549
 10
190.3192839824
 20
103.567503162
 10
190.3932786815
 20
103.4703783864
 10
190.4633523493
 20
103.3701820529
 10
190.5291901022
 20
103.2674271589
 10
190.5904979815
 20
103.1626393405
 10
190.6470044045
 20
103.0563542761
 10
190.6984615068
 20
102.9491150401
 10
190.7446463665
 20
102.8414694203
 10
190.7853621051
 20
102.7339672118
 10
190.8204388603
 20
102.6271575015
 10
190.8497346253
 20
102.5215859556
 10
190.8731359496
 20
102.4177921238
 10
190.8905585001
 20
102.3163067746
 10
190.9019474774
 20
102.217649273
 10
190.9072778865
 20
102.1223250152
 10
190.9065546601
 20
102.0308229321
 10
190.8998126348
 20
101.9436130737
 10
190.8871163782
 20
101.8611442877
 10
190.8685598708
 20
101.7838420019
 10
190.8442660411
 20
101.7121061229
 10
190.8143861587
 20
101.6463090606
 10
190.779099087
 20
101.5867938886
 10
190.7386103995
 20
101.5338726493
 10
190.6931513647
 20
101.4878248128
 10
190.6429778034
 20
101.4488958962
 10
190.6158279855
 20
101.4319476917
  0
LWPOLYLINE
  5
254
100
AcDbEntity
  8
0
100
AcDbPolyline
 62
7
  6
CONTINUOUS
 90
3
 70
0
 10
188.5271905246
 20
104.2328699549
 10
188.5395601918
 20
104.239846785
 10
188.6097121853
 20
104.2735963845
  0
LWPOLYLINE
  5
255
100
AcDbEntity
  8
0
100
AcDbPolyline
 62
7
  6
CONTINUOUS
 90
33
 70
0
 10
191.4263287093
 20
105.9067960083
 10
191.4457604338
 20
105.9176104511
 10
191.5163321985
 20
105.9505803777
 10
191.5907850362
 20
105.9759350801
 10
191.6687824313
 20
105.9935673631
 10
191.7499703585
 20
106.003408178
 10
191.833979032
 20
106.0054269644
 10
191.9204247324
 20
105.999631801
 10
192.0089117017
 20
105.9860693655
 10
192.0990340983
 20
105.9648247042
 10
192.1903780023
 20
105.9360208118
 10
192.2825234594
 20
105.8998180241
 10
192.3750465559
 20
105.8564132256
 10
192.4675215128
 20
105.8060388773
 10
192.5595227886
 20
105.7489618679
 10
192.6506271817
 20
105.6854821962
 10
192.7404159209
 20
105.6159314885
 10
192.8284767338
 20
105.5406713606
 10
192.9144058838
 20
105.4600916319
 10
192.9978101639
 20
105.3746083991
 10
193.0783088397
 20
105.2846619815
 10
193.1555355294
 20
105.1907147453
 10
193.2291400143
 20
105.0932488202
 10
193.2987899684
 20
104.9927637173
 10
193.3641726002
 20
104.8897738619
 10
193.4249961979
 20
104.7848060521
 10
193.48099157
 20
104.678396857
 10
193.5319133756
 20
104.5710899658
 10
193.5775413359
 20
104.463433502
 10
193.6176813226
 20
104.3559773163
 10
193.6521663166
 20
104.2492702698
 10
193.6808572334
 20
104.1438575234
 10
193.7036436096
 20
104.0402778444
  0
LWPOLYLINE
  5
256
100
AcDbEntity
  8
0
100
AcDbPolyline
 62
7
  6
CONTINUOUS
 90
3
 70
0
 10
191.3556180312
 20
105.865968549
 10
191.3750497556
 20
105.8767829918
 10
191.4456215203
 20
105.9097529183
  0
LWPOLYLINE
  5
257
100
AcDbEntity
  8
0
100
AcDbPolyline
 62
7
  6
CONTINUOUS
 90
48
 70
0
 10
191.999750022
 20
106.0567963341
 10
192.0181187921
 20
106.0670110143
 10
192.0802510457
 20
106.0961755417
 10
192.1453383727
 20
106.1188261219
 10
192.213075937
 20
106.1349441023
 10
192.2831496915
 20
106.144541616
 10
192.3552379578
 20
106.1476612125
 10
192.4290130275
 20
106.1443753465
 10
192.5041427767
 20
106.1347857286
 10
192.5802922853
 20
106.1190225424
 10
192.6571254548
 20
106.0972435335
 10
192.7343066148
 20
106.0696329747
 10
192.8115021122
 20
106.0364005148
 10
192.8883818751
 20
105.9977799172
 10
192.9646209429
 20
105.9540276949
 10
193.0399009582
 20
105.9054216509
 10
193.1139116101
 20
105.8522593298
 10
193.186352026
 20
105.7948563914
 10
193.2569321025
 20
105.7335449128
 10
193.325373772
 20
105.6686716292
 10
193.3914121976
 20
105.6005961223
 10
193.4547968926
 20
105.5296889648
 10
193.5152927587
 20
105.4563298315
 10
193.5726810397
 20
105.3809055865
 10
193.6267601862
 20
105.3038083544
 10
193.6773466282
 20
105.2254335877
 10
193.7242754523
 20
105.1461781374
 10
193.7674009823
 20
105.0664383371
 10
193.8065972599
 20
104.986608111
 10
193.8417584252
 20
104.9070771126
 10
193.8727989949
 20
104.8282289044
 10
193.8996540403
 20
104.7504391864
 10
193.9222792615
 20
104.6740740829
 10
193.9406509626
 20
104.5994884927
 10
193.9547659257
 20
104.5270245132
 10
193.9646411869
 20
104.4570099434
 10
193.9703137167
 20
104.3897568729
 10
193.9718400061
 20
104.3255603635
 10
193.9692955624
 20
104.2646972276
 10
193.9627743179
 20
104.2074249103
 10
193.9523879548
 20
104.1539804773
 10
193.9382651517
 20
104.1045797154
 10
193.9205507541
 20
104.0594163457
 10
193.8994048768
 20
104.0186613546
 10
193.8750019401
 20
103.9824624439
 10
193.8475296476
 20
103.9509436011
 10
193.8171879109
 20
103.9242047912
 10
193.7860453321
 20
103.9033850002
  0
LWPOLYLINE
  5
258
100
AcDbEntity
  8
0
100
AcDbPolyline
 62
7
  6
CONTINUOUS
 90
47
 70
0
 10
189.7292718552
 20
104.9269366737
 10
189.7582011936
 20
104.9427497116
 10
189.8293280596
 20
104.9746763843
 10
189.9042906637
 20
104.9989707614
 10
189.9827499704
 20
105.0155308862
 10
190.0643496713
 20
105.0242930075
 10
190.1487179451
 20
105.0252318945
 10
190.2354692944
 20
105.0183609615
 10
190.3242064501
 20
105.0037322018
 10
190.4145223336
 20
104.9814359304
 10
190.5060020677
 20
104.9516003384
 10
190.5982250264
 20
104.9143908594
 10
190.690766912
 20
104.8700093524
 10
190.7832018517
 20
104.8186931045
 10
190.8751045011
 20
104.7607136591
 10
190.966052145
 20
104.6963754742
 10
191.0556267861
 20
104.6260144185
 10
191.1434172091
 20
104.5499961124
 10
191.2290210128
 20
104.4687141219
 10
191.3120465973
 20
104.3825880141
 10
191.3921150986
 20
104.2920612853
 10
191.4688622601
 20
104.1975991696
 10
191.541940232
 20
104.099686341
 10
191.6110192894
 20
103.9988245192
 10
191.6757894614
 20
103.8955299914
 10
191.735962062
 20
103.7903310615
 10
191.7912711162
 20
103.6837654408
 10
191.8414746738
 20
103.5763775917
 10
191.886356005
 20
103.4687160379
 10
191.9257246702
 20
103.3613306555
 10
191.9594174615
 20
103.2547699559
 10
191.9872992085
 20
103.1495783768
 10
192.009263446
 20
103.0462935929
 10
192.02523294
 20
102.9454438593
 10
192.0351600695
 20
102.8475454027
 10
192.039027061
 20
102.753099871
 10
192.0368460771
 20
102.6625918554
 10
192.0286591558
 20
102.5764864964
 10
192.0145380032
 20
102.4952271866
 10
191.9945836392
 20
102.4192333799
 10
191.9689258983
 20
102.3488985198
 10
191.9377227886
 20
102.284588096
 10
191.9011597109
 20
102.2266378384
 10
191.8594485431
 20
102.1753520595
 10
191.8128265933
 20
102.1310021505
 10
191.7615554281
 20
102.0938252409
 10
191.7471981245
 20
102.0851866072
  0
LWPOLYLINE
  5
259
100
AcDbEntity
  8
0
100
AcDbPolyline
 62
7
  6
CONTINUOUS
 90
3
 70
0
 10
189.6585611771
 20
104.8861092143
 10
189.6874905155
 20
104.9019222523
 10
189.7586173815
 20
104.9338489249
  0
LWPOLYLINE
  5
25A
100
AcDbEntity
  8
0
100
AcDbPolyline
 62
7
  6
CONTINUOUS
 90
3
 70
0
 10
191.9290393439
 20
106.0159688748
 10
191.9584173316
 20
106.0319411176
 10
192.021751726
 20
106.0601781388
  0
LWPOLYLINE
  5
25B
100
AcDbEntity
  8
0
100
AcDbPolyline
 62
7
  6
CONTINUOUS
 90
7
 70
0
 10
190.5451173074
 20
101.3911202324
 10
190.5176581467
 20
101.3764687915
 10
190.4589147703
 20
101.3523725637
 10
190.3963584383
 20
101.335916835
 10
190.3303294282
 20
101.3272009444
 10
190.2611851714
 20
101.3262859981
 10
190.2514823623
 20
101.327218473
  0
LWPOLYLINE
  5
25C
100
AcDbEntity
  8
0
100
AcDbPolyline
 62
7
  6
CONTINUOUS
 90
46
 70
0
 10
190.8606429443
 20
105.5801761363
 10
190.9063694888
 20
105.6043862559
 10
190.9784519491
 20
105.634482248
 10
191.0542899807
 20
105.6569179051
 10
191.1335402259
 20
105.6716004517
 10
191.2158424714
 20
105.6784754109
 10
191.3008214275
 20
105.6775268733
 10
191.3880885826
 20
105.6687775759
 10
191.4772441215
 20
105.6522887894
 10
191.5678789013
 20
105.6281600158
 10
191.6595764715
 20
105.5965284968
 10
191.751915132
 20
105.5575685359
 10
191.8444700157
 20
105.5114906374
 10
191.9368151876
 20
105.4585404664
 10
192.0285257483
 20
105.3989976355
 10
192.1191799334
 20
105.3331743235
 10
192.2083611968
 20
105.2614137332
 10
192.2956602681
 20
105.1840883961
 10
192.3806771746
 20
105.1015983325
 10
192.4630232169
 20
105.0143690749
 10
192.542322889
 20
104.9228495665
 10
192.6182157332
 20
104.8275099432
 10
192.6903581207
 20
104.7288392117
 10
192.7584249493
 20
104.6273428331
 10
192.8221112488
 20
104.523540227
 10
192.8811336877
 20
104.417962205
 10
192.9352319732
 20
104.3111483488
 10
192.9841701363
 20
104.203644345
 10
193.027737698
 20
104.0959992894
 10
193.0657507086
 20
103.9887629744
 10
193.0980526567
 20
103.8824831735
 10
193.1245152422
 20
103.7777029353
 10
193.1450390099
 20
103.6749579007
 10
193.1595538411
 20
103.5747736576
 10
193.1680192998
 20
103.4776631438
 10
193.1704248324
 20
103.3841241139
 10
193.1667898199
 20
103.2946366801
 10
193.1571634822
 20
103.2096609409
 10
193.141624635
 20
103.1296347077
 10
193.1202813003
 20
103.0549713431
 10
193.0932701729
 20
102.986057718
 10
193.0607559453
 20
102.923252301
 10
193.0229304939
 20
102.8668833878
 10
192.9800119312
 20
102.8172474792
 10
192.9322435288
 20
102.7746078165
 10
192.8785697141
 20
102.7384264071
  0
LINE
  5
25D
100
AcDbEntity
  8
0
100
AcDbLine
 62
7
  6
CONTINUOUS
 10
190.7899322661
 20
105.5393486769
 11
190.8356588107
 21
105.5635587966
  0
LWPOLYLINE
  5
25E
100
AcDbEntity
  8
0
100
AcDbPolyline
 62
7
  6
CONTINUOUS
 90
7
 70
0
 10
193.3735443952
 20
103.0242185689
 10
193.3401942912
 20
103.0067236036
 10
193.2810410692
 20
102.9834120674
 10
193.2181092343
 20
102.9677530974
 10
193.1517409202
 20
102.9598420974
 10
193.0822952356
 20
102.9597361985
 10
193.0797827186
 20
102.9600049634
  0
LWPOLYLINE
  5
25F
100
AcDbEntity
  8
0
100
AcDbPolyline
 62
7
  6
CONTINUOUS
 90
7
 70
0
 10
188.8480610757
 20
100.4112612224
 10
188.8127384449
 20
100.3928367205
 10
188.7534495062
 20
100.3697869725
 10
188.6903934496
 20
100.3543937058
 10
188.6239130219
 20
100.3467510118
 10
188.5543678857
 20
100.3469146958
 10
188.5542664791
 20
100.3469259087
  0
LWPOLYLINE
  5
260
100
AcDbEntity
  8
0
100
AcDbPolyline
 62
7
  6
CONTINUOUS
 90
46
 70
0
 10
189.1635870095
 20
104.6003173087
 10
189.21901676
 20
104.6291278683
 10
189.2916368364
 20
104.6581746028
 10
189.3679662156
 20
104.6795459349
 10
189.4476591124
 20
104.6931543462
 10
189.5303531261
 20
104.6989506651
 10
189.6156710315
 20
104.6969243102
 10
189.7032226417
 20
104.6871033422
 10
189.792606736
 20
104.6695543253
 10
189.8834130413
 20
104.6443819988
 10
189.9752242592
 20
104.6117287592
 10
190.0676181274
 20
104.571773957
 10
190.160169505
 20
104.5247330109
 10
190.2524524735
 20
104.4708563435
 10
190.3440424397
 20
104.4104281443
 10
190.4345182341
 20
104.3437649661
 10
190.5234641905
 20
104.2712141608
 10
190.6104722
 20
104.1931521642
 10
190.6951437265
 20
104.1099826359
 10
190.7770917758
 20
104.0221344659
 10
190.8559428067
 20
103.9300596554
 10
190.9313385767
 20
103.8342310845
 10
191.0029379114
 20
103.735140176
 10
191.0704183901
 20
103.633294468
 10
191.1334779379
 20
103.5292151066
 10
191.1918363187
 20
103.423434272
 10
191.2452365187
 20
103.3164925491
 10
191.2934460167
 20
103.2089362575
 10
191.3362579321
 20
103.1013147528
 10
191.3734920472
 20
102.9941777125
 10
191.4049956976
 20
102.8880724214
 10
191.4306445257
 20
102.7835410675
 10
191.4503430958
 20
102.6811180641
 10
191.4640253647
 20
102.5813274097
 10
191.4716550089
 20
102.4846800996
 10
191.473225603
 20
102.3916716019
 10
191.4687606524
 20
102.3027794098
 10
191.4583134765
 20
102.2184606829
 10
191.4419669455
 20
102.1391499888
 10
191.4198330715
 20
102.0652571569
 10
191.3920524543
 20
101.9971652533
 10
191.3587935879
 20
101.935228689
 10
191.3202520273
 20
101.8797714692
 10
191.276649423
 20
101.8310855922
 10
191.2282324259
 20
101.7894296076
 10
191.1815134173
 20
101.7585673573
  0
LINE
  5
261
100
AcDbEntity
  8
0
100
AcDbLine
 62
7
  6
CONTINUOUS
 10
189.0928763313
 20
104.5594898493
 11
189.1483060819
 21
104.588300409
  0
LWPOLYLINE
  5
262
100
AcDbEntity
  8
0
100
AcDbPolyline
 62
7
  6
CONTINUOUS
 90
6
 70
0
 10
191.6764874464
 20
102.0443591478
 10
191.6352089015
 20
102.023195568
 10
191.575514463
 20
102.0009333176
 10
191.5120875756
 20
101.9863390518
 10
191.4452728184
 20
101.9795029139
 10
191.3830340796
 20
101.9803707199
  0
LWPOLYLINE
  5
263
100
AcDbEntity
  8
0
100
AcDbPolyline
 62
7
  6
CONTINUOUS
 90
46
 70
0
 10
190.2949570258
 20
105.2535561907
 10
190.367567564
 20
105.2900787018
 10
190.441114156
 20
105.3172818068
 10
190.5182881499
 20
105.3367848872
 10
190.5987395881
 20
105.3485096541
 10
190.6821023231
 20
105.3524162416
 10
190.7679958264
 20
105.3485034038
 10
190.8560270679
 20
105.3368085211
 10
190.945792458
 20
105.3174074151
 10
191.0368798404
 20
105.2904139745
 10
191.1288705289
 20
105.2559795924
 10
191.2213413749
 20
105.2142924181
 10
191.3138668581
 20
105.1655764283
 10
191.4060211883
 20
105.1100903203
 10
191.4973804088
 20
105.048126234
 10
191.5875244905
 20
104.9800083092
 10
191.6760394068
 20
104.906091084
 10
191.7625191789
 20
104.8267577438
 10
191.8465678811
 20
104.7424182282
 10
191.9278015967
 20
104.6535072062
 10
192.0058503143
 20
104.5604819289
 10
192.0803597558
 20
104.4638199708
 10
192.1509931261
 20
104.3640168707
 10
192.2174327772
 20
104.2615836839
 10
192.2793817769
 20
104.1570444578
 10
192.336565376
 20
104.0509336429
 10
192.388732365
 20
103.943793453
 10
192.4356563155
 20
103.8361711869
 10
192.4771366984
 20
103.7286165245
 10
192.5129998745
 20
103.6216788119
 10
192.5430999524
 20
103.5159043475
 10
192.5673195088
 20
103.4118336835
 10
192.5855701691
 20
103.3099989558
 10
192.5977930434
 20
103.2109212552
 10
192.6039590178
 20
103.1151080533
 10
192.6040688979
 20
103.0230506961
 10
192.598153405
 20
102.9352219765
 10
192.5862730244
 20
102.8520737987
 10
192.5685177064
 20
102.7740349464
 10
192.5450064222
 20
102.7015089644
 10
192.5158865762
 20
102.6348721651
 10
192.4813332773
 20
102.5744717697
 10
192.4415484749
 20
102.5206241931
 10
192.3967599605
 20
102.473613481
 10
192.3472202428
 20
102.4336899063
 10
192.3128837694
 20
102.4118064235
  0
LINE
  5
264
100
AcDbEntity
  8
0
100
AcDbLine
 62
7
  6
CONTINUOUS
 10
190.2242463477
 20
105.2127287314
 11
190.2968568859
 21
105.2492512425
  0
LWPOLYLINE
  5
265
100
AcDbEntity
  8
0
100
AcDbPolyline
 62
7
  6
CONTINUOUS
 90
6
 70
0
 10
189.9794313546
 20
101.0645002431
 10
189.9301550476
 20
101.0398152309
 10
189.8699261706
 20
101.0186036613
 10
189.8060113114
 20
101.0050747511
 10
189.7387574584
 20
100.999313381
 10
189.6865264778
 20
101.000840001
  0
LWPOLYLINE
  5
266
100
AcDbEntity
  8
0
100
AcDbPolyline
 62
7
  6
CONTINUOUS
 90
6
 70
0
 10
192.807859036
 20
102.6975989477
 10
192.7525380774
 20
102.6703688066
 10
192.6919126428
 20
102.6499462603
 10
192.6276362724
 20
102.6372169173
 10
192.5600577402
 20
102.6322617093
 10
192.5154292211
 20
102.6340726922
  0
LINE
  5
267
100
AcDbEntity
  8
0
100
AcDbLine
 62
7
  6
CONTINUOUS
 10
188.282375576
 20
100.0846415154
 11
188.26905744
 21
100.078124653
  0
LWPOLYLINE
  5
268
100
AcDbEntity
  8
0
100
AcDbPolyline
 62
7
  6
CONTINUOUS
 90
20
 70
0
 10
188.26905744
 20
101.7925124924
 10
188.2868890562
 20
101.7605102683
 10
188.3408131278
 20
101.6536635011
 10
188.3895693867
 20
101.5461454863
 10
188.4329482524
 20
101.4385053887
 10
188.4707667076
 20
101.3312929762
 10
188.5028692018
 20
101.2250559041
 10
188.5291284203
 20
101.1203370098
 10
188.5494459126
 20
101.0176716311
 10
188.5637525789
 20
100.9175849622
 10
188.5720090116
 20
100.8205894589
 10
188.5742056897
 20
100.7271823075
 10
188.570363026
 20
100.6378429685
 10
188.5605312662
 20
100.5530308088
 10
188.5447902405
 20
100.4731828318
 10
188.5232489699
 20
100.3987115191
 10
188.4960451269
 20
100.3300027929
 10
188.463344356
 20
100.2674141097
 10
188.4253394549
 20
100.2112726942
 10
188.3822494227
 20
100.1618739234
  0
LWPOLYLINE
  5
269
100
AcDbEntity
  8
RACCORDO
100
AcDbPolyline
 62
250
  6
CONTINUOUS
 90
25
 70
0
 10
179.7744445679
 20
123.7063298314
 10
179.7766157469
 20
123.7859054774
 10
179.7831203952
 20
123.8676625627
 10
179.7939318826
 20
123.9512663726
 10
179.8090059468
 20
124.0363746319
 10
179.8282808742
 20
124.1226389062
 10
179.8516777532
 20
124.2097060282
 10
179.8791007964
 20
124.2972195439
 10
179.9104377337
 20
124.3848211717
 10
179.945560271
 20
124.4721522693
 10
179.9843246162
 20
124.5588553019
 10
180.0265720676
 20
124.644575306
 10
180.0721296634
 20
124.7289613427
 10
180.1208108903
 20
124.8116679344
 10
180.1724164465
 20
124.892356479
 10
180.2267350581
 20
124.9706966365
 10
180.2835443441
 20
125.0463676811
 10
180.3426117262
 20
125.1190598145
 10
180.4036953819
 20
125.1884754341
 10
180.4665452338
 20
125.2543303512
 10
180.5309039736
 20
125.316354955
 10
180.5965081157
 20
125.3742953158
 10
180.6630890759
 20
125.4279142249
 10
180.7303742706
 20
125.4769921657
 10
180.7980882335
 20
125.5213282124
  0
LINE
  5
26A
100
AcDbEntity
  8
0
100
AcDbLine
 62
7
  6
CONTINUOUS
 10
192.8615328507
 20
102.7337803572
 11
192.807859036
 21
102.6975989477
  0
LINE
  5
26B
100
AcDbEntity
  8
0
100
AcDbLine
 62
7
  6
CONTINUOUS
 10
188.334318378
 20
100.1194798671
 11
188.282375576
 21
100.0846415154
  0
LINE
  5
26C
100
AcDbEntity
  8
0
100
AcDbLine
 62
7
  6
CONTINUOUS
 10
191.1575217478
 20
101.7486021483
 11
191.1108027392
 21
101.7177398979
  0
LINE
  5
26D
100
AcDbEntity
  8
0
100
AcDbLine
 62
7
  6
CONTINUOUS
 10
189.4534178467
 20
100.7635575486
 11
189.4137457662
 21
100.7378804597
  0
LINE
  5
26E
100
AcDbEntity
  8
0
100
AcDbLine
 62
7
  6
CONTINUOUS
 10
192.2765095647
 20
102.3928624469
 11
192.2421730913
 21
102.3709789642
  0
LINE
  5
26F
100
AcDbEntity
  8
0
100
AcDbLine
 62
7
  6
CONTINUOUS
 10
190.5722671253
 20
101.4080684369
 11
190.5451173074
 21
101.3911202324
  0
LINE
  5
270
100
AcDbEntity
  8
0
100
AcDbLine
 62
7
  6
CONTINUOUS
 10
193.3952454327
 20
103.0375544997
 11
193.3735443952
 21
103.0242185689
  0
LINE
  5
271
100
AcDbEntity
  8
0
100
AcDbLine
 62
7
  6
CONTINUOUS
 10
188.8679361277
 20
100.4234110368
 11
188.8480610757
 21
100.4112612224
  0
LINE
  5
272
100
AcDbEntity
  8
0
100
AcDbLine
 62
7
  6
CONTINUOUS
 10
193.7280161065
 20
103.8698796526
 11
193.7860453321
 21
103.9033850002
  0
LINE
  5
273
100
AcDbEntity
  8
0
100
AcDbLine
 62
7
  6
CONTINUOUS
 10
188.282375576
 20
100.0846415154
 11
188.3530862541
 21
100.1254689747
  0
LINE
  5
274
100
AcDbEntity
  8
0
100
AcDbLine
 62
7
  6
CONTINUOUS
 10
188.8480610757
 20
100.4112612224
 11
188.9187717538
 21
100.4520886817
  0
LINE
  5
275
100
AcDbEntity
  8
0
100
AcDbLine
 62
7
  6
CONTINUOUS
 10
189.4137457662
 20
100.7378804597
 11
189.4844564443
 21
100.778707919
  0
LINE
  5
276
100
AcDbEntity
  8
0
100
AcDbLine
 62
7
  6
CONTINUOUS
 10
189.9794313546
 20
101.0645002431
 11
190.0501420327
 21
101.1053277025
  0
LINE
  5
277
100
AcDbEntity
  8
0
100
AcDbLine
 62
7
  6
CONTINUOUS
 10
190.5451173074
 20
101.3911202324
 11
190.6158279855
 21
101.4319476917
  0
LINE
  5
278
100
AcDbEntity
  8
0
100
AcDbLine
 62
7
  6
CONTINUOUS
 10
191.1108027392
 20
101.7177398979
 11
191.1815134173
 21
101.7585673573
  0
LINE
  5
279
100
AcDbEntity
  8
0
100
AcDbLine
 62
7
  6
CONTINUOUS
 10
191.6764874464
 20
102.0443591478
 11
191.7471981245
 21
102.0851866072
  0
LINE
  5
27A
100
AcDbEntity
  8
0
100
AcDbLine
 62
7
  6
CONTINUOUS
 10
192.2421730913
 20
102.3709789642
 11
192.3128837694
 21
102.4118064235
  0
LINE
  5
27B
100
AcDbEntity
  8
0
100
AcDbLine
 62
7
  6
CONTINUOUS
 10
192.807859036
 20
102.6975989477
 11
192.8785697141
 21
102.7384264071
  0
LINE
  5
27C
100
AcDbEntity
  8
0
100
AcDbLine
 62
7
  6
CONTINUOUS
 10
193.3735443952
 20
103.0242185689
 11
193.4442550733
 21
103.0650460283
  0
LWPOLYLINE
  5
27D
100
AcDbEntity
  8
0
100
AcDbPolyline
 62
7
  6
CONTINUOUS
 90
7
 70
0
 10
191.1108027392
 20
101.7177398979
 10
191.1045607911
 20
101.7141998798
 10
191.047348754
 20
101.6872393191
 10
190.9861995151
 20
101.6678716976
 10
190.9214464022
 20
101.6562107393
 10
190.8534405453
 20
101.652332099
 10
190.8180156486
 20
101.6543013871
  0
LWPOLYLINE
  5
27E
100
AcDbEntity
  8
0
100
AcDbPolyline
 62
7
  6
CONTINUOUS
 90
7
 70
0
 10
189.4137457662
 20
100.7378804597
 10
189.3998521709
 20
100.7301722052
 10
189.3420775349
 20
100.7042516468
 10
189.2804105969
 20
100.685941966
 10
189.2151872422
 20
100.6753516596
 10
189.1467609238
 20
100.6725510921
 10
189.1205797455
 20
100.674395846
  0
LWPOLYLINE
  5
27F
100
AcDbEntity
  8
0
100
AcDbPolyline
 62
7
  6
CONTINUOUS
 90
7
 70
0
 10
192.2421730913
 20
102.3709789642
 10
192.2224946221
 20
102.3602412739
 10
192.1643025397
 20
102.3351016948
 10
192.1022520366
 20
102.3175859443
 10
192.0366808915
 20
102.3077985974
 10
191.9679442743
 20
102.3058060525
 10
191.948775677
 20
102.3073683874
  0
LWPOLYLINE
  5
280
100
AcDbEntity
  8
0
100
AcDbPolyline
 62
7
  6
CONTINUOUS
 90
3
 70
0
 10
189.727066116
 20
101.9015389204
 10
189.7313008971
 20
101.8316490214
 10
189.7311411351
 20
101.8125901989
  0
LWPOLYLINE
  5
281
100
AcDbEntity
  8
0
100
AcDbPolyline
 62
7
  6
CONTINUOUS
 90
3
 70
0
 10
188.5956959466
 20
101.2482999639
 10
188.5999486552
 20
101.1777352614
 10
188.5997939431
 20
101.1613445436
  0
LWPOLYLINE
  5
282
100
AcDbEntity
  8
0
100
AcDbPolyline
 62
7
  6
CONTINUOUS
 90
3
 70
0
 10
190.2927520802
 20
102.2281589064
 10
190.2969967716
 20
102.1578983073
 10
190.2968377429
 20
102.139705196
  0
LWPOLYLINE
  5
283
100
AcDbEntity
  8
0
100
AcDbPolyline
 62
7
  6
CONTINUOUS
 90
3
 70
0
 10
189.1613806264
 20
101.5749192084
 10
189.1656367642
 20
101.504223425
 10
189.1654527815
 20
101.48515013
  0
LWPOLYLINE
  5
284
100
AcDbEntity
  8
RACCORDO
100
AcDbPolyline
 62
250
  6
CONTINUOUS
 90
43
 70
0
 10
187.8648485419
 20
113.281340326
 10
187.8582865771
 20
113.5947315921
 10
187.8416700392
 20
113.9112555746
 10
187.8152492043
 20
114.2303465333
 10
187.7793962697
 20
114.5506173176
 10
187.7343170376
 20
114.8723444464
 10
187.679811377
 20
115.1975692081
 10
187.6157707743
 20
115.5267636284
 10
187.5424175372
 20
115.8585941674
 10
187.4598618198
 20
116.1924736593
 10
187.3682393152
 20
116.5278947682
 10
187.2676740346
 20
116.8644539864
 10
187.1582840577
 20
117.2017139619
 10
187.0402191322
 20
117.5392260667
 10
186.9136509024
 20
117.8765207427
 10
186.7787451294
 20
118.2131286041
 10
186.6356896153
 20
118.5485882259
 10
186.4846847538
 20
118.8824446771
 10
186.3259310751
 20
119.2142401795
 10
186.1596468848
 20
119.5435196884
 10
185.9860627432
 20
119.869834999
 10
185.8054116771
 20
120.1927430924
 10
185.6179372788
 20
120.5118044605
 10
185.4238996267
 20
120.8265790849
 10
185.2235696713
 20
121.136630649
 10
185.0172290791
 20
121.4415181173
 10
184.8051505949
 20
121.7408390586
 10
184.5876016461
 20
122.034223292
 10
184.3648237523
 20
122.3213265262
 10
184.1371665305
 20
122.6016865664
 10
183.905074527
 20
122.8747772596
 10
183.6695098384
 20
123.1395279064
 10
183.430169056
 20
123.3963261937
 10
183.1855366603
 20
123.6466836973
 10
182.9352672103
 20
123.890664609
 10
182.6802452223
 20
124.1271058904
 10
182.42075099
 20
124.3554925643
 10
182.1567707929
 20
124.5755507483
 10
181.8889777281
 20
124.7864472871
 10
181.6187241778
 20
124.9869407822
 10
181.3467265115
 20
125.1763960824
 10
181.073047572
 20
125.3546559656
 10
180.7980882335
 20
125.5213282124
  0
LWPOLYLINE
  5
285
100
AcDbEntity
  8
RACCORDO
100
AcDbPolyline
 62
250
  6
CONTINUOUS
 90
43
 70
0
 10
185.78119083
 20
113.302340128
 10
185.7764607928
 20
113.5702069566
 10
185.7635654676
 20
113.839760556
 10
185.7425048545
 20
114.1110009263
 10
185.7132354425
 20
114.3836290791
 10
185.6758007425
 20
114.6579440027
 10
185.6303312874
 20
114.9348426625
 10
185.5767810487
 20
115.2150449114
 10
185.5151960547
 20
115.4978308965
 10
185.4458449242
 20
115.7819380239
 10
185.3687026209
 20
116.0673287928
 10
185.283794181
 20
116.3540407041
 10
185.1914633307
 20
116.6409236666
 10
185.0916777715
 20
116.9279874989
 10
184.984469802
 20
117.2152223823
 10
184.8702800446
 20
117.5014487705
 10
184.7490804248
 20
117.7866611085
 10
184.620899017
 20
118.0708649511
 10
184.4862606671
 20
118.3528974166
 10
184.3451395275
 20
118.6327489482
 10
184.1975614458
 20
118.9104291026
 10
184.0441288105
 20
119.1848036688
 10
183.8848157415
 20
119.4558621986
 10
183.7196481189
 20
119.7236151402
 10
183.5493059715
 20
119.986959627
 10
183.3737774052
 20
120.2458660627
 10
183.1930743142
 20
120.5003640436
 10
183.0079124096
 20
120.7494394914
 10
182.818228932
 20
120.9931194202
 10
182.6240866408
 20
121.231376816
 10
182.4263895259
 20
121.4631165581
 10
182.2256995289
 20
121.6877996338
 10
182.0214547082
 20
121.9059650557
 10
181.8128732293
 20
122.1181347407
 10
181.5994424844
 20
122.3249317217
 10
181.3816750813
 20
122.5257329657
 10
181.1603270086
 20
122.7191912904
 10
180.9350618148
 20
122.9054767362
 10
180.7062159513
 20
123.0844192625
 10
180.4755547606
 20
123.2541615657
 10
180.2436666903
 20
123.4140845442
 10
180.0099632927
 20
123.5648072994
 10
179.7744445679
 20
123.7063298314
  0
LINE
  5
286
100
AcDbEntity
  8
RACCORDO
100
AcDbLine
 62
250
  6
CONTINUOUS
 10
185.78119083
 20
65.1521432742
 11
185.78119083
 21
113.302340128
  0
LINE
  5
287
100
AcDbEntity
  8
RACCORDO
100
AcDbLine
 62
250
  6
CONTINUOUS
 10
187.8648485419
 20
65.1311434722
 11
187.8648485419
 21
113.281340326
  0
LINE
  5
288
100
AcDbEntity
  8
RACCORDO
100
AcDbLine
 62
7
  6
CONTINUOUS
 10
188.26905744
 20
65.3330301924
 11
188.26905744
 21
113.5147239558
  0
LWPOLYLINE
  5
289
100
AcDbEntity
  8
0
100
AcDbPolyline
 62
7
  6
CONTINUOUS
 90
6
 70
0
 10
191.1374141196
 20
105.6719240499
 10
191.137600541
 20
105.6721952721
 10
191.1896891803
 20
105.7338136103
 10
191.2467980829
 20
105.7886136205
 10
191.3086764082
 20
105.8363426542
 10
191.3556180312
 20
105.865968549
  0
LWPOLYLINE
  5
28A
100
AcDbEntity
  8
0
100
AcDbPolyline
 62
7
  6
CONTINUOUS
 90
6
 70
0
 10
189.4408922349
 20
104.6919988298
 10
189.4474254878
 20
104.7012355475
 10
189.5002211011
 20
104.7619292363
 10
189.5580038206
 20
104.8157676675
 10
189.6205194755
 20
104.8625029429
 10
189.6585611771
 20
104.8861092143
  0
LWPOLYLINE
  5
28B
100
AcDbEntity
  8
0
100
AcDbPolyline
 62
7
  6
CONTINUOUS
 90
6
 70
0
 10
190.5724357872
 20
105.3446762119
 10
190.5910695433
 20
105.3697365637
 10
190.6450906346
 20
105.4288001132
 10
190.704039673
 20
105.4809454652
 10
190.767656728
 20
105.5259330852
 10
190.7899322661
 20
105.5393486769
  0
LWPOLYLINE
  5
28C
100
AcDbEntity
  8
0
100
AcDbPolyline
 62
7
  6
CONTINUOUS
 90
6
 70
0
 10
188.8753580193
 20
104.36469681
 10
188.9011599328
 20
104.3984225348
 10
188.9558750709
 20
104.4565477951
 10
189.0154837466
 20
104.5077197609
 10
189.0797227709
 20
104.5517037054
 10
189.0928763313
 20
104.5594898493
  0
LWPOLYLINE
  5
28D
100
AcDbEntity
  8
0
100
AcDbPolyline
 62
7
  6
CONTINUOUS
 90
5
 70
0
 10
190.0064861699
 20
105.0180796634
 10
190.0452827831
 20
105.0663222669
 10
190.1012025762
 20
105.1227915807
 10
190.1619545057
 20
105.1722477211
 10
190.2242463477
 20
105.2127287314
  0
LWPOLYLINE
  5
28E
100
AcDbEntity
  8
0
100
AcDbPolyline
 62
7
  6
CONTINUOUS
 90
5
 70
0
 10
188.3091799009
 20
104.038507766
 10
188.355639718
 20
104.0946559817
 10
188.4122407583
 20
104.1501731518
 10
188.4736382579
 20
104.1986438804
 10
188.5271905246
 20
104.2328699549
  0
LWPOLYLINE
  5
28F
100
AcDbEntity
  8
0
100
AcDbPolyline
 62
7
  6
CONTINUOUS
 90
3
 70
0
 10
192.3708377968
 20
102.4797967338
 10
192.3260492824
 20
102.4327860217
 10
192.2765095647
 20
102.3928624469
  0
LWPOLYLINE
  5
290
100
AcDbEntity
  8
0
100
AcDbPolyline
 62
7
  6
CONTINUOUS
 90
3
 70
0
 10
190.6678997214
 20
101.49304519
 10
190.6224406866
 20
101.4469973535
 10
190.5722671253
 20
101.4080684369
  0
LWPOLYLINE
  5
291
100
AcDbEntity
  8
0
100
AcDbPolyline
 62
7
  6
CONTINUOUS
 90
3
 70
0
 10
193.4918504171
 20
103.1210566688
 10
193.445891289
 20
103.0757344056
 10
193.3952454327
 20
103.0375544997
  0
LWPOLYLINE
  5
292
100
AcDbEntity
  8
0
100
AcDbPolyline
 62
7
  6
CONTINUOUS
 90
3
 70
0
 10
188.9648637244
 20
100.5064207105
 10
188.9187386265
 20
100.4613408391
 10
188.8679361277
 20
100.4234110368
  0
LWPOLYLINE
  5
293
100
AcDbEntity
  8
0
100
AcDbPolyline
 62
7
  6
CONTINUOUS
 90
3
 70
0
 10
193.7877981731
 20
103.9217472679
 10
193.7582336981
 20
103.8928859186
 10
193.7279496439
 20
103.8704868892
  0
LWPOLYLINE
  5
294
100
AcDbEntity
  8
0
100
AcDbPolyline
 62
7
  6
CONTINUOUS
 90
4
 70
0
 10
191.788737865
 20
102.1345246002
 10
191.7421159152
 20
102.0901746912
 10
191.6908447499
 20
102.0529977816
 10
191.6764874464
 20
102.0443591478
  0
LWPOLYLINE
  5
295
100
AcDbEntity
  8
0
100
AcDbPolyline
 62
7
  6
CONTINUOUS
 90
4
 70
0
 10
190.0855386675
 20
101.1481316542
 10
190.0382595654
 20
101.1047576788
 10
189.986369162
 20
101.0685866285
 10
189.9794313546
 20
101.0645002431
  0
LINE
  5
296
100
AcDbEntity
  8
0
100
AcDbLine
 62
7
  6
CONTINUOUS
 10
192.9093012531
 20
102.7764200198
 11
192.8615328507
 21
102.7337803572
  0
LINE
  5
297
100
AcDbEntity
  8
0
100
AcDbLine
 62
7
  6
CONTINUOUS
 10
188.3822494227
 20
100.1618739234
 11
188.334318378
 21
100.1194798671
  0
LINE
  5
298
100
AcDbEntity
  8
0
100
AcDbLine
 62
7
  6
CONTINUOUS
 10
191.2059387448
 20
101.7902581328
 11
191.1575217478
 21
101.7486021483
  0
LINE
  5
299
100
AcDbEntity
  8
0
100
AcDbLine
 62
7
  6
CONTINUOUS
 10
189.5024786956
 20
100.8042247099
 11
189.4534178467
 21
100.7635575486
  0
LWPOLYLINE
  5
29A
100
AcDbEntity
  8
0
100
AcDbPolyline
 62
7
  6
CONTINUOUS
 90
14
 70
0
 10
193.7204441493
 20
103.9390609451
 10
193.7312071251
 20
103.8407248664
 10
193.7359106339
 20
103.7457734186
 10
193.7345627048
 20
103.6546936929
 10
193.72720126
 20
103.5679536548
 10
193.713893927
 20
103.485999833
 10
193.6947377046
 20
103.4092551133
 10
193.669858484
 20
103.3381166498
 10
193.6394104268
 20
103.2729539029
 10
193.6035752032
 20
103.2141068144
 10
193.5625610952
 20
103.1618841282
 10
193.5166019671
 20
103.116561865
 10
193.4659561108
 20
103.078381959
 10
193.4442550733
 20
103.0650460283
  0
LWPOLYLINE
  5
29B
100
AcDbEntity
  8
0
100
AcDbPolyline
 62
7
  6
CONTINUOUS
 90
3
 70
0
 10
193.1211792885
 20
103.8612573279
 10
193.1253831496
 20
103.7924920284
 10
193.1252609849
 20
103.7739696366
  0
LWPOLYLINE
  5
29C
100
AcDbEntity
  8
0
100
AcDbPolyline
 62
7
  6
CONTINUOUS
 90
3
 70
0
 10
190.8584376211
 20
102.5547786479
 10
190.8626724863
 20
102.4848852414
 10
190.8625077609
 20
102.4649322094
  0
LWPOLYLINE
  5
29D
100
AcDbEntity
  8
0
100
AcDbPolyline
 62
7
  6
CONTINUOUS
 90
3
 70
0
 10
191.4241222954
 20
102.8813978892
 10
191.4283749983
 20
102.8108333767
 10
191.4282117494
 20
102.7934558054
  0
LWPOLYLINE
  5
29E
100
AcDbEntity
  8
0
100
AcDbPolyline
 62
7
  6
CONTINUOUS
 90
3
 70
0
 10
191.98980785
 20
103.2080176387
 10
191.9940621015
 20
103.1373944352
 10
191.9938831373
 20
103.118618064
  0
LWPOLYLINE
  5
29F
100
AcDbEntity
  8
0
100
AcDbPolyline
 62
7
  6
CONTINUOUS
 90
3
 70
0
 10
192.5554938136
 20
103.5346376244
 10
192.5597507284
 20
103.4639124817
 10
192.5595687637
 20
103.4451383889
  0
LWPOLYLINE
  5
2A0
100
AcDbEntity
  8
0
100
AcDbPolyline
 62
7
  6
CONTINUOUS
 90
10
 70
0
 10
193.660496447
 20
103.7998974071
 10
193.6651999557
 20
103.7049459593
 10
193.6638520267
 20
103.6138662336
 10
193.6564905819
 20
103.5271261954
 10
193.6431832488
 20
103.4451723736
 10
193.6240270265
 20
103.3684276539
 10
193.5991478059
 20
103.2972891904
 10
193.5686997487
 20
103.2321264435
 10
193.5328645251
 20
103.1732793551
 10
193.4918504171
 20
103.1210566688
  0
LINE
  5
2A1
100
AcDbEntity
  8
0
100
AcDbLine
 62
7
  6
CONTINUOUS
 10
194.9865718612
 20
105.9589981039
 11
193.9715501914
 21
104.3377501196
  0
LINE
  5
2A2
100
AcDbEntity
  8
0
100
AcDbLine
 62
7
  6
CONTINUOUS
 10
193.7399023284
 20
103.9677495156
 11
193.7206669131
 21
103.937025661
  0
LINE
  5
2A3
100
AcDbEntity
  8
0
100
AcDbLine
 62
7
  6
CONTINUOUS
 10
193.8143549452
 20
103.9554486545
 11
193.7877981731
 21
103.9217472679
  0
LINE
  5
2A4
100
AcDbEntity
  8
0
100
AcDbLine
 62
7
  6
CONTINUOUS
 10
193.7036436096
 20
104.0402778444
 11
193.7204441493
 21
103.9390609451
  0
LWPOLYLINE
  5
2A5
100
AcDbEntity
  8
0
100
AcDbPolyline
 62
7
  6
CONTINUOUS
 90
6
 70
0
 10
193.8954644876
 20
104.1917478746
 10
193.8866848781
 20
104.1360288043
 10
193.8740339013
 20
104.0843415642
 10
193.8576537235
 20
104.0368956902
 10
193.837702811
 20
103.9938773386
 10
193.8143549452
 20
103.9554486545
  0
LWPOLYLINE
  5
2A6
100
AcDbEntity
  8
0
100
AcDbPolyline
 62
7
  6
CONTINUOUS
 90
18
 70
0
 10
193.7115511401
 20
103.9926379634
 10
193.7205706113
 20
104.0324990772
 10
193.7304749969
 20
104.1004314959
 10
193.7356977249
 20
104.1717035086
 10
193.7362112674
 20
104.2459350985
 10
193.7320132309
 20
104.3227294105
 10
193.7231265348
 20
104.4016759403
 10
193.7095989676
 20
104.4823542887
 10
193.6915026928
 20
104.5643356885
 10
193.6689341154
 20
104.6471837873
 10
193.6420138668
 20
104.7304560658
 10
193.6108859498
 20
104.8137077221
 10
193.5757165828
 20
104.896494925
 10
193.5366935117
 20
104.9783763667
 10
193.4940254436
 20
105.0589148284
 10
193.4479403119
 20
105.1376808817
 10
193.3986839347
 20
105.2142551379
 10
193.3465191277
 20
105.288229688
  0
LINE
  5
2A7
100
AcDbEntity
  8
RACCORDO
100
AcDbLine
 62
250
  6
CONTINUOUS
 10
187.7925974529
 20
65.0946659585
 11
188.26905744
 21
65.3330301924
  0
LWPOLYLINE
  5
2A8
100
AcDbEntity
  8
RACCORDO
100
AcDbPolyline
 62
250
  6
CONTINUOUS
 90
21
 70
0
 10
185.9364928552
 20
60.6439721531
 10
186.1120762467
 20
60.766864634
 10
186.2804227536
 20
60.9013700943
 10
186.4412912625
 20
61.0472952354
 10
186.5944696323
 20
61.2044461302
 10
186.7397709929
 20
61.372631838
 10
186.8770179415
 20
61.5516642189
 10
187.0059850185
 20
61.741265133
 10
187.1264388412
 20
61.9410730697
 10
187.2379332221
 20
62.1502226445
 10
187.3406522007
 20
62.368935659
 10
187.4351470484
 20
62.5986648185
 10
187.5213006206
 20
62.8398968247
 10
187.5985479652
 20
63.0919287598
 10
187.6665832451
 20
63.3546129996
 10
187.7251624029
 20
63.6280977105
 10
187.7739004625
 20
63.9118339334
 10
187.8123985627
 20
64.2044977916
 10
187.8404648489
 20
64.5053574316
 10
187.8579945838
 20
64.8143743831
 10
187.8648485419
 20
65.1311434722
  0
LWPOLYLINE
  5
2A9
100
AcDbEntity
  8
RACCORDO
100
AcDbPolyline
 62
250
  6
CONTINUOUS
 90
3
 70
0
 10
185.6043653728
 20
60.4532509019
 10
185.7539149642
 20
60.5328624041
 10
185.9364928552
 20
60.6439721531
  0
ELLIPSE
  5
2AA
100
AcDbEntity
  8
RACCORDO
100
AcDbEllipse
 62
7
  6
CONTINUOUS
 10
181.193679499
 20
69.4282152045
 30
0.0
 11
-5.0063346017
 21
8.670669287
 31
0.0
 40
0.5766289216
 41
-3.1764551
 42
-2.3568516818
  0
ELLIPSE
  5
2AB
100
AcDbEntity
  8
RACCORDO
100
AcDbEllipse
 62
7
  6
CONTINUOUS
 10
181.193679499
 20
117.5900080392
 30
0.0
 11
-5.0002424863
 21
8.6601140338
 31
0.0
 40
0.5780352736
 41
-2.355633942
 42
-0.7860555904
  0
ELLIPSE
  5
2AC
100
AcDbEntity
  8
RACCORDO
100
AcDbEllipse
 62
7
  6
CONTINUOUS
 10
97.056592796
 20
166.1697074162
 30
0.0
 11
-5.0063346017
 21
8.670669287
 31
0.0
 40
0.5766289216
 41
-0.7848373798
 42
0.0348624464
  0
ENDSEC
  0
SECTION
  2
OBJECTS
  0
DICTIONARY
  5
C
100
AcDbDictionary
280
0
281
1
  3
ACAD_GROUP
350
D
  3
ACAD_MLINESTYLE
350
17
  3
ACAD_LAYOUT
350
1A
  3
ACAD_PLOTSETTINGS
350
19
  3
ACAD_PLOTSTYLENAME
350
E
  0
DICTIONARY
  5
D
102
{ACAD_REACTORS
330
C
102
}
100
AcDbDictionary
280
0
281
1
  0
ACDBDICTIONARYWDFLT
  5
E
102
{ACAD_REACTORS
330
C
102
}
100
AcDbDictionary
281
1
  3
Normal
350
F
100
AcDbDictionaryWithDefault
340
F
  0
DICTIONARY
  5
17
102
{ACAD_REACTORS
330
C
102
}
100
AcDbDictionary
280
0
281
1
  3
Standard
350
18
  0
DICTIONARY
  5
19
102
{ACAD_REACTORS
330
C
102
}
100
AcDbDictionary
281
1
  0
DICTIONARY
  5
1A
102
{ACAD_REACTORS
330
C
102
}
100
AcDbDictionary
281
1
  3
Model
350
2AD
  3
Layout1
350
2AE
  0
ACDBPLACEHOLDER
  5
F
102
{ACAD_REACTORS
330
E
102
}
  0
MLINESTYLE
  5
18
102
{ACAD_REACTORS
330
17
102
}
100
AcDbMlineStyle
  2
STANDARD
 70
0
  3

 62
256
 51
90.0
 52
90.0
 71
2
 49
0.5
 62
256
  6
BYLAYER
 49
-0.5
 62
256
  6
BYLAYER
  0
LAYOUT
  5
2AD
102
{ACAD_REACTORS
330
1A
102
}
100
AcDbPlotSettings
  1

  2
none_device
  4
ISO_A4_(297.00_x_210.00_MM)
  6

 40
0.0
 41
0.0
 42
0.0
 43
0.0
 44
297.0
 45
210.0
 46
0.0
 47
0.0
 48
0.0
 49
0.0
140
0.0
141
0.0
142
1.0
143
1.0
 70
1024
 72
1
 73
0
 74
0
  7

 75
0
147
1.0
148
0.0
149
0.0
100
AcDbLayout
  1
Model
 70
0
 71
0
 10
0.0
 20
0.0
 11
297.0
 21
210.0
 12
0.0
 22
0.0
 32
0.0
 14
0.0
 24
0.0
 34
0.0
 15
0.0
 25
0.0
 35
0.0
146
0.0
 13
0.0
 23
0.0
 33
0.0
 16
1.0
 26
0.0
 36
0.0
 17
0.0
 27
1.0
 37
0.0
 76
0
330
215
345
0
346
0
  0
LAYOUT
  5
2AE
102
{ACAD_REACTORS
330
1A
102
}
100
AcDbPlotSettings
  1

  2
none_device
  4
ISO_A4_(297.00_x_210.00_MM)
  6

 40
0.0
 41
0.0
 42
0.0
 43
0.0
 44
297.0
 45
210.0
 46
0.0
 47
0.0
 48
0.0
 49
0.0
140
0.0
141
0.0
142
1.0
143
1.0
 70
0
 72
1
 73
0
 74
0
  7

 75
0
147
1.0
148
0.0
149
0.0
100
AcDbLayout
  1
Layout1
 70
0
 71
1
 10
0.0
 20
0.0
 11
297.0
 21
210.0
 12
0.0
 22
0.0
 32
0.0
 14
0.0
 24
0.0
 34
0.0
 15
0.0
 25
0.0
 35
0.0
146
0.0
 13
0.0
 23
0.0
 33
0.0
 16
1.0
 26
0.0
 36
0.0
 17
0.0
 27
1.0
 37
0.0
 76
0
330
216
345
0
346
0
  0
ENDSEC
  0
EOF
