0
SECTION
2
HEADER
9
$ACADVER
1
AC1014
9
$HANDSEED
5
       296
9
$EXTMAX
10
297.0000000000
20
210.0000000000
9
$EXTMIN
10
0.0000000000
20
0.0000000000
9
$LIMMIN
10
0.0000000000
20
0.0000000000
9
$LIMMAX
10
297.0000000000
20
210.0000000000
9
$VIEWCTR
10
148.5000000000
20
105.0000000000
9
$VIEWSIZE
40
210.0000000000
9
$CLAYER
8
0
9
$LTSCALE
40
16.3350000000
9
$CELTYPE
6
BYLAYER
9
$DIMSCALE
40
1
9
$DIMASZ
40
3.0000000000
9
$DIMEXO
40
1.8562500000
9
$DIMDLI
40
11.2860000000
9
$DIMEXE
40
5.3460000000
9
$DIMCEN
40
2.6730000000
9
$DIMLFAC
40
1.0000000000
9
$DIMTXT
40
3.0000000000
9
$DIMTOL
70
1
9
$DIMLIM
70
0
9
$DIMTFAC
40
1.0000000000
9
$DIMTP
40
0.0100000000
9
$DIMTM
40
0.0100000000
9
$MEASUREMENT
70
1
0
ENDSEC
0
SECTION
2
CLASSES
0
ENDSEC
0
SECTION
2
TABLES
0
TABLE
2
VPORT
5
8
100
AcDbSymbolTable
70
2
0
VPORT
5
1F4
100
AcDbSymbolTableRecord
100
AcDbViewportTableRecord
2
*ACTIVE
70
0
10
0.0
20
0.0
11
1.0
21
1.0
12
148.5000000000
22
105.0000000000
13
0.0
23
0.0
14
1.0
24
1.0
15
0.0
25
0.0
16
0.0
26
0.0
36
1.0
17
0.0
27
0.0
37
0.0
40
210.0000000000
41
1.4142857143
42
50.0
43
0.0
44
0.0
50
0.0
51
0.0
71
0
72
100
73
1
74
1
75
0
76
0
77
0
78
0
0
ENDTAB
0
TABLE
2
LTYPE
5
5
100
AcDbSymbolTable
70
6
0
LTYPE
5
14
100
AcDbSymbolTableRecord
100
AcDbLinetypeTableRecord
2
BYBLOCK
70
0
3

72
65
73
0
40
0.0
0
LTYPE
5
15
100
AcDbSymbolTableRecord
100
AcDbLinetypeTableRecord
2
BYLAYER
70
0
3

72
65
73
0
40
0.0
0
LTYPE
5
16
100
AcDbSymbolTableRecord
100
AcDbLinetypeTableRecord
2
CONTINUOUS
70
64
3
Solid line
72
65
73
0
40
0
0
LTYPE
5
1F5
100
AcDbSymbolTableRecord
100
AcDbLinetypeTableRecord
2
CENTER
70
64
3
____ _ ____ _ ____ _ ____ _ ____ _ ____ _ ____
72
65
73
4
40
0.6
49
0.375
74
0
49
-0.075
74
0
49
0.075
74
0
49
-0.075
74
0
0
LTYPE
5
1F6
100
AcDbSymbolTableRecord
100
AcDbLinetypeTableRecord
2
HIDDEN
70
64
3
- - - - - - - - - - - - - - - - - - - -
72
65
73
2
40
0.2
49
0.1
74
0
49
-0.1
74
0
0
LTYPE
5
1F7
100
AcDbSymbolTableRecord
100
AcDbLinetypeTableRecord
2
PHANTOM
70
64
3
_____ _ _ _____ _ _ _____ _ _ _____
72
65
73
6
40
0.8
49
0.45
74
0
49
-0.05
74
0
49
0.1
74
0
49
-0.05
74
0
49
0.1
74
0
49
-0.05
74
0
0
LTYPE
5
1F8
100
AcDbSymbolTableRecord
100
AcDbLinetypeTableRecord
2
DOT
70
64
3
. . . . . . . . . . . . . . . . . . . .
72
65
73
2
40
0.2
49
0.1
74
0
49
-0.1
74
0
0
LTYPE
5
1F9
100
AcDbSymbolTableRecord
100
AcDbLinetypeTableRecord
2
DASHED
70
64
3
- - - - - - - - - - - - - - - - - - - -
72
65
73
2
40
0.2
49
0.1
74
0
49
-0.1
74
0
0
ENDTAB
0
TABLE
2
LAYER
5
2
100
AcDbSymbolTable
70
36
0
LAYER
5
10
100
AcDbSymbolTableRecord
100
AcDbLayerTableRecord
2
0
70
0
62
7
6
CONTINUOUS
0
LAYER
5
1FA
100
AcDbSymbolTableRecord
100
AcDbLayerTableRecord
2
DEFAULT_1
70
0
62
7
6
CENTER
0
LAYER
5
1FB
100
AcDbSymbolTableRecord
100
AcDbLayerTableRecord
2
DEFAULT_2
70
0
62
8
6
HIDDEN
0
LAYER
5
1FC
100
AcDbSymbolTableRecord
100
AcDbLayerTableRecord
2
DEFAULT_3
70
0
62
7
6
PHANTOM
0
LAYER
5
1FD
100
AcDbSymbolTableRecord
100
AcDbLayerTableRecord
2
_BLACK_HOLE
70
0
62
7
6
CONTINUOUS
0
LAYER
5
1FE
100
AcDbSymbolTableRecord
100
AcDbLayerTableRecord
2
ASSI
70
0
62
7
6
CONTINUOUS
0
LAYER
5
1FF
100
AcDbSymbolTableRecord
100
AcDbLayerTableRecord
2
COLOR5
70
0
62
7
6
CONTINUOUS
0
LAYER
5
200
100
AcDbSymbolTableRecord
100
AcDbLayerTableRecord
2
COORDINATE
70
0
62
7
6
CONTINUOUS
0
LAYER
5
201
100
AcDbSymbolTableRecord
100
AcDbLayerTableRecord
2
COORD_ORIGINE
70
0
62
7
6
CONTINUOUS
0
LAYER
5
202
100
AcDbSymbolTableRecord
100
AcDbLayerTableRecord
2
CURVE
70
0
62
7
6
CONTINUOUS
0
LAYER
5
203
100
AcDbSymbolTableRecord
100
AcDbLayerTableRecord
2
DRAFT
70
0
62
7
6
CONTINUOUS
0
LAYER
5
204
100
AcDbSymbolTableRecord
100
AcDbLayerTableRecord
2
IMP_IGES_SCRITTE
70
0
62
7
6
CONTINUOUS
0
LAYER
5
205
100
AcDbSymbolTableRecord
100
AcDbLayerTableRecord
2
NOTE
70
0
62
7
6
CONTINUOUS
0
LAYER
5
206
100
AcDbSymbolTableRecord
100
AcDbLayerTableRecord
2
PIANI
70
0
62
7
6
CONTINUOUS
0
LAYER
5
207
100
AcDbSymbolTableRecord
100
AcDbLayerTableRecord
2
PIANI_ORIGINE
70
0
62
7
6
CONTINUOUS
0
LAYER
5
208
100
AcDbSymbolTableRecord
100
AcDbLayerTableRecord
2
PUNTI
70
0
62
7
6
CONTINUOUS
0
LAYER
5
209
100
AcDbSymbolTableRecord
100
AcDbLayerTableRecord
2
RACCORDO
70
0
62
7
6
CONTINUOUS
0
LAYER
5
20A
100
AcDbSymbolTableRecord
100
AcDbLayerTableRecord
2
SUPERFICI
70
0
62
7
6
CONTINUOUS
0
LAYER
5
20B
100
AcDbSymbolTableRecord
100
AcDbLayerTableRecord
2
TRASH
70
0
62
7
6
CONTINUOUS
0
LAYER
5
20C
100
AcDbSymbolTableRecord
100
AcDbLayerTableRecord
2
XSEC_DATUMS
70
0
62
7
6
CONTINUOUS
0
ENDTAB
0
TABLE
2
STYLE
5
3
100
AcDbSymbolTable
70
1
0
STYLE
5
11
100
AcDbSymbolTableRecord
100
AcDbTextStyleTableRecord
2
STANDARD
70
0
40
0.0
41
0.8000000000
50
0.0
71
0
42
0.2
3
txt
4

0
ENDTAB
0
TABLE
2
VIEW
5
6
100
AcDbSymbolTable
70
0
0
ENDTAB
0
TABLE
2
UCS
5
7
100
AcDbSymbolTable
70
0
0
ENDTAB
0
TABLE
2
APPID
5
9
100
AcDbSymbolTable
70
1
0
APPID
5
20D
100
AcDbSymbolTableRecord
100
AcDbRegAppTableRecord
2
ACAD
70
0
0
ENDTAB
0
TABLE
2
DIMSTYLE
5
A
100
AcDbSymbolTable
70
1
0
DIMSTYLE
105
20E
100
AcDbSymbolTableRecord
100
AcDbDimStyleTableRecord
2
STANDARD
70
0
3

4

5

6

7

40
1.0
41
3.0000000000
42
0.0625
43
0.38
44
0.18
45
0.0
46
0.0
47
0.0100000000
48
0.0100000000
140
3.0000000000
141
0.09
142
0.0
143
25.4
144
1.0000000000
145
0.0
146
1.0000000000
147
0.09
71
1
72
0
73
0
74
0
75
0
76
0
77
1
78
8
170
0
171
2
172
0
173
0
174
0
175
0
176
0
177
0
178
0
270
2
271
2
272
2
273
2
274
2
340
11
275
0
280
0
281
0
282
0
283
1
284
8
285
0
286
0
287
3
288
0
0
ENDTAB
0
TABLE
2
BLOCK_RECORD
5
1
100
AcDbSymbolTable
70
0
0
BLOCK_RECORD
5
1B
100
AcDbSymbolTableRecord
100
AcDbBlockTableRecord
2
*MODEL_SPACE
0
BLOCK_RECORD
5
1C
100
AcDbSymbolTableRecord
100
AcDbBlockTableRecord
2
*PAPER_SPACE
0
ENDTAB
0
ENDSEC
0
SECTION
2
BLOCKS
0
BLOCK
5
1E
100
AcDbEntity
8
0
100
AcDbBlockBegin
2
*MODEL_SPACE
70
0
10
0.0
20
0.0
30
0.0
3
*MODEL_SPACE
1

0
ENDBLK
5
1F
100
AcDbEntity
8
0
100
AcDbBlockEnd
0
BLOCK
5
20
100
AcDbEntity
8
0
100
AcDbBlockBegin
2
*PAPER_SPACE
70
0
10
0.0
20
0.0
30
0.0
3
*PAPER_SPACE
1

0
ENDBLK
5
21
100
AcDbEntity
8
0
100
AcDbBlockEnd
0
ENDSEC
0
SECTION
2
ENTITIES
0
LINE
5
20F
100
AcDbEntity
8
0
100
AcDbLine
62
7
6
CONTINUOUS
10
15.9940599847
20
-24.5915524052
11
15.3825151871
21
-24.7291686503
0
LINE
5
210
100
AcDbEntity
8
0
100
AcDbLine
62
9
6
CONTINUOUS
10
17.0721261350
20
-22.4218892434
11
16.4605813373
21
-22.5595054884
0
LINE
5
211
100
AcDbEntity
8
0
100
AcDbLine
62
7
6
CONTINUOUS
10
-20.2407755432
20
-9.4895923873
11
14.4929797134
21
-24.6325318682
0
LINE
5
212
100
AcDbEntity
8
0
100
AcDbLine
62
9
6
CONTINUOUS
10
-20.4902257371
20
-9.0496827971
11
14.2435295196
21
-24.1926222781
0
LINE
5
213
100
AcDbEntity
8
0
100
AcDbLine
62
9
6
CONTINUOUS
10
12.3074966059
20
-10.9798608187
11
12.3077352846
21
-10.9798122273
0
LINE
5
214
100
AcDbEntity
8
0
100
AcDbLine
62
7
6
CONTINUOUS
10
-22.1755340421
20
39.2623580666
11
-21.9992073510
21
-6.0560359412
0
LINE
5
215
100
AcDbEntity
8
0
100
AcDbLine
62
9
6
CONTINUOUS
10
-22.0647744217
20
39.1545995578
11
-21.8884477306
21
-6.1637944502
0
LINE
5
216
100
AcDbEntity
8
0
100
AcDbLine
62
9
6
CONTINUOUS
10
-18.9529923076
20
2.6487624233
11
-18.9526444404
21
2.6488333068
0
LINE
5
217
100
AcDbEntity
8
0
100
AcDbLine
62
9
6
CONTINUOUS
10
12.2020349980
20
16.0971447568
11
12.2023828652
21
16.0972156403
0
LINE
5
218
100
AcDbEntity
8
0
100
AcDbLine
62
9
6
CONTINUOUS
10
16.8957994439
20
22.8965047646
11
16.2842546462
21
22.7588885196
0
LINE
5
219
100
AcDbEntity
8
0
100
AcDbLine
62
9
6
CONTINUOUS
10
15.1480219520
20
26.5038651983
11
14.5364771544
21
26.3662489532
0
LINE
5
21A
100
AcDbEntity
8
0
100
AcDbLine
62
9
6
CONTINUOUS
10
15.6240079467
20
-22.5181690896
11
15.4476812555
21
22.8002249184
0
LINE
5
21B
100
AcDbEntity
8
0
100
AcDbLine
62
9
6
CONTINUOUS
10
16.4605813373
20
-22.5595054884
11
16.2842546462
21
22.7588885196
0
LINE
5
21C
100
AcDbEntity
8
0
100
AcDbLine
62
7
6
CONTINUOUS
10
17.0721261350
20
-22.4218892434
11
16.8957994439
21
22.8965047646
0
LINE
5
21D
100
AcDbEntity
8
0
100
AcDbLine
62
9
6
CONTINUOUS
10
14.0494592621
20
25.6861132653
11
-20.6842959947
21
40.8290527463
0
LINE
5
21E
100
AcDbEntity
8
0
100
AcDbLine
62
9
6
CONTINUOUS
10
14.5364771544
20
26.3662489532
11
-20.1972781024
21
41.5091884342
0
LINE
5
21F
100
AcDbEntity
8
0
100
AcDbLine
62
7
6
CONTINUOUS
10
15.1480219520
20
26.5038651983
11
-19.5857333047
21
41.6468046792
0
LINE
5
220
100
AcDbEntity
8
0
100
AcDbLine
62
9
6
CONTINUOUS
10
-19.0582355506
20
29.7258125806
11
-19.0579968720
21
29.7258611720
0
LINE
5
221
100
AcDbEntity
8
0
100
AcDbLine
62
9
6
CONTINUOUS
10
-19.5857333047
20
41.6468046792
11
-20.1972781024
21
41.5091884342
0
LINE
5
222
100
AcDbEntity
8
0
100
AcDbLine
62
7
6
CONTINUOUS
10
-20.2332651883
20
41.7234013555
11
-20.8448099859
21
41.5857851105
0
LINE
5
223
100
AcDbEntity
8
0
100
AcDbLine
62
9
6
CONTINUOUS
10
-20.8420962602
20
41.5863914001
11
-20.8443793738
21
41.5858819010
0
SPLINE
5
224
100
AcDbEntity
8
0
100
AcDbSpline
62
7
6
CONTINUOUS
70
0
71
3
72
13
73
9
74
7
42
0.0000001000
43
0.0000001000
44
0.0000000001
12
-0.0162883979
22
4.1863431513
32
0.0000000000
13
-3.8375283140
23
1.6730543123
33
0.0000000000
40
0.0000000000
40
0.0000000000
40
0.0000000000
40
0.0000000000
40
0.1829758986
40
0.3700420791
40
0.5523408737
40
0.7216609744
40
0.8717472646
40
1.0000000000
40
1.0000000000
40
1.0000000000
40
1.0000000000
10
16.8957994439
20
22.8965047646
30
0.0000000000
10
16.8948059824
20
23.1518380646
30
0.0000000000
10
16.8510543998
20
23.6686672321
30
0.0000000000
10
16.6771752493
20
24.4220327194
30
0.0000000000
10
16.4047259472
20
25.1255837753
30
0.0000000000
10
16.0508234035
20
25.7337984853
30
0.0000000000
10
15.6382679082
20
26.2082657014
30
0.0000000000
10
15.3120797865
20
26.4323406009
30
0.0000000000
10
15.1480219520
20
26.5038651983
30
0.0000000000
11
16.8957994439
21
22.8965047646
31
0.0000000000
11
16.8337530103
21
23.6599934481
31
0.0000000000
11
16.6575825376
21
24.4230499545
31
0.0000000000
11
16.3792937524
21
25.1336732441
31
0.0000000000
11
16.0178515754
21
25.7434355138
31
0.0000000000
11
15.5978876938
21
26.2107824729
31
0.0000000000
11
15.1480219520
21
26.5038651983
31
0.0000000000
0
SPLINE
5
225
100
AcDbEntity
8
0
100
AcDbSpline
62
7
6
CONTINUOUS
70
0
71
3
72
9
73
5
74
3
42
0.0000001000
43
0.0000001000
44
0.0000000001
12
-0.6030710544
22
0.2629220023
32
0.0000000000
13
-0.6482095806
23
-0.1464444885
33
0.0000000000
40
0.0000000000
40
0.0000000000
40
0.0000000000
40
0.0000000000
40
0.6989877804
40
1.0000000000
40
1.0000000000
40
1.0000000000
40
1.0000000000
10
-19.5857333047
20
41.6468046792
30
0.0000000000
10
-19.7262464040
20
41.7080644348
30
0.0000000000
10
-19.9467283251
20
41.7633552168
30
0.0000000000
10
-20.1679645864
20
41.7373712620
30
0.0000000000
10
-20.2330042546
20
41.7226774019
30
0.0000000000
11
-19.5857333047
21
41.6468046792
31
0.0000000000
11
-20.0348432998
21
41.7456500675
31
0.0000000000
11
-20.2330042546
21
41.7226774019
31
0.0000000000
0
SPLINE
5
226
100
AcDbEntity
8
0
100
AcDbSpline
62
7
6
CONTINUOUS
70
0
71
3
72
11
73
7
74
5
42
0.0000001000
43
0.0000001000
44
0.0000000001
12
0.6575152910
22
0.1624575126
32
0.0000000000
13
0.0805501445
23
0.6737115629
33
0.0000000000
40
0.0000000000
40
0.0000000000
40
0.0000000000
40
0.0000000000
40
0.2377946887
40
0.5189352227
40
0.8685948602
40
1.0000000000
40
1.0000000000
40
1.0000000000
40
1.0000000000
10
-18.5912322790
20
27.6516331283
30
0.0000000000
10
-18.5391143977
20
27.6645103062
30
0.0000000000
10
-18.4349168042
20
27.7317408391
30
0.0000000000
10
-18.3309364871
20
27.9019672353
30
0.0000000000
10
-18.2827635014
20
28.0686603737
30
0.0000000000
10
-18.2663644780
20
28.1762871653
30
0.0000000000
10
-18.2628362436
20
28.2057968860
30
0.0000000000
11
-18.5912322790
21
27.6516331283
31
0.0000000000
11
-18.4524552522
21
27.7333631688
31
0.0000000000
11
-18.3462195979
21
27.8913856967
31
0.0000000000
11
-18.2763684049
21
28.1176700865
31
0.0000000000
11
-18.2628362436
21
28.2057968860
31
0.0000000000
0
SPLINE
5
227
100
AcDbEntity
8
0
100
AcDbSpline
62
7
6
CONTINUOUS
70
0
71
3
72
8
73
4
74
2
42
0.0000001000
43
0.0000001000
44
0.0000000001
12
0.0207922419
22
0.1739037696
32
0.0000000000
13
0.0009005856
23
0.1748917223
33
0.0000000000
40
0.0000000000
40
0.0000000000
40
0.0000000000
40
0.0000000000
40
1.0000000000
40
1.0000000000
40
1.0000000000
40
1.0000000000
10
-18.2628362436
20
28.2057968860
30
0.0000000000
10
-18.2559054963
20
28.2637648092
30
0.0000000000
10
-18.2526453240
20
28.3221608552
30
0.0000000000
10
-18.2523451288
20
28.3804580960
30
0.0000000000
11
-18.2628362436
21
28.2057968860
31
0.0000000000
11
-18.2523451288
21
28.3804580960
31
0.0000000000
0
SPLINE
5
228
100
AcDbEntity
8
0
100
AcDbSpline
62
7
6
CONTINUOUS
70
0
71
3
72
8
73
4
74
2
42
0.0000001000
43
0.0000001000
44
0.0000000001
12
0.0000810363
22
0.0157370750
32
0.0000000000
13
-0.0000612073
23
0.0157311233
33
0.0000000000
40
0.0000000000
40
0.0000000000
40
0.0000000000
40
0.0000000000
40
1.0000000000
40
1.0000000000
40
1.0000000000
40
1.0000000000
10
-18.2523451288
20
28.3804580960
30
0.0000000000
10
-18.2523181167
20
28.3857037877
30
0.0000000000
10
-18.2523150708
20
28.3909486794
30
0.0000000000
10
-18.2523354732
20
28.3961923871
30
0.0000000000
11
-18.2523451288
21
28.3804580960
31
0.0000000000
11
-18.2523354732
21
28.3961923871
31
0.0000000000
0
SPLINE
5
229
100
AcDbEntity
8
0
100
AcDbSpline
62
7
6
CONTINUOUS
70
0
71
3
72
8
73
4
74
2
42
0.0000001000
43
0.0000001000
44
0.0000000001
12
-0.0003715505
22
0.0954936261
32
0.0000000000
13
-0.0055065593
23
0.0954145447
33
0.0000000000
40
0.0000000000
40
0.0000000000
40
0.0000000000
40
0.0000000000
40
1.0000000000
40
1.0000000000
40
1.0000000000
40
1.0000000000
10
-18.2523354732
20
28.3961923869
30
0.0000000000
10
-18.2524593234
20
28.4280235956
30
0.0000000000
10
-18.2534601330
20
28.4598642812
30
0.0000000000
10
-18.2552956528
20
28.4916691294
30
0.0000000000
11
-18.2523354732
21
28.3961923869
31
0.0000000000
11
-18.2552956528
21
28.4916691294
31
0.0000000000
0
SPLINE
5
22A
100
AcDbEntity
8
0
100
AcDbSpline
62
7
6
CONTINUOUS
70
0
71
3
72
10
73
6
74
4
42
0.0000001000
43
0.0000001000
44
0.0000000001
12
-0.0452561769
22
0.7841734356
32
0.0000000000
13
-0.3560186716
23
0.7006997190
33
0.0000000000
40
0.0000000000
40
0.0000000000
40
0.0000000000
40
0.0000000000
40
0.2503622990
40
0.6320603452
40
1.0000000000
40
1.0000000000
40
1.0000000000
40
1.0000000000
10
-18.2552956528
20
28.4916691294
30
0.0000000000
10
-18.2590724663
20
28.5571116175
30
0.0000000000
10
-18.2775292631
20
28.7219435417
30
0.0000000000
10
-18.3386548817
20
28.9772179827
30
0.0000000000
10
-18.4123614915
20
29.1598003635
30
0.0000000000
10
-18.4560259539
20
29.2457387678
30
0.0000000000
11
-18.2552956528
21
28.4916691294
31
0.0000000000
11
-18.2768600841
21
28.6871466435
31
0.0000000000
11
-18.3467252433
21
28.9784535876
31
0.0000000000
11
-18.4560259539
21
29.2457387678
31
0.0000000000
0
SPLINE
5
22B
100
AcDbEntity
8
0
100
AcDbSpline
62
7
6
CONTINUOUS
70
0
71
3
72
11
73
7
74
5
42
0.0000001000
43
0.0000001000
44
0.0000000001
12
-0.3698859937
22
0.7279927503
32
0.0000000000
13
-0.7990709307
23
-0.1623627481
33
0.0000000000
40
0.0000000000
40
0.0000000000
40
0.0000000000
40
0.0000000000
40
0.3202316636
40
0.5915793755
40
0.8117953136
40
1.0000000000
40
1.0000000000
40
1.0000000000
40
1.0000000000
10
-18.4560259539
20
29.2457387678
30
0.0000000000
10
-18.4955090229
20
29.3234475443
30
0.0000000000
10
-18.5797577610
20
29.4614482549
30
0.0000000000
10
-18.7316997613
20
29.6240142405
30
0.0000000000
10
-18.8915882394
20
29.7227080412
30
0.0000000000
10
-19.0078672663
20
29.7360469768
30
0.0000000000
10
-19.0579968976
20
29.7258611668
30
0.0000000000
11
-18.4560259539
21
29.2457387678
31
0.0000000000
11
-18.5944775489
21
29.4671277267
31
0.0000000000
11
-18.7484660841
21
29.6260052639
31
0.0000000000
11
-18.9049944165
21
29.7139943658
31
0.0000000000
11
-19.0579968976
21
29.7258611668
31
0.0000000000
0
SPLINE
5
22C
100
AcDbEntity
8
0
100
AcDbSpline
62
7
6
CONTINUOUS
70
0
71
3
72
8
73
4
74
2
42
0.0000001000
43
0.0000001000
44
0.0000000001
12
0.0003776764
22
-0.0970680522
32
0.0000000000
13
-0.0053440743
23
-0.0970676116
33
0.0000000000
40
0.0000000000
40
0.0000000000
40
0.0000000000
40
0.0000000000
40
1.0000000000
40
1.0000000000
40
1.0000000000
40
1.0000000000
10
13.0080442579
20
14.7675468546
30
0.0000000000
10
13.0081701500
20
14.7351908372
30
0.0000000000
10
13.0074032008
20
14.7027898264
30
0.0000000000
10
13.0056218427
20
14.6704339558
30
0.0000000000
11
13.0080442579
21
14.7675468546
31
0.0000000000
11
13.0056218427
21
14.6704339558
31
0.0000000000
0
SPLINE
5
22D
100
AcDbEntity
8
0
100
AcDbSpline
62
7
6
CONTINUOUS
70
0
71
3
72
8
73
4
74
2
42
0.0000001000
43
0.0000001000
44
0.0000000001
12
-0.0051354185
22
-0.0932776717
32
0.0000000000
13
-0.0110794974
23
-0.0927876180
33
0.0000000000
40
0.0000000000
40
0.0000000000
40
0.0000000000
40
0.0000000000
40
1.0000000000
40
1.0000000000
40
1.0000000000
40
1.0000000000
10
13.0056218427
20
14.6704339558
30
0.0000000000
10
13.0039100365
20
14.6393413986
30
0.0000000000
10
13.0012614889
20
14.6082905256
30
0.0000000000
10
12.9975683231
20
14.5773613196
30
0.0000000000
11
13.0056218427
21
14.6704339558
31
0.0000000000
11
12.9975683231
21
14.5773613196
31
0.0000000000
0
SPLINE
5
22E
100
AcDbEntity
8
0
100
AcDbSpline
62
7
6
CONTINUOUS
70
0
71
3
72
11
73
7
74
5
42
0.0000001000
43
0.0000001000
44
0.0000000001
12
-0.0804719789
22
-0.6739297765
32
0.0000000000
13
-0.6577186613
23
-0.1625077624
33
0.0000000000
40
0.0000000000
40
0.0000000000
40
0.0000000000
40
0.0000000000
40
0.1313072363
40
0.4809978322
40
0.7622586108
40
1.0000000000
40
1.0000000000
40
1.0000000000
40
1.0000000000
10
12.9975683231
20
14.5773613196
30
0.0000000000
10
12.9940461387
20
14.5478640341
30
0.0000000000
10
12.9776633806
20
14.4402164859
30
0.0000000000
10
12.9295062828
20
14.2734512722
30
0.0000000000
10
12.8255112834
20
14.1031296111
30
0.0000000000
10
12.7212697675
20
14.0358658690
30
0.0000000000
10
12.6691474514
20
14.0229875952
30
0.0000000000
11
12.9975683231
21
14.5773613196
31
0.0000000000
11
12.9840577960
21
14.4892708305
31
0.0000000000
11
12.9142256725
21
14.2628819494
31
0.0000000000
11
12.8079345082
21
14.1047276114
31
0.0000000000
11
12.6691474514
21
14.0229875952
31
0.0000000000
0
SPLINE
5
22F
100
AcDbEntity
8
0
100
AcDbSpline
62
7
6
CONTINUOUS
70
0
71
3
72
11
73
7
74
5
42
0.0000001000
43
0.0000001000
44
0.0000000001
12
0.7972974027
22
0.1620023842
32
0.0000000000
13
0.3698781665
23
-0.7259664781
33
0.0000000000
40
0.0000000000
40
0.0000000000
40
0.0000000000
40
0.0000000000
40
0.1882977506
40
0.4083534268
40
0.6794965561
40
1.0000000000
40
1.0000000000
40
1.0000000000
40
1.0000000000
10
12.2023828329
20
16.0972156338
30
0.0000000000
10
12.2524259354
20
16.1073838620
30
0.0000000000
10
12.3684199527
20
16.0941444245
30
0.0000000000
10
12.5279948979
20
15.9958936920
30
0.0000000000
10
12.6797810976
20
15.8338927967
30
0.0000000000
10
12.7640101286
20
15.6962774815
30
0.0000000000
10
12.8035258707
20
15.6187192294
30
0.0000000000
11
12.2023828329
21
16.0972156338
31
0.0000000000
11
12.3551262606
21
16.0854345311
31
0.0000000000
11
12.5112805541
21
15.9978596220
31
0.0000000000
11
12.6650046285
21
15.8396416733
31
0.0000000000
11
12.8035258707
21
15.6187192294
31
0.0000000000
0
SPLINE
5
230
100
AcDbEntity
8
0
100
AcDbSpline
62
7
6
CONTINUOUS
70
0
71
3
72
10
73
6
74
4
42
0.0000001000
43
0.0000001000
44
0.0000000001
12
0.3574798506
22
-0.7016320821
32
0.0000000000
13
0.0454830224
23
-0.7856567689
33
0.0000000000
40
0.0000000000
40
0.0000000000
40
0.0000000000
40
0.0000000000
40
0.3674584914
40
0.7493335025
40
1.0000000000
40
1.0000000000
40
1.0000000000
40
1.0000000000
10
12.8035258707
20
15.6187192294
30
0.0000000000
10
12.8473122062
20
15.5327790073
30
0.0000000000
10
12.9212985425
20
15.3499902054
30
0.0000000000
10
12.9827028122
20
15.0942664192
30
0.0000000000
10
13.0012647929
20
14.9289993133
30
0.0000000000
10
13.0050651496
20
14.8633533699
30
0.0000000000
11
12.8035258707
21
15.6187192294
31
0.0000000000
11
12.9131481049
21
15.3513826600
31
0.0000000000
11
12.9833685276
21
15.0594335478
31
0.0000000000
11
13.0050651496
21
14.8633533699
31
0.0000000000
0
SPLINE
5
231
100
AcDbEntity
8
0
100
AcDbSpline
62
7
6
CONTINUOUS
70
0
71
3
72
8
73
4
74
2
42
0.0000001000
43
0.0000001000
44
0.0000000001
12
0.0055427679
22
-0.0957437059
32
0.0000000000
13
0.0003728343
23
-0.0958235607
33
0.0000000000
40
0.0000000000
40
0.0000000000
40
0.0000000000
40
0.0000000000
40
1.0000000000
40
1.0000000000
40
1.0000000000
40
1.0000000000
10
13.0050651496
20
14.8633533699
30
0.0000000000
10
13.0069127389
20
14.8314388012
30
0.0000000000
10
13.0079199798
20
14.7994880411
30
0.0000000000
10
13.0080442579
20
14.7675468542
30
0.0000000000
11
13.0050651496
21
14.8633533699
31
0.0000000000
11
13.0080442579
21
14.7675468542
31
0.0000000000
0
SPLINE
5
232
100
AcDbEntity
8
0
100
AcDbSpline
62
7
6
CONTINUOUS
70
0
71
3
72
11
73
7
74
5
42
0.0000001000
43
0.0000001000
44
0.0000000001
12
0.6575152910
22
0.1624575126
32
0.0000000000
13
0.0805501445
23
0.6737115629
33
0.0000000000
40
0.0000000000
40
0.0000000000
40
0.0000000000
40
0.0000000000
40
0.2377946887
40
0.5189352227
40
0.8685948602
40
1.0000000000
40
1.0000000000
40
1.0000000000
40
1.0000000000
10
12.7744998776
20
-13.0540402710
30
0.0000000000
10
12.8266177589
20
-13.0411630931
30
0.0000000000
10
12.9308153523
20
-12.9739325602
30
0.0000000000
10
13.0347956694
20
-12.8037061640
30
0.0000000000
10
13.0829686552
20
-12.6370130256
30
0.0000000000
10
13.0993676786
20
-12.5293862340
30
0.0000000000
10
13.1028959129
20
-12.4998765133
30
0.0000000000
11
12.7744998776
21
-13.0540402710
31
0.0000000000
11
12.9132769044
21
-12.9723102305
31
0.0000000000
11
13.0195125587
21
-12.8142877026
31
0.0000000000
11
13.0893637517
21
-12.5880033128
31
0.0000000000
11
13.1028959129
21
-12.4998765133
31
0.0000000000
0
SPLINE
5
233
100
AcDbEntity
8
0
100
AcDbSpline
62
7
6
CONTINUOUS
70
0
71
3
72
8
73
4
74
2
42
0.0000001000
43
0.0000001000
44
0.0000000001
12
0.0207922419
22
0.1739037696
32
0.0000000000
13
0.0009005856
23
0.1748917223
33
0.0000000000
40
0.0000000000
40
0.0000000000
40
0.0000000000
40
0.0000000000
40
1.0000000000
40
1.0000000000
40
1.0000000000
40
1.0000000000
10
13.1028959129
20
-12.4998765133
30
0.0000000000
10
13.1098266602
20
-12.4419085901
30
0.0000000000
10
13.1130868325
20
-12.3835125441
30
0.0000000000
10
13.1133870277
20
-12.3252153033
30
0.0000000000
11
13.1028959129
21
-12.4998765133
31
0.0000000000
11
13.1133870277
21
-12.3252153033
31
0.0000000000
0
SPLINE
5
234
100
AcDbEntity
8
0
100
AcDbSpline
62
7
6
CONTINUOUS
70
0
71
3
72
8
73
4
74
2
42
0.0000001000
43
0.0000001000
44
0.0000000001
12
0.0000810363
22
0.0157370750
32
0.0000000000
13
-0.0000612073
23
0.0157311233
33
0.0000000000
40
0.0000000000
40
0.0000000000
40
0.0000000000
40
0.0000000000
40
1.0000000000
40
1.0000000000
40
1.0000000000
40
1.0000000000
10
13.1133870277
20
-12.3252153033
30
0.0000000000
10
13.1134140398
20
-12.3199696116
30
0.0000000000
10
13.1134170858
20
-12.3147247199
30
0.0000000000
10
13.1133966834
20
-12.3094810122
30
0.0000000000
11
13.1133870277
21
-12.3252153033
31
0.0000000000
11
13.1133966834
21
-12.3094810122
31
0.0000000000
0
SPLINE
5
235
100
AcDbEntity
8
0
100
AcDbSpline
62
7
6
CONTINUOUS
70
0
71
3
72
8
73
4
74
2
42
0.0000001000
43
0.0000001000
44
0.0000000001
12
-0.0003715505
22
0.0954936261
32
0.0000000000
13
-0.0055065593
23
0.0954145447
33
0.0000000000
40
0.0000000000
40
0.0000000000
40
0.0000000000
40
0.0000000000
40
1.0000000000
40
1.0000000000
40
1.0000000000
40
1.0000000000
10
13.1133966834
20
-12.3094810124
30
0.0000000000
10
13.1132728332
20
-12.2776498037
30
0.0000000000
10
13.1122720236
20
-12.2458091181
30
0.0000000000
10
13.1104365038
20
-12.2140042699
30
0.0000000000
11
13.1133966834
21
-12.3094810124
31
0.0000000000
11
13.1104365038
21
-12.2140042699
31
0.0000000000
0
SPLINE
5
236
100
AcDbEntity
8
0
100
AcDbSpline
62
7
6
CONTINUOUS
70
0
71
3
72
10
73
6
74
4
42
0.0000001000
43
0.0000001000
44
0.0000000001
12
-0.0452561769
22
0.7841734356
32
0.0000000000
13
-0.3560186716
23
0.7006997190
33
0.0000000000
40
0.0000000000
40
0.0000000000
40
0.0000000000
40
0.0000000000
40
0.2503622990
40
0.6320603452
40
1.0000000000
40
1.0000000000
40
1.0000000000
40
1.0000000000
10
13.1104365038
20
-12.2140042699
30
0.0000000000
10
13.1066596903
20
-12.1485617818
30
0.0000000000
10
13.0882028935
20
-11.9837298576
30
0.0000000000
10
13.0270772749
20
-11.7284554166
30
0.0000000000
10
12.9533706651
20
-11.5458730358
30
0.0000000000
10
12.9097062027
20
-11.4599346315
30
0.0000000000
11
13.1104365038
21
-12.2140042699
31
0.0000000000
11
13.0888720725
21
-12.0185267558
31
0.0000000000
11
13.0190069132
21
-11.7272198117
31
0.0000000000
11
12.9097062027
21
-11.4599346315
31
0.0000000000
0
SPLINE
5
237
100
AcDbEntity
8
0
100
AcDbSpline
62
7
6
CONTINUOUS
70
0
71
3
72
11
73
7
74
5
42
0.0000001000
43
0.0000001000
44
0.0000000001
12
-0.3698859937
22
0.7279927503
32
0.0000000000
13
-0.7990709307
23
-0.1623627481
33
0.0000000000
40
0.0000000000
40
0.0000000000
40
0.0000000000
40
0.0000000000
40
0.3202316636
40
0.5915793755
40
0.8117953136
40
1.0000000000
40
1.0000000000
40
1.0000000000
40
1.0000000000
10
12.9097062027
20
-11.4599346315
30
0.0000000000
10
12.8702231337
20
-11.3822258550
30
0.0000000000
10
12.7859743956
20
-11.2442251444
30
0.0000000000
10
12.6340323953
20
-11.0816591588
30
0.0000000000
10
12.4741439172
20
-10.9829653581
30
0.0000000000
10
12.3578648903
20
-10.9696264225
30
0.0000000000
10
12.3077352589
20
-10.9798122325
30
0.0000000000
11
12.9097062027
21
-11.4599346315
31
0.0000000000
11
12.7712546077
21
-11.2385456726
31
0.0000000000
11
12.6172660724
21
-11.0796681354
31
0.0000000000
11
12.4607377401
21
-10.9916790335
31
0.0000000000
11
12.3077352589
21
-10.9798122325
31
0.0000000000
0
SPLINE
5
238
100
AcDbEntity
8
0
100
AcDbSpline
62
7
6
CONTINUOUS
70
0
71
3
72
8
73
4
74
2
42
0.0000001000
43
0.0000001000
44
0.0000000001
12
0.0003776764
22
-0.0970680522
32
0.0000000000
13
-0.0053440743
23
-0.0970676116
33
0.0000000000
40
0.0000000000
40
0.0000000000
40
0.0000000000
40
0.0000000000
40
1.0000000000
40
1.0000000000
40
1.0000000000
40
1.0000000000
10
-18.1469830477
20
1.3191645210
30
0.0000000000
10
-18.1468571555
20
1.2868085037
30
0.0000000000
10
-18.1476241048
20
1.2544074929
30
0.0000000000
10
-18.1494054629
20
1.2220516223
30
0.0000000000
11
-18.1469830477
21
1.3191645210
31
0.0000000000
11
-18.1494054629
21
1.2220516223
31
0.0000000000
0
SPLINE
5
239
100
AcDbEntity
8
0
100
AcDbSpline
62
7
6
CONTINUOUS
70
0
71
3
72
8
73
4
74
2
42
0.0000001000
43
0.0000001000
44
0.0000000001
12
-0.0051354185
22
-0.0932776717
32
0.0000000000
13
-0.0110794974
23
-0.0927876180
33
0.0000000000
40
0.0000000000
40
0.0000000000
40
0.0000000000
40
0.0000000000
40
1.0000000000
40
1.0000000000
40
1.0000000000
40
1.0000000000
10
-18.1494054629
20
1.2220516223
30
0.0000000000
10
-18.1511172690
20
1.1909590651
30
0.0000000000
10
-18.1537658167
20
1.1599081920
30
0.0000000000
10
-18.1574589825
20
1.1289789861
30
0.0000000000
11
-18.1494054629
21
1.2220516223
31
0.0000000000
11
-18.1574589825
21
1.1289789861
31
0.0000000000
0
SPLINE
5
23A
100
AcDbEntity
8
0
100
AcDbSpline
62
7
6
CONTINUOUS
70
0
71
3
72
11
73
7
74
5
42
0.0000001000
43
0.0000001000
44
0.0000000001
12
-0.0804719789
22
-0.6739297765
32
0.0000000000
13
-0.6577186613
23
-0.1625077624
33
0.0000000000
40
0.0000000000
40
0.0000000000
40
0.0000000000
40
0.0000000000
40
0.1313072363
40
0.4809978322
40
0.7622586108
40
1.0000000000
40
1.0000000000
40
1.0000000000
40
1.0000000000
10
-18.1574589825
20
1.1289789861
30
0.0000000000
10
-18.1609811669
20
1.0994817006
30
0.0000000000
10
-18.1773639249
20
0.9918341524
30
0.0000000000
10
-18.2255210227
20
0.8250689387
30
0.0000000000
10
-18.3295160222
20
0.6547472776
30
0.0000000000
10
-18.4337575381
20
0.5874835354
30
0.0000000000
10
-18.4858798541
20
0.5746052617
30
0.0000000000
11
-18.1574589825
21
1.1289789861
31
0.0000000000
11
-18.1709695095
21
1.0408884969
31
0.0000000000
11
-18.2408016330
21
0.8144996159
31
0.0000000000
11
-18.3470927973
21
0.6563452779
31
0.0000000000
11
-18.4858798541
21
0.5746052617
31
0.0000000000
0
SPLINE
5
23B
100
AcDbEntity
8
0
100
AcDbSpline
62
7
6
CONTINUOUS
70
0
71
3
72
11
73
7
74
5
42
0.0000001000
43
0.0000001000
44
0.0000000001
12
0.7972974027
22
0.1620023842
32
0.0000000000
13
0.3698781665
23
-0.7259664781
33
0.0000000000
40
0.0000000000
40
0.0000000000
40
0.0000000000
40
0.0000000000
40
0.1882977506
40
0.4083534268
40
0.6794965561
40
1.0000000000
40
1.0000000000
40
1.0000000000
40
1.0000000000
10
-18.9526444727
20
2.6488333003
30
0.0000000000
10
-18.9026013702
20
2.6590015284
30
0.0000000000
10
-18.7866073529
20
2.6457620909
30
0.0000000000
10
-18.6270324076
20
2.5475113585
30
0.0000000000
10
-18.4752462080
20
2.3855104632
30
0.0000000000
10
-18.3910171770
20
2.2478951480
30
0.0000000000
10
-18.3515014349
20
2.1703368959
30
0.0000000000
11
-18.9526444727
21
2.6488333003
31
0.0000000000
11
-18.7999010450
21
2.6370521975
31
0.0000000000
11
-18.6437467515
21
2.5494772885
31
0.0000000000
11
-18.4900226770
21
2.3912593398
31
0.0000000000
11
-18.3515014349
21
2.1703368959
31
0.0000000000
0
SPLINE
5
23C
100
AcDbEntity
8
0
100
AcDbSpline
62
7
6
CONTINUOUS
70
0
71
3
72
10
73
6
74
4
42
0.0000001000
43
0.0000001000
44
0.0000000001
12
0.3574798506
22
-0.7016320821
32
0.0000000000
13
0.0454830224
23
-0.7856567689
33
0.0000000000
40
0.0000000000
40
0.0000000000
40
0.0000000000
40
0.0000000000
40
0.3674584914
40
0.7493335025
40
1.0000000000
40
1.0000000000
40
1.0000000000
40
1.0000000000
10
-18.3515014349
20
2.1703368959
30
0.0000000000
10
-18.3077150994
20
2.0843966738
30
0.0000000000
10
-18.2337287631
20
1.9016078719
30
0.0000000000
10
-18.1723244933
20
1.6458840856
30
0.0000000000
10
-18.1537625126
20
1.4806169798
30
0.0000000000
10
-18.1499621560
20
1.4149710363
30
0.0000000000
11
-18.3515014349
21
2.1703368959
31
0.0000000000
11
-18.2418792007
21
1.9030003265
31
0.0000000000
11
-18.1716587780
21
1.6110512143
31
0.0000000000
11
-18.1499621560
21
1.4149710363
31
0.0000000000
0
SPLINE
5
23D
100
AcDbEntity
8
0
100
AcDbSpline
62
7
6
CONTINUOUS
70
0
71
3
72
8
73
4
74
2
42
0.0000001000
43
0.0000001000
44
0.0000000001
12
0.0055427679
22
-0.0957437059
32
0.0000000000
13
0.0003728343
23
-0.0958235607
33
0.0000000000
40
0.0000000000
40
0.0000000000
40
0.0000000000
40
0.0000000000
40
1.0000000000
40
1.0000000000
40
1.0000000000
40
1.0000000000
10
-18.1499621560
20
1.4149710363
30
0.0000000000
10
-18.1481145667
20
1.3830564677
30
0.0000000000
10
-18.1471073258
20
1.3511057076
30
0.0000000000
10
-18.1469830477
20
1.3191645207
30
0.0000000000
11
-18.1499621560
21
1.4149710363
31
0.0000000000
11
-18.1469830477
21
1.3191645207
31
0.0000000000
0
SPLINE
5
23E
100
AcDbEntity
8
0
100
AcDbSpline
62
7
6
CONTINUOUS
70
0
71
3
72
9
73
5
74
3
42
0.0000001000
43
0.0000001000
44
0.0000000001
12
0.8301583859
22
-0.3619256861
32
0.0000000000
13
0.8872091292
23
0.1991669636
33
0.0000000000
40
0.0000000000
40
0.0000000000
40
0.0000000000
40
0.0000000000
40
0.5339181750
40
1.0000000000
40
1.0000000000
40
1.0000000000
40
1.0000000000
10
14.4929797134
20
-24.6325318682
30
0.0000000000
10
14.6407252635
20
-24.6969447688
30
0.0000000000
10
14.9377298825
20
-24.7785248751
30
0.0000000000
10
15.2442470803
20
-24.7602074970
30
0.0000000000
10
15.3820844303
20
-24.7292647964
30
0.0000000000
11
14.4929797134
21
-24.6325318682
31
0.0000000000
11
14.9605893294
21
-24.7555813340
31
0.0000000000
11
15.3820844303
21
-24.7292647964
31
0.0000000000
0
SPLINE
5
23F
100
AcDbEntity
8
0
100
AcDbSpline
62
7
6
CONTINUOUS
70
0
71
3
72
8
73
4
74
2
42
0.0000001000
43
0.0000001000
44
0.0000000001
12
0.0004322074
22
-0.1110832758
32
0.0000000000
13
0.0032182183
23
-0.1110822450
33
0.0000000000
40
0.0000000000
40
0.0000000000
40
0.0000000000
40
0.0000000000
40
1.0000000000
40
1.0000000000
40
1.0000000000
40
1.0000000000
10
-21.9992073510
20
-6.0560359412
30
0.0000000000
10
-21.9990632818
20
-6.0930636998
30
0.0000000000
10
-21.9984503367
20
-6.1300971059
30
0.0000000000
10
-21.9973775972
20
-6.1671245209
30
0.0000000000
11
-21.9992073510
21
-6.0560359412
31
0.0000000000
11
-21.9973775972
21
-6.1671245209
31
0.0000000000
0
SPLINE
5
240
100
AcDbEntity
8
0
100
AcDbSpline
62
7
6
CONTINUOUS
70
0
71
3
72
8
73
4
74
2
42
0.0000001000
43
0.0000001000
44
0.0000000001
12
0.0036362898
22
-0.1255126870
32
0.0000000000
13
0.0071190800
23
-0.1254164276
33
0.0000000000
40
0.0000000000
40
0.0000000000
40
0.0000000000
40
0.0000000000
40
1.0000000000
40
1.0000000000
40
1.0000000000
40
1.0000000000
10
-21.9973775972
20
-6.1671245209
30
0.0000000000
10
-21.9961655006
20
-6.2089620832
30
0.0000000000
10
-21.9943663886
20
-6.2507919968
30
0.0000000000
10
-21.9919933619
20
-6.2925974727
30
0.0000000000
11
-21.9973775972
21
-6.1671245209
31
0.0000000000
11
-21.9919933619
21
-6.2925974727
31
0.0000000000
0
SPLINE
5
241
100
AcDbEntity
8
0
100
AcDbSpline
62
7
6
CONTINUOUS
70
0
71
3
72
13
73
9
74
7
42
0.0000001000
43
0.0000001000
44
0.0000000001
12
0.2158028256
22
-3.8017861019
32
0.0000000000
13
3.4877205360
23
-1.5205479688
33
0.0000000000
40
0.0000000000
40
0.0000000000
40
0.0000000000
40
0.0000000000
40
0.1259598951
40
0.3159809549
40
0.5031405016
40
0.6831651259
40
0.8511394822
40
1.0000000000
40
1.0000000000
40
1.0000000000
40
1.0000000000
10
-21.9919933619
20
-6.2925974727
30
0.0000000000
10
-21.9829325282
20
-6.4522216655
30
0.0000000000
10
-21.9392129296
20
-6.8517585737
30
0.0000000000
10
-21.7930628850
20
-7.4750112164
30
0.0000000000
10
-21.5325580039
20
-8.1348544886
30
0.0000000000
10
-21.1825856685
20
-8.7206118003
30
0.0000000000
10
-20.7560692479
20
-9.1911289819
30
0.0000000000
10
-20.4138368382
20
-9.4141425347
30
0.0000000000
10
-20.2407755432
20
-9.4895923873
30
0.0000000000
11
-21.9919933619
21
-6.2925974727
31
0.0000000000
11
-21.9404386423
21
-6.7694666184
31
0.0000000000
11
-21.7752829393
21
-7.4733362510
31
0.0000000000
11
-21.5114362859
21
-8.1347510046
31
0.0000000000
11
-21.1556636604
21
-8.7200586345
31
0.0000000000
11
-20.7199150403
21
-9.1875801838
31
0.0000000000
11
-20.2407755432
21
-9.4895923873
31
0.0000000000
0
SPLINE
5
242
100
AcDbEntity
8
0
100
AcDbSpline
62
7
6
CONTINUOUS
70
0
71
3
72
13
73
9
74
7
42
0.0000001000
43
0.0000001000
44
0.0000000001
12
-2.8246578910
22
-0.6340991281
32
0.0000000000
13
0.0112183140
23
-2.8832615768
33
0.0000000000
40
0.0000000000
40
0.0000000000
40
0.0000000000
40
0.0000000000
40
0.0082676443
40
0.1651907490
40
0.3385937737
40
0.5393833133
40
0.7630078376
40
1.0000000000
40
1.0000000000
40
1.0000000000
40
1.0000000000
10
-20.8443792292
20
41.5858812566
30
0.0000000000
10
-20.8521636514
20
41.5841337546
30
0.0000000000
10
-21.0073792241
20
41.5477901638
30
0.0000000000
10
-21.3113675763
20
41.4147172950
30
0.0000000000
10
-21.6908319215
20
41.0598840575
30
0.0000000000
10
-21.9760067880
20
40.5523036207
30
0.0000000000
10
-22.1437182628
20
39.9341487624
30
0.0000000000
10
-22.1764202596
20
39.4901281985
30
0.0000000000
10
-22.1755340421
20
39.2623580666
30
0.0000000000
11
-20.8443792292
21
41.5858812566
31
0.0000000000
11
-20.8676831396
21
41.5804242404
31
0.0000000000
11
-21.2829052249
21
41.4006881959
31
0.0000000000
11
-21.6521854893
21
41.0636390153
31
0.0000000000
11
-21.9438868121
21
40.5635650942
31
0.0000000000
11
-22.1205073104
21
39.9434544066
31
0.0000000000
11
-22.1755340421
21
39.2623580666
31
0.0000000000
0
SPLINE
5
243
100
AcDbEntity
8
0
100
AcDbSpline
62
7
6
CONTINUOUS
70
0
71
3
72
12
73
8
74
6
42
0.0000001000
43
0.0000001000
44
0.0000000001
12
2.5516020283
22
0.5764617882
32
0.0000000000
13
-0.0100761066
23
2.5896985201
33
0.0000000000
40
0.0000000000
40
0.0000000000
40
0.0000000000
40
0.0000000000
40
0.0895916242
40
0.2689732992
40
0.4789809792
40
0.7242504459
40
1.0000000000
40
1.0000000000
40
1.0000000000
40
1.0000000000
10
15.9937990511
20
-24.5908284516
30
0.0000000000
10
16.0699997744
20
-24.5736130690
30
0.0000000000
10
16.2923619300
20
-24.4936077009
30
0.0000000000
10
16.6121688099
20
-24.2124186121
30
0.0000000000
10
16.8791161950
20
-23.7256610089
30
0.0000000000
10
17.0410610692
20
-23.1110526885
30
0.0000000000
10
17.0730522956
20
-22.6599253141
30
0.0000000000
10
17.0721261350
20
-22.4218892434
30
0.0000000000
11
15.9937990511
21
-24.5908284516
31
0.0000000000
11
16.2133862406
21
-24.5116730186
31
0.0000000000
11
16.5713036886
21
-24.2155312942
31
0.0000000000
11
16.8449989577
21
-23.7455575131
31
0.0000000000
11
17.0158201675
21
-23.1337796118
31
0.0000000000
11
17.0721261350
21
-22.4218892434
31
0.0000000000
0
SPLINE
5
244
100
AcDbEntity
8
0
100
AcDbSpline
62
9
6
CONTINUOUS
70
0
71
3
72
9
73
5
74
3
42
0.0000001000
43
0.0000001000
44
0.0000000001
12
0.4987472598
22
0.1122729976
32
0.0000000000
13
0.3793201054
23
0.3419880615
33
0.0000000000
40
0.0000000000
40
0.0000000000
40
0.0000000000
40
0.0000000000
40
0.3491734655
40
1.0000000000
40
1.0000000000
40
1.0000000000
40
1.0000000000
10
15.3820542137
20
-24.7291305678
30
0.0000000000
10
15.4401039834
20
-24.7160629839
30
0.0000000000
10
15.6028027747
20
-24.6625067652
30
0.0000000000
10
15.7457525729
20
-24.5657308608
30
0.0000000000
10
15.8280431028
20
-24.4915392258
30
0.0000000000
11
15.3820542137
21
-24.7291305678
31
0.0000000000
11
15.5513163461
21
-24.6733927277
31
0.0000000000
11
15.8280431028
21
-24.4915392258
31
0.0000000000
0
SPLINE
5
245
100
AcDbEntity
8
0
100
AcDbSpline
62
9
6
CONTINUOUS
70
0
71
3
72
8
73
4
74
2
42
0.0000001000
43
0.0000001000
44
0.0000000001
12
0.0891074143
22
0.0803376131
32
0.0000000000
13
0.0809117257
23
0.0883869733
33
0.0000000000
40
0.0000000000
40
0.0000000000
40
0.0000000000
40
0.0000000000
40
1.0000000000
40
1.0000000000
40
1.0000000000
40
1.0000000000
10
15.8280431028
20
-24.4915392258
30
0.0000000000
10
15.8577455742
20
-24.4647600214
30
0.0000000000
10
15.8860481633
20
-24.4365207030
30
0.0000000000
10
15.9130187385
20
-24.4070583786
30
0.0000000000
11
15.8280431028
21
-24.4915392258
31
0.0000000000
11
15.9130187385
21
-24.4070583786
31
0.0000000000
0
SPLINE
5
246
100
AcDbEntity
8
0
100
AcDbSpline
62
9
6
CONTINUOUS
70
0
71
3
72
12
73
8
74
6
42
0.0000001000
43
0.0000001000
44
0.0000000001
12
1.3311585007
22
1.4541411628
32
0.0000000000
13
-0.0076507222
23
1.9663412235
33
0.0000000000
40
0.0000000000
40
0.0000000000
40
0.0000000000
40
0.0000000000
40
0.1294938167
40
0.3416954017
40
0.5675515501
40
0.7927715713
40
1.0000000000
40
1.0000000000
40
1.0000000000
40
1.0000000000
10
15.9130187385
20
-24.4070583786
30
0.0000000000
10
15.9704776701
20
-24.3442909488
30
0.0000000000
10
16.1061419083
20
-24.1640193411
30
0.0000000000
10
16.2691498558
20
-23.8269095184
30
0.0000000000
10
16.3883040472
20
-23.4070608109
30
0.0000000000
10
16.4499368267
20
-22.9790136936
30
0.0000000000
10
16.4611098197
20
-22.6953327558
30
0.0000000000
10
16.4605813373
20
-22.5595054884
30
0.0000000000
11
15.9130187385
21
-24.4070583786
31
0.0000000000
11
16.0679148185
21
-24.2043961002
31
0.0000000000
11
16.2541707859
21
-23.8310090860
31
0.0000000000
11
16.3786904401
21
-23.4047090036
31
0.0000000000
11
16.4436701944
21
-22.9666393066
31
0.0000000000
11
16.4605813373
21
-22.5595054884
31
0.0000000000
0
SPLINE
5
247
100
AcDbEntity
8
0
100
AcDbSpline
62
9
6
CONTINUOUS
70
0
71
3
72
8
73
4
74
2
42
0.0000001000
43
0.0000001000
44
0.0000000001
12
0.0006276398
22
-0.1613120899
32
0.0000000000
13
-0.0148791035
23
-0.1608033421
33
0.0000000000
40
0.0000000000
40
0.0000000000
40
0.0000000000
40
0.0000000000
40
1.0000000000
40
1.0000000000
40
1.0000000000
40
1.0000000000
10
-18.2357215301
20
28.3800286112
30
0.0000000000
10
-18.2355123169
20
28.3262579145
30
0.0000000000
10
-18.2376850921
20
28.2724056319
30
0.0000000000
10
-18.2426447932
20
28.2188045179
30
0.0000000000
11
-18.2357215301
21
28.3800286112
31
0.0000000000
11
-18.2426447932
21
28.2188045179
31
0.0000000000
0
SPLINE
5
248
100
AcDbEntity
8
0
100
AcDbSpline
62
9
6
CONTINUOUS
70
0
71
3
72
11
73
7
74
5
42
0.0000001000
43
0.0000001000
44
0.0000000001
12
-0.0473791052
22
-0.5120414984
32
0.0000000000
13
-0.2896730629
23
-0.4250039863
33
0.0000000000
40
0.0000000000
40
0.0000000000
40
0.0000000000
40
0.0000000000
40
0.1444664406
40
0.5320382606
40
0.8340670026
40
1.0000000000
40
1.0000000000
40
1.0000000000
40
1.0000000000
10
-18.2426447932
20
28.2188045179
30
0.0000000000
10
-18.2449263568
20
28.1941469137
30
0.0000000000
10
-18.2555008339
20
28.1035341047
30
0.0000000000
10
-18.2854561849
20
27.9633008886
30
0.0000000000
10
-18.3394374105
20
27.8263542526
30
0.0000000000
10
-18.3801029745
20
27.7569675792
30
0.0000000000
10
-18.3961250810
20
27.7334601841
30
0.0000000000
11
-18.2426447932
21
28.2188045179
31
0.0000000000
11
-18.2512982015
21
28.1450235544
31
0.0000000000
11
-18.2944493015
21
27.9506740883
31
0.0000000000
11
-18.3526645390
21
27.8068688880
31
0.0000000000
11
-18.3961250810
21
27.7334601841
31
0.0000000000
0
SPLINE
5
249
100
AcDbEntity
8
0
100
AcDbSpline
62
9
6
CONTINUOUS
70
0
71
3
72
22
73
18
74
16
42
0.0000001000
43
0.0000001000
44
0.0000000001
12
-1.2333852762
22
-1.8096044335
32
0.0000000000
13
-0.0085096403
23
2.1870950360
33
0.0000000000
40
0.0000000000
40
0.0000000000
40
0.0000000000
40
0.0000000000
40
0.0178317126
40
0.0670103112
40
0.1137128929
40
0.1605349003
40
0.2095227254
40
0.2627323948
40
0.3214151242
40
0.3854768129
40
0.4534647726
40
0.5237045895
40
0.5977560212
40
0.6805568603
40
0.7775500047
40
0.8880491268
40
1.0000000000
40
1.0000000000
40
1.0000000000
40
1.0000000000
10
-18.3961250810
20
27.7334601841
30
0.0000000000
10
-18.4034562050
20
27.7227040687
30
0.0000000000
10
-18.4322669651
20
27.6831458084
30
0.0000000000
10
-18.4896622001
20
27.6224404978
30
0.0000000000
10
-18.5780641765
20
27.5653558040
30
0.0000000000
10
-18.6791812426
20
27.5353835625
30
0.0000000000
10
-18.7894183755
20
27.5372572846
30
0.0000000000
10
-18.9027942648
20
27.5720006410
30
0.0000000000
10
-19.0143416757
20
27.6371583435
30
0.0000000000
10
-19.1200393209
20
27.7284575737
30
0.0000000000
10
-19.2166785494
20
27.8404173312
30
0.0000000000
10
-19.3033466510
20
27.9689968241
30
0.0000000000
10
-19.3815318594
20
28.1152214655
30
0.0000000000
10
-19.4529263122
20
28.2862580139
30
0.0000000000
10
-19.5149542708
20
28.4889939049
30
0.0000000000
10
-19.5588896502
20
28.7181832027
30
0.0000000000
10
-19.5704595476
20
28.8804595233
30
0.0000000000
10
-19.5707771015
20
28.9620752563
30
0.0000000000
11
-18.3961250810
21
27.7334601841
31
0.0000000000
11
-18.4191444220
21
27.7019188656
31
0.0000000000
11
-18.4938062582
21
27.6244942794
31
0.0000000000
11
-18.5800902976
21
27.5698279114
31
0.0000000000
11
-18.6783359700
21
27.5409391129
31
0.0000000000
11
-18.7854727532
21
27.5419800800
31
0.0000000000
11
-18.8971466786
21
27.5747243588
31
0.0000000000
11
-19.0086930860
21
27.6382067340
31
0.0000000000
11
-19.1154878769
21
27.7289023903
31
0.0000000000
11
-19.2132802426
21
27.8409181338
31
0.0000000000
11
-19.2996026627
21
27.9679939232
31
0.0000000000
11
-19.3763157458
21
28.1106324098
31
0.0000000000
11
-19.4463577845
21
28.2776335897
31
0.0000000000
11
-19.5086163983
21
28.4804267139
31
0.0000000000
11
-19.5539955347
21
28.7178019720
31
0.0000000000
11
-19.5707771015
21
28.9620752563
31
0.0000000000
0
SPLINE
5
24A
100
AcDbEntity
8
0
100
AcDbSpline
62
9
6
CONTINUOUS
70
0
71
3
72
17
73
13
74
11
42
0.0000001000
43
0.0000001000
44
0.0000000001
12
-0.0050522477
22
1.2984974218
32
0.0000000000
13
1.1445850417
23
-0.6176450571
33
0.0000000000
40
0.0000000000
40
0.0000000000
40
0.0000000000
40
0.0000000000
40
0.1796278151
40
0.3374609950
40
0.4617065502
40
0.5589759108
40
0.6412992992
40
0.7182524664
40
0.7959679774
40
0.8780964807
40
0.9679500045
40
1.0000000000
40
1.0000000000
40
1.0000000000
40
1.0000000000
10
-19.4654246760
20
1.8850473899
30
0.0000000000
10
-19.4657271841
20
1.9627961415
30
0.0000000000
10
-19.4569332864
20
2.1091679218
30
0.0000000000
10
-19.4149693719
20
2.3054447884
30
0.0000000000
10
-19.3534061383
20
2.4586272487
30
0.0000000000
10
-19.2818578873
20
2.5699710352
30
0.0000000000
10
-19.2030499557
20
2.6494796983
30
0.0000000000
10
-19.1144296416
20
2.7034262342
30
0.0000000000
10
-19.0140235892
20
2.7305454334
30
0.0000000000
10
-18.9044652778
20
2.7264944805
30
0.0000000000
10
-18.8195430162
20
2.6990184483
30
0.0000000000
10
-18.7721500769
20
2.6755573751
30
0.0000000000
10
-18.7599220951
20
2.6689588680
30
0.0000000000
11
-19.4654246760
21
1.8850473899
31
0.0000000000
11
-19.4501666821
21
2.1177958218
31
0.0000000000
11
-19.4056112226
21
2.3178415678
31
0.0000000000
11
-19.3439274732
21
2.4669177072
31
0.0000000000
11
-19.2745607087
21
2.5724695780
31
0.0000000000
11
-19.1985601278
21
2.6476426502
31
0.0000000000
11
-19.1127973317
21
2.6989222530
31
0.0000000000
11
-19.0153375588
21
2.7250997098
31
0.0000000000
11
-18.9087389023
21
2.7219745477
31
0.0000000000
11
-18.7973017680
21
2.6874068423
31
0.0000000000
11
-18.7599220951
21
2.6689588680
31
0.0000000000
0
SPLINE
5
24B
100
AcDbEntity
8
0
100
AcDbSpline
62
9
6
CONTINUOUS
70
0
71
3
72
12
73
8
74
6
42
0.0000001000
43
0.0000001000
44
0.0000000001
12
0.6170940818
22
-0.3329985065
32
0.0000000000
13
0.2962867048
23
-0.6345742522
33
0.0000000000
40
0.0000000000
40
0.0000000000
40
0.0000000000
40
0.0000000000
40
0.1253364514
40
0.3280706318
40
0.5445044185
40
0.7684769259
40
1.0000000000
40
1.0000000000
40
1.0000000000
40
1.0000000000
10
-18.7599220951
20
2.6689588680
30
0.0000000000
10
-18.7341406343
20
2.6550465843
30
0.0000000000
10
-18.6693593121
20
2.6136241406
30
0.0000000000
10
-18.5736818580
20
2.5291638608
30
0.0000000000
10
-18.4765059003
20
2.4142247241
30
0.0000000000
10
-18.3900377017
20
2.2830511429
30
0.0000000000
10
-18.3407423362
20
2.1886984836
30
0.0000000000
10
-18.3178765999
20
2.1397256231
30
0.0000000000
11
-18.7599220951
21
2.6689588680
31
0.0000000000
11
-18.6856836995
21
2.6220148344
31
0.0000000000
11
-18.5785030494
21
2.5289746468
31
0.0000000000
11
-18.4800285527
21
2.4138165861
31
0.0000000000
11
-18.3932629293
21
2.2832120184
31
0.0000000000
11
-18.3178765999
21
2.1397256231
31
0.0000000000
0
SPLINE
5
24C
100
AcDbEntity
8
0
100
AcDbSpline
62
9
6
CONTINUOUS
70
0
71
3
72
11
73
7
74
5
42
0.0000001000
43
0.0000001000
44
0.0000000001
12
0.2949433728
22
-0.6316971608
32
0.0000000000
13
0.0639596457
23
-0.6946311052
33
0.0000000000
40
0.0000000000
40
0.0000000000
40
0.0000000000
40
0.0000000000
40
0.2541741077
40
0.5462918883
40
0.8838338972
40
1.0000000000
40
1.0000000000
40
1.0000000000
40
1.0000000000
10
-18.3178765999
20
2.1397256231
30
0.0000000000
10
-18.2928876104
20
2.0862052690
30
0.0000000000
10
-18.2448022176
20
1.9685707148
30
0.0000000000
10
-18.1853810431
20
1.7716894952
30
0.0000000000
10
-18.1527464696
20
1.6011956460
30
0.0000000000
10
-18.1409217811
20
1.4963323943
30
0.0000000000
10
-18.1384451335
20
1.4694348648
30
0.0000000000
11
-18.3178765999
21
2.1397256231
31
0.0000000000
11
-18.2506007316
21
1.9758631060
31
0.0000000000
11
-18.1916163290
21
1.7810167701
31
0.0000000000
11
-18.1475031672
21
1.5499549810
31
0.0000000000
11
-18.1384451335
21
1.4694348648
31
0.0000000000
0
SPLINE
5
24D
100
AcDbEntity
8
0
100
AcDbSpline
62
9
6
CONTINUOUS
70
0
71
3
72
8
73
4
74
2
42
0.0000001000
43
0.0000001000
44
0.0000000001
12
0.0137576491
22
-0.1494143829
32
0.0000000000
13
0.0019551692
23
-0.1499099081
33
0.0000000000
40
0.0000000000
40
0.0000000000
40
0.0000000000
40
0.0000000000
40
1.0000000000
40
1.0000000000
40
1.0000000000
40
1.0000000000
10
-18.1384451335
20
1.4694348648
30
0.0000000000
10
-18.1338592505
20
1.4196300705
30
0.0000000000
10
-18.1311622246
20
1.3696584812
30
0.0000000000
10
-18.1305105015
20
1.3196885118
30
0.0000000000
11
-18.1384451335
21
1.4694348648
31
0.0000000000
11
-18.1305105015
21
1.3196885118
31
0.0000000000
0
SPLINE
5
24E
100
AcDbEntity
8
0
100
AcDbSpline
62
9
6
CONTINUOUS
70
0
71
3
72
8
73
4
74
2
42
0.0000001000
43
0.0000001000
44
0.0000000001
12
0.0002176506
22
-0.0166880596
32
0.0000000000
13
0.0000649274
23
-0.0166872421
33
0.0000000000
40
0.0000000000
40
0.0000000000
40
0.0000000000
40
0.0000000000
40
1.0000000000
40
1.0000000000
40
1.0000000000
40
1.0000000000
10
-18.1305105015
20
1.3196885118
30
0.0000000000
10
-18.1304379513
20
1.3141258253
30
0.0000000000
10
-18.1303907471
20
1.3085631588
30
0.0000000000
10
-18.1303691046
20
1.3030007448
30
0.0000000000
11
-18.1305105015
21
1.3196885118
31
0.0000000000
11
-18.1303691046
21
1.3030007448
31
0.0000000000
0
SPLINE
5
24F
100
AcDbEntity
8
0
100
AcDbSpline
62
9
6
CONTINUOUS
70
0
71
3
72
8
73
4
74
2
42
0.0000001000
43
0.0000001000
44
0.0000000001
12
0.0006182674
22
-0.1589032525
32
0.0000000000
13
-0.0144121247
23
-0.1584210361
33
0.0000000000
40
0.0000000000
40
0.0000000000
40
0.0000000000
40
0.0000000000
40
1.0000000000
40
1.0000000000
40
1.0000000000
40
1.0000000000
10
-18.1303691046
20
1.3030007448
30
0.0000000000
10
-18.1301630155
20
1.2500329939
30
0.0000000000
10
-18.1322698676
20
1.1969892249
30
0.0000000000
10
-18.1370739092
20
1.1441822128
30
0.0000000000
11
-18.1303691046
21
1.3030007448
31
0.0000000000
11
-18.1370739092
21
1.1441822128
31
0.0000000000
0
SPLINE
5
250
100
AcDbEntity
8
0
100
AcDbSpline
62
9
6
CONTINUOUS
70
0
71
3
72
11
73
7
74
5
42
0.0000001000
43
0.0000001000
44
0.0000000001
12
-0.0478503336
22
-0.5259806976
32
0.0000000000
13
-0.3056682154
23
-0.4309234162
33
0.0000000000
40
0.0000000000
40
0.0000000000
40
0.0000000000
40
0.0000000000
40
0.1409127699
40
0.5293757651
40
0.8351720529
40
1.0000000000
40
1.0000000000
40
1.0000000000
40
1.0000000000
10
-18.1370739092
20
1.1441822128
30
0.0000000000
10
-18.1393214835
20
1.1194764138
30
0.0000000000
10
-18.1499829747
20
1.0268572869
30
0.0000000000
10
-18.1808244087
20
0.8826033462
30
0.0000000000
10
-18.2374704326
20
0.7416559532
30
0.0000000000
10
-18.2805836966
20
0.6706068337
30
0.0000000000
10
-18.2973779181
20
0.6469307597
30
0.0000000000
11
-18.1370739092
21
1.1441822128
31
0.0000000000
11
-18.1456270986
21
1.0702523128
31
0.0000000000
11
-18.1901825580
21
0.8702065668
31
0.0000000000
11
-18.2518663075
21
0.7211304274
31
0.0000000000
11
-18.2973779181
21
0.6469307597
31
0.0000000000
0
SPLINE
5
251
100
AcDbEntity
8
0
100
AcDbSpline
62
9
6
CONTINUOUS
70
0
71
3
72
22
73
18
74
16
42
0.0000001000
43
0.0000001000
44
0.0000000001
12
-1.2604775912
22
-1.7769898286
32
0.0000000000
13
-0.0084648280
23
2.1755776653
33
0.0000000000
40
0.0000000000
40
0.0000000000
40
0.0000000000
40
0.0000000000
40
0.0180843009
40
0.0672191626
40
0.1131487981
40
0.1595334399
40
0.2085519840
40
0.2621812205
40
0.3216420809
40
0.3868795030
40
0.4565252937
40
0.5285969541
40
0.6030982960
40
0.6845176405
40
0.7780914448
40
0.8862159478
40
1.0000000000
40
1.0000000000
40
1.0000000000
40
1.0000000000
10
-18.2973779181
20
0.6469307597
30
0.0000000000
10
-18.3049762035
20
0.6362188867
30
0.0000000000
10
-18.3345082633
20
0.5973218075
30
0.0000000000
10
-18.3927438249
20
0.5385684364
30
0.0000000000
10
-18.4813641390
20
0.4846219005
30
0.0000000000
10
-18.5817701915
20
0.4575027013
30
0.0000000000
10
-18.6913285029
20
0.4615536542
30
0.0000000000
10
-18.8043765024
20
0.4981295816
30
0.0000000000
10
-18.9159888814
20
0.5652030420
30
0.0000000000
10
-19.0221119226
20
0.6588842739
30
0.0000000000
10
-19.1192878803
20
0.7738234106
30
0.0000000000
10
-19.2057560790
20
0.9049969917
30
0.0000000000
10
-19.2824343614
20
1.0517612927
30
0.0000000000
10
-19.3509915630
20
1.2194774198
30
0.0000000000
10
-19.4104127375
20
1.4163586395
30
0.0000000000
10
-19.4535069820
20
1.6414972835
30
0.0000000000
10
-19.4651036219
20
1.8025320424
30
0.0000000000
10
-19.4654246760
20
1.8850473899
30
0.0000000000
11
-18.2973779181
21
0.6469307597
31
0.0000000000
11
-18.3212330720
21
0.6155785567
31
0.0000000000
11
-18.3972336529
21
0.5404054845
31
0.0000000000
11
-18.4829964489
21
0.4891258817
31
0.0000000000
11
-18.5804562219
21
0.4629484249
31
0.0000000000
11
-18.6870548783
21
0.4660735870
31
0.0000000000
11
-18.7984920126
21
0.5006412923
31
0.0000000000
11
-18.9101100811
21
0.5660333003
31
0.0000000000
11
-19.0172907312
21
0.6590734879
31
0.0000000000
11
-19.1157652279
21
0.7742315486
31
0.0000000000
11
-19.2025308513
21
0.9048361163
31
0.0000000000
11
-19.2779171807
21
1.0483225116
31
0.0000000000
11
-19.3451930490
21
1.2121850287
31
0.0000000000
11
-19.4041774517
21
1.4070313645
31
0.0000000000
11
-19.4482906134
21
1.6380931537
31
0.0000000000
11
-19.4654246760
21
1.8850473899
31
0.0000000000
0
SPLINE
5
252
100
AcDbEntity
8
0
100
AcDbSpline
62
9
6
CONTINUOUS
70
0
71
3
72
19
73
15
74
13
42
0.0000001000
43
0.0000001000
44
0.0000000001
12
-1.6812877127
22
-0.4164933074
32
0.0000000000
13
-0.0067146800
23
1.7257654861
33
0.0000000000
40
0.0000000000
40
0.0000000000
40
0.0000000000
40
0.0000000000
40
0.0191057482
40
0.0763323487
40
0.1384900670
40
0.2070415554
40
0.2818784697
40
0.3613017229
40
0.4433439821
40
0.5298138779
40
0.6264810114
40
0.7397401048
40
0.8688658477
40
1.0000000000
40
1.0000000000
40
1.0000000000
40
1.0000000000
10
-18.5912375320
20
27.6516544392
30
0.0000000000
10
-18.6019449519
20
27.6490019671
30
0.0000000000
10
-18.6452577087
20
27.6405932531
30
0.0000000000
10
-18.7260962678
20
27.6419451769
30
0.0000000000
10
-18.8306111788
20
27.6739424977
30
0.0000000000
10
-18.9334470916
20
27.7339788443
30
0.0000000000
10
-19.0308943485
20
27.8181171153
30
0.0000000000
10
-19.1199892511
20
27.9212992277
30
0.0000000000
10
-19.1998828874
20
28.0397854212
30
0.0000000000
10
-19.2719497768
20
28.1745036071
30
0.0000000000
10
-19.3377633156
20
28.3320702809
30
0.0000000000
10
-19.3949856212
20
28.5188944461
30
0.0000000000
10
-19.4355816441
20
28.7303426892
30
0.0000000000
10
-19.4462862715
20
28.8801544498
30
0.0000000000
10
-19.4465797795
20
28.9555900479
30
0.0000000000
11
-18.5912375320
21
27.6516544392
31
0.0000000000
11
-18.6237049497
21
27.6453660934
31
0.0000000000
11
-18.7224609769
21
27.6462996425
31
0.0000000000
11
-18.8254056753
21
27.6764549068
31
0.0000000000
11
-18.9282392751
21
27.7349463593
31
0.0000000000
11
-19.0266987076
21
27.8185284395
31
0.0000000000
11
-19.1168608134
21
27.9217667200
31
0.0000000000
11
-19.1964402452
21
28.0388732003
31
0.0000000000
11
-19.2671485283
21
28.1702859175
31
0.0000000000
11
-19.3317077136
21
28.3241138983
31
0.0000000000
11
-19.3891278692
21
28.5109496065
31
0.0000000000
11
-19.4310354873
21
28.7298160117
31
0.0000000000
11
-19.4465797795
21
28.9555900479
31
0.0000000000
0
SPLINE
5
253
100
AcDbEntity
8
0
100
AcDbSpline
62
9
6
CONTINUOUS
70
0
71
3
72
14
73
10
74
8
42
0.0000001000
43
0.0000001000
44
0.0000000001
12
-0.0036031262
22
0.9260532313
32
0.0000000000
13
0.9103897842
23
0.1864842910
33
0.0000000000
40
0.0000000000
40
0.0000000000
40
0.0000000000
40
0.0000000000
40
0.2345505789
40
0.4327549167
40
0.5871823503
40
0.7108265085
40
0.8178722783
40
0.9195332713
40
1.0000000000
40
1.0000000000
40
1.0000000000
40
1.0000000000
10
11.9191523771
20
-11.7500833514
30
0.0000000000
10
11.9188706720
20
-11.6776812443
30
0.0000000000
10
11.9269935592
20
-11.5438005663
30
0.0000000000
10
11.9650201406
20
-11.3658172669
30
0.0000000000
10
12.0192103449
20
-11.2283761789
30
0.0000000000
10
12.0822301666
20
-11.1267598640
30
0.0000000000
10
12.1532571253
20
-11.0516348470
30
0.0000000000
10
12.2291001790
20
-11.0026465905
30
0.0000000000
10
12.2830803402
20
-10.9848746095
30
0.0000000000
10
12.3074990361
20
-10.9798726825
30
0.0000000000
11
11.9191523771
21
-11.7500833514
31
0.0000000000
11
11.9335223825
21
-11.5333512512
31
0.0000000000
11
11.9733160231
21
-11.3541676606
31
0.0000000000
11
12.0269888134
21
-11.2216126302
31
0.0000000000
11
12.0882646275
21
-11.1248863741
31
0.0000000000
11
12.1570742878
21
-11.0535270553
31
0.0000000000
11
12.2365945634
21
-11.0031320471
31
0.0000000000
11
12.3074990361
21
-10.9798726825
31
0.0000000000
0
SPLINE
5
254
100
AcDbEntity
8
0
100
AcDbSpline
62
9
6
CONTINUOUS
70
0
71
3
72
19
73
15
74
13
42
0.0000001000
43
0.0000001000
44
0.0000000001
12
-1.6814178956
22
-0.4159983564
32
0.0000000000
13
-0.0067147462
23
1.7257828350
33
0.0000000000
40
0.0000000000
40
0.0000000000
40
0.0000000000
40
0.0000000000
40
0.0232383516
40
0.0802108385
40
0.1425430078
40
0.2116509979
40
0.2874681289
40
0.3684006247
40
0.4521413456
40
0.5387016278
40
0.6333044442
40
0.7420473563
40
0.8677194728
40
1.0000000000
40
1.0000000000
40
1.0000000000
40
1.0000000000
10
12.6691415671
20
14.0230115144
30
0.0000000000
10
12.6561171070
20
14.0197891424
30
0.0000000000
10
12.6104763342
20
14.0114546508
30
0.0000000000
10
12.5273549040
20
14.0145605977
30
0.0000000000
10
12.4231396305
20
14.0483146493
30
0.0000000000
10
12.3202541954
20
14.1101754071
30
0.0000000000
10
12.2224353785
20
14.1965536324
30
0.0000000000
10
12.1328703793
20
14.3025128104
30
0.0000000000
10
12.0531789105
20
14.4234217574
30
0.0000000000
10
11.9825082701
20
14.5586921943
30
0.0000000000
10
11.9193154122
20
14.7132820292
30
0.0000000000
10
11.8645302275
20
14.8947763287
30
0.0000000000
10
11.8247918818
20
15.1023587450
30
0.0000000000
10
11.8140960283
20
15.2508486939
30
0.0000000000
10
11.8137999516
20
15.3269445150
30
0.0000000000
11
12.6691415671
21
14.0230115144
31
0.0000000000
11
12.6295763178
21
14.0158061300
31
0.0000000000
11
12.5312967698
21
14.0187250321
31
0.0000000000
11
12.4285637596
21
14.0506279055
31
0.0000000000
11
12.3256711990
21
14.1109401588
31
0.0000000000
11
12.2268758039
21
14.1967297626
31
0.0000000000
11
12.1361129066
21
14.3028930087
31
0.0000000000
11
12.0561495246
21
14.4232745372
31
0.0000000000
11
11.9866722124
21
14.5555201225
31
0.0000000000
11
11.9246627502
21
14.7065510352
31
0.0000000000
11
11.8702821192
21
14.8861674379
31
0.0000000000
11
11.8296043323
21
15.0992030467
31
0.0000000000
11
11.8137999516
21
15.3269445150
31
0.0000000000
0
SPLINE
5
255
100
AcDbEntity
8
0
100
AcDbSpline
62
7
6
CONTINUOUS
70
0
71
3
72
10
73
6
74
4
42
0.0000001000
43
0.0000001000
44
0.0000000001
12
0.0020776566
22
-0.5339864306
32
0.0000000000
13
0.2729017831
23
-0.4603289959
33
0.0000000000
40
0.0000000000
40
0.0000000000
40
0.0000000000
40
0.0000000000
40
0.4331316959
40
0.8650615619
40
1.0000000000
40
1.0000000000
40
1.0000000000
40
1.0000000000
10
-18.4603042695
20
1.8995836566
30
0.0000000000
10
-18.4600043032
20
1.8224881738
30
0.0000000000
10
-18.4408100542
20
1.6682731495
30
0.0000000000
10
-18.3828053464
20
1.4985423223
30
0.0000000000
10
-18.3351540635
20
1.4092449279
30
0.0000000000
10
-18.3228790834
20
1.3885395693
30
0.0000000000
11
-18.4603042695
21
1.8995836566
31
0.0000000000
11
-18.4330160015
21
1.6699108863
31
0.0000000000
11
-18.3570031312
21
1.4521499607
31
0.0000000000
11
-18.3228790834
21
1.3885395693
31
0.0000000000
0
SPLINE
5
256
100
AcDbEntity
8
0
100
AcDbSpline
62
7
6
CONTINUOUS
70
0
71
3
72
9
73
5
74
3
42
0.0000001000
43
0.0000001000
44
0.0000000001
12
0.1307351081
22
-0.2205231508
32
0.0000000000
13
0.2186924520
23
-0.1357795530
33
0.0000000000
40
0.0000000000
40
0.0000000000
40
0.0000000000
40
0.0000000000
40
0.5254500601
40
1.0000000000
40
1.0000000000
40
1.0000000000
40
1.0000000000
10
-18.3228790834
20
1.3885395693
30
0.0000000000
10
-18.2999808266
20
1.3499149350
30
0.0000000000
10
-18.2502303085
20
1.2800574081
30
0.0000000000
10
-18.1864989742
20
1.2208894100
30
0.0000000000
10
-18.1519054775
20
1.1994113505
30
0.0000000000
11
-18.3228790834
21
1.3885395693
31
0.0000000000
11
-18.2438379290
21
1.2794530066
31
0.0000000000
11
-18.1519054775
21
1.1994113505
31
0.0000000000
0
SPLINE
5
257
100
AcDbEntity
8
0
100
AcDbSpline
62
7
6
CONTINUOUS
70
0
71
3
72
9
73
5
74
3
42
0.0000001000
43
0.0000001000
44
0.0000000001
12
-0.0013196720
22
0.3391739354
32
0.0000000000
13
0.1853848025
23
0.2869695500
33
0.0000000000
40
0.0000000000
40
0.0000000000
40
0.0000000000
40
0.0000000000
40
0.6138330625
40
1.0000000000
40
1.0000000000
40
1.0000000000
40
1.0000000000
10
-18.4603042695
20
1.8995836566
30
0.0000000000
10
-18.4605742890
20
1.9689823817
30
0.0000000000
10
-18.4484998371
20
2.0826627820
30
0.0000000000
10
-18.4071323585
20
2.1901294355
30
0.0000000000
10
-18.3832691980
20
2.2270688196
30
0.0000000000
11
-18.4603042695
21
1.8995836566
31
0.0000000000
11
-18.4347135438
21
2.1062026742
31
0.0000000000
11
-18.3832691980
21
2.2270688196
31
0.0000000000
0
SPLINE
5
258
100
AcDbEntity
8
0
100
AcDbSpline
62
9
6
CONTINUOUS
70
0
71
3
72
14
73
10
74
8
42
0.0000001000
43
0.0000001000
44
0.0000000001
12
-0.0036026054
22
0.9259194009
32
0.0000000000
13
0.9102648519
23
0.1866838670
33
0.0000000000
40
0.0000000000
40
0.0000000000
40
0.0000000000
40
0.0000000000
40
0.2328262892
40
0.4368625167
40
0.5973528210
40
0.7229862340
40
0.8293502374
40
0.9288151967
40
1.0000000000
40
1.0000000000
40
1.0000000000
40
1.0000000000
10
-19.3412273540
20
1.8785621815
30
0.0000000000
10
-19.3415069477
20
1.9504216409
30
0.0000000000
10
-19.3333697914
20
2.0855406972
30
0.0000000000
10
-19.2945802935
20
2.2666044696
30
0.0000000000
10
-19.2377777950
20
2.4077093278
30
0.0000000000
10
-19.1718224435
20
2.5102368132
30
0.0000000000
10
-19.0991817719
20
2.5834531631
30
0.0000000000
10
-19.0252985410
20
2.6283851809
30
0.0000000000
10
-18.9745877646
20
2.6443154236
30
0.0000000000
10
-18.9529887565
20
2.6487451084
30
0.0000000000
11
-19.3412273540
21
1.8785621815
31
0.0000000000
11
-19.3270872482
21
2.0936779599
31
0.0000000000
11
-19.2859338635
21
2.2780637561
31
0.0000000000
11
-19.2290430018
21
2.4153446616
31
0.0000000000
11
-19.1651072559
21
2.5125262440
31
0.0000000000
11
-19.0950556551
21
2.5817513528
31
0.0000000000
11
-19.0159905550
21
2.6289806891
31
0.0000000000
11
-18.9529887565
21
2.6487451084
31
0.0000000000
0
SPLINE
5
259
100
AcDbEntity
8
0
100
AcDbSpline
62
7
6
CONTINUOUS
70
0
71
3
72
9
73
5
74
3
42
0.0000001000
43
0.0000001000
44
0.0000000001
12
-0.0020520647
22
0.5274089671
32
0.0000000000
13
0.2370420563
23
0.4745663393
33
0.0000000000
40
0.0000000000
40
0.0000000000
40
0.0000000000
40
0.0000000000
40
0.5625158643
40
1.0000000000
40
1.0000000000
40
1.0000000000
40
1.0000000000
10
-18.7208074340
20
2.0131557027
30
0.0000000000
10
-18.7211922069
20
2.1120476730
30
0.0000000000
10
-18.7063021348
20
2.2887386048
30
0.0000000000
10
-18.6529062272
20
2.4579277537
30
0.0000000000
10
-18.6183388475
20
2.5271328353
30
0.0000000000
11
-18.7208074340
21
2.0131557027
31
0.0000000000
11
-18.6922562291
21
2.3084568325
31
0.0000000000
11
-18.6183388475
21
2.5271328353
31
0.0000000000
0
SPLINE
5
25A
100
AcDbEntity
8
0
100
AcDbSpline
62
9
6
CONTINUOUS
70
0
71
3
72
17
73
13
74
11
42
0.0000001000
43
0.0000001000
44
0.0000000001
12
-0.0050228842
22
1.2909505846
32
0.0000000000
13
1.1457715364
23
-0.5994126796
33
0.0000000000
40
0.0000000000
40
0.0000000000
40
0.0000000000
40
0.0000000000
40
0.1824383828
40
0.3366508839
40
0.4568263076
40
0.5530600768
40
0.6363771845
40
0.7154994885
40
0.7948241204
40
0.8778180247
40
0.9679644680
40
1.0000000000
40
1.0000000000
40
1.0000000000
40
1.0000000000
10
11.7949550551
20
-11.7435981430
30
0.0000000000
10
11.7946495994
20
-11.6650918306
30
0.0000000000
10
11.8034555461
20
-11.5199043589
30
0.0000000000
10
11.8446897098
20
-11.3268704204
30
0.0000000000
10
11.9034615297
20
-11.1777703780
30
0.0000000000
10
11.9718303142
20
-11.0675199267
30
0.0000000000
10
12.0488957250
20
-10.9860100296
30
0.0000000000
10
12.1372977015
20
-10.9289253358
30
0.0000000000
10
12.2384147676
20
-10.8989530943
30
0.0000000000
10
12.3486519004
20
-10.9008268164
30
0.0000000000
10
12.4339985176
20
-10.9269807717
30
0.0000000000
10
12.4815329301
20
-10.9497302627
30
0.0000000000
10
12.4937680637
20
-10.9561310974
30
0.0000000000
11
11.7949550551
21
-11.7435981430
31
0.0000000000
11
11.8105317264
21
-11.5085930862
31
0.0000000000
11
11.8536828264
21
-11.3142436201
31
0.0000000000
11
11.9118980639
21
-11.1704384198
31
0.0000000000
11
11.9783779470
21
-11.0654883974
31
0.0000000000
11
12.0530397831
21
-10.9880638112
31
0.0000000000
11
12.1393238225
21
-10.9333974432
31
0.0000000000
11
12.2375694949
21
-10.9045086447
31
0.0000000000
11
12.3447062781
21
-10.9055496118
31
0.0000000000
11
12.4563802035
21
-10.9382938906
31
0.0000000000
11
12.4937680637
21
-10.9561310974
31
0.0000000000
0
SPLINE
5
25B
100
AcDbEntity
8
0
100
AcDbSpline
62
9
6
CONTINUOUS
70
0
71
3
72
12
73
8
74
6
42
0.0000001000
43
0.0000001000
44
0.0000000001
12
0.6136211734
22
-0.3210171488
32
0.0000000000
13
0.2982807343
23
-0.6240172328
33
0.0000000000
40
0.0000000000
40
0.0000000000
40
0.0000000000
40
0.0000000000
40
0.1258199487
40
0.3284734499
40
0.5435473632
40
0.7657448279
40
1.0000000000
40
1.0000000000
40
1.0000000000
40
1.0000000000
10
12.4937680637
20
-10.9561310974
30
0.0000000000
10
12.5195033252
20
-10.9695945512
30
0.0000000000
10
12.5840540788
20
-11.0097792928
30
0.0000000000
10
12.6792728458
20
-11.0920271055
30
0.0000000000
10
12.7759120743
20
-11.2039868630
30
0.0000000000
10
12.8625801759
20
-11.3325663559
30
0.0000000000
10
12.9122580025
20
-11.4254755202
30
0.0000000000
10
12.9355492707
20
-11.4742019416
30
0.0000000000
11
12.4937680637
21
-10.9561310974
31
0.0000000000
11
12.5679266110
21
-11.0017762658
31
0.0000000000
11
12.6747214019
21
-11.0924719221
31
0.0000000000
11
12.7725137675
21
-11.2044876656
31
0.0000000000
11
12.8588361877
21
-11.3315634550
31
0.0000000000
11
12.9355492707
21
-11.4742019416
31
0.0000000000
0
SPLINE
5
25C
100
AcDbEntity
8
0
100
AcDbSpline
62
9
6
CONTINUOUS
70
0
71
3
72
11
73
7
74
5
42
0.0000001000
43
0.0000001000
44
0.0000000001
12
0.3088907448
22
-0.6462138705
32
0.0000000000
13
0.0646988057
23
-0.7137099658
33
0.0000000000
40
0.0000000000
40
0.0000000000
40
0.0000000000
40
0.0000000000
40
0.2529360745
40
0.5492261300
40
0.8867736054
40
1.0000000000
40
1.0000000000
40
1.0000000000
40
1.0000000000
10
12.9355492707
20
-11.4742019416
30
0.0000000000
10
12.9615924749
20
-11.5286855415
30
0.0000000000
10
13.0121598371
20
-11.6498275457
30
0.0000000000
10
13.0741877957
20
-11.8525634367
30
0.0000000000
10
13.1078236564
20
-12.0280252031
30
0.0000000000
10
13.1197472777
20
-12.1350754409
30
0.0000000000
10
13.1221891485
20
-12.1620123763
30
0.0000000000
11
12.9355492707
21
-11.4742019416
31
0.0000000000
11
13.0055913094
21
-11.6412031215
31
0.0000000000
11
13.0678499233
21
-11.8439962457
31
0.0000000000
11
13.1132290596
21
-12.0813715038
31
0.0000000000
11
13.1221891485
21
-12.1620123763
31
0.0000000000
0
SPLINE
5
25D
100
AcDbEntity
8
0
100
AcDbSpline
62
9
6
CONTINUOUS
70
0
71
3
72
8
73
4
74
2
42
0.0000001000
43
0.0000001000
44
0.0000000001
12
0.0132963700
22
-0.1466758416
32
0.0000000000
13
0.0019159291
23
-0.1471458725
33
0.0000000000
40
0.0000000000
40
0.0000000000
40
0.0000000000
40
0.0000000000
40
1.0000000000
40
1.0000000000
40
1.0000000000
40
1.0000000000
10
13.1221891485
20
-12.1620123763
30
0.0000000000
10
13.1266212718
20
-12.2109043235
30
0.0000000000
10
13.1292311515
20
-12.2599537961
30
0.0000000000
10
13.1298697946
20
-12.3090024203
30
0.0000000000
11
13.1221891485
21
-12.1620123763
31
0.0000000000
11
13.1298697946
21
-12.3090024203
31
0.0000000000
0
SPLINE
5
25E
100
AcDbEntity
8
0
100
AcDbSpline
62
9
6
CONTINUOUS
70
0
71
3
72
8
73
4
74
2
42
0.0000001000
43
0.0000001000
44
0.0000000001
12
0.0002166972
22
-0.0166426295
32
0.0000000000
13
0.0000647509
23
-0.0166418770
33
0.0000000000
40
0.0000000000
40
0.0000000000
40
0.0000000000
40
0.0000000000
40
1.0000000000
40
1.0000000000
40
1.0000000000
40
1.0000000000
10
13.1298697946
20
-12.3090024203
30
0.0000000000
10
13.1299420270
20
-12.3145499635
30
0.0000000000
10
13.1299890428
20
-12.3200974958
30
0.0000000000
10
13.1300106264
20
-12.3256447881
30
0.0000000000
11
13.1298697946
21
-12.3090024203
31
0.0000000000
11
13.1300106264
21
-12.3256447881
31
0.0000000000
0
SPLINE
5
25F
100
AcDbEntity
8
0
100
AcDbSpline
62
7
6
CONTINUOUS
70
0
71
3
72
12
73
8
74
6
42
0.0000001000
43
0.0000001000
44
0.0000000001
12
0.0051226619
22
-1.3165948290
32
0.0000000000
13
1.0394077873
23
-0.8190203239
33
0.0000000000
40
0.0000000000
40
0.0000000000
40
0.0000000000
40
0.0000000000
40
0.2451225410
40
0.4939628445
40
0.7296965992
40
0.9382136515
40
1.0000000000
40
1.0000000000
40
1.0000000000
40
1.0000000000
10
-18.7208074340
20
2.0131557027
30
0.0000000000
10
-18.7203888740
20
1.9055800127
30
0.0000000000
10
-18.6985420603
20
1.6885259815
30
0.0000000000
10
-18.6131844328
20
1.3784097796
30
0.0000000000
10
-18.4821086165
20
1.1019095797
30
0.0000000000
10
-18.3465279403
20
0.9235230467
30
0.0000000000
10
-18.2571166878
20
0.8441880136
30
0.0000000000
10
-18.2357096172
20
0.8273199219
30
0.0000000000
11
-18.7208074340
21
2.0131557027
31
0.0000000000
11
-18.6898573575
21
1.6919136892
31
0.0000000000
11
-18.6024327208
21
1.3761691107
31
0.0000000000
11
-18.4671034530
21
1.0968585242
31
0.0000000000
11
-18.2971044875
21
0.8812905041
31
0.0000000000
11
-18.2357096172
21
0.8273199219
31
0.0000000000
0
SPLINE
5
260
100
AcDbEntity
8
0
100
AcDbSpline
62
9
6
CONTINUOUS
70
0
71
3
72
19
73
15
74
13
42
0.0000001000
43
0.0000001000
44
0.0000000001
12
-1.6812877127
22
-0.4164933074
32
0.0000000000
13
-0.0067146800
23
1.7257654861
33
0.0000000000
40
0.0000000000
40
0.0000000000
40
0.0000000000
40
0.0000000000
40
0.0191057482
40
0.0763323487
40
0.1384900670
40
0.2070415554
40
0.2818784697
40
0.3613017230
40
0.4433439821
40
0.5298138779
40
0.6264810114
40
0.7397401048
40
0.8688658477
40
1.0000000000
40
1.0000000000
40
1.0000000000
40
1.0000000000
10
12.7744946246
20
-13.0540189601
30
0.0000000000
10
12.7637872047
20
-13.0566714322
30
0.0000000000
10
12.7204744479
20
-13.0650801462
30
0.0000000000
10
12.6396358888
20
-13.0637282224
30
0.0000000000
10
12.5351209777
20
-13.0317309016
30
0.0000000000
10
12.4322850650
20
-12.9716945550
30
0.0000000000
10
12.3348378081
20
-12.8875562840
30
0.0000000000
10
12.2457429055
20
-12.7843741716
30
0.0000000000
10
12.1658492692
20
-12.6658879781
30
0.0000000000
10
12.0937823798
20
-12.5311697922
30
0.0000000000
10
12.0279688410
20
-12.3736031184
30
0.0000000000
10
11.9707465353
20
-12.1867789532
30
0.0000000000
10
11.9301505125
20
-11.9753307101
30
0.0000000000
10
11.9194458850
20
-11.8255189495
30
0.0000000000
10
11.9191523771
20
-11.7500833514
30
0.0000000000
11
12.7744946246
21
-13.0540189601
31
0.0000000000
11
12.7420272069
21
-13.0603073059
31
0.0000000000
11
12.6432711797
21
-13.0593737568
31
0.0000000000
11
12.5403264813
21
-13.0292184925
31
0.0000000000
11
12.4374928814
21
-12.9707270400
31
0.0000000000
11
12.3390334490
21
-12.8871449598
31
0.0000000000
11
12.2488713432
21
-12.7839066793
31
0.0000000000
11
12.1692919114
21
-12.6668001990
31
0.0000000000
11
12.0985836283
21
-12.5353874818
31
0.0000000000
11
12.0340244430
21
-12.3815595010
31
0.0000000000
11
11.9766042874
21
-12.1947237928
31
0.0000000000
11
11.9346966693
21
-11.9758573876
31
0.0000000000
11
11.9191523771
21
-11.7500833514
31
0.0000000000
0
SPLINE
5
261
100
AcDbEntity
8
0
100
AcDbSpline
62
9
6
CONTINUOUS
70
0
71
3
72
8
73
4
74
2
42
0.0000001000
43
0.0000001000
44
0.0000000001
12
0.0006276398
22
-0.1613120899
32
0.0000000000
13
-0.0148791035
23
-0.1608033421
33
0.0000000000
40
0.0000000000
40
0.0000000000
40
0.0000000000
40
0.0000000000
40
1.0000000000
40
1.0000000000
40
1.0000000000
40
1.0000000000
10
13.1300106264
20
-12.3256447881
30
0.0000000000
10
13.1302198397
20
-12.3794154848
30
0.0000000000
10
13.1280470645
20
-12.4332677673
30
0.0000000000
10
13.1230873633
20
-12.4868688814
30
0.0000000000
11
13.1300106264
21
-12.3256447881
31
0.0000000000
11
13.1230873633
21
-12.4868688814
31
0.0000000000
0
SPLINE
5
262
100
AcDbEntity
8
0
100
AcDbSpline
62
9
6
CONTINUOUS
70
0
71
3
72
11
73
7
74
5
42
0.0000001000
43
0.0000001000
44
0.0000000001
12
-0.0473791052
22
-0.5120414984
32
0.0000000000
13
-0.2896730630
23
-0.4250039863
33
0.0000000000
40
0.0000000000
40
0.0000000000
40
0.0000000000
40
0.0000000000
40
0.1444664406
40
0.5320382606
40
0.8340670026
40
1.0000000000
40
1.0000000000
40
1.0000000000
40
1.0000000000
10
13.1230873633
20
-12.4868688814
30
0.0000000000
10
13.1208057998
20
-12.5115264856
30
0.0000000000
10
13.1102313227
20
-12.6021392946
30
0.0000000000
10
13.0802759717
20
-12.7423725107
30
0.0000000000
10
13.0262947461
20
-12.8793191467
30
0.0000000000
10
12.9856291821
20
-12.9487058201
30
0.0000000000
10
12.9696070755
20
-12.9722132152
30
0.0000000000
11
13.1230873633
21
-12.4868688814
31
0.0000000000
11
13.1144339551
21
-12.5606498449
31
0.0000000000
11
13.0712828551
21
-12.7549993110
31
0.0000000000
11
13.0130676176
21
-12.8988045113
31
0.0000000000
11
12.9696070755
21
-12.9722132152
31
0.0000000000
0
SPLINE
5
263
100
AcDbEntity
8
0
100
AcDbSpline
62
9
6
CONTINUOUS
70
0
71
3
72
22
73
18
74
16
42
0.0000001000
43
0.0000001000
44
0.0000000001
12
-1.2333852762
22
-1.8096044335
32
0.0000000000
13
-0.0085096403
23
2.1870950360
33
0.0000000000
40
0.0000000000
40
0.0000000000
40
0.0000000000
40
0.0000000000
40
0.0178317126
40
0.0670103112
40
0.1137128929
40
0.1605349003
40
0.2095227254
40
0.2627323948
40
0.3214151242
40
0.3854768129
40
0.4534647726
40
0.5237045895
40
0.5977560212
40
0.6805568603
40
0.7775500047
40
0.8880491268
40
1.0000000000
40
1.0000000000
40
1.0000000000
40
1.0000000000
10
12.9696070755
20
-12.9722132152
30
0.0000000000
10
12.9622759516
20
-12.9829693306
30
0.0000000000
10
12.9334651915
20
-13.0225275909
30
0.0000000000
10
12.8760699565
20
-13.0832329015
30
0.0000000000
10
12.7876679800
20
-13.1403175953
30
0.0000000000
10
12.6865509139
20
-13.1702898368
30
0.0000000000
10
12.5763137811
20
-13.1684161147
30
0.0000000000
10
12.4629378918
20
-13.1336727583
30
0.0000000000
10
12.3513904809
20
-13.0685150558
30
0.0000000000
10
12.2456928357
20
-12.9772158256
30
0.0000000000
10
12.1490536072
20
-12.8652560681
30
0.0000000000
10
12.0623855056
20
-12.7366765752
30
0.0000000000
10
11.9842002972
20
-12.5904519338
30
0.0000000000
10
11.9128058444
20
-12.4194153854
30
0.0000000000
10
11.8507778858
20
-12.2166794944
30
0.0000000000
10
11.8068425064
20
-11.9874901966
30
0.0000000000
10
11.7952726090
20
-11.8252138760
30
0.0000000000
10
11.7949550551
20
-11.7435981430
30
0.0000000000
11
12.9696070755
21
-12.9722132152
31
0.0000000000
11
12.9465877346
21
-13.0037545337
31
0.0000000000
11
12.8719258984
21
-13.0811791199
31
0.0000000000
11
12.7856418590
21
-13.1358454879
31
0.0000000000
11
12.6873961866
21
-13.1647342864
31
0.0000000000
11
12.5802594034
21
-13.1636933193
31
0.0000000000
11
12.4685854780
21
-13.1309490405
31
0.0000000000
11
12.3570390705
21
-13.0674666653
31
0.0000000000
11
12.2502442796
21
-12.9767710090
31
0.0000000000
11
12.1524519140
21
-12.8647552655
31
0.0000000000
11
12.0661294938
21
-12.7376794761
31
0.0000000000
11
11.9894164108
21
-12.5950409895
31
0.0000000000
11
11.9193743721
21
-12.4280398096
31
0.0000000000
11
11.8571157582
21
-12.2252466854
31
0.0000000000
11
11.8117366219
21
-11.9878714273
31
0.0000000000
11
11.7949550551
21
-11.7435981430
31
0.0000000000
0
SPLINE
5
264
100
AcDbEntity
8
0
100
AcDbSpline
62
9
6
CONTINUOUS
70
0
71
3
72
17
73
13
74
11
42
0.0000001000
43
0.0000001000
44
0.0000000001
12
-0.0050522477
22
1.2984974218
32
0.0000000000
13
1.1445850417
23
-0.6176450571
33
0.0000000000
40
0.0000000000
40
0.0000000000
40
0.0000000000
40
0.0000000000
40
0.1796278151
40
0.3374609950
40
0.4617065502
40
0.5589759108
40
0.6412992992
40
0.7182524664
40
0.7959679774
40
0.8780964807
40
0.9679500045
40
1.0000000000
40
1.0000000000
40
1.0000000000
40
1.0000000000
10
11.6896026296
20
15.3334297234
30
0.0000000000
10
11.6893001215
20
15.4111784750
30
0.0000000000
10
11.6980940192
20
15.5575502553
30
0.0000000000
10
11.7400579336
20
15.7538271220
30
0.0000000000
10
11.8016211673
20
15.9070095822
30
0.0000000000
10
11.8731694183
20
16.0183533687
30
0.0000000000
10
11.9519773498
20
16.0978620318
30
0.0000000000
10
12.0405976639
20
16.1518085677
30
0.0000000000
10
12.1410037164
20
16.1789277669
30
0.0000000000
10
12.2505620278
20
16.1748768140
30
0.0000000000
10
12.3354842894
20
16.1474007818
30
0.0000000000
10
12.3828772286
20
16.1239397086
30
0.0000000000
10
12.3951052104
20
16.1173412016
30
0.0000000000
11
11.6896026296
21
15.3334297234
31
0.0000000000
11
11.7048606235
21
15.5661781554
31
0.0000000000
11
11.7494160830
21
15.7662239014
31
0.0000000000
11
11.8110998324
21
15.9153000408
31
0.0000000000
11
11.8804665969
21
16.0208519115
31
0.0000000000
11
11.9564671778
21
16.0960249837
31
0.0000000000
11
12.0422299738
21
16.1473045865
31
0.0000000000
11
12.1396897468
21
16.1734820433
31
0.0000000000
11
12.2462884032
21
16.1703568812
31
0.0000000000
11
12.3577255375
21
16.1357891759
31
0.0000000000
11
12.3951052104
21
16.1173412016
31
0.0000000000
0
SPLINE
5
265
100
AcDbEntity
8
0
100
AcDbSpline
62
9
6
CONTINUOUS
70
0
71
3
72
12
73
8
74
6
42
0.0000001000
43
0.0000001000
44
0.0000000001
12
0.6170940818
22
-0.3329985065
32
0.0000000000
13
0.2962867048
23
-0.6345742522
33
0.0000000000
40
0.0000000000
40
0.0000000000
40
0.0000000000
40
0.0000000000
40
0.1253364514
40
0.3280706318
40
0.5445044185
40
0.7684769259
40
1.0000000000
40
1.0000000000
40
1.0000000000
40
1.0000000000
10
12.3951052104
20
16.1173412016
30
0.0000000000
10
12.4208866712
20
16.1034289178
30
0.0000000000
10
12.4856679935
20
16.0620064741
30
0.0000000000
10
12.5813454475
20
15.9775461943
30
0.0000000000
10
12.6785214052
20
15.8626070576
30
0.0000000000
10
12.7649896039
20
15.7314334765
30
0.0000000000
10
12.8142849694
20
15.6370808171
30
0.0000000000
10
12.8371507056
20
15.5881079566
30
0.0000000000
11
12.3951052104
21
16.1173412016
31
0.0000000000
11
12.4693436061
21
16.0703971679
31
0.0000000000
11
12.5765242561
21
15.9773569803
31
0.0000000000
11
12.6749987529
21
15.8621989196
31
0.0000000000
11
12.7617643762
21
15.7315943519
31
0.0000000000
11
12.8371507056
21
15.5881079566
31
0.0000000000
0
SPLINE
5
266
100
AcDbEntity
8
0
100
AcDbSpline
62
9
6
CONTINUOUS
70
0
71
3
72
11
73
7
74
5
42
0.0000001000
43
0.0000001000
44
0.0000000001
12
0.2949433728
22
-0.6316971608
32
0.0000000000
13
0.0639596457
23
-0.6946311052
33
0.0000000000
40
0.0000000000
40
0.0000000000
40
0.0000000000
40
0.0000000000
40
0.2541741077
40
0.5462918883
40
0.8838338972
40
1.0000000000
40
1.0000000000
40
1.0000000000
40
1.0000000000
10
12.8371507056
20
15.5881079566
30
0.0000000000
10
12.8621396952
20
15.5345876025
30
0.0000000000
10
12.9102250880
20
15.4169530484
30
0.0000000000
10
12.9696462625
20
15.2200718287
30
0.0000000000
10
13.0022808359
20
15.0495779795
30
0.0000000000
10
13.0141055245
20
14.9447147278
30
0.0000000000
10
13.0165821721
20
14.9178171983
30
0.0000000000
11
12.8371507056
21
15.5881079566
31
0.0000000000
11
12.9044265740
21
15.4242454395
31
0.0000000000
11
12.9634109766
21
15.2293991037
31
0.0000000000
11
13.0075241383
21
14.9983373145
31
0.0000000000
11
13.0165821721
21
14.9178171983
31
0.0000000000
0
SPLINE
5
267
100
AcDbEntity
8
0
100
AcDbSpline
62
9
6
CONTINUOUS
70
0
71
3
72
8
73
4
74
2
42
0.0000001000
43
0.0000001000
44
0.0000000001
12
0.0137576491
22
-0.1494143829
32
0.0000000000
13
0.0019551692
23
-0.1499099081
33
0.0000000000
40
0.0000000000
40
0.0000000000
40
0.0000000000
40
0.0000000000
40
1.0000000000
40
1.0000000000
40
1.0000000000
40
1.0000000000
10
13.0165821721
20
14.9178171983
30
0.0000000000
10
13.0211680551
20
14.8680124040
30
0.0000000000
10
13.0238650809
20
14.8180408147
30
0.0000000000
10
13.0245168040
20
14.7680708453
30
0.0000000000
11
13.0165821721
21
14.9178171983
31
0.0000000000
11
13.0245168040
21
14.7680708453
31
0.0000000000
0
SPLINE
5
268
100
AcDbEntity
8
0
100
AcDbSpline
62
9
6
CONTINUOUS
70
0
71
3
72
8
73
4
74
2
42
0.0000001000
43
0.0000001000
44
0.0000000001
12
0.0002176506
22
-0.0166880596
32
0.0000000000
13
0.0000649274
23
-0.0166872421
33
0.0000000000
40
0.0000000000
40
0.0000000000
40
0.0000000000
40
0.0000000000
40
1.0000000000
40
1.0000000000
40
1.0000000000
40
1.0000000000
10
13.0245168040
20
14.7680708453
30
0.0000000000
10
13.0245893542
20
14.7625081588
30
0.0000000000
10
13.0246365585
20
14.7569454923
30
0.0000000000
10
13.0246582009
20
14.7513830783
30
0.0000000000
11
13.0245168040
21
14.7680708453
31
0.0000000000
11
13.0246582009
21
14.7513830783
31
0.0000000000
0
SPLINE
5
269
100
AcDbEntity
8
0
100
AcDbSpline
62
7
6
CONTINUOUS
70
0
71
3
72
9
73
5
74
3
42
0.0000001000
43
0.0000001000
44
0.0000000001
12
-0.2370420563
22
-0.4745663393
32
0.0000000000
13
0.0020520647
23
-0.5274089671
33
0.0000000000
40
0.0000000000
40
0.0000000000
40
0.0000000000
40
0.0000000000
40
0.4374841357
40
1.0000000000
40
1.0000000000
40
1.0000000000
40
1.0000000000
10
12.5366884580
20
15.9755151688
30
0.0000000000
10
12.5021210783
20
15.9063100872
30
0.0000000000
10
12.4487251707
20
15.7371209383
30
0.0000000000
10
12.4338350986
20
15.5604300065
30
0.0000000000
10
12.4342198716
20
15.4615380362
30
0.0000000000
11
12.5366884580
21
15.9755151688
31
0.0000000000
11
12.4627710764
21
15.7568391661
31
0.0000000000
11
12.4342198716
21
15.4615380362
31
0.0000000000
0
SPLINE
5
26A
100
AcDbEntity
8
0
100
AcDbSpline
62
7
6
CONTINUOUS
70
0
71
3
72
9
73
5
74
3
42
0.0000001000
43
0.0000001000
44
0.0000000001
12
-0.1853848025
22
-0.2869695500
32
0.0000000000
13
0.0013196720
23
-0.3391739354
33
0.0000000000
40
0.0000000000
40
0.0000000000
40
0.0000000000
40
0.0000000000
40
0.3861669375
40
1.0000000000
40
1.0000000000
40
1.0000000000
40
1.0000000000
10
12.7717581076
20
15.6754511531
30
0.0000000000
10
12.7478949471
20
15.6385117690
30
0.0000000000
10
12.7065274684
20
15.5310451156
30
0.0000000000
10
12.6944530166
20
15.4173647153
30
0.0000000000
10
12.6947230360
20
15.3479659901
30
0.0000000000
11
12.7717581076
21
15.6754511531
31
0.0000000000
11
12.7203137618
21
15.5545850077
31
0.0000000000
11
12.6947230360
21
15.3479659901
31
0.0000000000
0
SPLINE
5
26B
100
AcDbEntity
8
0
100
AcDbSpline
62
7
6
CONTINUOUS
70
0
71
3
72
12
73
8
74
6
42
0.0000001000
43
0.0000001000
44
0.0000000001
12
-1.0394077873
22
0.8190203239
32
0.0000000000
13
-0.0051226619
23
1.3165948290
33
0.0000000000
40
0.0000000000
40
0.0000000000
40
0.0000000000
40
0.0000000000
40
0.0617863485
40
0.2703034008
40
0.5060371555
40
0.7548774590
40
1.0000000000
40
1.0000000000
40
1.0000000000
40
1.0000000000
10
12.9193176884
20
14.2757022554
30
0.0000000000
10
12.8979106178
20
14.2925703471
30
0.0000000000
10
12.8084993653
20
14.3719053803
30
0.0000000000
10
12.6729186891
20
14.5502919133
30
0.0000000000
10
12.5418428728
20
14.8267921132
30
0.0000000000
10
12.4564852452
20
15.1369083151
30
0.0000000000
10
12.4346384316
20
15.3539623462
30
0.0000000000
10
12.4342198716
20
15.4615380362
30
0.0000000000
11
12.9193176884
21
14.2757022554
31
0.0000000000
11
12.8579228181
21
14.3296728376
31
0.0000000000
11
12.6879238526
21
14.5452408577
31
0.0000000000
11
12.5525945847
21
14.8245514442
31
0.0000000000
11
12.4651699481
21
15.1402960227
31
0.0000000000
11
12.4342198716
21
15.4615380362
31
0.0000000000
0
SPLINE
5
26C
100
AcDbEntity
8
0
100
AcDbSpline
62
9
6
CONTINUOUS
70
0
71
3
72
19
73
15
74
13
42
0.0000001000
43
0.0000001000
44
0.0000000001
12
-1.6814178956
22
-0.4159983564
32
0.0000000000
13
-0.0067147462
23
1.7257828350
33
0.0000000000
40
0.0000000000
40
0.0000000000
40
0.0000000000
40
0.0000000000
40
0.0232383516
40
0.0802108385
40
0.1425430078
40
0.2116509979
40
0.2874681289
40
0.3684006247
40
0.4521413456
40
0.5387016278
40
0.6333044442
40
0.7420473563
40
0.8677194728
40
1.0000000000
40
1.0000000000
40
1.0000000000
40
1.0000000000
10
-18.4858857384
20
0.5746291809
30
0.0000000000
10
-18.4989101985
20
0.5714068089
30
0.0000000000
10
-18.5445509713
20
0.5630723172
30
0.0000000000
10
-18.6276724015
20
0.5661782642
30
0.0000000000
10
-18.7318876751
20
0.5999323158
30
0.0000000000
10
-18.8347731101
20
0.6617930735
30
0.0000000000
10
-18.9325919271
20
0.7481712989
30
0.0000000000
10
-19.0221569262
20
0.8541304769
30
0.0000000000
10
-19.1018483950
20
0.9750394239
30
0.0000000000
10
-19.1725190355
20
1.1103098608
30
0.0000000000
10
-19.2357118933
20
1.2648996957
30
0.0000000000
10
-19.2904970781
20
1.4463939952
30
0.0000000000
10
-19.3302354237
20
1.6539764115
30
0.0000000000
10
-19.3409312773
20
1.8024663604
30
0.0000000000
10
-19.3412273540
20
1.8785621815
30
0.0000000000
11
-18.4858857384
21
0.5746291809
31
0.0000000000
11
-18.5254509878
21
0.5674237965
31
0.0000000000
11
-18.6237305358
21
0.5703426986
31
0.0000000000
11
-18.7264635460
21
0.6022455720
31
0.0000000000
11
-18.8293561066
21
0.6625578253
31
0.0000000000
11
-18.9281515017
21
0.7483474291
31
0.0000000000
11
-19.0189143989
21
0.8545106752
31
0.0000000000
11
-19.0988777810
21
0.9748922037
31
0.0000000000
11
-19.1683550932
21
1.1071377890
31
0.0000000000
11
-19.2303645553
21
1.2581687017
31
0.0000000000
11
-19.2847451863
21
1.4377851043
31
0.0000000000
11
-19.3254229733
21
1.6508207132
31
0.0000000000
11
-19.3412273540
21
1.8785621815
31
0.0000000000
0
SPLINE
5
26D
100
AcDbEntity
8
0
100
AcDbSpline
62
7
6
CONTINUOUS
70
0
71
3
72
9
73
5
74
3
42
0.0000001000
43
0.0000001000
44
0.0000000001
12
-0.2186924520
22
0.1357795530
32
0.0000000000
13
-0.1307351081
23
0.2205231508
33
0.0000000000
40
0.0000000000
40
0.0000000000
40
0.0000000000
40
0.0000000000
40
0.4745499399
40
1.0000000000
40
1.0000000000
40
1.0000000000
40
1.0000000000
10
13.0031218280
20
14.6477936840
30
0.0000000000
10
12.9685283314
20
14.6692717435
30
0.0000000000
10
12.9047969970
20
14.7284397416
30
0.0000000000
10
12.8550464790
20
14.7982972686
30
0.0000000000
10
12.8321482222
20
14.8369219028
30
0.0000000000
11
13.0031218280
21
14.6477936840
31
0.0000000000
11
12.9111893765
21
14.7278353401
31
0.0000000000
11
12.8321482222
21
14.8369219028
31
0.0000000000
0
SPLINE
5
26E
100
AcDbEntity
8
0
100
AcDbSpline
62
7
6
CONTINUOUS
70
0
71
3
72
10
73
6
74
4
42
0.0000001000
43
0.0000001000
44
0.0000000001
12
-0.2729017831
22
0.4603289959
32
0.0000000000
13
-0.0020776566
23
0.5339864306
33
0.0000000000
40
0.0000000000
40
0.0000000000
40
0.0000000000
40
0.0000000000
40
0.1349384381
40
0.5668683041
40
1.0000000000
40
1.0000000000
40
1.0000000000
40
1.0000000000
10
12.8321482222
20
14.8369219028
30
0.0000000000
10
12.8198732420
20
14.8576272614
30
0.0000000000
10
12.7722219591
20
14.9469246558
30
0.0000000000
10
12.7142172514
20
15.1166554830
30
0.0000000000
10
12.6950230023
20
15.2708705073
30
0.0000000000
10
12.6947230360
20
15.3479659901
30
0.0000000000
11
12.8321482222
21
14.8369219028
31
0.0000000000
11
12.7980241743
21
14.9005322942
31
0.0000000000
11
12.7220113040
21
15.1182932198
31
0.0000000000
11
12.6947230360
21
15.3479659901
31
0.0000000000
0
SPLINE
5
26F
100
AcDbEntity
8
0
100
AcDbSpline
62
9
6
CONTINUOUS
70
0
71
3
72
8
73
4
74
2
42
0.0000001000
43
0.0000001000
44
0.0000000001
12
0.0006182674
22
-0.1589032525
32
0.0000000000
13
-0.0144121247
23
-0.1584210361
33
0.0000000000
40
0.0000000000
40
0.0000000000
40
0.0000000000
40
0.0000000000
40
1.0000000000
40
1.0000000000
40
1.0000000000
40
1.0000000000
10
13.0246582009
20
14.7513830783
30
0.0000000000
10
13.0248642900
20
14.6984153275
30
0.0000000000
10
13.0227574380
20
14.6453715584
30
0.0000000000
10
13.0179533964
20
14.5925645463
30
0.0000000000
11
13.0246582009
21
14.7513830783
31
0.0000000000
11
13.0179533964
21
14.5925645463
31
0.0000000000
0
SPLINE
5
270
100
AcDbEntity
8
0
100
AcDbSpline
62
9
6
CONTINUOUS
70
0
71
3
72
11
73
7
74
5
42
0.0000001000
43
0.0000001000
44
0.0000000001
12
-0.0478503336
22
-0.5259806976
32
0.0000000000
13
-0.3056682154
23
-0.4309234162
33
0.0000000000
40
0.0000000000
40
0.0000000000
40
0.0000000000
40
0.0000000000
40
0.1409127699
40
0.5293757651
40
0.8351720529
40
1.0000000000
40
1.0000000000
40
1.0000000000
40
1.0000000000
10
13.0179533964
20
14.5925645463
30
0.0000000000
10
13.0157058221
20
14.5678587473
30
0.0000000000
10
13.0050443309
20
14.4752396204
30
0.0000000000
10
12.9742028969
20
14.3309856798
30
0.0000000000
10
12.9175568730
20
14.1900382867
30
0.0000000000
10
12.8744436089
20
14.1189891672
30
0.0000000000
10
12.8576493875
20
14.0953130932
30
0.0000000000
11
13.0179533964
21
14.5925645463
31
0.0000000000
11
13.0094002070
21
14.5186346464
31
0.0000000000
11
12.9648447475
21
14.3185889004
31
0.0000000000
11
12.9031609981
21
14.1695127610
31
0.0000000000
11
12.8576493875
21
14.0953130932
31
0.0000000000
0
SPLINE
5
271
100
AcDbEntity
8
0
100
AcDbSpline
62
9
6
CONTINUOUS
70
0
71
3
72
22
73
18
74
16
42
0.0000001000
43
0.0000001000
44
0.0000000001
12
-1.2604775912
22
-1.7769898286
32
0.0000000000
13
-0.0084648280
23
2.1755776653
33
0.0000000000
40
0.0000000000
40
0.0000000000
40
0.0000000000
40
0.0000000000
40
0.0180843009
40
0.0672191626
40
0.1131487981
40
0.1595334399
40
0.2085519840
40
0.2621812205
40
0.3216420809
40
0.3868795030
40
0.4565252937
40
0.5285969541
40
0.6030982960
40
0.6845176405
40
0.7780914448
40
0.8862159478
40
1.0000000000
40
1.0000000000
40
1.0000000000
40
1.0000000000
10
12.8576493875
20
14.0953130932
30
0.0000000000
10
12.8500511021
20
14.0846012203
30
0.0000000000
10
12.8205190423
20
14.0457041411
30
0.0000000000
10
12.7622834806
20
13.9869507699
30
0.0000000000
10
12.6736631666
20
13.9330042340
30
0.0000000000
10
12.5732571141
20
13.9058850348
30
0.0000000000
10
12.4636988027
20
13.9099359877
30
0.0000000000
10
12.3506508031
20
13.9465119151
30
0.0000000000
10
12.2390384242
20
14.0135853756
30
0.0000000000
10
12.1329153830
20
14.1072666074
30
0.0000000000
10
12.0357394252
20
14.2222057441
30
0.0000000000
10
11.9492712266
20
14.3533793253
30
0.0000000000
10
11.8725929442
20
14.5001436262
30
0.0000000000
10
11.8040357425
20
14.6678597534
30
0.0000000000
10
11.7446145680
20
14.8647409730
30
0.0000000000
10
11.7015203235
20
15.0898796170
30
0.0000000000
10
11.6899236837
20
15.2509143759
30
0.0000000000
10
11.6896026296
20
15.3334297234
30
0.0000000000
11
12.8576493875
21
14.0953130932
31
0.0000000000
11
12.8337942336
21
14.0639608902
31
0.0000000000
11
12.7577936527
21
13.9887878180
31
0.0000000000
11
12.6720308566
21
13.9375082152
31
0.0000000000
11
12.5745710837
21
13.9113307584
31
0.0000000000
11
12.4679724272
21
13.9144559205
31
0.0000000000
11
12.3565352930
21
13.9490236259
31
0.0000000000
11
12.2449172244
21
14.0144156338
31
0.0000000000
11
12.1377365744
21
14.1074558214
31
0.0000000000
11
12.0392620776
21
14.2226138821
31
0.0000000000
11
11.9524964543
21
14.3532184498
31
0.0000000000
11
11.8771101248
21
14.4967048451
31
0.0000000000
11
11.8098342565
21
14.6605673622
31
0.0000000000
11
11.7508498539
21
14.8554136981
31
0.0000000000
11
11.7067366922
21
15.0864754872
31
0.0000000000
11
11.6896026296
21
15.3334297234
31
0.0000000000
0
SPLINE
5
272
100
AcDbEntity
8
0
100
AcDbSpline
62
9
6
CONTINUOUS
70
0
71
3
72
14
73
10
74
8
42
0.0000001000
43
0.0000001000
44
0.0000000001
12
-0.0036026054
22
0.9259194009
32
0.0000000000
13
0.9102648519
23
0.1866838670
33
0.0000000000
40
0.0000000000
40
0.0000000000
40
0.0000000000
40
0.0000000000
40
0.2328262892
40
0.4368625167
40
0.5973528210
40
0.7229862340
40
0.8293502374
40
0.9288151967
40
1.0000000000
40
1.0000000000
40
1.0000000000
40
1.0000000000
10
11.8137999516
20
15.3269445150
30
0.0000000000
10
11.8135203578
20
15.3988039744
30
0.0000000000
10
11.8216575141
20
15.5339230307
30
0.0000000000
10
11.8604470120
20
15.7149868031
30
0.0000000000
10
11.9172495106
20
15.8560916613
30
0.0000000000
10
11.9832048621
20
15.9586191467
30
0.0000000000
10
12.0558455337
20
16.0318354966
30
0.0000000000
10
12.1297287645
20
16.0767675145
30
0.0000000000
10
12.1804395409
20
16.0926977571
30
0.0000000000
10
12.2020385491
20
16.0971274419
30
0.0000000000
11
11.8137999516
21
15.3269445150
31
0.0000000000
11
11.8279400573
21
15.5420602934
31
0.0000000000
11
11.8690934420
21
15.7264460896
31
0.0000000000
11
11.9259843038
21
15.8637269951
31
0.0000000000
11
11.9899200497
21
15.9609085775
31
0.0000000000
11
12.0599716504
21
16.0301336863
31
0.0000000000
11
12.1390367505
21
16.0773630226
31
0.0000000000
11
12.2020385491
21
16.0971274419
31
0.0000000000
0
SPLINE
5
273
100
AcDbEntity
8
0
100
AcDbSpline
62
9
6
CONTINUOUS
70
0
71
3
72
17
73
13
74
11
42
0.0000001000
43
0.0000001000
44
0.0000000001
12
-0.0050228842
22
1.2909505846
32
0.0000000000
13
1.1457715364
23
-0.5994126796
33
0.0000000000
40
0.0000000000
40
0.0000000000
40
0.0000000000
40
0.0000000000
40
0.1824383828
40
0.3366508839
40
0.4568263076
40
0.5530600768
40
0.6363771845
40
0.7154994885
40
0.7948241204
40
0.8778180247
40
0.9679644680
40
1.0000000000
40
1.0000000000
40
1.0000000000
40
1.0000000000
10
-19.5707771015
20
28.9620752563
30
0.0000000000
10
-19.5710825571
20
29.0405815687
30
0.0000000000
10
-19.5622766105
20
29.1857690404
30
0.0000000000
10
-19.5210424468
20
29.3788029789
30
0.0000000000
10
-19.4622706269
20
29.5279030213
30
0.0000000000
10
-19.3939018424
20
29.6381534726
30
0.0000000000
10
-19.3168364316
20
29.7196633697
30
0.0000000000
10
-19.2284344551
20
29.7767480635
30
0.0000000000
10
-19.1273173890
20
29.8067203050
30
0.0000000000
10
-19.0170802562
20
29.8048465829
30
0.0000000000
10
-18.9317336390
20
29.7786926276
30
0.0000000000
10
-18.8841992264
20
29.7559431365
30
0.0000000000
10
-18.8719640928
20
29.7495423018
30
0.0000000000
11
-19.5707771015
21
28.9620752563
31
0.0000000000
11
-19.5552004302
21
29.1970803131
31
0.0000000000
11
-19.5120493302
21
29.3914297792
31
0.0000000000
11
-19.4538340926
21
29.5352349795
31
0.0000000000
11
-19.3873542096
21
29.6401850019
31
0.0000000000
11
-19.3126923734
21
29.7176095881
31
0.0000000000
11
-19.2264083341
21
29.7722759561
31
0.0000000000
11
-19.1281626617
21
29.8011647546
31
0.0000000000
11
-19.0210258784
21
29.8001237875
31
0.0000000000
11
-18.9093519531
21
29.7673795087
31
0.0000000000
11
-18.8719640928
21
29.7495423018
31
0.0000000000
0
SPLINE
5
274
100
AcDbEntity
8
0
100
AcDbSpline
62
9
6
CONTINUOUS
70
0
71
3
72
12
73
8
74
6
42
0.0000001000
43
0.0000001000
44
0.0000000001
12
0.6136211734
22
-0.3210171488
32
0.0000000000
13
0.2982807343
23
-0.6240172328
33
0.0000000000
40
0.0000000000
40
0.0000000000
40
0.0000000000
40
0.0000000000
40
0.1258199487
40
0.3284734499
40
0.5435473632
40
0.7657448279
40
1.0000000000
40
1.0000000000
40
1.0000000000
40
1.0000000000
10
-18.8719640928
20
29.7495423018
30
0.0000000000
10
-18.8462288313
20
29.7360788481
30
0.0000000000
10
-18.7816780777
20
29.6958941065
30
0.0000000000
10
-18.6864593107
20
29.6136462938
30
0.0000000000
10
-18.5898200823
20
29.5016865363
30
0.0000000000
10
-18.5031519807
20
29.3731070434
30
0.0000000000
10
-18.4534741541
20
29.2801978791
30
0.0000000000
10
-18.4301828859
20
29.2314714577
30
0.0000000000
11
-18.8719640928
21
29.7495423018
31
0.0000000000
11
-18.7978055456
21
29.7038971335
31
0.0000000000
11
-18.6910107547
21
29.6132014772
31
0.0000000000
11
-18.5932183891
21
29.5011857337
31
0.0000000000
11
-18.5068959689
21
29.3741099443
31
0.0000000000
11
-18.4301828859
21
29.2314714577
31
0.0000000000
0
SPLINE
5
275
100
AcDbEntity
8
0
100
AcDbSpline
62
9
6
CONTINUOUS
70
0
71
3
72
11
73
7
74
5
42
0.0000001000
43
0.0000001000
44
0.0000000001
12
0.3088907448
22
-0.6462138705
32
0.0000000000
13
0.0646988057
23
-0.7137099658
33
0.0000000000
40
0.0000000000
40
0.0000000000
40
0.0000000000
40
0.0000000000
40
0.2529360745
40
0.5492261300
40
0.8867736054
40
1.0000000000
40
1.0000000000
40
1.0000000000
40
1.0000000000
10
-18.4301828859
20
29.2314714577
30
0.0000000000
10
-18.4041396817
20
29.1769878578
30
0.0000000000
10
-18.3535723195
20
29.0558458536
30
0.0000000000
10
-18.2915443608
20
28.8531099626
30
0.0000000000
10
-18.2579085002
20
28.6776481962
30
0.0000000000
10
-18.2459848789
20
28.5705979584
30
0.0000000000
10
-18.2435430081
20
28.5436610230
30
0.0000000000
11
-18.4301828859
21
29.2314714577
31
0.0000000000
11
-18.3601408472
21
29.0644702778
31
0.0000000000
11
-18.2978822333
21
28.8616771536
31
0.0000000000
11
-18.2525030970
21
28.6243018955
31
0.0000000000
11
-18.2435430081
21
28.5436610230
31
0.0000000000
0
SPLINE
5
276
100
AcDbEntity
8
0
100
AcDbSpline
62
9
6
CONTINUOUS
70
0
71
3
72
8
73
4
74
2
42
0.0000001000
43
0.0000001000
44
0.0000000001
12
0.0132963700
22
-0.1466758416
32
0.0000000000
13
0.0019159291
23
-0.1471458725
33
0.0000000000
40
0.0000000000
40
0.0000000000
40
0.0000000000
40
0.0000000000
40
1.0000000000
40
1.0000000000
40
1.0000000000
40
1.0000000000
10
-18.2435430081
20
28.5436610230
30
0.0000000000
10
-18.2391108847
20
28.4947690758
30
0.0000000000
10
-18.2365010050
20
28.4457196032
30
0.0000000000
10
-18.2358623620
20
28.3966709790
30
0.0000000000
11
-18.2435430081
21
28.5436610230
31
0.0000000000
11
-18.2358623620
21
28.3966709790
31
0.0000000000
0
SPLINE
5
277
100
AcDbEntity
8
0
100
AcDbSpline
62
9
6
CONTINUOUS
70
0
71
3
72
8
73
4
74
2
42
0.0000001000
43
0.0000001000
44
0.0000000001
12
0.0002166972
22
-0.0166426295
32
0.0000000000
13
0.0000647509
23
-0.0166418770
33
0.0000000000
40
0.0000000000
40
0.0000000000
40
0.0000000000
40
0.0000000000
40
1.0000000000
40
1.0000000000
40
1.0000000000
40
1.0000000000
10
-18.2358623620
20
28.3966709790
30
0.0000000000
10
-18.2357901296
20
28.3911234358
30
0.0000000000
10
-18.2357431138
20
28.3855759035
30
0.0000000000
10
-18.2357215301
20
28.3800286112
30
0.0000000000
11
-18.2358623620
21
28.3966709790
31
0.0000000000
11
-18.2357215301
21
28.3800286112
31
0.0000000000
0
SPLINE
5
278
100
AcDbEntity
8
0
100
AcDbSpline
62
9
6
CONTINUOUS
70
0
71
3
72
11
73
7
74
5
42
0.0000001000
43
0.0000001000
44
0.0000000001
12
0.7766941836
22
-0.3386167989
32
0.0000000000
13
0.8266275345
23
0.1860164256
33
0.0000000000
40
0.0000000000
40
0.0000000000
40
0.0000000000
40
0.0000000000
40
0.2091754775
40
0.4690499772
40
0.7452579845
40
1.0000000000
40
1.0000000000
40
1.0000000000
40
1.0000000000
10
15.6240079467
20
-22.5181690896
30
0.0000000000
10
15.6781630722
20
-22.5417791998
30
0.0000000000
10
15.8077031303
20
-22.5751560317
30
0.0000000000
10
16.0172626037
20
-22.5977477232
30
0.0000000000
10
16.2411212617
20
-22.5950274135
30
0.0000000000
10
16.3903890826
20
-22.5753008881
30
0.0000000000
10
16.4605813373
20
-22.5595054884
30
0.0000000000
11
15.6240079467
21
-22.5181690896
31
0.0000000000
11
15.7941691342
21
-22.5677382799
31
0.0000000000
11
16.0129065448
21
-22.5930003496
31
0.0000000000
11
16.2469193907
21
-22.5901093777
31
0.0000000000
11
16.4605813373
21
-22.5595054884
31
0.0000000000
0
SPLINE
5
279
100
AcDbEntity
8
0
100
AcDbSpline
62
9
6
CONTINUOUS
70
0
71
3
72
10
73
6
74
4
42
0.0000001000
43
0.0000001000
44
0.0000000001
12
0.0020662723
22
-0.5310605799
32
0.0000000000
13
0.4914428279
23
-0.2159684247
33
0.0000000000
40
0.0000000000
40
0.0000000000
40
0.0000000000
40
0.0000000000
40
0.4014482523
40
0.7653318119
40
1.0000000000
40
1.0000000000
40
1.0000000000
40
1.0000000000
10
14.2435295196
20
-24.1926222781
30
0.0000000000
10
14.2438060201
20
-24.2636867253
30
0.0000000000
10
14.2660583846
20
-24.4007972735
30
0.0000000000
10
14.3638418470
20
-24.5555401581
30
0.0000000000
10
14.4546062226
20
-24.6154822508
30
0.0000000000
10
14.4930482219
20
-24.6323758905
30
0.0000000000
11
14.2435295196
21
-24.1926222781
31
0.0000000000
11
14.2816188707
21
-24.4023871234
31
0.0000000000
11
14.3883910790
21
-24.5634572547
31
0.0000000000
11
14.4930482219
21
-24.6323758905
31
0.0000000000
0
SPLINE
5
27A
100
AcDbEntity
8
0
100
AcDbSpline
62
9
6
CONTINUOUS
70
0
71
3
72
13
73
9
74
7
42
0.0000001000
43
0.0000001000
44
0.0000000001
12
1.3339114227
22
-0.5815478286
32
0.0000000000
13
0.6048718639
23
1.3263180092
33
0.0000000000
40
0.0000000000
40
0.0000000000
40
0.0000000000
40
0.0000000000
40
0.1417255728
40
0.2957911053
40
0.4607557405
40
0.6429879476
40
0.8488970565
40
1.0000000000
40
1.0000000000
40
1.0000000000
40
1.0000000000
10
14.2435295196
20
-24.1926222781
30
0.0000000000
10
14.3065459731
20
-24.2200956778
30
0.0000000000
10
14.4439513588
20
-24.2653284959
30
0.0000000000
10
14.6699683300
20
-24.2810694585
30
0.0000000000
10
14.9100643400
20
-24.2193125969
30
0.0000000000
10
15.1362423233
20
-24.0662585935
30
0.0000000000
10
15.3024527839
20
-23.8604095434
30
0.0000000000
10
15.3844572633
20
-23.7071852034
30
0.0000000000
10
15.4149232363
20
-23.6403816850
30
0.0000000000
11
14.2435295196
21
-24.1926222781
31
0.0000000000
11
14.4399845897
21
-24.2553770016
31
0.0000000000
11
14.6637624072
21
-24.2689889068
31
0.0000000000
11
14.8963022169
21
-24.2094075097
31
0.0000000000
11
15.1179450328
21
-24.0638252037
31
0.0000000000
11
15.3100192064
21
-23.8338530107
31
0.0000000000
11
15.4149232363
21
-23.6403816850
31
0.0000000000
0
SPLINE
5
27B
100
AcDbEntity
8
0
100
AcDbSpline
62
9
6
CONTINUOUS
70
0
71
3
72
11
73
7
74
5
42
0.0000001000
43
0.0000001000
44
0.0000000001
12
0.4777008013
22
1.0474667670
32
0.0000000000
13
-0.0044714292
23
1.1492190313
33
0.0000000000
40
0.0000000000
40
0.0000000000
40
0.0000000000
40
0.0000000000
40
0.0993142652
40
0.4085189981
40
0.7167792905
40
1.0000000000
40
1.0000000000
40
1.0000000000
40
1.0000000000
10
15.4149232363
20
-23.6403816850
30
0.0000000000
10
15.4307374044
20
-23.6057055542
30
0.0000000000
10
15.4910860272
20
-23.4609050442
30
0.0000000000
10
15.5662824205
20
-23.1957173870
30
0.0000000000
10
15.6155113926
20
-22.8534299246
30
0.0000000000
10
15.6244300804
20
-22.6266632994
30
0.0000000000
10
15.6240079467
20
-22.5181690896
30
0.0000000000
11
15.4149232363
21
-23.6403816850
31
0.0000000000
11
15.4590461091
21
-23.5349265213
31
0.0000000000
11
15.5586006166
21
-23.1938104939
31
0.0000000000
11
15.6105214777
21
-22.8433746569
31
0.0000000000
11
15.6240079467
21
-22.5181690896
31
0.0000000000
0
SPLINE
5
27C
100
AcDbEntity
8
0
100
AcDbSpline
62
9
6
CONTINUOUS
70
0
71
3
72
10
73
6
74
4
42
0.0000001000
43
0.0000001000
44
0.0000000001
12
0.0020662727
22
-0.5310606073
32
0.0000000000
13
0.4914428775
23
-0.2159683639
33
0.0000000000
40
0.0000000000
40
0.0000000000
40
0.0000000000
40
0.0000000000
40
0.4014496568
40
0.7653333454
40
1.0000000000
40
1.0000000000
40
1.0000000000
40
1.0000000000
10
-20.4902257371
20
-9.0496827971
30
0.0000000000
10
-20.4899492357
20
-9.1207474966
30
0.0000000000
10
-20.4676967476
20
-9.2578583476
30
0.0000000000
10
-20.3699129783
20
-9.4126010743
30
0.0000000000
10
-20.2791487551
20
-9.4725428976
30
0.0000000000
10
-20.2407070031
20
-9.4894364221
30
0.0000000000
11
-20.4902257371
21
-9.0496827971
31
0.0000000000
11
-20.4521361053
21
-9.2594483607
31
0.0000000000
11
-20.3453635532
21
-9.4205183582
31
0.0000000000
11
-20.2407070031
21
-9.4894364221
31
0.0000000000
0
SPLINE
5
27D
100
AcDbEntity
8
0
100
AcDbSpline
62
9
6
CONTINUOUS
70
0
71
3
72
9
73
5
74
3
42
0.0000001000
43
0.0000001000
44
0.0000000001
12
-0.1450589054
22
0.0632415993
32
0.0000000000
13
-0.0063100066
23
0.1648050406
33
0.0000000000
40
0.0000000000
40
0.0000000000
40
0.0000000000
40
0.0000000000
40
0.7357071877
40
1.0000000000
40
1.0000000000
40
1.0000000000
40
1.0000000000
10
-21.8884477306
20
-6.1637944502
30
0.0000000000
10
-21.9240213571
20
-6.1482853504
30
0.0000000000
10
-21.9800977336
20
-6.1259973797
30
0.0000000000
10
-21.9947785972
20
-6.0704066114
30
0.0000000000
10
-21.9953344936
20
-6.0558876822
30
0.0000000000
11
-21.8884477306
21
-6.1637944502
31
0.0000000000
11
-21.9841269986
21
-6.0974648690
31
0.0000000000
11
-21.9953344936
21
-6.0558876822
31
0.0000000000
0
SPLINE
5
27E
100
AcDbEntity
8
0
100
AcDbSpline
62
9
6
CONTINUOUS
70
0
71
3
72
16
73
12
74
10
42
0.0000001000
43
0.0000001000
44
0.0000000001
12
0.0130419400
22
-3.3519586419
32
0.0000000000
13
3.0726664611
23
-1.3395960765
33
0.0000000000
40
0.0000000000
40
0.0000000000
40
0.0000000000
40
0.0000000000
40
0.0981534636
40
0.2155985247
40
0.3459786896
40
0.4817005802
40
0.6143511386
40
0.7365997352
40
0.8430401741
40
0.9309977142
40
1.0000000000
40
1.0000000000
40
1.0000000000
40
1.0000000000
10
-21.8884477306
20
-6.1637944502
30
0.0000000000
10
-21.8880210268
20
-6.2734632337
30
0.0000000000
10
-21.8765455278
20
-6.5144075342
30
0.0000000000
10
-21.8244255364
20
-6.8979829979
30
0.0000000000
10
-21.7265077019
20
-7.3159262802
30
0.0000000000
10
-21.5806722864
20
-7.7378310558
30
0.0000000000
10
-21.3923459123
20
-8.1327020703
30
0.0000000000
10
-21.1737500747
20
-8.4735661967
30
0.0000000000
10
-20.9414759703
20
-8.7423024750
30
0.0000000000
10
-20.7144902768
20
-8.9318197655
30
0.0000000000
10
-20.5608994069
20
-9.0188710667
30
0.0000000000
10
-20.4902257371
20
-9.0496827971
30
0.0000000000
11
-21.8884477306
21
-6.1637944502
31
0.0000000000
11
-21.8732191484
21
-6.4924506653
31
0.0000000000
11
-21.8205495647
21
-6.8825853951
31
0.0000000000
11
-21.7208167608
21
-7.3080857317
31
0.0000000000
11
-21.5715601923
21
-7.7378422952
31
0.0000000000
11
-21.3788510955
21
-8.1385544142
31
0.0000000000
11
-21.1557838651
21
-8.4822939101
31
0.0000000000
11
-20.9204459448
21
-8.7504594870
31
0.0000000000
11
-20.6923992700
21
-8.9373305138
31
0.0000000000
11
-20.4902257371
21
-9.0496827971
31
0.0000000000
0
SPLINE
5
27F
100
AcDbEntity
8
0
100
AcDbSpline
62
9
6
CONTINUOUS
70
0
71
3
72
9
73
5
74
3
42
0.0000001000
43
0.0000001000
44
0.0000000001
12
-0.1450589398
22
0.0632416141
32
0.0000000000
13
-0.0063096375
23
0.1648051717
33
0.0000000000
40
0.0000000000
40
0.0000000000
40
0.0000000000
40
0.0000000000
40
0.7357090134
40
1.0000000000
40
1.0000000000
40
1.0000000000
40
1.0000000000
10
-22.0647744217
20
39.1545995578
30
0.0000000000
10
-22.1003481449
20
39.1701086997
30
0.0000000000
10
-22.1564246640
20
39.1923967294
30
0.0000000000
10
-22.1711052971
20
39.2479875012
30
0.0000000000
10
-22.1716611572
20
39.2625063416
30
0.0000000000
11
-22.0647744217
21
39.1545995578
31
0.0000000000
11
-22.1604538878
21
39.2209294087
31
0.0000000000
11
-22.1716611572
21
39.2625063416
31
0.0000000000
0
SPLINE
5
280
100
AcDbEntity
8
0
100
AcDbSpline
62
7
6
CONTINUOUS
70
0
71
3
72
9
73
5
74
3
42
0.0000001000
43
0.0000001000
44
0.0000000001
12
-0.0013197676
22
0.3391984883
32
0.0000000000
13
0.1854212011
23
0.2869770384
33
0.0000000000
40
0.0000000000
40
0.0000000000
40
0.0000000000
40
0.0000000000
40
0.6137886301
40
1.0000000000
40
1.0000000000
40
1.0000000000
40
1.0000000000
10
-18.5656566950
20
28.9766115230
30
0.0000000000
10
-18.5659267145
20
29.0460102481
30
0.0000000000
10
-18.5538513886
20
29.1596988778
30
0.0000000000
10
-18.5124787946
20
29.2671728609
30
0.0000000000
10
-18.4886082026
20
29.3041174593
30
0.0000000000
11
-18.5656566950
21
28.9766115230
31
0.0000000000
11
-18.5400659693
21
29.1832305406
31
0.0000000000
11
-18.4886082026
21
29.3041174593
31
0.0000000000
0
SPLINE
5
281
100
AcDbEntity
8
0
100
AcDbSpline
62
7
6
CONTINUOUS
70
0
71
3
72
10
73
6
74
4
42
0.0000001000
43
0.0000001000
44
0.0000000001
12
0.0020776566
22
-0.5339864306
32
0.0000000000
13
0.2729017831
23
-0.4603289959
33
0.0000000000
40
0.0000000000
40
0.0000000000
40
0.0000000000
40
0.0000000000
40
0.4331316959
40
0.8650615619
40
1.0000000000
40
1.0000000000
40
1.0000000000
40
1.0000000000
10
-18.5656566950
20
28.9766115230
30
0.0000000000
10
-18.5653567287
20
28.8995160402
30
0.0000000000
10
-18.5461624797
20
28.7453010159
30
0.0000000000
10
-18.4881577720
20
28.5755701887
30
0.0000000000
10
-18.4405064890
20
28.4862727943
30
0.0000000000
10
-18.4282315089
20
28.4655674357
30
0.0000000000
11
-18.5656566950
21
28.9766115230
31
0.0000000000
11
-18.5383684270
21
28.7469387527
31
0.0000000000
11
-18.4623555567
21
28.5291778271
31
0.0000000000
11
-18.4282315089
21
28.4655674357
31
0.0000000000
0
SPLINE
5
282
100
AcDbEntity
8
0
100
AcDbSpline
62
7
6
CONTINUOUS
70
0
71
3
72
9
73
5
74
3
42
0.0000001000
43
0.0000001000
44
0.0000000001
12
0.1307359330
22
-0.2205245421
32
0.0000000000
13
0.2186945630
23
-0.1357793001
33
0.0000000000
40
0.0000000000
40
0.0000000000
40
0.0000000000
40
0.0000000000
40
0.5254467448
40
1.0000000000
40
1.0000000000
40
1.0000000000
40
1.0000000000
10
-18.4282315089
20
28.4655674357
30
0.0000000000
10
-18.4053332521
20
28.4269428015
30
0.0000000000
10
-18.3555824201
20
28.3570848337
30
0.0000000000
10
-18.2918505955
20
28.2979165298
30
0.0000000000
10
-18.2572565232
20
28.2764383602
30
0.0000000000
11
-18.4282315089
21
28.4655674357
31
0.0000000000
11
-18.3491903545
21
28.3564808730
31
0.0000000000
11
-18.2572565232
21
28.2764383602
31
0.0000000000
0
SPLINE
5
283
100
AcDbEntity
8
0
100
AcDbSpline
62
9
6
CONTINUOUS
70
0
71
3
72
11
73
7
74
5
42
0.0000001000
43
0.0000001000
44
0.0000000001
12
-0.0034764339
22
0.8934916323
32
0.0000000000
13
0.8717000533
23
0.1961591182
33
0.0000000000
40
0.0000000000
40
0.0000000000
40
0.0000000000
40
0.0000000000
40
0.2567771516
40
0.5185174640
40
0.7698059422
40
1.0000000000
40
1.0000000000
40
1.0000000000
40
1.0000000000
10
-20.6842959947
20
40.8290527463
30
0.0000000000
10
-20.6845935509
20
40.9055288251
30
0.0000000000
10
-20.6585375328
20
41.0608447710
30
0.0000000000
10
-20.5539714037
20
41.2685478118
30
0.0000000000
10
-20.3974671410
20
41.4301774312
30
0.0000000000
10
-20.2641648264
20
41.4941368797
30
0.0000000000
10
-20.1972781023
20
41.5091884342
30
0.0000000000
11
-20.6842959947
21
40.8290527463
31
0.0000000000
11
-20.6479041795
21
41.0555781273
31
0.0000000000
11
-20.5425710784
21
41.2643784271
31
0.0000000000
11
-20.3843322520
21
41.4236653758
31
0.0000000000
11
-20.1972781023
21
41.5091884342
31
0.0000000000
0
SPLINE
5
284
100
AcDbEntity
8
0
100
AcDbSpline
62
7
6
CONTINUOUS
70
0
71
3
72
12
73
8
74
6
42
0.0000001000
43
0.0000001000
44
0.0000000001
12
0.0051226452
22
-1.3165905430
32
0.0000000000
13
1.0393994443
23
-0.8190241372
33
0.0000000000
40
0.0000000000
40
0.0000000000
40
0.0000000000
40
0.0000000000
40
0.2451233390
40
0.4939644525
40
0.7296989747
40
0.9382167057
40
1.0000000000
40
1.0000000000
40
1.0000000000
40
1.0000000000
10
-18.8261598595
20
29.0901835691
30
0.0000000000
10
-18.8257412995
20
28.9826078791
30
0.0000000000
10
-18.8038944858
20
28.7655538480
30
0.0000000000
10
-18.7185368583
20
28.4554376460
30
0.0000000000
10
-18.5874610420
20
28.1789374461
30
0.0000000000
10
-18.4518812380
20
28.0005520607
30
0.0000000000
10
-18.3624712669
20
27.9212177909
30
0.0000000000
10
-18.3410654263
20
27.9043504545
30
0.0000000000
11
-18.8261598595
21
29.0901835691
31
0.0000000000
11
-18.7952097830
21
28.7689415556
31
0.0000000000
11
-18.7077851463
21
28.4531969771
31
0.0000000000
11
-18.5724558785
21
28.1738863906
31
0.0000000000
11
-18.4024569130
21
27.9583183705
31
0.0000000000
11
-18.3410654263
21
27.9043504545
31
0.0000000000
0
SPLINE
5
285
100
AcDbEntity
8
0
100
AcDbSpline
62
9
6
CONTINUOUS
70
0
71
3
72
10
73
6
74
4
42
0.0000001000
43
0.0000001000
44
0.0000000001
12
-0.6036421579
22
0.2631709874
32
0.0000000000
13
-0.6458805297
23
-0.1436711989
33
0.0000000000
40
0.0000000000
40
0.0000000000
40
0.0000000000
40
0.0000000000
40
0.3923140821
40
0.8178551437
40
1.0000000000
40
1.0000000000
40
1.0000000000
40
1.0000000000
10
-20.1972781024
20
41.5091884342
30
0.0000000000
10
-20.2762172087
20
41.5436036623
30
0.0000000000
10
-20.4481639213
20
41.6001718986
30
0.0000000000
10
-20.6701590812
20
41.6155094203
30
0.0000000000
10
-20.8028519343
20
41.5949807803
30
0.0000000000
10
-20.8420665397
20
41.5862577904
30
0.0000000000
11
-20.1972781024
21
41.5091884342
31
0.0000000000
11
-20.4433902291
21
41.5877437333
31
0.0000000000
11
-20.7231079062
21
41.6046054193
31
0.0000000000
11
-20.8420665397
21
41.5862577904
31
0.0000000000
0
SPLINE
5
286
100
AcDbEntity
8
0
100
AcDbSpline
62
9
6
CONTINUOUS
70
0
71
3
72
16
73
12
74
10
42
0.0000001000
43
0.0000001000
44
0.0000000001
12
-2.3873751289
22
1.0408283478
32
0.0000000000
13
0.0101332193
23
-2.6043772717
33
0.0000000000
40
0.0000000000
40
0.0000000000
40
0.0000000000
40
0.0000000000
40
0.0791871198
40
0.1652690142
40
0.2574406250
40
0.3592602426
40
0.4743089876
40
0.6025594299
40
0.7390004776
40
0.8750247773
40
1.0000000000
40
1.0000000000
40
1.0000000000
40
1.0000000000
10
-20.6842959947
20
40.8290527463
30
0.0000000000
10
-20.7473124481
20
40.8565261460
30
0.0000000000
10
-20.8847178339
20
40.9017589641
30
0.0000000000
10
-21.1107348050
20
40.9174999267
30
0.0000000000
10
-21.3508308151
20
40.8557430651
30
0.0000000000
10
-21.5770087984
20
40.7026890617
30
0.0000000000
10
-21.7673948468
20
40.4668989251
30
0.0000000000
10
-21.9117804445
20
40.1681216467
30
0.0000000000
10
-22.0070488956
20
39.8321478552
30
0.0000000000
10
-22.0562778677
20
39.4898603928
30
0.0000000000
10
-22.0651965555
20
39.2630937676
30
0.0000000000
10
-22.0647744217
20
39.1545995578
30
0.0000000000
11
-20.6842959947
21
40.8290527463
31
0.0000000000
11
-20.8807510648
21
40.8918074698
31
0.0000000000
11
-21.1045288823
21
40.9054193750
31
0.0000000000
11
-21.3370686920
21
40.8458379779
31
0.0000000000
11
-21.5587115079
21
40.7002556719
31
0.0000000000
11
-21.7507856815
21
40.4702834789
31
0.0000000000
11
-21.8998125841
21
40.1713569895
31
0.0000000000
11
-21.9993670917
21
39.8302409621
31
0.0000000000
11
-22.0512879528
21
39.4798051251
31
0.0000000000
11
-22.0647744217
21
39.1545995578
31
0.0000000000
0
SPLINE
5
287
100
AcDbEntity
8
0
100
AcDbSpline
62
9
6
CONTINUOUS
70
0
71
3
72
11
73
7
74
5
42
0.0000001000
43
0.0000001000
44
0.0000000001
12
-0.0034764344
22
0.8934916349
32
0.0000000000
13
0.8717000559
23
0.1961591186
33
0.0000000000
40
0.0000000000
40
0.0000000000
40
0.0000000000
40
0.0000000000
40
0.2567781313
40
0.5185186375
40
0.7698066586
40
1.0000000000
40
1.0000000000
40
1.0000000000
40
1.0000000000
10
14.0494592621
20
25.6861132653
30
0.0000000000
10
14.0491617046
20
25.7625896361
30
0.0000000000
10
14.0752178838
20
25.9179059406
30
0.0000000000
10
14.1797843685
20
26.1256090493
30
0.0000000000
10
14.3362886263
20
26.2872382552
30
0.0000000000
10
14.4695906382
20
26.3511974456
30
0.0000000000
10
14.5364771544
20
26.3662489532
30
0.0000000000
11
14.0494592621
21
25.6861132653
31
0.0000000000
11
14.0858513517
21
25.9126394896
31
0.0000000000
11
14.1911847969
21
26.1214398103
31
0.0000000000
11
14.3494235357
21
26.2807262714
31
0.0000000000
11
14.5364771544
21
26.3662489532
31
0.0000000000
0
SPLINE
5
288
100
AcDbEntity
8
0
100
AcDbSpline
62
9
6
CONTINUOUS
70
0
71
3
72
14
73
10
74
8
42
0.0000001000
43
0.0000001000
44
0.0000000001
12
-0.0036031262
22
0.9260532313
32
0.0000000000
13
0.9103897842
23
0.1864842910
33
0.0000000000
40
0.0000000000
40
0.0000000000
40
0.0000000000
40
0.0000000000
40
0.2345505789
40
0.4327549167
40
0.5871823503
40
0.7108265085
40
0.8178722783
40
0.9195332713
40
1.0000000000
40
1.0000000000
40
1.0000000000
40
1.0000000000
10
-19.4465797795
20
28.9555900479
30
0.0000000000
10
-19.4468614846
20
29.0279921550
30
0.0000000000
10
-19.4387385974
20
29.1618728330
30
0.0000000000
10
-19.4007120160
20
29.3398561324
30
0.0000000000
10
-19.3465218117
20
29.4772972204
30
0.0000000000
10
-19.2835019900
20
29.5789135353
30
0.0000000000
10
-19.2124750313
20
29.6540385523
30
0.0000000000
10
-19.1366319775
20
29.7030268088
30
0.0000000000
10
-19.0826518164
20
29.7207987898
30
0.0000000000
10
-19.0582331205
20
29.7258007168
30
0.0000000000
11
-19.4465797795
21
28.9555900479
31
0.0000000000
11
-19.4322097741
21
29.1723221481
31
0.0000000000
11
-19.3924161335
21
29.3515057387
31
0.0000000000
11
-19.3387433431
21
29.4840607691
31
0.0000000000
11
-19.2774675290
21
29.5807870252
31
0.0000000000
11
-19.2086578688
21
29.6521463440
31
0.0000000000
11
-19.1291375932
21
29.7025413522
31
0.0000000000
11
-19.0582331205
21
29.7258007168
31
0.0000000000
0
SPLINE
5
289
100
AcDbEntity
8
0
100
AcDbSpline
62
7
6
CONTINUOUS
70
0
71
3
72
9
73
5
74
3
42
0.0000001000
43
0.0000001000
44
0.0000000001
12
-0.0020520511
22
0.5274054521
32
0.0000000000
13
0.2370381349
23
0.4745641819
33
0.0000000000
40
0.0000000000
40
0.0000000000
40
0.0000000000
40
0.0000000000
40
0.5625196133
40
1.0000000000
40
1.0000000000
40
1.0000000000
40
1.0000000000
10
-18.8261598595
20
29.0901835691
30
0.0000000000
10
-18.8265446325
20
29.1890755394
30
0.0000000000
10
-18.8116546596
20
29.3657652936
30
0.0000000000
10
-18.7582593645
20
29.5349533649
30
0.0000000000
10
-18.7236928528
20
29.6041575389
30
0.0000000000
11
-18.8261598595
21
29.0901835691
31
0.0000000000
11
-18.7976086547
21
29.3854846990
31
0.0000000000
11
-18.7236928528
21
29.6041575389
31
0.0000000000
0
SPLINE
5
28A
100
AcDbEntity
8
0
100
AcDbSpline
62
9
6
CONTINUOUS
70
0
71
3
72
11
73
7
74
5
42
0.0000001000
43
0.0000001000
44
0.0000000001
12
0.7766941844
22
-0.3386168003
32
0.0000000000
13
0.8266275356
23
0.1860164263
33
0.0000000000
40
0.0000000000
40
0.0000000000
40
0.0000000000
40
0.0000000000
40
0.2091745758
40
0.4690487246
40
0.7452571718
40
1.0000000000
40
1.0000000000
40
1.0000000000
40
1.0000000000
10
15.4476812555
20
22.8002249184
30
0.0000000000
10
15.5018361477
20
22.7766149098
30
0.0000000000
10
15.6313758337
20
22.7432380968
30
0.0000000000
10
15.8409350710
20
22.7206463198
30
0.0000000000
10
16.0647939857
20
22.7233665353
30
0.0000000000
10
16.2140621675
20
22.7430930692
30
0.0000000000
10
16.2842546462
20
22.7588885194
30
0.0000000000
11
15.4476812555
21
22.8002249184
31
0.0000000000
11
15.6178416898
21
22.7506558729
31
0.0000000000
11
15.8365787908
21
22.7253937107
31
0.0000000000
11
16.0705920110
21
22.7282845785
31
0.0000000000
11
16.2842546462
21
22.7588885194
31
0.0000000000
0
SPLINE
5
28B
100
AcDbEntity
8
0
100
AcDbSpline
62
9
6
CONTINUOUS
70
0
71
3
72
16
73
12
74
10
42
0.0000001000
43
0.0000001000
44
0.0000000001
12
-0.0163024393
22
4.1899519938
32
0.0000000000
13
-3.8408364602
23
1.6744965709
33
0.0000000000
40
0.0000000000
40
0.0000000000
40
0.0000000000
40
0.0000000000
40
0.0983749500
40
0.2158308160
40
0.3461497135
40
0.4817212693
40
0.6142426071
40
0.7364440840
40
0.8428981073
40
0.9308843090
40
1.0000000000
40
1.0000000000
40
1.0000000000
40
1.0000000000
10
16.2842546462
20
22.7588885196
30
0.0000000000
10
16.2837200623
20
22.8962839589
30
0.0000000000
10
16.2693324127
20
23.1977896374
30
0.0000000000
10
16.2040669662
20
23.6774848369
30
0.0000000000
10
16.0816500771
20
24.1996207241
30
0.0000000000
10
15.8994704622
20
24.7265345301
30
0.0000000000
10
15.6642793320
20
25.2197176913
30
0.0000000000
10
15.3912196717
20
25.6456434254
30
0.0000000000
10
15.1009570085
20
25.9816237039
30
0.0000000000
10
14.8171145530
20
26.2187278395
30
0.0000000000
10
14.6249645097
20
26.3276709574
30
0.0000000000
10
14.5364771544
20
26.3662489532
30
0.0000000000
11
16.2842546462
21
22.7588885196
31
0.0000000000
11
16.2651391739
21
23.1706344745
31
0.0000000000
11
16.1992099389
21
23.6583365447
31
0.0000000000
11
16.0745177420
21
24.1899426472
31
0.0000000000
11
15.8881119915
21
24.7265293627
31
0.0000000000
11
15.6474824544
21
25.2269427799
31
0.0000000000
11
15.3688214261
21
25.6564945949
31
0.0000000000
11
15.0746861311
21
25.9918103653
31
0.0000000000
11
14.7895911496
21
26.2255444053
31
0.0000000000
11
14.5364771544
21
26.3662489532
31
0.0000000000
0
SPLINE
5
28C
100
AcDbEntity
8
0
100
AcDbSpline
62
9
6
CONTINUOUS
70
0
71
3
72
16
73
12
74
10
42
0.0000001000
43
0.0000001000
44
0.0000000001
12
-0.0130419400
22
3.3519586419
32
0.0000000000
13
-3.0726664611
23
1.3395960765
33
0.0000000000
40
0.0000000000
40
0.0000000000
40
0.0000000000
40
0.0000000000
40
0.0981534636
40
0.2155985247
40
0.3459786896
40
0.4817005802
40
0.6143511386
40
0.7365997352
40
0.8430401741
40
0.9309977142
40
1.0000000000
40
1.0000000000
40
1.0000000000
40
1.0000000000
10
15.4476812555
20
22.8002249184
30
0.0000000000
10
15.4472545517
20
22.9098937019
30
0.0000000000
10
15.4357790527
20
23.1508380024
30
0.0000000000
10
15.3836590613
20
23.5344134661
30
0.0000000000
10
15.2857412269
20
23.9523567484
30
0.0000000000
10
15.1399058113
20
24.3742615240
30
0.0000000000
10
14.9515794372
20
24.7691325384
30
0.0000000000
10
14.7329835996
20
25.1099966649
30
0.0000000000
10
14.5007094952
20
25.3787329432
30
0.0000000000
10
14.2737238017
20
25.5682502337
30
0.0000000000
10
14.1201329318
20
25.6553015349
30
0.0000000000
10
14.0494592621
20
25.6861132653
30
0.0000000000
11
15.4476812555
21
22.8002249184
31
0.0000000000
11
15.4324526734
21
23.1288811335
31
0.0000000000
11
15.3797830896
21
23.5190158633
31
0.0000000000
11
15.2800502857
21
23.9445161999
31
0.0000000000
11
15.1307937172
21
24.3742727634
31
0.0000000000
11
14.9380846204
21
24.7749848824
31
0.0000000000
11
14.7150173900
21
25.1187243783
31
0.0000000000
11
14.4796794697
21
25.3868899552
31
0.0000000000
11
14.2516327950
21
25.5737609820
31
0.0000000000
11
14.0494592621
21
25.6861132653
31
0.0000000000
0
SPLINE
5
28D
100
AcDbEntity
8
0
100
AcDbSpline
62
7
6
CONTINUOUS
70
0
71
3
72
12
73
8
74
6
42
0.0000001000
43
0.0000001000
44
0.0000000001
12
-1.0393994443
22
0.8190241372
32
0.0000000000
13
-0.0051226452
23
1.3165905430
33
0.0000000000
40
0.0000000000
40
0.0000000000
40
0.0000000000
40
0.0000000000
40
0.0617832943
40
0.2703010253
40
0.5060355475
40
0.7548766610
40
1.0000000000
40
1.0000000000
40
1.0000000000
40
1.0000000000
10
13.0246667303
20
-12.8013229448
30
0.0000000000
10
13.0032608897
20
-12.7844556084
30
0.0000000000
10
12.9138509186
20
-12.7051213386
30
0.0000000000
10
12.7782711146
20
-12.5267359532
30
0.0000000000
10
12.6471952983
20
-12.2502357533
30
0.0000000000
10
12.5618376708
20
-11.9401195513
30
0.0000000000
10
12.5399908571
20
-11.7230655202
30
0.0000000000
10
12.5395722971
20
-11.6154898302
30
0.0000000000
11
13.0246667303
21
-12.8013229448
31
0.0000000000
11
12.9632752436
21
-12.7473550288
31
0.0000000000
11
12.7932762781
21
-12.5317870087
31
0.0000000000
11
12.6579470103
21
-12.2524764222
31
0.0000000000
11
12.5705223736
21
-11.9367318437
31
0.0000000000
11
12.5395722971
21
-11.6154898302
31
0.0000000000
0
SPLINE
5
28E
100
AcDbEntity
8
0
100
AcDbSpline
62
7
6
CONTINUOUS
70
0
71
3
72
9
73
5
74
3
42
0.0000001000
43
0.0000001000
44
0.0000000001
12
-0.2186945630
22
0.1357793001
32
0.0000000000
13
-0.1307359330
23
0.2205245421
33
0.0000000000
40
0.0000000000
40
0.0000000000
40
0.0000000000
40
0.0000000000
40
0.4745532552
40
1.0000000000
40
1.0000000000
40
1.0000000000
40
1.0000000000
10
13.1084756334
20
-12.4292350391
30
0.0000000000
10
13.0738815611
20
-12.4077568695
30
0.0000000000
10
13.0101497365
20
-12.3485885656
30
0.0000000000
10
12.9603989045
20
-12.2787305978
30
0.0000000000
10
12.9375006477
20
-12.2401059636
30
0.0000000000
11
13.1084756334
21
-12.4292350391
31
0.0000000000
11
13.0165418020
21
-12.3491925263
31
0.0000000000
11
12.9375006477
21
-12.2401059636
31
0.0000000000
0
SPLINE
5
28F
100
AcDbEntity
8
0
100
AcDbSpline
62
7
6
CONTINUOUS
70
0
71
3
72
10
73
6
74
4
42
0.0000001000
43
0.0000001000
44
0.0000000001
12
-0.2729017831
22
0.4603289959
32
0.0000000000
13
-0.0020776566
23
0.5339864306
33
0.0000000000
40
0.0000000000
40
0.0000000000
40
0.0000000000
40
0.0000000000
40
0.1349384381
40
0.5668683041
40
1.0000000000
40
1.0000000000
40
1.0000000000
40
1.0000000000
10
12.9375006477
20
-12.2401059636
30
0.0000000000
10
12.9252256676
20
-12.2194006050
30
0.0000000000
10
12.8775743846
20
-12.1301032106
30
0.0000000000
10
12.8195696769
20
-11.9603723834
30
0.0000000000
10
12.8003754279
20
-11.8061573591
30
0.0000000000
10
12.8000754615
20
-11.7290618763
30
0.0000000000
11
12.9375006477
21
-12.2401059636
31
0.0000000000
11
12.9033765998
21
-12.1764955722
31
0.0000000000
11
12.8273637295
21
-11.9587346466
31
0.0000000000
11
12.8000754615
21
-11.7290618763
31
0.0000000000
0
SPLINE
5
290
100
AcDbEntity
8
0
100
AcDbSpline
62
7
6
CONTINUOUS
70
0
71
3
72
9
73
5
74
3
42
0.0000001000
43
0.0000001000
44
0.0000000001
12
-0.2370381349
22
-0.4745641819
32
0.0000000000
13
0.0020520511
23
-0.5274054521
33
0.0000000000
40
0.0000000000
40
0.0000000000
40
0.0000000000
40
0.0000000000
40
0.4374803867
40
1.0000000000
40
1.0000000000
40
1.0000000000
40
1.0000000000
10
12.6420393037
20
-11.1015158604
30
0.0000000000
10
12.6074727921
20
-11.1707200344
30
0.0000000000
10
12.5540774970
20
-11.3399081057
30
0.0000000000
10
12.5391875241
20
-11.5165978599
30
0.0000000000
10
12.5395722971
20
-11.6154898302
30
0.0000000000
11
12.6420393037
21
-11.1015158604
31
0.0000000000
11
12.5681235019
21
-11.3201887003
31
0.0000000000
11
12.5395722971
21
-11.6154898302
31
0.0000000000
0
SPLINE
5
291
100
AcDbEntity
8
0
100
AcDbSpline
62
7
6
CONTINUOUS
70
0
71
3
72
9
73
5
74
3
42
0.0000001000
43
0.0000001000
44
0.0000000001
12
-0.1854212011
22
-0.2869770384
32
0.0000000000
13
0.0013197676
23
-0.3391984883
33
0.0000000000
40
0.0000000000
40
0.0000000000
40
0.0000000000
40
0.0000000000
40
0.3862113699
40
1.0000000000
40
1.0000000000
40
1.0000000000
40
1.0000000000
10
12.8771239540
20
-11.4015559400
30
0.0000000000
10
12.8532533620
20
-11.4385005384
30
0.0000000000
10
12.8118807680
20
-11.5459745215
30
0.0000000000
10
12.7998054421
20
-11.6596631512
30
0.0000000000
10
12.8000754615
20
-11.7290618763
30
0.0000000000
11
12.8771239540
21
-11.4015559400
31
0.0000000000
11
12.8256661873
21
-11.5224428587
31
0.0000000000
11
12.8000754615
21
-11.7290618763
31
0.0000000000
0
ENDSEC
0
SECTION
2
OBJECTS
0
DICTIONARY
5
292
100
AcDbDictionary
3
ACAD_GROUP
350
293
3
ACAD_MLINESTYLE
350
294
0
DICTIONARY
5
293
102
{ACAD_REACTORS
330
292
102
}
100
AcDbDictionary
0
DICTIONARY
5
294
102
{ACAD_REACTORS
330
292
102
}
100
AcDbDictionary
3
STANDARD
350
295
0
MLINESTYLE
5
295
102
{ACAD_REACTORS
330
294
102
}
100
AcDbMlineStyle
2
STANDARD
70
0
3

62
256
51
90.0
52
90.0
71
2
49
0.5
62
256
6
BYLAYER
49
-0.5
62
256
6
BYLAYER
0
ENDSEC
0
EOF
