  0
SECTION
  2
HEADER
  9
$ACADVER
  1
AC1015
  9
$DWGCODEPAGE
  3
ANSI_1252
  9
$EXTMAX
 10
297.0
 20
210.0
 30
0.0
  9
$EXTMIN
 10
0.0
 20
0.0
 30
0.0
  9
$LIMMIN
 10
0.0
 20
0.0
  9
$LIMMAX
 10
297.0
 20
210.0
  9
$VIEWCTR
 10
148.5
 20
105.0
  9
$VIEWSIZE
 40
210.0
  9
$CLAYER
  8
0
  9
$LTSCALE
 40
16.335
  9
$CELTYPE
  6
BYLAYER
  9
$DIMSCALE
 40
1.0
  9
$DIMASZ
 40
3.0
  9
$DIMEXO
 40
0.5
  9
$DIMDLI
 40
11.286
  9
$DIMEXE
 40
1.5
  9
$DIMCEN
 40
2.673
  9
$DIMLFAC
 40
1.0
  9
$DIMBLK
  1
_FILLED
  9
$DIMTXT
 40
3.0
  9
$DIMTOL
 70
1
  9
$DIMLIM
 70
0
  9
$DIMTFAC
 40
1.0
  9
$DIMTP
 40
0.01
  9
$DIMTM
 40
0.01
  9
$DIMGAP
 40
0.625
  9
$DIMDSEP
 70
44
  9
$PDMODE
 70
3
  9
$PDSIZE
 40
3.0
  9
$HANDSEED
  5
492
  9
$TILEMODE
 70
1
  9
$MEASUREMENT
 70
1
  9
$INSUNITS
 70
4
  0
ENDSEC
  0
SECTION
  2
CLASSES
  0
CLASS
  1
ACDBDICTIONARYWDFLT
  2
AcDbDictionaryWithDefault
  3
AutoCAD 2000
 90
0
280
0
281
0
  0
CLASS
  1
ACDBPLACEHOLDER
  2
AcDbPlaceHolder
  3
AutoCAD 2000
 90
0
280
0
281
0
  0
CLASS
  1
LAYOUT
  2
AcDbLayout
  3
AutoCAD 2000
 90
0
280
0
281
0
  0
ENDSEC
  0
SECTION
  2
TABLES
  0
TABLE
  2
VPORT
  5
8
100
AcDbSymbolTable
 70
2
  0
VPORT
  5
1F4
100
AcDbSymbolTableRecord
100
AcDbViewportTableRecord
  2
*ACTIVE
 70
0
 10
0.0
 20
0.0
 11
1.0
 21
1.0
 12
148.5
 22
105.0
 13
0.0
 23
0.0
 14
1.0
 24
1.0
 15
0.0
 25
0.0
 16
0.0
 26
0.0
 36
1.0
 17
0.0
 27
0.0
 37
0.0
 40
210.0
 41
1.4142857143
 42
50.0
 43
0.0
 44
0.0
 50
0.0
 51
0.0
 71
0
 72
100
 73
1
 74
1
 75
0
 76
0
 77
0
 78
0
  0
ENDTAB
  0
TABLE
  2
LTYPE
  5
5
100
AcDbSymbolTable
 70
6
  0
LTYPE
  5
14
100
AcDbSymbolTableRecord
100
AcDbLinetypeTableRecord
  2
BYBLOCK
 70
0
  3

 72
65
 73
0
 40
0.0
  0
LTYPE
  5
15
100
AcDbSymbolTableRecord
100
AcDbLinetypeTableRecord
  2
BYLAYER
 70
0
  3

 72
65
 73
0
 40
0.0
  0
LTYPE
  5
16
100
AcDbSymbolTableRecord
100
AcDbLinetypeTableRecord
  2
CONTINUOUS
 70
64
  3
Solid line
 72
65
 73
0
 40
0.0
  0
LTYPE
  5
1F5
100
AcDbSymbolTableRecord
100
AcDbLinetypeTableRecord
  2
CENTER
 70
64
  3
____ _ ____ _ ____ _ ____ _ ____ _ ____ _ ____
 72
65
 73
4
 40
0.6
 49
0.375
 74
0
 49
-0.075
 74
0
 49
0.075
 74
0
 49
-0.075
 74
0
  0
LTYPE
  5
1F6
100
AcDbSymbolTableRecord
100
AcDbLinetypeTableRecord
  2
HIDDEN
 70
64
  3
- - - - - - - - - - - - - - - - - - - -
 72
65
 73
2
 40
0.2
 49
0.1
 74
0
 49
-0.1
 74
0
  0
LTYPE
  5
1F7
100
AcDbSymbolTableRecord
100
AcDbLinetypeTableRecord
  2
PHANTOM
 70
64
  3
_____ _ _ _____ _ _ _____ _ _ _____
 72
65
 73
6
 40
0.8
 49
0.45
 74
0
 49
-0.05
 74
0
 49
0.1
 74
0
 49
-0.05
 74
0
 49
0.1
 74
0
 49
-0.05
 74
0
  0
LTYPE
  5
1F8
100
AcDbSymbolTableRecord
100
AcDbLinetypeTableRecord
  2
DOT
 70
64
  3
. . . . . . . . . . . . . . . . . . . .
 72
65
 73
2
 40
0.2
 49
0.1
 74
0
 49
-0.1
 74
0
  0
LTYPE
  5
1F9
100
AcDbSymbolTableRecord
100
AcDbLinetypeTableRecord
  2
DASHED
 70
64
  3
- - - - - - - - - - - - - - - - - - - -
 72
65
 73
2
 40
0.2
 49
0.1
 74
0
 49
-0.1
 74
0
  0
ENDTAB
  0
TABLE
  2
LAYER
  5
2
100
AcDbSymbolTable
 70
36
  0
LAYER
  5
10
100
AcDbSymbolTableRecord
100
AcDbLayerTableRecord
  2
0
 70
0
 62
7
  6
CONTINUOUS
370
-3
390
F
  0
LAYER
  5
1FA
100
AcDbSymbolTableRecord
100
AcDbLayerTableRecord
  2
DEFAULT_1
 70
0
 62
7
  6
CENTER
370
-3
390
F
  0
LAYER
  5
1FB
100
AcDbSymbolTableRecord
100
AcDbLayerTableRecord
  2
DEFAULT_2
 70
0
 62
7
  6
HIDDEN
370
-3
390
F
  0
LAYER
  5
1FC
100
AcDbSymbolTableRecord
100
AcDbLayerTableRecord
  2
DEFAULT_3
 70
0
 62
7
  6
PHANTOM
370
-3
390
F
  0
LAYER
  5
1FD
100
AcDbSymbolTableRecord
100
AcDbLayerTableRecord
  2
ASSI
 70
0
 62
7
  6
CONTINUOUS
370
-3
390
F
  0
LAYER
  5
1FE
100
AcDbSymbolTableRecord
100
AcDbLayerTableRecord
  2
COORDINATE
 70
0
 62
7
  6
CONTINUOUS
370
-3
390
F
  0
LAYER
  5
1FF
100
AcDbSymbolTableRecord
100
AcDbLayerTableRecord
  2
COPY_PUBLISH
 70
0
 62
7
  6
CONTINUOUS
370
-3
390
F
  0
LAYER
  5
200
100
AcDbSymbolTableRecord
100
AcDbLayerTableRecord
  2
COSMETICI
 70
0
 62
7
  6
CONTINUOUS
370
-3
390
F
  0
LAYER
  5
201
100
AcDbSymbolTableRecord
100
AcDbLayerTableRecord
  2
CURVE
 70
0
 62
7
  6
CONTINUOUS
370
-3
390
F
  0
LAYER
  5
202
100
AcDbSymbolTableRecord
100
AcDbLayerTableRecord
  2
DRAFT
 70
0
 62
7
  6
CONTINUOUS
370
-3
390
F
  0
LAYER
  5
203
100
AcDbSymbolTableRecord
100
AcDbLayerTableRecord
  2
IMPORT_IGES
 70
0
 62
7
  6
CONTINUOUS
370
-3
390
F
  0
LAYER
  5
204
100
AcDbSymbolTableRecord
100
AcDbLayerTableRecord
  2
NOTE
 70
0
 62
7
  6
CONTINUOUS
370
-3
390
F
  0
LAYER
  5
205
100
AcDbSymbolTableRecord
100
AcDbLayerTableRecord
  2
PIANI
 70
0
 62
7
  6
CONTINUOUS
370
-3
390
F
  0
LAYER
  5
206
100
AcDbSymbolTableRecord
100
AcDbLayerTableRecord
  2
PUNTI
 70
0
 62
7
  6
CONTINUOUS
370
-3
390
F
  0
LAYER
  5
207
100
AcDbSymbolTableRecord
100
AcDbLayerTableRecord
  2
RACCORDO
 70
0
 62
7
  6
CONTINUOUS
370
-3
390
F
  0
LAYER
  5
208
100
AcDbSymbolTableRecord
100
AcDbLayerTableRecord
  2
SIMBOLI
 70
0
 62
7
  6
CONTINUOUS
370
-3
390
F
  0
LAYER
  5
209
100
AcDbSymbolTableRecord
100
AcDbLayerTableRecord
  2
SMUSSO
 70
0
 62
7
  6
CONTINUOUS
370
-3
390
F
  0
LAYER
  5
20A
100
AcDbSymbolTableRecord
100
AcDbLayerTableRecord
  2
SNAPLINE
 70
0
 62
7
  6
CONTINUOUS
370
-3
390
F
  0
LAYER
  5
20B
100
AcDbSymbolTableRecord
100
AcDbLayerTableRecord
  2
SUPERFICI
 70
0
 62
7
  6
CONTINUOUS
370
-3
390
F
  0
LAYER
  5
20C
100
AcDbSymbolTableRecord
100
AcDbLayerTableRecord
  2
TRASH
 70
0
 62
7
  6
CONTINUOUS
370
-3
390
F
  0
ENDTAB
  0
TABLE
  2
STYLE
  5
3
100
AcDbSymbolTable
 70
1
  0
STYLE
  5
11
100
AcDbSymbolTableRecord
100
AcDbTextStyleTableRecord
  2
STANDARD
 70
0
 40
0.0
 41
0.8
 50
0.0
 71
0
 42
0.2
  3
txt
  4

  0
STYLE
  5
20D
100
AcDbSymbolTableRecord
100
AcDbTextStyleTableRecord
  2
TEXTSTYLE_1
 70
0
 40
0.0
 41
0.8
 50
0.0
 71
0
 42
0.2
  3
gdt
  4

  0
ENDTAB
  0
TABLE
  2
VIEW
  5
6
100
AcDbSymbolTable
 70
0
  0
ENDTAB
  0
TABLE
  2
UCS
  5
7
100
AcDbSymbolTable
 70
0
  0
ENDTAB
  0
TABLE
  2
APPID
  5
9
100
AcDbSymbolTable
 70
1
  0
APPID
  5
20E
100
AcDbSymbolTableRecord
100
AcDbRegAppTableRecord
  2
ACAD
 70
0
  0
ENDTAB
  0
TABLE
  2
BLOCK_RECORD
  5
1
100
AcDbSymbolTable
 70
0
  0
BLOCK_RECORD
  5
20F
100
AcDbSymbolTableRecord
100
AcDbBlockTableRecord
  2
*Model_Space
  0
BLOCK_RECORD
  5
210
100
AcDbSymbolTableRecord
100
AcDbBlockTableRecord
  2
*Paper_Space
  0
ENDTAB
  0
TABLE
  2
DIMSTYLE
  5
A
100
AcDbSymbolTable
 70
1
100
AcDbDimStyleTable
 71
0
  0
DIMSTYLE
105
211
100
AcDbSymbolTableRecord
100
AcDbDimStyleTableRecord
  2
STANDARD
 70
0
  3

  4

 40
1.0
 41
3.0
 42
0.5
 43
0.38
 44
1.5
 45
0.0
 46
0.0
 47
0.01
 48
0.01
140
3.0
141
0.09
142
0.0
143
25.4
144
1.0
145
0.0
146
1.0
147
0.625
 71
1.0
 72
0.0
 73
0
 74
0
 75
0
 76
0
 77
1
 78
8
170
0
171
2
172
0
173
0
174
0
175
0
176
0
177
0
178
0
270
2
271
2
272
2
273
2
274
2
275
0
280
0
281
0
282
0
283
1
284
8
285
0
286
0
287
3
288
0
340
11
278
44
  0
ENDTAB
  0
ENDSEC
  0
SECTION
  2
BLOCKS
  0
BLOCK
  5
20
100
AcDbEntity
  8
0
100
AcDbBlockBegin
  2
*Model_Space
 70
0
 10
0.0
 20
0.0
 30
0.0
  3
*Model_Space
  1

  0
ENDBLK
  5
21
100
AcDbEntity
  8
0
100
AcDbBlockEnd
  0
BLOCK
  5
1C
100
AcDbEntity
  8
0
100
AcDbBlockBegin
  2
*Paper_Space
 70
0
 10
0.0
 20
0.0
 30
0.0
  3
*Paper_Space
  1

  0
ENDBLK
  5
1D
100
AcDbEntity
  8
0
100
AcDbBlockEnd
  0
ENDSEC
  0
SECTION
  2
ENTITIES
  0
LINE
  5
212
100
AcDbEntity
  8
ASSI
100
AcDbLine
 62
7
  6
CONTINUOUS
 10
-29.8399061661
 20
40.7025899314
 11
-30.1228104956
 21
40.4402247128
  0
LINE
  5
213
100
AcDbEntity
  8
RACCORDO
100
AcDbLine
 62
7
  6
CONTINUOUS
 10
-24.9861164424
 20
44.6648252479
 11
-22.8647960989
 21
45.8896490279
  0
LINE
  5
214
100
AcDbEntity
  8
ASSI
100
AcDbLine
 62
7
  6
CONTINUOUS
 10
-29.593676423
 20
41.7049579893
 11
-31.7149967666
 21
40.4801342093
  0
LINE
  5
215
100
AcDbEntity
  8
ASSI
100
AcDbLine
 62
7
  6
CONTINUOUS
 10
-32.4628438124
 20
39.1884739745
 11
-32.8451099861
 21
38.9677582767
  0
LINE
  5
216
100
AcDbEntity
  8
ASSI
100
AcDbLine
 62
7
  6
CONTINUOUS
 10
-27.7185858225
 20
41.9274137114
 11
-29.8399061661
 21
40.7025899314
  0
LINE
  5
217
100
AcDbEntity
  8
RACCORDO
100
AcDbLine
 62
253
  6
CONTINUOUS
 10
-22.4859956417
 20
44.4171193596
 11
-20.3646752982
 21
45.6419431395
  0
LINE
  5
218
100
AcDbEntity
  8
ASSI
100
AcDbLine
 62
7
  6
CONTINUOUS
 10
-27.435681493
 20
41.3383576643
 11
-29.5570018365
 21
40.1135338843
  0
LINE
  5
219
100
AcDbEntity
  8
ASSI
100
AcDbLine
 62
7
  6
CONTINUOUS
 10
-29.8399061661
 20
33.7625925787
 11
-29.5570018365
 21
34.0249577973
  0
LINE
  5
21A
100
AcDbEntity
  8
ASSI
100
AcDbLine
 62
7
  6
CONTINUOUS
 10
-27.5968613605
 20
37.5704258498
 11
-26.0215295477
 21
38.480002695
  0
LINE
  5
21B
100
AcDbEntity
  8
ASSI
100
AcDbLine
 62
7
  6
CONTINUOUS
 10
-32.4764218858
 20
39.081541646
 11
-32.8451099861
 21
38.9677582767
  0
LINE
  5
21C
100
AcDbEntity
  8
ASSI
100
AcDbLine
 62
7
  6
CONTINUOUS
 10
-29.4580857301
 20
33.9830509131
 11
-29.8399061661
 21
33.7625925787
  0
LINE
  5
21D
100
AcDbEntity
  8
ASSI
100
AcDbLine
 62
7
  6
CONTINUOUS
 10
-27.5041642537
 20
34.251022595
 11
-27.9648155655
 21
33.9850483008
  0
LINE
  5
21E
100
AcDbEntity
  8
0
100
AcDbLine
 62
7
  6
CONTINUOUS
 10
-19.091883092
 20
36.9331981881
 11
-18.9504617358
 21
37.0148531068
  0
LINE
  5
21F
100
AcDbEntity
  8
0
100
AcDbLine
 62
7
  6
CONTINUOUS
 10
-20.1230804988
 20
35.9651448988
 11
-19.9816591426
 21
36.0467998175
  0
LINE
  5
220
100
AcDbEntity
  8
0
100
AcDbLine
 62
7
  6
CONTINUOUS
 10
-20.2703943765
 20
35.7896264658
 11
-20.1289730202
 21
35.8712813845
  0
LINE
  5
221
100
AcDbEntity
  8
0
100
AcDbLine
 62
7
  6
CONTINUOUS
 10
-17.2504590422
 20
36.0871293445
 11
-17.4714301221
 21
35.9107104226
  0
LINE
  5
222
100
AcDbEntity
  8
0
100
AcDbLine
 62
7
  6
CONTINUOUS
 10
-17.2277422087
 20
36.0740129296
 11
-17.3300087658
 21
35.9923653412
  0
LINE
  5
223
100
AcDbEntity
  8
0
100
AcDbLine
 62
7
  6
CONTINUOUS
 10
-17.4714301221
 20
35.563276182
 11
-17.2504590422
 21
35.7396952256
  0
LINE
  5
224
100
AcDbEntity
  8
0
100
AcDbLine
 62
7
  6
CONTINUOUS
 10
-17.9870287464
 20
36.295269136
 11
-17.8456073902
 21
36.3769240547
  0
LINE
  5
225
100
AcDbEntity
  8
0
100
AcDbLine
 62
7
  6
CONTINUOUS
 10
-17.4714301221
 20
35.9107104226
 11
-17.3300087658
 21
35.9923653412
  0
LINE
  5
226
100
AcDbEntity
  8
0
100
AcDbLine
 62
7
  6
CONTINUOUS
 10
-18.7235982399
 20
34.8965257625
 11
-18.5821768837
 21
34.9781806812
  0
LINE
  5
227
100
AcDbEntity
  8
0
100
AcDbLine
 62
7
  6
CONTINUOUS
 10
-17.2504590422
 20
35.7396952256
 11
-17.109037686
 21
35.8213501443
  0
LINE
  5
228
100
AcDbEntity
  8
0
100
AcDbLine
 62
7
  6
CONTINUOUS
 10
-16.5507180971
 20
35.4659613683
 11
-16.4092967409
 21
35.547616287
  0
LINE
  5
229
100
AcDbEntity
  8
0
100
AcDbLine
 62
7
  6
CONTINUOUS
 10
-16.7348606286
 20
34.6602682743
 11
-16.5934392723
 21
34.741923193
  0
LINE
  5
22A
100
AcDbEntity
  8
0
100
AcDbLine
 62
7
  6
CONTINUOUS
 10
-16.4770610003
 20
34.5114179999
 11
-16.335639644
 21
34.5930729186
  0
LINE
  5
22B
100
AcDbEntity
  8
0
100
AcDbLine
 62
7
  6
CONTINUOUS
 10
-17.2504590422
 20
34.0459536525
 11
-17.109037686
 21
34.1276085712
  0
LINE
  5
22C
100
AcDbEntity
  8
0
100
AcDbLine
 62
7
  6
CONTINUOUS
 10
-16.329747228
 20
34.5566486687
 11
-16.1883258718
 21
34.6383035873
  0
LINE
  5
22D
100
AcDbEntity
  8
0
100
AcDbLine
 62
7
  6
CONTINUOUS
 10
-16.1824334558
 20
34.5150208077
 11
-16.0410120995
 21
34.5966757264
  0
LINE
  5
22E
100
AcDbEntity
  8
0
100
AcDbLine
 62
7
  6
CONTINUOUS
 10
-16.6612035317
 20
34.0531590552
 11
-16.5197821755
 21
34.1348139739
  0
LINE
  5
22F
100
AcDbEntity
  8
0
100
AcDbLine
 62
7
  6
CONTINUOUS
 10
-15.9614625866
 20
34.3874349973
 11
-15.8200412304
 21
34.469089916
  0
LINE
  5
230
100
AcDbEntity
  8
0
100
AcDbLine
 62
7
  6
CONTINUOUS
 10
-15.8141483929
 20
34.2589483633
 11
-15.6835560577
 21
34.3343507409
  0
LINE
  5
231
100
AcDbEntity
  8
0
100
AcDbLine
 62
7
  6
CONTINUOUS
 10
-16.5507180971
 20
33.8156490753
 11
-16.4202565958
 21
33.8909759112
  0
LINE
  5
232
100
AcDbEntity
  8
0
100
AcDbLine
 62
7
  6
CONTINUOUS
 10
-15.1144074479
 20
34.6366536006
 11
-14.9729860916
 21
34.7183085193
  0
LINE
  5
233
100
AcDbEntity
  8
0
100
AcDbLine
 62
7
  6
CONTINUOUS
 10
-15.7036629584
 20
34.1082969283
 11
-15.5732014636
 21
34.1836237604
  0
LINE
  5
234
100
AcDbEntity
  8
0
100
AcDbLine
 62
7
  6
CONTINUOUS
 10
-16.3665755657
 20
33.5790396795
 11
-16.2251542095
 21
33.6606945982
  0
LINE
  5
235
100
AcDbEntity
  8
0
100
AcDbLine
 62
7
  6
CONTINUOUS
 10
-16.335639644
 20
34.5930729186
 11
-16.1883258718
 21
34.6383035873
  0
LINE
  5
236
100
AcDbEntity
  8
0
100
AcDbLine
 62
7
  6
CONTINUOUS
 10
-16.4770610003
 20
34.5114179999
 11
-16.329747228
 21
34.5566486687
  0
LINE
  5
237
100
AcDbEntity
  8
0
100
AcDbLine
 62
7
  6
CONTINUOUS
 10
-15.630006283
 20
33.5880465127
 11
-15.7036629584
 21
33.500287129
  0
LINE
  5
238
100
AcDbEntity
  8
0
100
AcDbLine
 62
7
  6
CONTINUOUS
 10
-15.4885849267
 20
33.6697014314
 11
-15.5622416021
 21
33.5819420476
  0
LINE
  5
239
100
AcDbEntity
  8
0
100
AcDbLine
 62
7
  6
CONTINUOUS
 10
-15.5931775238
 20
33.2627771491
 11
-15.4826920892
 21
33.3727013186
  0
LINE
  5
23A
100
AcDbEntity
  8
0
100
AcDbLine
 62
7
  6
CONTINUOUS
 10
-13.2729838195
 20
33.7905850004
 11
-13.4939546886
 21
33.6141659568
  0
LINE
  5
23B
100
AcDbEntity
  8
0
100
AcDbLine
 62
7
  6
CONTINUOUS
 10
-13.2502668728
 20
33.7774685201
 11
-13.3525333324
 21
33.6958208754
  0
LINE
  5
23C
100
AcDbEntity
  8
0
100
AcDbLine
 62
7
  6
CONTINUOUS
 10
-13.4939546886
 20
33.2667317162
 11
-13.2729838195
 21
33.4431508815
  0
LINE
  5
23D
100
AcDbEntity
  8
0
100
AcDbLine
 62
7
  6
CONTINUOUS
 10
-15.630006283
 20
33.9354806925
 11
-15.4999382173
 21
34.0105803635
  0
LINE
  5
23E
100
AcDbEntity
  8
0
100
AcDbLine
 62
7
  6
CONTINUOUS
 10
-15.5931775238
 20
33.7839283731
 11
-15.4517561676
 21
33.8655832918
  0
LINE
  5
23F
100
AcDbEntity
  8
0
100
AcDbLine
 62
7
  6
CONTINUOUS
 10
-16.1824334558
 20
33.4292890644
 11
-16.0410120995
 21
33.5109439831
  0
LINE
  5
240
100
AcDbEntity
  8
0
100
AcDbLine
 62
7
  6
CONTINUOUS
 10
-15.5931775238
 20
33.6970698434
 11
-15.4517561676
 21
33.778724762
  0
LINE
  5
241
100
AcDbEntity
  8
0
100
AcDbLine
 62
7
  6
CONTINUOUS
 10
-15.630006283
 20
33.5880465127
 11
-15.4885849267
 21
33.6697014314
  0
LINE
  5
242
100
AcDbEntity
  8
0
100
AcDbLine
 62
7
  6
CONTINUOUS
 10
-15.7036629584
 20
33.500287129
 11
-15.5622416021
 21
33.5819420476
  0
LINE
  5
243
100
AcDbEntity
  8
0
100
AcDbLine
 62
7
  6
CONTINUOUS
 10
-15.9614625866
 20
33.301703254
 11
-15.8200412304
 21
33.3833581727
  0
LINE
  5
244
100
AcDbEntity
  8
0
100
AcDbLine
 62
7
  6
CONTINUOUS
 10
-15.7773200552
 20
33.2388109329
 11
-15.635898699
 21
33.3204658516
  0
LINE
  5
245
100
AcDbEntity
  8
0
100
AcDbLine
 62
7
  6
CONTINUOUS
 10
-14.0095531023
 20
33.9987245486
 11
-13.868131746
 21
34.0803794672
  0
LINE
  5
246
100
AcDbEntity
  8
0
100
AcDbLine
 62
7
  6
CONTINUOUS
 10
-13.4939546886
 20
33.6141659568
 11
-13.3525333324
 21
33.6958208754
  0
LINE
  5
247
100
AcDbEntity
  8
0
100
AcDbLine
 62
7
  6
CONTINUOUS
 10
-14.7461228065
 20
32.5999812967
 11
-14.6047014502
 21
32.6816362154
  0
LINE
  5
248
100
AcDbEntity
  8
0
100
AcDbLine
 62
7
  6
CONTINUOUS
 10
-13.2729838195
 20
33.4431508815
 11
-13.1315624633
 21
33.5248058001
  0
LINE
  5
249
100
AcDbEntity
  8
0
100
AcDbLine
 62
7
  6
CONTINUOUS
 10
-13.2729838195
 20
31.7494093084
 11
-13.1315624633
 21
31.8310642271
  0
LINE
  5
24A
100
AcDbEntity
  8
0
100
AcDbLine
 62
7
  6
CONTINUOUS
 10
-19.9757665685
 20
35.6195120621
 11
-19.3865109527
 21
37.3204589466
  0
LINE
  5
24B
100
AcDbEntity
  8
0
100
AcDbLine
 62
7
  6
CONTINUOUS
 10
-19.6074818218
 20
37.448044757
 11
-20.1230804988
 21
35.9651448988
  0
LINE
  5
24C
100
AcDbEntity
  8
0
100
AcDbLine
 62
7
  6
CONTINUOUS
 10
-19.5133492068
 20
37.3936937649
 11
-19.9816591426
 21
36.0467998175
  0
LINE
  5
24D
100
AcDbEntity
  8
0
100
AcDbLine
 62
7
  6
CONTINUOUS
 10
-17.9870287464
 20
36.295269136
 11
-18.7235982399
 21
34.8965257625
  0
LINE
  5
24E
100
AcDbEntity
  8
0
100
AcDbLine
 62
7
  6
CONTINUOUS
 10
-17.8456073902
 20
36.3769240547
 11
-18.5821768837
 21
34.9781806812
  0
LINE
  5
24F
100
AcDbEntity
  8
0
100
AcDbLine
 62
7
  6
CONTINUOUS
 10
-18.5026273708
 20
34.7689399521
 11
-17.7660578773
 21
36.1676833256
  0
LINE
  5
250
100
AcDbEntity
  8
0
100
AcDbLine
 62
7
  6
CONTINUOUS
 10
-10.9139161526
 20
29.7142854618
 11
-11.8301644249
 21
29.1852551927
  0
LINE
  5
251
100
AcDbEntity
  8
RACCORDO
100
AcDbLine
 62
7
  6
CONTINUOUS
 10
-26.0215295477
 20
42.3761409422
 11
-26.0215295477
 21
36.6608490047
  0
LINE
  5
252
100
AcDbEntity
  8
ASSI
100
AcDbLine
 62
7
  6
CONTINUOUS
 10
-26.0215295477
 20
33.3949678975
 11
-26.0215295477
 21
-5.5914878194
  0
LINE
  5
253
100
AcDbEntity
  8
RACCORDO
100
AcDbLine
 62
7
  6
CONTINUOUS
 10
-26.0215295477
 20
-9.2656040649
 11
-26.0215295477
 21
-14.7767784333
  0
LINE
  5
254
100
AcDbEntity
  8
0
100
AcDbLine
 62
7
  6
CONTINUOUS
 10
-15.4826920892
 20
33.3727013186
 11
-15.4090354138
 21
33.5473192321
  0
LINE
  5
255
100
AcDbEntity
  8
0
100
AcDbLine
 62
7
  6
CONTINUOUS
 10
-14.0095531023
 20
33.9987245486
 11
-14.7461228065
 21
32.5999812967
  0
LINE
  5
256
100
AcDbEntity
  8
0
100
AcDbLine
 62
7
  6
CONTINUOUS
 10
-13.868131746
 20
34.0803794672
 11
-14.6047014502
 21
32.6816362154
  0
LINE
  5
257
100
AcDbEntity
  8
0
100
AcDbLine
 62
7
  6
CONTINUOUS
 10
-14.5251519374
 20
32.4723954863
 11
-13.7885822331
 21
33.8711387381
  0
LINE
  5
258
100
AcDbEntity
  8
RACCORDO
100
AcDbLine
 62
7
  6
CONTINUOUS
 10
-22.4859956417
 20
-20.9005027839
 11
20.3646752982
 21
-45.6419431395
  0
LINE
  5
259
100
AcDbEntity
  8
0
100
AcDbLine
 62
7
  6
CONTINUOUS
 10
-15.5931775238
 20
33.6970698434
 11
-15.630006283
 21
33.5880465127
  0
LINE
  5
25A
100
AcDbEntity
  8
0
100
AcDbLine
 62
7
  6
CONTINUOUS
 10
-15.4517561676
 20
33.778724762
 11
-15.4885849267
 21
33.6697014314
  0
LINE
  5
25B
100
AcDbEntity
  8
0
100
AcDbLine
 62
7
  6
CONTINUOUS
 10
14.0707284454
 20
-37.6145350502
 11
14.2235695762
 21
-37.7027836035
  0
LINE
  5
25C
100
AcDbEntity
  8
0
100
AcDbLine
 62
7
  6
CONTINUOUS
 10
14.7704565674
 20
-38.0185492981
 11
14.9232976981
 21
-38.1067978515
  0
LINE
  5
25D
100
AcDbEntity
  8
0
100
AcDbLine
 62
7
  6
CONTINUOUS
 10
15.1615156087
 20
-38.2443418875
 11
15.3188355538
 21
-38.3351764521
  0
LINE
  5
25E
100
AcDbEntity
  8
0
100
AcDbLine
 62
7
  6
CONTINUOUS
 10
16.0027421615
 20
-38.730055556
 11
16.169613705
 21
-38.8264050939
  0
LINE
  5
25F
100
AcDbEntity
  8
0
100
AcDbLine
 62
7
  6
CONTINUOUS
 10
16.3099178326
 20
-38.9074149387
 11
17.0362140776
 21
-39.3267692879
  0
LINE
  5
260
100
AcDbEntity
  8
0
100
AcDbLine
 62
7
  6
CONTINUOUS
 10
17.2947316097
 20
-39.476034071
 11
17.4475727404
 21
-39.5642826243
  0
LINE
  5
261
100
AcDbEntity
  8
0
100
AcDbLine
 62
7
  6
CONTINUOUS
 10
17.0362140776
 20
-39.1702805123
 11
16.4627596704
 21
-38.8391751247
  0
LINE
  5
262
100
AcDbEntity
  8
0
100
AcDbLine
 62
7
  6
CONTINUOUS
 10
14.2121498017
 20
-37.5328801315
 11
14.2235695762
 21
-37.5394737662
  0
LINE
  5
263
100
AcDbEntity
  8
0
100
AcDbLine
 62
7
  6
CONTINUOUS
 10
14.9118779236
 20
-37.9368943795
 11
14.9232976981
 21
-37.9434880141
  0
LINE
  5
264
100
AcDbEntity
  8
0
100
AcDbLine
 62
7
  6
CONTINUOUS
 10
15.302936965
 20
-38.1626869688
 11
15.3696136352
 21
-38.2011852426
  0
LINE
  5
265
100
AcDbEntity
  8
0
100
AcDbLine
 62
7
  6
CONTINUOUS
 10
16.4513391888
 20
-38.82576002
 11
16.4657133719
 21
-38.8340594932
  0
LINE
  5
266
100
AcDbEntity
  8
0
100
AcDbLine
 62
7
  6
CONTINUOUS
 10
17.4361529659
 20
-39.3943791523
 11
17.4475727404
 21
-39.400972787
  0
LINE
  5
267
100
AcDbEntity
  8
0
100
AcDbLine
 62
7
  6
CONTINUOUS
 10
15.4370489584
 20
-38.0232395565
 11
15.8907972586
 21
-38.2852281383
  0
LINE
  5
268
100
AcDbEntity
  8
0
100
AcDbLine
 62
7
  6
CONTINUOUS
 10
15.8358699109
 20
-38.0970250005
 11
15.4842143949
 21
-37.8939835129
  0
LINE
  5
269
100
AcDbEntity
  8
0
100
AcDbLine
 62
7
  6
CONTINUOUS
 10
15.8388236124
 20
-38.091909369
 11
15.9992174276
 21
-38.1845187477
  0
LINE
  5
26A
100
AcDbEntity
  8
0
100
AcDbLine
 62
7
  6
CONTINUOUS
 10
14.387754821
 20
-36.648045027
 11
14.7704565674
 21
-36.869012219
  0
LINE
  5
26B
100
AcDbEntity
  8
0
100
AcDbLine
 62
7
  6
CONTINUOUS
 10
14.9232976981
 20
-36.9572607723
 11
15.3062978435
 21
-37.1784002561
  0
LINE
  5
26C
100
AcDbEntity
  8
0
100
AcDbLine
 62
7
  6
CONTINUOUS
 10
17.8744552255
 20
-38.5043888159
 11
17.6950452646
 21
-38.400799753
  0
LINE
  5
26D
100
AcDbEntity
  8
0
100
AcDbLine
 62
7
  6
CONTINUOUS
 10
17.0457663831
 20
-38.0259142642
 11
16.8678491245
 21
-37.9231870689
  0
LINE
  5
26E
100
AcDbEntity
  8
0
100
AcDbLine
 62
7
  6
CONTINUOUS
 10
16.4627596704
 20
-37.6892934951
 11
16.3099178326
 21
-37.6010445335
  0
LINE
  5
26F
100
AcDbEntity
  8
0
100
AcDbLine
 62
7
  6
CONTINUOUS
 10
15.7600461437
 20
-37.2835555118
 11
15.5869053914
 21
-37.1835862114
  0
LINE
  5
270
100
AcDbEntity
  8
0
100
AcDbLine
 62
7
  6
CONTINUOUS
 10
15.3062978435
 20
-37.0215669301
 11
14.387754821
 21
-36.491211701
  0
LINE
  5
271
100
AcDbEntity
  8
0
100
AcDbLine
 62
7
  6
CONTINUOUS
 10
14.2235695762
 20
-36.3964131983
 11
14.0707284454
 21
-36.308164645
  0
LINE
  5
272
100
AcDbEntity
  8
0
100
AcDbLine
 62
7
  6
CONTINUOUS
 10
12.7644094784
 20
-34.70597867
 11
12.9121764109
 21
-34.7912974449
  0
LINE
  5
273
100
AcDbEntity
  8
0
100
AcDbLine
 62
7
  6
CONTINUOUS
 10
13.230696196
 20
-34.9752067768
 11
13.3820453314
 21
-35.0625938708
  0
LINE
  5
274
100
AcDbEntity
  8
0
100
AcDbLine
 62
7
  6
CONTINUOUS
 10
13.7002660104
 20
-35.2463305026
 11
13.8480329429
 21
-35.3316492774
  0
LINE
  5
275
100
AcDbEntity
  8
0
100
AcDbLine
 62
7
  6
CONTINUOUS
 10
13.9835605641
 20
-35.4099012274
 11
14.1411789083
 21
-35.5009080839
  0
LINE
  5
276
100
AcDbEntity
  8
0
100
AcDbLine
 62
7
  6
CONTINUOUS
 10
14.825085516
 20
-35.8957871878
 11
14.9919570595
 21
-35.9921367256
  0
LINE
  5
277
100
AcDbEntity
  8
0
100
AcDbLine
 62
7
  6
CONTINUOUS
 10
15.140022391
 20
-36.0776277924
 11
15.5985446043
 21
-36.3423727717
  0
LINE
  5
278
100
AcDbEntity
  8
0
100
AcDbLine
 62
7
  6
CONTINUOUS
 10
16.28543921
 20
-36.7389771082
 11
17.1203965541
 21
-37.2210710142
  0
LINE
  5
279
100
AcDbEntity
  8
0
100
AcDbLine
 62
7
  6
CONTINUOUS
 10
17.7428082063
 20
-37.5804437016
 11
17.8956500442
 21
-37.6686926632
  0
LINE
  5
27A
100
AcDbEntity
  8
0
100
AcDbLine
 62
7
  6
CONTINUOUS
 10
18.157152274
 20
-37.8196807733
 11
18.3052176056
 21
-37.90517184
  0
LINE
  5
27B
100
AcDbEntity
  8
0
100
AcDbLine
 62
7
  6
CONTINUOUS
 10
18.883448519
 20
-38.2390351225
 11
19.055395675
 21
-38.3383152554
  0
LINE
  5
27C
100
AcDbEntity
  8
0
100
AcDbLine
 62
7
  6
CONTINUOUS
 10
15.5779523422
 20
-36.1795087223
 11
15.2931626279
 21
-36.0150747105
  0
LINE
  5
27D
100
AcDbEntity
  8
0
100
AcDbLine
 62
7
  6
CONTINUOUS
 10
17.1203965541
 20
-37.0645822386
 11
16.4382810479
 21
-36.6707372942
  0
LINE
  5
27E
100
AcDbEntity
  8
0
100
AcDbLine
 62
7
  6
CONTINUOUS
 10
12.9058308346
 20
-34.6243237514
 11
12.9121764109
 21
-34.6279876076
  0
LINE
  5
27F
100
AcDbEntity
  8
0
100
AcDbLine
 62
7
  6
CONTINUOUS
 10
13.3721175522
 20
-34.8935518582
 11
13.429412458
 21
-34.9266332187
  0
LINE
  5
280
100
AcDbEntity
  8
0
100
AcDbLine
 62
7
  6
CONTINUOUS
 10
13.8416873666
 20
-35.1646755839
 11
13.8480329429
 21
-35.1683394401
  0
LINE
  5
281
100
AcDbEntity
  8
0
100
AcDbLine
 62
7
  6
CONTINUOUS
 10
14.1249819203
 20
-35.3282463087
 11
14.1919569896
 21
-35.3669168743
  0
LINE
  5
282
100
AcDbEntity
  8
0
100
AcDbLine
 62
7
  6
CONTINUOUS
 10
15.2814437472
 20
-35.9959728737
 11
15.2931626279
 21
-36.0027392085
  0
LINE
  5
283
100
AcDbEntity
  8
0
100
AcDbLine
 62
7
  6
CONTINUOUS
 10
15.6699086704
 20
-36.2202676517
 11
15.7399659302
 21
-36.2607178355
  0
LINE
  5
284
100
AcDbEntity
  8
0
100
AcDbLine
 62
7
  6
CONTINUOUS
 10
16.4268605662
 20
-36.6573221895
 11
16.4412347494
 21
-36.6656216627
  0
LINE
  5
285
100
AcDbEntity
  8
0
100
AcDbLine
 62
7
  6
CONTINUOUS
 10
17.8842295626
 20
-37.4987887829
 11
17.8956500442
 21
-37.5053828259
  0
LINE
  5
286
100
AcDbEntity
  8
0
100
AcDbLine
 62
7
  6
CONTINUOUS
 10
18.2985736303
 20
-37.7380258546
 11
18.3052176056
 21
-37.7418620027
  0
LINE
  5
287
100
AcDbEntity
  8
0
100
AcDbLine
 62
7
  6
CONTINUOUS
 10
19.0248698753
 20
-38.1573802039
 11
19.055395675
 21
-38.1750054181
  0
LINE
  5
288
100
AcDbEntity
  8
0
100
AcDbLine
 62
7
  6
CONTINUOUS
 10
14.2593923128
 20
-35.1889711883
 11
14.713140613
 21
-35.45095977
  0
LINE
  5
289
100
AcDbEntity
  8
0
100
AcDbLine
 62
7
  6
CONTINUOUS
 10
14.6579148663
 20
-35.2625843404
 11
14.3068568555
 21
-35.0598878448
  0
LINE
  5
28A
100
AcDbEntity
  8
0
100
AcDbLine
 62
7
  6
CONTINUOUS
 10
14.6608685678
 20
-35.2574687089
 11
14.8215158287
 21
-35.350224424
  0
LINE
  5
28B
100
AcDbEntity
  8
0
100
AcDbLine
 62
7
  6
CONTINUOUS
 10
16.4382810479
 20
-36.2343608748
 11
17.0574088962
 21
-36.5918375349
  0
LINE
  5
28C
100
AcDbEntity
  8
0
100
AcDbLine
 62
7
  6
CONTINUOUS
 10
17.0574088962
 20
-36.4353487593
 11
16.4382810479
 21
-36.0778720992
  0
LINE
  5
28D
100
AcDbEntity
  8
0
100
AcDbLine
 62
7
  6
CONTINUOUS
 10
16.4382810479
 20
-35.6776889907
 11
17.1096499452
 21
-36.0653289778
  0
LINE
  5
28E
100
AcDbEntity
  8
0
100
AcDbLine
 62
7
  6
CONTINUOUS
 10
15.2931626279
 20
-35.01099671
 11
15.5779491853
 21
-35.175428899
  0
LINE
  5
28F
100
AcDbEntity
  8
0
100
AcDbLine
 62
7
  6
CONTINUOUS
 10
19.055395675
 20
-37.0322894006
 11
18.9070312373
 21
-36.9466256337
  0
LINE
  5
290
100
AcDbEntity
  8
0
100
AcDbLine
 62
7
  6
CONTINUOUS
 10
18.3383533365
 20
-36.618278141
 11
18.157152274
 21
-36.5136549185
  0
LINE
  5
291
100
AcDbEntity
  8
0
100
AcDbLine
 62
7
  6
CONTINUOUS
 10
17.8956500442
 20
-36.3626668084
 11
17.7428082063
 21
-36.2744178468
  0
LINE
  5
292
100
AcDbEntity
  8
0
100
AcDbLine
 62
7
  6
CONTINUOUS
 10
17.1096499452
 20
-35.9088402022
 11
16.28543921
 21
-35.4329512534
  0
LINE
  5
293
100
AcDbEntity
  8
0
100
AcDbLine
 62
7
  6
CONTINUOUS
 10
15.5985482011
 20
-35.0363489937
 11
15.140022391
 21
-34.7716019376
  0
LINE
  5
294
100
AcDbEntity
  8
0
100
AcDbLine
 62
7
  6
CONTINUOUS
 10
14.5823894981
 20
-34.449631694
 11
14.4092487459
 21
-34.3496623936
  0
LINE
  5
295
100
AcDbEntity
  8
0
100
AcDbLine
 62
7
  6
CONTINUOUS
 10
13.8480329429
 20
-34.0256234227
 11
13.6307114518
 21
-33.9001447174
  0
LINE
  5
296
100
AcDbEntity
  8
0
100
AcDbLine
 62
7
  6
CONTINUOUS
 10
12.9832243789
 20
-33.5262937964
 11
12.7644094784
 21
-33.3999528153
  0
LINE
  5
297
100
AcDbEntity
  8
0
100
AcDbLine
 62
7
  6
CONTINUOUS
 10
-19.091883092
 20
37.1503445124
 11
-19.091883092
 21
36.9331981881
  0
LINE
  5
298
100
AcDbEntity
  8
0
100
AcDbLine
 62
7
  6
CONTINUOUS
 10
-18.9504617358
 20
37.0686895938
 11
-18.9504617358
 21
37.0148531068
  0
LINE
  5
299
100
AcDbEntity
  8
ASSI
100
AcDbLine
 62
7
  6
CONTINUOUS
 10
-26.0215295477
 20
-9.2656040649
 11
-24.8245315085
 21
-9.9567357308
  0
LINE
  5
29A
100
AcDbEntity
  8
ASSI
100
AcDbLine
 62
7
  6
CONTINUOUS
 10
23.9002092041
 20
-37.8856727847
 11
25.4755410169
 21
-38.7952496298
  0
LINE
  5
29B
100
AcDbEntity
  8
ASSI
100
AcDbLine
 62
7
  6
CONTINUOUS
 10
-23.9002092041
 20
-8.0407802849
 11
-22.7032111649
 21
-8.7319119509
  0
LINE
  5
29C
100
AcDbEntity
  8
0
100
AcDbLine
 62
7
  6
CONTINUOUS
 10
-17.7660578773
 20
36.1676833256
 11
-17.7660578773
 21
36.3848296499
  0
LINE
  5
29D
100
AcDbEntity
  8
0
100
AcDbLine
 62
7
  6
CONTINUOUS
 10
-17.4714301221
 20
35.9107104226
 11
-17.4714301221
 21
35.563276182
  0
LINE
  5
29E
100
AcDbEntity
  8
0
100
AcDbLine
 62
7
  6
CONTINUOUS
 10
-17.3300087658
 20
35.9923653412
 11
-17.3300087658
 21
35.6761842622
  0
LINE
  5
29F
100
AcDbEntity
  8
0
100
AcDbLine
 62
7
  6
CONTINUOUS
 10
-17.2504590422
 20
35.7396952256
 11
-17.2504590422
 21
34.0459536525
  0
LINE
  5
2A0
100
AcDbEntity
  8
0
100
AcDbLine
 62
7
  6
CONTINUOUS
 10
-17.109037686
 20
35.8213501443
 11
-17.109037686
 21
34.1276085712
  0
LINE
  5
2A1
100
AcDbEntity
  8
0
100
AcDbLine
 62
7
  6
CONTINUOUS
 10
-17.0294881731
 20
33.9183678421
 11
-17.0294881731
 21
35.9595435341
  0
LINE
  5
2A2
100
AcDbEntity
  8
0
100
AcDbLine
 62
7
  6
CONTINUOUS
 10
-16.7348606286
 20
35.7894292824
 11
-16.7348606286
 21
34.6602682743
  0
LINE
  5
2A3
100
AcDbEntity
  8
0
100
AcDbLine
 62
7
  6
CONTINUOUS
 10
-16.5934392723
 20
35.7077743638
 11
-16.5934392723
 21
34.741923193
  0
LINE
  5
2A4
100
AcDbEntity
  8
0
100
AcDbLine
 62
7
  6
CONTINUOUS
 10
-16.5507180971
 20
34.7710930088
 11
-16.5507180971
 21
35.4659613683
  0
LINE
  5
2A5
100
AcDbEntity
  8
0
100
AcDbLine
 62
7
  6
CONTINUOUS
 10
-15.5931775238
 20
33.7839283731
 11
-15.5931775238
 21
33.6970698434
  0
LINE
  5
2A6
100
AcDbEntity
  8
0
100
AcDbLine
 62
7
  6
CONTINUOUS
 10
-15.4826920892
 20
34.8492965369
 11
-15.4826920892
 21
35.0664428612
  0
LINE
  5
2A7
100
AcDbEntity
  8
0
100
AcDbLine
 62
7
  6
CONTINUOUS
 10
-15.4517561676
 20
33.8655832918
 11
-15.4517561676
 21
33.778724762
  0
LINE
  5
2A8
100
AcDbEntity
  8
0
100
AcDbLine
 62
7
  6
CONTINUOUS
 10
-15.4090354138
 20
33.5473192321
 11
-15.4090354138
 21
33.7210362915
  0
LINE
  5
2A9
100
AcDbEntity
  8
0
100
AcDbLine
 62
7
  6
CONTINUOUS
 10
-15.1144074479
 20
34.853799925
 11
-15.1144074479
 21
34.6366536006
  0
LINE
  5
2AA
100
AcDbEntity
  8
0
100
AcDbLine
 62
7
  6
CONTINUOUS
 10
-14.9729860916
 20
34.7721450063
 11
-14.9729860916
 21
34.7183085193
  0
LINE
  5
2AB
100
AcDbEntity
  8
ASSI
100
AcDbLine
 62
7
  6
CONTINUOUS
 10
25.4755410169
 20
-35.5293685226
 11
23.9002092041
 21
-34.6197916775
  0
LINE
  5
2AC
100
AcDbEntity
  8
ASSI
100
AcDbLine
 62
7
  6
CONTINUOUS
 10
-26.0215295477
 20
-5.5914878194
 11
-24.8245315085
 21
-6.2826194853
  0
LINE
  5
2AD
100
AcDbEntity
  8
ASSI
100
AcDbLine
 62
7
  6
CONTINUOUS
 10
27.5041642537
 20
-34.251022595
 11
26.0215295477
 21
-33.3949678975
  0
LINE
  5
2AE
100
AcDbEntity
  8
0
100
AcDbLine
 62
7
  6
CONTINUOUS
 10
-13.7885822331
 20
33.8711387381
 11
-13.7885822331
 21
34.0882850625
  0
LINE
  5
2AF
100
AcDbEntity
  8
0
100
AcDbLine
 62
7
  6
CONTINUOUS
 10
-13.4939546886
 20
33.6141659568
 11
-13.4939546886
 21
33.2667317162
  0
LINE
  5
2B0
100
AcDbEntity
  8
0
100
AcDbLine
 62
7
  6
CONTINUOUS
 10
-13.3525333324
 20
33.6958208754
 11
-13.3525333324
 21
33.379639982
  0
LINE
  5
2B1
100
AcDbEntity
  8
0
100
AcDbLine
 62
7
  6
CONTINUOUS
 10
-13.2729838195
 20
33.4431508815
 11
-13.2729838195
 21
31.7494093084
  0
LINE
  5
2B2
100
AcDbEntity
  8
0
100
AcDbLine
 62
7
  6
CONTINUOUS
 10
-13.1315624633
 20
33.5248058001
 11
-13.1315624633
 21
31.8310642271
  0
LINE
  5
2B3
100
AcDbEntity
  8
0
100
AcDbLine
 62
7
  6
CONTINUOUS
 10
-13.0520129504
 20
31.621823498
 11
-13.0520129504
 21
33.66299919
  0
LINE
  5
2B4
100
AcDbEntity
  8
ASSI
100
AcDbLine
 62
7
  6
CONTINUOUS
 10
-30.1228104956
 20
34.3516486258
 11
-29.8399061661
 21
33.7625925787
  0
LINE
  5
2B5
100
AcDbEntity
  8
0
100
AcDbLine
 62
7
  6
CONTINUOUS
 10
-20.1230804988
 20
35.9651448988
 11
-20.6386791759
 21
38.0434451853
  0
LINE
  5
2B6
100
AcDbEntity
  8
0
100
AcDbLine
 62
7
  6
CONTINUOUS
 10
-20.859650045
 20
38.1710309957
 11
-20.2703943765
 21
35.7896264658
  0
LINE
  5
2B7
100
AcDbEntity
  8
0
100
AcDbLine
 62
7
  6
CONTINUOUS
 10
-20.6710836793
 20
38.0621551395
 11
-20.1289730202
 21
35.8712813845
  0
LINE
  5
2B8
100
AcDbEntity
  8
0
100
AcDbLine
 62
7
  6
CONTINUOUS
 10
11.8613662365
 20
17.8868960068
 11
12.0027875928
 21
17.9685509254
  0
LINE
  5
2B9
100
AcDbEntity
  8
0
100
AcDbLine
 62
7
  6
CONTINUOUS
 10
11.6839828436
 20
17.3532111268
 11
11.8254041999
 21
17.4348660454
  0
LINE
  5
2BA
100
AcDbEntity
  8
0
100
AcDbLine
 62
7
  6
CONTINUOUS
 10
13.7144138029
 20
17.5135746581
 11
13.8558351591
 21
17.5952295767
  0
LINE
  5
2BB
100
AcDbEntity
  8
0
100
AcDbLine
 62
7
  6
CONTINUOUS
 10
12.7142261101
 20
16.7583615767
 11
12.8556474664
 21
16.8400164953
  0
LINE
  5
2BC
100
AcDbEntity
  8
0
100
AcDbLine
 62
7
  6
CONTINUOUS
 10
13.2818136523
 20
16.4306436434
 11
13.4232350085
 21
16.512298562
  0
LINE
  5
2BD
100
AcDbEntity
  8
0
100
AcDbLine
 62
7
  6
CONTINUOUS
 10
14.1751405398
 20
16.8226607835
 11
14.3165618961
 21
16.9043157022
  0
LINE
  5
2BE
100
AcDbEntity
  8
0
100
AcDbLine
 62
7
  6
CONTINUOUS
 10
14.6376965621
 20
16.9749266841
 11
14.7791179183
 21
17.0565816028
  0
LINE
  5
2BF
100
AcDbEntity
  8
0
100
AcDbLine
 62
7
  6
CONTINUOUS
 10
-22.4476814897
 20
-1.8142847001
 11
-20.5655073911
 21
-0.7276487576
  0
LINE
  5
2C0
100
AcDbEntity
  8
0
100
AcDbLine
 62
7
  6
CONTINUOUS
 10
-20.5978721869
 20
-3.5347322712
 11
-21.9173514038
 21
-3.1811166468
  0
LINE
  5
2C1
100
AcDbEntity
  8
ASSI
100
AcDbLine
 62
7
  6
CONTINUOUS
 10
-29.5570018365
 20
40.1135338843
 11
-29.8399061661
 21
40.7025899314
  0
LINE
  5
2C2
100
AcDbEntity
  8
0
100
AcDbLine
 62
7
  6
CONTINUOUS
 10
-15.630006283
 20
33.9354806925
 11
-15.5931775238
 21
33.7839283731
  0
LINE
  5
2C3
100
AcDbEntity
  8
0
100
AcDbLine
 62
7
  6
CONTINUOUS
 10
-13.3610955141
 20
29.0486077706
 11
-13.7146489047
 21
30.7762993452
  0
LINE
  5
2C4
100
AcDbEntity
  8
ASSI
100
AcDbLine
 62
7
  6
CONTINUOUS
 10
-24.8245315085
 20
-6.2826194853
 11
-24.0793606557
 21
-5.8523671741
  0
LINE
  5
2C5
100
AcDbEntity
  8
RACCORDO
100
AcDbLine
 62
253
  6
CONTINUOUS
 10
20.3646752982
 20
19.6756790039
 11
22.4859956417
 21
20.9005027839
  0
LINE
  5
2C6
100
AcDbEntity
  8
0
100
AcDbLine
 62
7
  6
CONTINUOUS
 10
14.1472522484
 20
15.9309502445
 11
14.2309476502
 21
15.9792749205
  0
LINE
  5
2C7
100
AcDbEntity
  8
0
100
AcDbLine
 62
7
  6
CONTINUOUS
 10
15.8583403502
 20
16.4231455231
 11
15.9997617065
 21
16.5048004417
  0
LINE
  5
2C8
100
AcDbEntity
  8
0
100
AcDbLine
 62
7
  6
CONTINUOUS
 10
14.7135012375
 20
15.604005175
 11
14.8549225937
 21
15.6856600936
  0
LINE
  5
2C9
100
AcDbEntity
  8
0
100
AcDbLine
 62
7
  6
CONTINUOUS
 10
15.1323828093
 20
15.3621482052
 11
15.2738041656
 21
15.4438031238
  0
LINE
  5
2CA
100
AcDbEntity
  8
0
100
AcDbLine
 62
7
  6
CONTINUOUS
 10
15.5991538951
 20
15.5000884913
 11
15.7405752513
 21
15.58174341
  0
LINE
  5
2CB
100
AcDbEntity
  8
0
100
AcDbLine
 62
7
  6
CONTINUOUS
 10
16.0278833431
 20
15.5678279281
 11
16.1693046994
 21
15.6494828467
  0
LINE
  5
2CC
100
AcDbEntity
  8
0
100
AcDbLine
 62
7
  6
CONTINUOUS
 10
17.0496634386
 20
15.9483967427
 11
17.1910847948
 21
16.0300516614
  0
LINE
  5
2CD
100
AcDbEntity
  8
0
100
AcDbLine
 62
7
  6
CONTINUOUS
 10
16.1016204383
 20
15.2099706067
 11
16.2430417945
 21
15.2916255253
  0
LINE
  5
2CE
100
AcDbEntity
  8
0
100
AcDbLine
 62
253
  6
CONTINUOUS
 10
17.3387129157
 20
15.7935175754
 11
17.480134272
 21
15.8751724941
  0
LINE
  5
2CF
100
AcDbEntity
  8
ASSI
100
AcDbLine
 62
7
  6
CONTINUOUS
 10
-23.9002092041
 20
-8.0407802849
 11
-26.0215295477
 21
-9.2656040649
  0
LINE
  5
2D0
100
AcDbEntity
  8
0
100
AcDbLine
 62
7
  6
CONTINUOUS
 10
16.1972014761
 20
14.7473352523
 11
16.3386228323
 21
14.828990171
  0
LINE
  5
2D1
100
AcDbEntity
  8
0
100
AcDbLine
 62
253
  6
CONTINUOUS
 10
17.5471328717
 20
15.4180451493
 11
17.6885542279
 21
15.4997000679
  0
LINE
  5
2D2
100
AcDbEntity
  8
0
100
AcDbLine
 62
7
  6
CONTINUOUS
 10
17.0618977059
 20
15.0467896762
 11
17.2033190621
 21
15.1284445948
  0
LINE
  5
2D3
100
AcDbEntity
  8
0
100
AcDbLine
 62
7
  6
CONTINUOUS
 10
17.4727691282
 20
15.2260695134
 11
17.6141904845
 21
15.307724432
  0
LINE
  5
2D4
100
AcDbEntity
  8
0
100
AcDbLine
 62
253
  6
CONTINUOUS
 10
17.2597270014
 20
14.9325655203
 11
17.4011483576
 21
15.014220439
  0
LINE
  5
2D5
100
AcDbEntity
  8
0
100
AcDbLine
 62
7
  6
CONTINUOUS
 10
16.6944190199
 20
14.4602483415
 11
16.8358403762
 21
14.5419032601
  0
LINE
  5
2D6
100
AcDbEntity
  8
0
100
AcDbLine
 62
7
  6
CONTINUOUS
 10
17.6430055212
 20
14.8773086045
 11
17.7844268774
 21
14.9589635232
  0
LINE
  5
2D7
100
AcDbEntity
  8
RACCORDO
100
AcDbLine
 62
253
  6
CONTINUOUS
 10
-0.8132008229
 20
4.1370569053
 11
-1.8738609947
 21
3.5246450153
  0
LINE
  5
2D8
100
AcDbEntity
  8
0
100
AcDbLine
 62
253
  6
CONTINUOUS
 10
17.4655755078
 20
14.6338781234
 11
17.6069968641
 21
14.7155330421
  0
LINE
  5
2D9
100
AcDbEntity
  8
ASSI
100
AcDbLine
 62
7
  6
CONTINUOUS
 10
-24.8245315085
 20
-9.9567357308
 11
-22.7032111649
 21
-8.7319119509
  0
LINE
  5
2DA
100
AcDbEntity
  8
ASSI
100
AcDbLine
 62
7
  6
CONTINUOUS
 10
-32.8451099861
 20
38.9677582767
 11
-32.4764218858
 21
38.4282231307
  0
LINE
  5
2DB
100
AcDbEntity
  8
0
100
AcDbLine
 62
7
  6
CONTINUOUS
 10
10.6747699076
 20
-32.0831115784
 11
9.7088440813
 21
-30.4100789727
  0
LINE
  5
2DC
100
AcDbEntity
  8
ASSI
100
AcDbLine
 62
7
  6
CONTINUOUS
 10
-27.435681493
 20
41.3383576643
 11
-27.7185858225
 21
41.9274137114
  0
LINE
  5
2DD
100
AcDbEntity
  8
0
100
AcDbLine
 62
7
  6
CONTINUOUS
 10
-16.7348606286
 20
34.2694048297
 11
-16.6612035317
 21
34.0531590552
  0
LINE
  5
2DE
100
AcDbEntity
  8
0
100
AcDbLine
 62
7
  6
CONTINUOUS
 10
-16.5241949135
 20
34.1477690861
 11
-16.5197821755
 21
34.1348139739
  0
LINE
  5
2DF
100
AcDbEntity
  8
0
100
AcDbLine
 62
7
  6
CONTINUOUS
 10
-16.4402326626
 20
33.9255732448
 11
-16.5138897595
 21
34.1418190193
  0
LINE
  5
2E0
100
AcDbEntity
  8
0
100
AcDbLine
 62
7
  6
CONTINUOUS
 10
-15.4090354138
 20
33.7210362915
 11
-15.4826920892
 21
33.9807111179
  0
LINE
  5
2E1
100
AcDbEntity
  8
0
100
AcDbLine
 62
7
  6
CONTINUOUS
 10
17.6269140797
 20
13.9218373809
 11
17.7683354359
 21
14.0034922996
  0
LINE
  5
2E2
100
AcDbEntity
  8
RACCORDO
100
AcDbLine
 62
253
  6
CONTINUOUS
 10
-0.1606627098
 20
3.3533726993
 11
-1.2213228816
 21
2.7409608093
  0
LINE
  5
2E3
100
AcDbEntity
  8
RACCORDO
100
AcDbLine
 62
253
  6
CONTINUOUS
 10
-3.9786466467
 20
0.4316855124
 11
-4.2369322668
 21
0.2825546324
  0
LINE
  5
2E4
100
AcDbEntity
  8
RACCORDO
100
AcDbLine
 62
253
  6
CONTINUOUS
 10
0.4904080106
 20
1.2230345259
 11
1.5510681824
 21
1.8354464159
  0
LINE
  5
2E5
100
AcDbEntity
  8
RACCORDO
100
AcDbLine
 62
253
  6
CONTINUOUS
 10
1.2317284468
 20
0.7706748321
 11
2.2923886185
 21
1.3830867221
  0
LINE
  5
2E6
100
AcDbEntity
  8
RACCORDO
100
AcDbLine
 62
253
  6
CONTINUOUS
 10
23.9002092041
 20
13.5519546533
 11
26.0215295477
 21
14.7767784333
  0
LINE
  5
2E7
100
AcDbEntity
  8
0
100
AcDbLine
 62
7
  6
CONTINUOUS
 10
-20.5978721869
 20
-3.5347322712
 11
-3.3530487903
 21
-1.9954986121
  0
LINE
  5
2E8
100
AcDbEntity
  8
0
100
AcDbLine
 62
7
  6
CONTINUOUS
 10
2.1156119232
 20
-1.5073784124
 11
19.3604353198
 21
0.0318552467
  0
LINE
  5
2E9
100
AcDbEntity
  8
0
100
AcDbLine
 62
7
  6
CONTINUOUS
 10
-16.6612035317
 20
34.0531590552
 11
-16.5507180971
 21
33.8156490753
  0
LINE
  5
2EA
100
AcDbEntity
  8
0
100
AcDbLine
 62
7
  6
CONTINUOUS
 10
-16.5197821755
 20
34.1348139739
 11
-16.4888666008
 21
34.0683549194
  0
LINE
  5
2EB
100
AcDbEntity
  8
0
100
AcDbLine
 62
7
  6
CONTINUOUS
 10
-15.4826920892
 20
33.9807111179
 11
-15.5931775238
 21
34.2182210826
  0
LINE
  5
2EC
100
AcDbEntity
  8
0
100
AcDbLine
 62
7
  6
CONTINUOUS
 10
-15.7036629584
 20
34.1082969283
 11
-15.630006283
 21
33.9354806925
  0
LINE
  5
2ED
100
AcDbEntity
  8
0
100
AcDbLine
 62
7
  6
CONTINUOUS
 10
-13.3610955141
 20
29.0486077706
 11
-3.4047920839
 21
3.3879975931
  0
LINE
  5
2EE
100
AcDbEntity
  8
0
100
AcDbLine
 62
7
  6
CONTINUOUS
 10
-0.2474593489
 20
-4.7494687952
 11
9.7088440813
 21
-30.4100789727
  0
LINE
  5
2EF
100
AcDbEntity
  8
0
100
AcDbLine
 62
7
  6
CONTINUOUS
 10
11.2397751705
 20
-30.2734315506
 11
1.2834717404
 21
-4.6128213731
  0
LINE
  5
2F0
100
AcDbEntity
  8
0
100
AcDbLine
 62
7
  6
CONTINUOUS
 10
-1.8738609947
 20
3.5246450153
 11
-11.8301644249
 21
29.1852551927
  0
LINE
  5
2F1
100
AcDbEntity
  8
RACCORDO
100
AcDbLine
 62
253
  6
CONTINUOUS
 10
2.8238603885
 20
-1.4449502562
 11
1.7632002167
 21
-2.0573621461
  0
LINE
  5
2F2
100
AcDbEntity
  8
RACCORDO
100
AcDbLine
 62
253
  6
CONTINUOUS
 10
1.3045433065
 20
-3.7690123014
 11
2.3652034783
 21
-3.1566004114
  0
LINE
  5
2F3
100
AcDbEntity
  8
0
100
AcDbLine
 62
7
  6
CONTINUOUS
 10
3.0607568123
 20
-2.8516339279
 11
2.2869349141
 21
-3.2984289937
  0
LINE
  5
2F4
100
AcDbEntity
  8
0
100
AcDbLine
 62
7
  6
CONTINUOUS
 10
18.4765518434
 20
2.3099084912
 11
1.2317284468
 21
0.7706748321
  0
LINE
  5
2F5
100
AcDbEntity
  8
0
100
AcDbLine
 62
7
  6
CONTINUOUS
 10
-4.2369322668
 20
0.2825546324
 11
-21.4817556634
 21
-1.2566790267
  0
LINE
  5
2F6
100
AcDbEntity
  8
0
100
AcDbLine
 62
7
  6
CONTINUOUS
 10
19.0701147805
 20
2.8806283459
 11
2.2923886185
 21
1.3830867221
  0
LINE
  5
2F7
100
AcDbEntity
  8
0
100
AcDbLine
 62
7
  6
CONTINUOUS
 10
-3.8844507378
 20
0.8317561097
 11
-19.953998257
 21
-0.6025751014
  0
LINE
  5
2F8
100
AcDbEntity
  8
0
100
AcDbLine
 62
7
  6
CONTINUOUS
 10
30.7237896426
 20
-40.1925820567
 11
30.3551015422
 21
-39.6530469106
  0
LINE
  5
2F9
100
AcDbEntity
  8
0
100
AcDbLine
 62
7
  6
CONTINUOUS
 10
16.8678491245
 20
-37.9231870689
 11
17.2947316097
 21
-38.950383975
  0
LINE
  5
2FA
100
AcDbEntity
  8
0
100
AcDbLine
 62
7
  6
CONTINUOUS
 10
17.4140905431
 20
-38.8156407867
 11
17.4361529659
 21
-38.8687290563
  0
LINE
  5
2FB
100
AcDbEntity
  8
0
100
AcDbLine
 62
7
  6
CONTINUOUS
 10
18.3052176056
 20
-36.844053593
 11
18.883448519
 21
-38.2390351225
  0
LINE
  5
2FC
100
AcDbEntity
  8
0
100
AcDbLine
 62
7
  6
CONTINUOUS
 10
18.9519129539
 20
-37.9813717003
 11
19.0248698753
 21
-38.1573802039
  0
LINE
  5
2FD
100
AcDbEntity
  8
0
100
AcDbLine
 62
7
  6
CONTINUOUS
 10
18.9070312373
 20
-38.0072858409
 11
18.3383533365
 21
-36.618278141
  0
LINE
  5
2FE
100
AcDbEntity
  8
0
100
AcDbLine
 62
7
  6
CONTINUOUS
 10
17.3702569779
 20
-38.8409497379
 11
17.0457663831
 21
-38.0259142642
  0
LINE
  5
2FF
100
AcDbEntity
  8
0
100
AcDbLine
 62
7
  6
CONTINUOUS
 10
12.0307566282
 20
-28.9659704985
 11
2.3441319122
 21
-4.0004094831
  0
LINE
  5
300
100
AcDbEntity
  8
0
100
AcDbLine
 62
7
  6
CONTINUOUS
 10
-0.8132008229
 20
4.1370569053
 11
-10.4998255389
 21
29.1026179206
  0
LINE
  5
301
100
AcDbEntity
  8
0
100
AcDbLine
 62
7
  6
CONTINUOUS
 10
12.2085917286
 20
19.0912686753
 11
11.8613662365
 21
17.8868960068
  0
LINE
  5
302
100
AcDbEntity
  8
0
100
AcDbLine
 62
7
  6
CONTINUOUS
 10
12.3096492853
 20
19.0329193086
 11
12.0027875928
 21
17.9685509254
  0
LINE
  5
303
100
AcDbEntity
  8
0
100
AcDbLine
 62
7
  6
CONTINUOUS
 10
12.0091317548
 20
17.1654742205
 11
12.5773033672
 21
18.8783791962
  0
LINE
  5
304
100
AcDbEntity
  8
0
100
AcDbLine
 62
7
  6
CONTINUOUS
 10
14.5441039085
 20
17.7427732135
 11
14.1751405398
 21
16.8226607835
  0
LINE
  5
305
100
AcDbEntity
  8
0
100
AcDbLine
 62
7
  6
CONTINUOUS
 10
14.6323500508
 20
17.6918209969
 11
14.3165618961
 21
16.9043157022
  0
LINE
  5
306
100
AcDbEntity
  8
0
100
AcDbLine
 62
7
  6
CONTINUOUS
 10
14.1989997369
 20
15.9010718932
 11
14.6376965621
 21
16.9749266841
  0
LINE
  5
307
100
AcDbEntity
  8
RACCORDO
100
AcDbLine
 62
253
  6
CONTINUOUS
 10
1.2834717404
 20
-4.6128213731
 11
2.3441319122
 21
-4.0004094831
  0
LINE
  5
308
100
AcDbEntity
  8
ASSI
100
AcDbLine
 62
7
  6
CONTINUOUS
 10
26.0215295477
 20
9.2656040649
 11
23.9002092041
 21
8.0407802849
  0
LINE
  5
309
100
AcDbEntity
  8
ASSI
100
AcDbLine
 62
7
  6
CONTINUOUS
 10
22.7032111649
 20
5.0577957053
 11
24.8245315085
 21
6.2826194853
  0
LINE
  5
30A
100
AcDbEntity
  8
0
100
AcDbLine
 62
7
  6
CONTINUOUS
 10
19.3928001156
 20
2.8389387604
 11
18.4765518434
 21
2.3099084912
  0
LINE
  5
30B
100
AcDbEntity
  8
0
100
AcDbLine
 62
7
  6
CONTINUOUS
 10
18.4765518434
 20
2.3099084912
 11
19.7960310602
 21
1.9562928668
  0
LINE
  5
30C
100
AcDbEntity
  8
0
100
AcDbLine
 62
7
  6
CONTINUOUS
 10
-16.5507180971
 20
33.8156490753
 11
-16.3665755657
 21
33.5790396795
  0
LINE
  5
30D
100
AcDbEntity
  8
0
100
AcDbLine
 62
7
  6
CONTINUOUS
 10
-16.2808847581
 20
33.7323041897
 11
-16.2251542095
 21
33.6606945982
  0
LINE
  5
30E
100
AcDbEntity
  8
0
100
AcDbLine
 62
7
  6
CONTINUOUS
 10
-16.329747228
 20
33.7749218099
 11
-16.4402326626
 21
33.9255732448
  0
LINE
  5
30F
100
AcDbEntity
  8
0
100
AcDbLine
 62
7
  6
CONTINUOUS
 10
-15.8141483929
 20
34.2589483633
 11
-15.7036629584
 21
34.1082969283
  0
LINE
  5
310
100
AcDbEntity
  8
0
100
AcDbLine
 62
7
  6
CONTINUOUS
 10
32.8451099861
 20
-38.9677582767
 11
32.4764218858
 21
-38.4282231307
  0
LINE
  5
311
100
AcDbEntity
  8
0
100
AcDbLine
 62
7
  6
CONTINUOUS
 10
-12.7960902511
 20
30.8582877984
 11
-11.8301644249
 21
29.1852551927
  0
LINE
  5
312
100
AcDbEntity
  8
0
100
AcDbLine
 62
7
  6
CONTINUOUS
 10
27.435681493
 20
-41.3383576643
 11
27.7185858225
 21
-41.9274137114
  0
LINE
  5
313
100
AcDbEntity
  8
0
100
AcDbLine
 62
7
  6
CONTINUOUS
 10
14.9919570595
 20
-35.9921367256
 11
14.5823894981
 21
-34.449631694
  0
LINE
  5
314
100
AcDbEntity
  8
0
100
AcDbLine
 62
7
  6
CONTINUOUS
 10
16.169613705
 20
-38.8264050939
 11
15.7600461437
 21
-37.2835555118
  0
LINE
  5
315
100
AcDbEntity
  8
0
100
AcDbLine
 62
7
  6
CONTINUOUS
 10
14.713140613
 20
-35.45095977
 11
14.825085516
 21
-35.8957871878
  0
LINE
  5
316
100
AcDbEntity
  8
0
100
AcDbLine
 62
7
  6
CONTINUOUS
 10
15.8907972586
 20
-38.2852281383
 11
16.0027421615
 21
-38.730055556
  0
LINE
  5
317
100
AcDbEntity
  8
0
100
AcDbLine
 62
7
  6
CONTINUOUS
 10
13.3078677088
 20
-34.823404356
 11
12.9832243789
 21
-33.5262937964
  0
LINE
  5
318
100
AcDbEntity
  8
0
100
AcDbLine
 62
7
  6
CONTINUOUS
 10
12.9121764109
 20
-33.6962213826
 11
13.230696196
 21
-34.9752067768
  0
LINE
  5
319
100
AcDbEntity
  8
0
100
AcDbLine
 62
7
  6
CONTINUOUS
 10
13.3487669225
 20
-34.7997896626
 11
13.3721175522
 21
-34.8935518582
  0
LINE
  5
31A
100
AcDbEntity
  8
0
100
AcDbLine
 62
7
  6
CONTINUOUS
 10
15.6671238273
 20
-37.4192329905
 11
15.8358699109
 21
-38.0970250005
  0
LINE
  5
31B
100
AcDbEntity
  8
0
100
AcDbLine
 62
7
  6
CONTINUOUS
 10
14.4894671818
 20
-34.5849548246
 11
14.6579148663
 21
-35.2625843404
  0
LINE
  5
31C
100
AcDbEntity
  8
0
100
AcDbLine
 62
7
  6
CONTINUOUS
 10
11.2397751705
 20
-30.2734315506
 11
11.5933285611
 21
-32.0011231251
  0
LINE
  5
31D
100
AcDbEntity
  8
0
100
AcDbLine
 62
7
  6
CONTINUOUS
 10
15.6746269374
 20
15.7717937494
 11
15.8583403502
 21
16.4231455231
  0
LINE
  5
31E
100
AcDbEntity
  8
0
100
AcDbLine
 62
7
  6
CONTINUOUS
 10
15.4973432465
 20
15.1514246228
 11
15.5991538951
 21
15.5000884913
  0
LINE
  5
31F
100
AcDbEntity
  8
0
100
AcDbLine
 62
7
  6
CONTINUOUS
 10
15.6868082659
 20
17.082990039
 11
15.1323828093
 21
15.3621482052
  0
LINE
  5
320
100
AcDbEntity
  8
0
100
AcDbLine
 62
7
  6
CONTINUOUS
 10
15.7838666142
 20
17.0269497651
 11
15.2738041656
 21
15.4438031238
  0
LINE
  5
321
100
AcDbEntity
  8
ASSI
100
AcDbLine
 62
7
  6
CONTINUOUS
 10
26.0215295477
 20
5.5914878194
 11
23.9002092041
 21
4.3666640394
  0
LINE
  5
322
100
AcDbEntity
  8
0
100
AcDbLine
 62
7
  6
CONTINUOUS
 10
20.3263611461
 20
0.5894609201
 11
19.3604353198
 21
0.0318552467
  0
LINE
  5
323
100
AcDbEntity
  8
0
100
AcDbLine
 62
7
  6
CONTINUOUS
 10
-15.5931775238
 20
34.2182210826
 11
-15.7773200552
 21
34.454830467
  0
LINE
  5
324
100
AcDbEntity
  8
0
100
AcDbLine
 62
7
  6
CONTINUOUS
 10
28.001490152
 20
-35.5764724058
 11
27.7185858225
 21
-34.9874163587
  0
LINE
  5
325
100
AcDbEntity
  8
0
100
AcDbLine
 62
7
  6
CONTINUOUS
 10
14.6376965621
 20
16.9749266841
 11
14.7135012375
 21
15.604005175
  0
LINE
  5
326
100
AcDbEntity
  8
0
100
AcDbLine
 62
7
  6
CONTINUOUS
 10
12.7142261101
 20
18.799444191
 11
12.7142261101
 21
16.7583615767
  0
LINE
  5
327
100
AcDbEntity
  8
0
100
AcDbLine
 62
7
  6
CONTINUOUS
 10
12.7644094784
 20
-33.3999528153
 11
12.7644094784
 21
-34.70597867
  0
LINE
  5
328
100
AcDbEntity
  8
0
100
AcDbLine
 62
7
  6
CONTINUOUS
 10
12.8556474664
 20
18.7177892724
 11
12.8556474664
 21
16.8400164953
  0
LINE
  5
329
100
AcDbEntity
  8
0
100
AcDbLine
 62
7
  6
CONTINUOUS
 10
12.9058308346
 20
-33.4816077339
 11
12.9058308346
 21
-34.6243237514
  0
LINE
  5
32A
100
AcDbEntity
  8
0
100
AcDbLine
 62
7
  6
CONTINUOUS
 10
12.9121764109
 20
-34.7912974449
 11
12.9121764109
 21
-33.6962213826
  0
LINE
  5
32B
100
AcDbEntity
  8
0
100
AcDbLine
 62
7
  6
CONTINUOUS
 10
13.0831894788
 20
16.5453267518
 11
13.0831894788
 21
18.5864093662
  0
LINE
  5
32C
100
AcDbEntity
  8
0
100
AcDbLine
 62
7
  6
CONTINUOUS
 10
13.7002660104
 20
-34.1491863211
 11
13.7002660104
 21
-35.2463305026
  0
LINE
  5
32D
100
AcDbEntity
  8
0
100
AcDbLine
 62
7
  6
CONTINUOUS
 10
13.8416873666
 20
-34.0675314024
 11
13.8416873666
 21
-35.1646755839
  0
LINE
  5
32E
100
AcDbEntity
  8
0
100
AcDbLine
 62
7
  6
CONTINUOUS
 10
13.8480329429
 20
-35.3316492774
 11
13.8480329429
 21
-34.0256234227
  0
LINE
  5
32F
100
AcDbEntity
  8
0
100
AcDbLine
 62
7
  6
CONTINUOUS
 10
14.0707284454
 20
-36.308164645
 11
14.0707284454
 21
-37.6145350502
  0
LINE
  5
330
100
AcDbEntity
  8
0
100
AcDbLine
 62
7
  6
CONTINUOUS
 10
14.2121498017
 20
-36.3964131983
 11
14.2121498017
 21
-37.5328801315
  0
LINE
  5
331
100
AcDbEntity
  8
0
100
AcDbLine
 62
7
  6
CONTINUOUS
 10
14.2235695762
 20
-37.7027836035
 11
14.2235695762
 21
-36.3964131983
  0
LINE
  5
332
100
AcDbEntity
  8
0
100
AcDbLine
 62
7
  6
CONTINUOUS
 10
14.387754821
 20
-36.491211701
 11
14.387754821
 21
-36.648045027
  0
LINE
  5
333
100
AcDbEntity
  8
0
100
AcDbLine
 62
7
  6
CONTINUOUS
 10
14.7704565674
 20
-36.869012219
 11
14.7704565674
 21
-38.0185492981
  0
LINE
  5
334
100
AcDbEntity
  8
0
100
AcDbLine
 62
7
  6
CONTINUOUS
 10
14.9118779236
 20
-36.7938338116
 11
14.9118779236
 21
-37.9368943795
  0
LINE
  5
335
100
AcDbEntity
  8
0
100
AcDbLine
 62
7
  6
CONTINUOUS
 10
14.9232976981
 20
-38.1067978515
 11
14.9232976981
 21
-36.9572607723
  0
LINE
  5
336
100
AcDbEntity
  8
0
100
AcDbLine
 62
7
  6
CONTINUOUS
 10
15.140022391
 20
-34.7716019376
 11
15.140022391
 21
-36.0776277924
  0
LINE
  5
337
100
AcDbEntity
  8
0
100
AcDbLine
 62
7
  6
CONTINUOUS
 10
15.2814437472
 20
-34.8532568563
 11
15.2814437472
 21
-35.9959728737
  0
LINE
  5
338
100
AcDbEntity
  8
0
100
AcDbLine
 62
7
  6
CONTINUOUS
 10
15.2931626279
 20
-36.0150747105
 11
15.2931626279
 21
-35.01099671
  0
LINE
  5
339
100
AcDbEntity
  8
0
100
AcDbLine
 62
7
  6
CONTINUOUS
 10
15.3062978435
 20
-37.1784002561
 11
15.3062978435
 21
-37.0215669301
  0
LINE
  5
33A
100
AcDbEntity
  8
0
100
AcDbLine
 62
7
  6
CONTINUOUS
 10
13.634791458
 20
16.2268386822
 11
13.7144138029
 21
17.5135746581
  0
LINE
  5
33B
100
AcDbEntity
  8
0
100
AcDbLine
 62
7
  6
CONTINUOUS
 10
13.4414161381
 20
18.3794513122
 11
13.2818136523
 21
16.4306436434
  0
LINE
  5
33C
100
AcDbEntity
  8
0
100
AcDbLine
 62
7
  6
CONTINUOUS
 10
13.5700667129
 20
18.3051700827
 11
13.4232350085
 21
16.512298562
  0
LINE
  5
33D
100
AcDbEntity
  8
0
100
AcDbLine
 62
7
  6
CONTINUOUS
 10
-16.1824334558
 20
33.6464354192
 11
-16.329747228
 21
33.7749218099
  0
LINE
  5
33E
100
AcDbEntity
  8
0
100
AcDbLine
 62
7
  6
CONTINUOUS
 10
-15.9614625866
 20
34.3874349973
 11
-15.8141483929
 21
34.2589483633
  0
LINE
  5
33F
100
AcDbEntity
  8
0
100
AcDbLine
 62
7
  6
CONTINUOUS
 10
-15.8200412304
 20
34.469089916
 11
-15.7215894628
 21
34.3832208228
  0
LINE
  5
340
100
AcDbEntity
  8
0
100
AcDbLine
 62
7
  6
CONTINUOUS
 10
30.1228104956
 20
-34.3516486258
 11
29.8399061661
 21
-33.7625925787
  0
LINE
  5
341
100
AcDbEntity
  8
0
100
AcDbLine
 62
7
  6
CONTINUOUS
 10
11.1236254683
 20
19.7177145962
 11
11.6839828436
 21
17.3532111268
  0
LINE
  5
342
100
AcDbEntity
  8
0
100
AcDbLine
 62
7
  6
CONTINUOUS
 10
11.309884482
 20
19.6101709761
 11
11.8254041999
 21
17.4348660454
  0
LINE
  5
343
100
AcDbEntity
  8
0
100
AcDbLine
 62
7
  6
CONTINUOUS
 10
11.8613662365
 20
17.8868960068
 11
11.5244333908
 21
19.486293125
  0
LINE
  5
344
100
AcDbEntity
  8
0
100
AcDbLine
 62
7
  6
CONTINUOUS
 10
15.0744453081
 20
15.3956005922
 11
14.9091569767
 21
17.5319961471
  0
LINE
  5
345
100
AcDbEntity
  8
0
100
AcDbLine
 62
7
  6
CONTINUOUS
 10
14.7791179183
 20
17.0565816028
 11
14.8549225937
 21
15.6856600936
  0
LINE
  5
346
100
AcDbEntity
  8
0
100
AcDbLine
 62
7
  6
CONTINUOUS
 10
16.28543921
 20
-35.4329512534
 11
16.28543921
 21
-36.7389771082
  0
LINE
  5
347
100
AcDbEntity
  8
0
100
AcDbLine
 62
7
  6
CONTINUOUS
 10
16.3099178326
 20
-37.6010445335
 11
16.3099178326
 21
-38.9074149387
  0
LINE
  5
348
100
AcDbEntity
  8
0
100
AcDbLine
 62
7
  6
CONTINUOUS
 10
16.4268605662
 20
-35.5146061721
 11
16.4268605662
 21
-36.6573221895
  0
LINE
  5
349
100
AcDbEntity
  8
0
100
AcDbLine
 62
7
  6
CONTINUOUS
 10
16.4382810479
 20
-36.6707372942
 11
16.4382810479
 21
-36.2343608748
  0
LINE
  5
34A
100
AcDbEntity
  8
0
100
AcDbLine
 62
7
  6
CONTINUOUS
 10
16.4382810479
 20
-36.0778720992
 11
16.4382810479
 21
-35.6776889907
  0
LINE
  5
34B
100
AcDbEntity
  8
0
100
AcDbLine
 62
7
  6
CONTINUOUS
 10
16.4513391888
 20
-37.6892934951
 11
16.4513391888
 21
-38.82576002
  0
LINE
  5
34C
100
AcDbEntity
  8
0
100
AcDbLine
 62
7
  6
CONTINUOUS
 10
16.4627596704
 20
-38.8391751247
 11
16.4627596704
 21
-37.6892934951
  0
LINE
  5
34D
100
AcDbEntity
  8
0
100
AcDbLine
 62
7
  6
CONTINUOUS
 10
16.6944190199
 20
16.4773629557
 11
16.6944190199
 21
14.4602483415
  0
LINE
  5
34E
100
AcDbEntity
  8
0
100
AcDbLine
 62
7
  6
CONTINUOUS
 10
16.8358403762
 20
16.4177838794
 11
16.8358403762
 21
14.5419032601
  0
LINE
  5
34F
100
AcDbEntity
  8
0
100
AcDbLine
 62
7
  6
CONTINUOUS
 10
17.0362140776
 20
-39.3267692879
 11
17.0362140776
 21
-39.1702805123
  0
LINE
  5
350
100
AcDbEntity
  8
0
100
AcDbLine
 62
7
  6
CONTINUOUS
 10
17.0496634386
 20
15.3881134862
 11
17.0496634386
 21
15.9483967427
  0
LINE
  5
351
100
AcDbEntity
  8
0
100
AcDbLine
 62
7
  6
CONTINUOUS
 10
17.0574088962
 20
-36.5918375349
 11
17.0574088962
 21
-36.4353487593
  0
LINE
  5
352
100
AcDbEntity
  8
0
100
AcDbLine
 62
7
  6
CONTINUOUS
 10
17.0618977059
 20
14.2480707538
 11
17.0618977059
 21
15.0467896762
  0
LINE
  5
353
100
AcDbEntity
  8
0
100
AcDbLine
 62
7
  6
CONTINUOUS
 10
17.1096499452
 20
-36.0653289778
 11
17.1096499452
 21
-35.9088402022
  0
LINE
  5
354
100
AcDbEntity
  8
0
100
AcDbLine
 62
7
  6
CONTINUOUS
 10
17.1203965541
 20
-37.2210710142
 11
17.1203965541
 21
-37.0645822386
  0
LINE
  5
355
100
AcDbEntity
  8
0
100
AcDbLine
 62
7
  6
CONTINUOUS
 10
17.2947316097
 20
-38.950383975
 11
17.2947316097
 21
-39.476034071
  0
LINE
  5
356
100
AcDbEntity
  8
0
100
AcDbLine
 62
7
  6
CONTINUOUS
 10
17.4361529659
 20
-38.8687290563
 11
17.4361529659
 21
-39.3943791523
  0
LINE
  5
357
100
AcDbEntity
  8
0
100
AcDbLine
 62
7
  6
CONTINUOUS
 10
17.4475727404
 20
-39.5642826243
 11
17.4475727404
 21
-39.0386325283
  0
LINE
  5
358
100
AcDbEntity
  8
0
100
AcDbLine
 62
7
  6
CONTINUOUS
 10
17.6430055212
 20
14.8652483115
 11
17.6430055212
 21
14.8773086045
  0
LINE
  5
359
100
AcDbEntity
  8
0
100
AcDbLine
 62
7
  6
CONTINUOUS
 10
17.7428082063
 20
-36.2744178468
 11
17.7428082063
 21
-37.5804437016
  0
LINE
  5
35A
100
AcDbEntity
  8
0
100
AcDbLine
 62
7
  6
CONTINUOUS
 10
17.8842295626
 20
-36.3626668084
 11
17.8842295626
 21
-37.4987887829
  0
LINE
  5
35B
100
AcDbEntity
  8
0
100
AcDbLine
 62
7
  6
CONTINUOUS
 10
17.8956500442
 20
-37.6686926632
 11
17.8956500442
 21
-36.3626668084
  0
LINE
  5
35C
100
AcDbEntity
  8
0
100
AcDbLine
 62
7
  6
CONTINUOUS
 10
18.157152274
 20
-36.5136549185
 11
18.157152274
 21
-37.8196807733
  0
LINE
  5
35D
100
AcDbEntity
  8
0
100
AcDbLine
 62
7
  6
CONTINUOUS
 10
18.2985736303
 20
-36.5953098372
 11
18.2985736303
 21
-37.7380258546
  0
LINE
  5
35E
100
AcDbEntity
  8
0
100
AcDbLine
 62
7
  6
CONTINUOUS
 10
18.3052176056
 20
-37.90517184
 11
18.3052176056
 21
-36.844053593
  0
LINE
  5
35F
100
AcDbEntity
  8
0
100
AcDbLine
 62
7
  6
CONTINUOUS
 10
18.9070312373
 20
-36.9466256337
 11
18.9070312373
 21
-38.0072858409
  0
LINE
  5
360
100
AcDbEntity
  8
0
100
AcDbLine
 62
7
  6
CONTINUOUS
 10
19.0484525935
 20
-37.0322894006
 11
19.0484525935
 21
-37.9256309222
  0
LINE
  5
361
100
AcDbEntity
  8
0
100
AcDbLine
 62
7
  6
CONTINUOUS
 10
19.055395675
 20
-38.3383152554
 11
19.055395675
 21
-37.0322894006
  0
LINE
  5
362
100
AcDbEntity
  8
ASSI
100
AcDbLine
 62
7
  6
CONTINUOUS
 10
23.9002092041
 20
4.3666640394
 11
22.7032111649
 21
5.0577957053
  0
LINE
  5
363
100
AcDbEntity
  8
ASSI
100
AcDbLine
 62
7
  6
CONTINUOUS
 10
-27.5968613605
 20
34.3045447427
 11
-26.0215295477
 21
33.3949678975
  0
LINE
  5
364
100
AcDbEntity
  8
ASSI
100
AcDbLine
 62
7
  6
CONTINUOUS
 10
26.0215295477
 20
5.5914878194
 11
24.8245315085
 21
6.2826194853
  0
LINE
  5
365
100
AcDbEntity
  8
ASSI
100
AcDbLine
 62
7
  6
CONTINUOUS
 10
-26.0215295477
 20
36.6608490047
 11
-27.5968613605
 21
37.5704258498
  0
LINE
  5
366
100
AcDbEntity
  8
ASSI
100
AcDbLine
 62
7
  6
CONTINUOUS
 10
23.9002092041
 20
8.0407802849
 11
22.7032111649
 21
8.7319119509
  0
LINE
  5
367
100
AcDbEntity
  8
0
100
AcDbLine
 62
7
  6
CONTINUOUS
 10
-16.3665755657
 20
33.5790396795
 11
-16.1824334558
 21
33.4292890644
  0
LINE
  5
368
100
AcDbEntity
  8
0
100
AcDbLine
 62
7
  6
CONTINUOUS
 10
-16.2251542095
 20
33.6606945982
 11
-16.0410120995
 21
33.5109439831
  0
LINE
  5
369
100
AcDbEntity
  8
0
100
AcDbLine
 62
7
  6
CONTINUOUS
 10
-15.7773200552
 20
34.454830467
 11
-15.9614625866
 21
34.6045813216
  0
LINE
  5
36A
100
AcDbEntity
  8
0
100
AcDbLine
 62
7
  6
CONTINUOUS
 10
13.7144138029
 20
17.5135746581
 11
14.1472522484
 21
15.9309502445
  0
LINE
  5
36B
100
AcDbEntity
  8
0
100
AcDbLine
 62
7
  6
CONTINUOUS
 10
13.8558351591
 20
17.5952295767
 11
14.2709853316
 21
16.0772803163
  0
LINE
  5
36C
100
AcDbEntity
  8
0
100
AcDbLine
 62
7
  6
CONTINUOUS
 10
14.1751405398
 20
16.8226607835
 11
13.8100747438
 21
18.1665924537
  0
LINE
  5
36D
100
AcDbEntity
  8
0
100
AcDbLine
 62
7
  6
CONTINUOUS
 10
16.1016204383
 20
15.2099706067
 11
16.1972014761
 21
14.7473352523
  0
LINE
  5
36E
100
AcDbEntity
  8
0
100
AcDbLine
 62
7
  6
CONTINUOUS
 10
16.2430417945
 20
15.2916255253
 11
16.3386228323
 21
14.828990171
  0
LINE
  5
36F
100
AcDbEntity
  8
0
100
AcDbLine
 62
7
  6
CONTINUOUS
 10
15.8583403502
 20
16.4231455231
 11
16.0278833431
 21
15.5678279281
  0
LINE
  5
370
100
AcDbEntity
  8
0
100
AcDbLine
 62
7
  6
CONTINUOUS
 10
15.9997617065
 20
16.5048004417
 11
16.1693046994
 21
15.6494828467
  0
LINE
  5
371
100
AcDbEntity
  8
0
100
AcDbLine
 62
7
  6
CONTINUOUS
 10
-20.2703943765
 20
35.7896264658
 11
-19.9757665685
 21
35.6195120621
  0
LINE
  5
372
100
AcDbEntity
  8
0
100
AcDbLine
 62
7
  6
CONTINUOUS
 10
-18.7235982399
 20
34.8965257625
 11
-18.5026273708
 21
34.7689399521
  0
LINE
  5
373
100
AcDbEntity
  8
0
100
AcDbLine
 62
7
  6
CONTINUOUS
 10
-17.2504590422
 20
34.0459536525
 11
-17.0294881731
 21
33.9183678421
  0
LINE
  5
374
100
AcDbEntity
  8
0
100
AcDbLine
 62
7
  6
CONTINUOUS
 10
-16.1824334558
 20
33.4292890644
 11
-15.9614625866
 21
33.301703254
  0
LINE
  5
375
100
AcDbEntity
  8
0
100
AcDbLine
 62
7
  6
CONTINUOUS
 10
-14.7461228065
 20
32.5999812967
 11
-14.5251519374
 21
32.4723954863
  0
LINE
  5
376
100
AcDbEntity
  8
0
100
AcDbLine
 62
7
  6
CONTINUOUS
 10
-13.2729838195
 20
31.7494093084
 11
-13.0520129504
 21
31.621823498
  0
LINE
  5
377
100
AcDbEntity
  8
0
100
AcDbLine
 62
7
  6
CONTINUOUS
 10
11.6839828436
 20
17.3532111268
 11
12.0091317548
 21
17.1654742205
  0
LINE
  5
378
100
AcDbEntity
  8
0
100
AcDbLine
 62
7
  6
CONTINUOUS
 10
12.7142261101
 20
16.7583615767
 11
13.0831894788
 21
16.5453267518
  0
LINE
  5
379
100
AcDbEntity
  8
0
100
AcDbLine
 62
7
  6
CONTINUOUS
 10
13.2818136523
 20
16.4306436434
 11
13.634791458
 21
16.2268386822
  0
LINE
  5
37A
100
AcDbEntity
  8
0
100
AcDbLine
 62
7
  6
CONTINUOUS
 10
14.1472522484
 20
15.9309502445
 11
14.1989997369
 21
15.9010718932
  0
LINE
  5
37B
100
AcDbEntity
  8
0
100
AcDbLine
 62
7
  6
CONTINUOUS
 10
14.7135012375
 20
15.604005175
 11
15.0744453081
 21
15.3956005922
  0
LINE
  5
37C
100
AcDbEntity
  8
0
100
AcDbLine
 62
7
  6
CONTINUOUS
 10
15.1323828093
 20
15.3621482052
 11
15.4973432465
 21
15.1514246228
  0
LINE
  5
37D
100
AcDbEntity
  8
0
100
AcDbLine
 62
7
  6
CONTINUOUS
 10
16.1972014761
 20
14.7473352523
 11
16.5860734362
 21
14.5228054562
  0
LINE
  5
37E
100
AcDbEntity
  8
0
100
AcDbLine
 62
7
  6
CONTINUOUS
 10
16.6944190199
 20
14.4602483415
 11
17.0618977059
 21
14.2480707538
  0
LINE
  5
37F
100
AcDbEntity
  8
0
100
AcDbLine
 62
7
  6
CONTINUOUS
 10
17.6269140797
 20
13.9218373809
 11
17.9818138711
 21
13.7169226893
  0
LINE
  5
380
100
AcDbEntity
  8
0
100
AcDbLine
 62
7
  6
CONTINUOUS
 10
-20.1289730202
 20
35.8712813845
 11
-19.9286215632
 21
35.7556009643
  0
LINE
  5
381
100
AcDbEntity
  8
0
100
AcDbLine
 62
7
  6
CONTINUOUS
 10
-18.5821768837
 20
34.9781806812
 11
-18.4366804917
 21
34.894172888
  0
LINE
  5
382
100
AcDbEntity
  8
0
100
AcDbLine
 62
7
  6
CONTINUOUS
 10
-17.109037686
 20
34.1276085712
 11
-17.0294881731
 21
34.0816776795
  0
LINE
  5
383
100
AcDbEntity
  8
0
100
AcDbLine
 62
7
  6
CONTINUOUS
 10
-16.0410120995
 20
33.5109439831
 11
-15.8200412304
 21
33.3833581727
  0
LINE
  5
384
100
AcDbEntity
  8
0
100
AcDbLine
 62
7
  6
CONTINUOUS
 10
-14.6047014502
 20
32.6816362154
 11
-14.4592050394
 21
32.5976284113
  0
LINE
  5
385
100
AcDbEntity
  8
0
100
AcDbLine
 62
7
  6
CONTINUOUS
 10
-13.1315624633
 20
31.8310642271
 11
-13.0520129504
 21
31.7851333353
  0
LINE
  5
386
100
AcDbEntity
  8
0
100
AcDbLine
 62
7
  6
CONTINUOUS
 10
11.8254041999
 20
17.4348660454
 11
12.0545946777
 21
17.302534336
  0
LINE
  5
387
100
AcDbEntity
  8
0
100
AcDbLine
 62
7
  6
CONTINUOUS
 10
12.8556474664
 20
16.8400164953
 11
13.0831894788
 21
16.7086365891
  0
LINE
  5
388
100
AcDbEntity
  8
0
100
AcDbLine
 62
7
  6
CONTINUOUS
 10
13.4232350085
 20
16.512298562
 11
13.6445483614
 21
16.3845150058
  0
LINE
  5
389
100
AcDbEntity
  8
0
100
AcDbLine
 62
7
  6
CONTINUOUS
 10
14.8549225937
 20
15.6856600936
 11
15.061219567
 21
15.5665468067
  0
LINE
  5
38A
100
AcDbEntity
  8
0
100
AcDbLine
 62
7
  6
CONTINUOUS
 10
15.2738041656
 20
15.4438031238
 11
15.5381501175
 21
15.2911730842
  0
LINE
  5
38B
100
AcDbEntity
  8
0
100
AcDbLine
 62
7
  6
CONTINUOUS
 10
16.3386228323
 20
14.828990171
 11
16.5426776631
 21
14.7111714691
  0
LINE
  5
38C
100
AcDbEntity
  8
0
100
AcDbLine
 62
7
  6
CONTINUOUS
 10
16.8358403762
 20
14.5419032601
 11
17.0618977059
 21
14.4113805911
  0
LINE
  5
38D
100
AcDbEntity
  8
0
100
AcDbLine
 62
7
  6
CONTINUOUS
 10
17.7683354359
 20
14.0034922996
 11
17.9445454061
 21
13.9017508712
  0
LINE
  5
38E
100
AcDbEntity
  8
0
100
AcDbLine
 62
7
  6
CONTINUOUS
 10
-15.9614625866
 20
33.5188496088
 11
-16.1824334558
 21
33.6464354192
  0
LINE
  5
38F
100
AcDbEntity
  8
0
100
AcDbLine
 62
7
  6
CONTINUOUS
 10
15.5991538951
 20
15.5000884913
 11
16.1016204383
 21
15.2099706067
  0
LINE
  5
390
100
AcDbEntity
  8
0
100
AcDbLine
 62
7
  6
CONTINUOUS
 10
-16.5138897595
 20
34.1418190193
 11
-16.7348606286
 21
34.2694048297
  0
LINE
  5
391
100
AcDbEntity
  8
0
100
AcDbLine
 62
7
  6
CONTINUOUS
 10
15.7405752513
 20
15.58174341
 11
16.2430417945
 21
15.2916255253
  0
LINE
  5
392
100
AcDbEntity
  8
0
100
AcDbLine
 62
7
  6
CONTINUOUS
 10
16.0278833431
 20
15.5678279281
 11
15.6746269374
 21
15.7717937494
  0
LINE
  5
393
100
AcDbEntity
  8
0
100
AcDbLine
 62
7
  6
CONTINUOUS
 10
17.0618977059
 20
15.0467896762
 11
17.2597270014
 21
14.9325655203
  0
LINE
  5
394
100
AcDbEntity
  8
0
100
AcDbLine
 62
7
  6
CONTINUOUS
 10
-16.7348606286
 20
34.6602682743
 11
-16.4770610003
 21
34.5114179999
  0
LINE
  5
395
100
AcDbEntity
  8
0
100
AcDbLine
 62
7
  6
CONTINUOUS
 10
17.2033190621
 20
15.1284445948
 11
17.4011483576
 21
15.014220439
  0
LINE
  5
396
100
AcDbEntity
  8
0
100
AcDbLine
 62
7
  6
CONTINUOUS
 10
-16.5934392723
 20
34.741923193
 11
-16.335639644
 21
34.5930729186
  0
LINE
  5
397
100
AcDbEntity
  8
0
100
AcDbLine
 62
7
  6
CONTINUOUS
 10
-16.1824334558
 20
34.5150208077
 11
-15.9614625866
 21
34.3874349973
  0
LINE
  5
398
100
AcDbEntity
  8
0
100
AcDbLine
 62
7
  6
CONTINUOUS
 10
17.260522295
 20
15.2663662251
 11
17.0496634386
 21
15.3881134862
  0
LINE
  5
399
100
AcDbEntity
  8
0
100
AcDbLine
 62
7
  6
CONTINUOUS
 10
-16.0410120995
 20
34.5966757264
 11
-15.8200412304
 21
34.469089916
  0
LINE
  5
39A
100
AcDbEntity
  8
0
100
AcDbLine
 62
7
  6
CONTINUOUS
 10
-15.9614625866
 20
34.6045813216
 11
-16.1824334558
 21
34.732167132
  0
LINE
  5
39B
100
AcDbEntity
  8
0
100
AcDbLine
 62
7
  6
CONTINUOUS
 10
-19.091883092
 20
36.9331981881
 11
-17.9870287464
 21
36.295269136
  0
LINE
  5
39C
100
AcDbEntity
  8
0
100
AcDbLine
 62
7
  6
CONTINUOUS
 10
-16.5507180971
 20
35.4659613683
 11
-15.4826920892
 21
34.8492965369
  0
LINE
  5
39D
100
AcDbEntity
  8
0
100
AcDbLine
 62
7
  6
CONTINUOUS
 10
-15.1144074479
 20
34.6366536006
 11
-14.0095531023
 21
33.9987245486
  0
LINE
  5
39E
100
AcDbEntity
  8
0
100
AcDbLine
 62
7
  6
CONTINUOUS
 10
-18.9504617358
 20
37.0148531068
 11
-17.8456073902
 21
36.3769240547
  0
LINE
  5
39F
100
AcDbEntity
  8
0
100
AcDbLine
 62
7
  6
CONTINUOUS
 10
-16.4092967409
 20
35.547616287
 11
-15.4826920892
 21
35.0126063742
  0
LINE
  5
3A0
100
AcDbEntity
  8
0
100
AcDbLine
 62
7
  6
CONTINUOUS
 10
-14.9729860916
 20
34.7183085193
 11
-13.868131746
 21
34.0803794672
  0
LINE
  5
3A1
100
AcDbEntity
  8
0
100
AcDbLine
 62
7
  6
CONTINUOUS
 10
-13.0520129504
 20
33.66299919
 11
-13.2729838195
 21
33.7905850004
  0
LINE
  5
3A2
100
AcDbEntity
  8
0
100
AcDbLine
 62
7
  6
CONTINUOUS
 10
-13.7885822331
 20
34.0882850625
 11
-15.1144074479
 21
34.853799925
  0
LINE
  5
3A3
100
AcDbEntity
  8
0
100
AcDbLine
 62
7
  6
CONTINUOUS
 10
-15.4826920892
 20
35.0664428612
 11
-16.7348606286
 21
35.7894292824
  0
LINE
  5
3A4
100
AcDbEntity
  8
0
100
AcDbLine
 62
7
  6
CONTINUOUS
 10
-17.0294881731
 20
35.9595435341
 11
-17.2504590422
 21
36.0871293445
  0
LINE
  5
3A5
100
AcDbEntity
  8
0
100
AcDbLine
 62
7
  6
CONTINUOUS
 10
-17.7660578773
 20
36.3848296499
 11
-19.091883092
 21
37.1503445124
  0
LINE
  5
3A6
100
AcDbEntity
  8
0
100
AcDbLine
 62
7
  6
CONTINUOUS
 10
-19.3865109527
 20
37.3204589466
 11
-19.6074818218
 21
37.448044757
  0
LINE
  5
3A7
100
AcDbEntity
  8
0
100
AcDbLine
 62
7
  6
CONTINUOUS
 10
-20.6386791759
 20
38.0434451853
 11
-20.859650045
 21
38.1710309957
  0
LINE
  5
3A8
100
AcDbEntity
  8
0
100
AcDbLine
 62
7
  6
CONTINUOUS
 10
16.0437359701
 20
16.8769044559
 11
15.6868082659
 21
17.082990039
  0
LINE
  5
3A9
100
AcDbEntity
  8
0
100
AcDbLine
 62
7
  6
CONTINUOUS
 10
14.9091569767
 20
17.5319961471
 11
14.5441039085
 21
17.7427732135
  0
LINE
  5
3AA
100
AcDbEntity
  8
0
100
AcDbLine
 62
7
  6
CONTINUOUS
 10
13.8100747438
 20
18.1665924537
 11
13.4414161381
 21
18.3794513122
  0
LINE
  5
3AB
100
AcDbEntity
  8
0
100
AcDbLine
 62
7
  6
CONTINUOUS
 10
12.5773033672
 20
18.8783791962
 11
12.2085917286
 21
19.0912686753
  0
LINE
  5
3AC
100
AcDbEntity
  8
0
100
AcDbLine
 62
7
  6
CONTINUOUS
 10
11.5244333908
 20
19.486293125
 11
11.1236254683
 21
19.7177145962
  0
LINE
  5
3AD
100
AcDbEntity
  8
0
100
AcDbLine
 62
7
  6
CONTINUOUS
 10
13.0831894788
 20
18.5864093662
 11
12.7142261101
 21
18.799444191
  0
LINE
  5
3AE
100
AcDbEntity
  8
0
100
AcDbLine
 62
7
  6
CONTINUOUS
 10
16.5860734362
 20
14.5228054562
 11
16.0437359701
 21
16.8769044559
  0
LINE
  5
3AF
100
AcDbEntity
  8
RACCORDO
100
AcDbLine
 62
7
  6
CONTINUOUS
 10
23.9002092041
 20
-43.6009647222
 11
23.9002092041
 21
-37.8856727847
  0
LINE
  5
3B0
100
AcDbEntity
  8
ASSI
100
AcDbLine
 62
7
  6
CONTINUOUS
 10
23.9002092041
 20
-34.6197916775
 11
23.9002092041
 21
4.3666640394
  0
LINE
  5
3B1
100
AcDbEntity
  8
RACCORDO
100
AcDbLine
 62
7
  6
CONTINUOUS
 10
23.9002092041
 20
8.0407802849
 11
23.9002092041
 21
13.5519546533
  0
LINE
  5
3B2
100
AcDbEntity
  8
RACCORDO
100
AcDbLine
 62
7
  6
CONTINUOUS
 10
26.0215295477
 20
-42.3761409422
 11
26.0215295477
 21
-39.8291682236
  0
LINE
  5
3B3
100
AcDbEntity
  8
ASSI
100
AcDbLine
 62
7
  6
CONTINUOUS
 10
26.0215295477
 20
-33.3949678975
 11
26.0215295477
 21
5.5914878194
  0
LINE
  5
3B4
100
AcDbEntity
  8
RACCORDO
100
AcDbLine
 62
7
  6
CONTINUOUS
 10
26.0215295477
 20
9.2656040649
 11
26.0215295477
 21
14.7767784333
  0
LINE
  5
3B5
100
AcDbEntity
  8
0
100
AcDbLine
 62
7
  6
CONTINUOUS
 10
13.3820453314
 20
-35.0625938708
 11
13.7002660104
 21
-34.1491863211
  0
LINE
  5
3B6
100
AcDbEntity
  8
0
100
AcDbLine
 62
7
  6
CONTINUOUS
 10
13.6307114518
 20
-33.9001447174
 11
13.3078677088
 21
-34.823404356
  0
LINE
  5
3B7
100
AcDbEntity
  8
0
100
AcDbLine
 62
7
  6
CONTINUOUS
 10
13.724619791
 20
-33.9543662155
 11
13.449289065
 21
-34.7417494374
  0
LINE
  5
3B8
100
AcDbEntity
  8
0
100
AcDbLine
 62
7
  6
CONTINUOUS
 10
14.1411789083
 20
-35.5009080839
 11
14.2593923128
 21
-35.1889711883
  0
LINE
  5
3B9
100
AcDbEntity
  8
0
100
AcDbLine
 62
7
  6
CONTINUOUS
 10
14.3068568555
 20
-35.0598878448
 11
14.4894671818
 21
-34.5849548246
  0
LINE
  5
3BA
100
AcDbEntity
  8
0
100
AcDbLine
 62
7
  6
CONTINUOUS
 10
14.4092487459
 20
-34.3496623936
 11
13.9835605641
 21
-35.4099012274
  0
LINE
  5
3BB
100
AcDbEntity
  8
0
100
AcDbLine
 62
7
  6
CONTINUOUS
 10
14.4974406293
 20
-34.4005832818
 11
14.1249819203
 21
-35.3282463087
  0
LINE
  5
3BC
100
AcDbEntity
  8
0
100
AcDbLine
 62
7
  6
CONTINUOUS
 10
-15.9614625866
 20
33.301703254
 11
-15.7773200552
 21
33.2388109329
  0
LINE
  5
3BD
100
AcDbEntity
  8
0
100
AcDbLine
 62
7
  6
CONTINUOUS
 10
-15.8200412304
 20
33.3833581727
 11
-15.635898699
 21
33.3204658516
  0
LINE
  5
3BE
100
AcDbEntity
  8
0
100
AcDbLine
 62
7
  6
CONTINUOUS
 10
15.3188355538
 20
-38.3351764521
 11
15.4370489584
 21
-38.0232395565
  0
LINE
  5
3BF
100
AcDbEntity
  8
0
100
AcDbLine
 62
7
  6
CONTINUOUS
 10
15.4842143949
 20
-37.8939835129
 11
15.6671238273
 21
-37.4192329905
  0
LINE
  5
3C0
100
AcDbEntity
  8
0
100
AcDbLine
 62
7
  6
CONTINUOUS
 10
15.5869053914
 20
-37.1835862114
 11
15.1615156087
 21
-38.2443418875
  0
LINE
  5
3C1
100
AcDbEntity
  8
0
100
AcDbLine
 62
7
  6
CONTINUOUS
 10
15.6751486169
 20
-37.2345367439
 11
15.302936965
 21
-38.1626869688
  0
LINE
  5
3C2
100
AcDbEntity
  8
0
100
AcDbLine
 62
7
  6
CONTINUOUS
 10
-15.8141483929
 20
33.4772215044
 11
-15.9614625866
 21
33.5188496088
  0
LINE
  5
3C3
100
AcDbEntity
  8
0
100
AcDbLine
 62
7
  6
CONTINUOUS
 10
-16.329747228
 20
34.5566486687
 11
-16.1824334558
 21
34.5150208077
  0
LINE
  5
3C4
100
AcDbEntity
  8
0
100
AcDbLine
 62
7
  6
CONTINUOUS
 10
-16.1883258718
 20
34.6383035873
 11
-16.0410120995
 21
34.5966757264
  0
LINE
  5
3C5
100
AcDbEntity
  8
0
100
AcDbLine
 62
7
  6
CONTINUOUS
 10
-16.1824334558
 20
34.732167132
 11
-16.3665755657
 21
34.7950592136
  0
LINE
  5
3C6
100
AcDbEntity
  8
RACCORDO
100
AcDbLine
 62
7
  6
CONTINUOUS
 10
20.3646752982
 20
19.6756790039
 11
-22.4859956417
 21
44.4171193596
  0
LINE
  5
3C7
100
AcDbEntity
  8
RACCORDO
100
AcDbLine
 62
7
  6
CONTINUOUS
 10
22.4859956417
 20
20.9005027839
 11
-20.3646752982
 21
45.6419431395
  0
LINE
  5
3C8
100
AcDbEntity
  8
0
100
AcDbLine
 62
7
  6
CONTINUOUS
 10
12.1560234428
 20
-29.7444012814
 11
11.2397751705
 21
-30.2734315506
  0
LINE
  5
3C9
100
AcDbEntity
  8
0
100
AcDbLine
 62
7
  6
CONTINUOUS
 10
11.5933285611
 20
-32.0011231251
 11
12.1590139861
 21
-31.6745034505
  0
LINE
  5
3CA
100
AcDbEntity
  8
0
100
AcDbLine
 62
7
  6
CONTINUOUS
 10
17.6950452646
 20
-38.400799753
 11
17.3702569779
 21
-38.8409497379
  0
LINE
  5
3CB
100
AcDbEntity
  8
0
100
AcDbLine
 62
7
  6
CONTINUOUS
 10
17.7519629971
 20
-38.4336633384
 11
17.5116783341
 21
-38.7592948193
  0
LINE
  5
3CC
100
AcDbEntity
  8
0
100
AcDbLine
 62
7
  6
CONTINUOUS
 10
17.4475727404
 20
-39.0386325283
 11
17.8744552255
 21
-38.5043888159
  0
LINE
  5
3CD
100
AcDbEntity
  8
0
100
AcDbLine
 62
7
  6
CONTINUOUS
 10
12.9121764109
 20
-33.6962213826
 11
13.0114134701
 21
-33.6389231483
  0
LINE
  5
3CE
100
AcDbEntity
  8
0
100
AcDbLine
 62
7
  6
CONTINUOUS
 10
13.7002660104
 20
-34.1491863211
 11
13.8416873666
 21
-34.0675314024
  0
LINE
  5
3CF
100
AcDbEntity
  8
0
100
AcDbLine
 62
7
  6
CONTINUOUS
 10
12.7644094784
 20
-34.70597867
 11
12.9058308346
 21
-34.6243237514
  0
LINE
  5
3D0
100
AcDbEntity
  8
0
100
AcDbLine
 62
7
  6
CONTINUOUS
 10
13.3078677088
 20
-34.823404356
 11
13.449289065
 21
-34.7417494374
  0
LINE
  5
3D1
100
AcDbEntity
  8
0
100
AcDbLine
 62
7
  6
CONTINUOUS
 10
13.230696196
 20
-34.9752067768
 11
13.3721175522
 21
-34.8935518582
  0
LINE
  5
3D2
100
AcDbEntity
  8
0
100
AcDbLine
 62
7
  6
CONTINUOUS
 10
14.4894671818
 20
-34.5849548246
 11
14.6011922348
 21
-34.5204461792
  0
LINE
  5
3D3
100
AcDbEntity
  8
0
100
AcDbLine
 62
7
  6
CONTINUOUS
 10
13.7002660104
 20
-35.2463305026
 11
13.8416873666
 21
-35.1646755839
  0
LINE
  5
3D4
100
AcDbEntity
  8
0
100
AcDbLine
 62
7
  6
CONTINUOUS
 10
14.2593923128
 20
-35.1889711883
 11
14.3949068369
 21
-35.1107268005
  0
LINE
  5
3D5
100
AcDbEntity
  8
0
100
AcDbLine
 62
7
  6
CONTINUOUS
 10
13.9835605641
 20
-35.4099012274
 11
14.1249819203
 21
-35.3282463087
  0
LINE
  5
3D6
100
AcDbEntity
  8
0
100
AcDbLine
 62
7
  6
CONTINUOUS
 10
14.6579148663
 20
-35.2625843404
 11
14.7795914789
 21
-35.1923297892
  0
LINE
  5
3D7
100
AcDbEntity
  8
0
100
AcDbLine
 62
7
  6
CONTINUOUS
 10
15.2931626279
 20
-35.01099671
 11
15.4239011073
 21
-34.9355099505
  0
LINE
  5
3D8
100
AcDbEntity
  8
0
100
AcDbLine
 62
7
  6
CONTINUOUS
 10
14.713140613
 20
-35.45095977
 11
14.8303014313
 21
-35.3833125819
  0
LINE
  5
3D9
100
AcDbEntity
  8
0
100
AcDbLine
 62
253
  6
CONTINUOUS
 10
15.5779498841
 20
-35.1754293024
 11
15.6981583823
 21
-35.1060224221
  0
LINE
  5
3DA
100
AcDbEntity
  8
0
100
AcDbLine
 62
7
  6
CONTINUOUS
 10
-15.7036629584
 20
33.500287129
 11
-15.8141483929
 21
33.4772215044
  0
LINE
  5
3DB
100
AcDbEntity
  8
0
100
AcDbLine
 62
7
  6
CONTINUOUS
 10
-15.7773200552
 20
33.2388109329
 11
-15.5931775238
 21
33.2627771491
  0
LINE
  5
3DC
100
AcDbEntity
  8
0
100
AcDbLine
 62
7
  6
CONTINUOUS
 10
-15.635898699
 20
33.3204658516
 11
-15.5200379559
 21
33.3355451686
  0
LINE
  5
3DD
100
AcDbEntity
  8
0
100
AcDbLine
 62
7
  6
CONTINUOUS
 10
-16.3665755657
 20
34.7950592136
 11
-16.5507180971
 21
34.7710930088
  0
LINE
  5
3DE
100
AcDbEntity
  8
0
100
AcDbLine
 62
7
  6
CONTINUOUS
 10
14.825085516
 20
-35.8957871878
 11
14.9475928149
 21
-35.8250530087
  0
LINE
  5
3DF
100
AcDbEntity
  8
0
100
AcDbLine
 62
7
  6
CONTINUOUS
 10
15.140022391
 20
-36.0776277924
 11
15.2814437472
 21
-35.9959728737
  0
LINE
  5
3E0
100
AcDbEntity
  8
0
100
AcDbLine
 62
7
  6
CONTINUOUS
 10
14.387754821
 20
-36.648045027
 11
14.5235677153
 21
-36.569628364
  0
LINE
  5
3E1
100
AcDbEntity
  8
0
100
AcDbLine
 62
7
  6
CONTINUOUS
 10
16.4382810479
 20
-35.6776889907
 11
16.5737955719
 21
-35.5994446029
  0
LINE
  5
3E2
100
AcDbEntity
  8
0
100
AcDbLine
 62
7
  6
CONTINUOUS
 10
15.8069100071
 20
-36.2116863466
 11
15.9483313633
 21
-36.1300314279
  0
LINE
  5
3E3
100
AcDbEntity
  8
0
100
AcDbLine
 62
7
  6
CONTINUOUS
 10
15.5985471975
 20
-36.3423742689
 11
15.7399685537
 21
-36.2607193503
  0
LINE
  5
3E4
100
AcDbEntity
  8
0
100
AcDbLine
 62
7
  6
CONTINUOUS
 10
14.7704565674
 20
-36.869012219
 11
14.9062694617
 21
-36.7905955559
  0
LINE
  5
3E5
100
AcDbEntity
  8
0
100
AcDbLine
 62
7
  6
CONTINUOUS
 10
14.9232976981
 20
-36.9572607723
 11
15.0591105924
 21
-36.8788441093
  0
LINE
  5
3E6
100
AcDbEntity
  8
0
100
AcDbLine
 62
7
  6
CONTINUOUS
 10
15.9365467752
 20
-36.3740571121
 11
15.9256274418
 21
-36.3803617984
  0
LINE
  5
3E7
100
AcDbEntity
  8
0
100
AcDbLine
 62
7
  6
CONTINUOUS
 10
16.4382810479
 20
-36.2343608748
 11
16.5737955719
 21
-36.156116487
  0
LINE
  5
3E8
100
AcDbEntity
  8
0
100
AcDbLine
 62
7
  6
CONTINUOUS
 10
14.0707284454
 20
-37.6145350502
 11
14.2121498017
 21
-37.5328801315
  0
LINE
  5
3E9
100
AcDbEntity
  8
0
100
AcDbLine
 62
7
  6
CONTINUOUS
 10
16.28543921
 20
-36.7389771082
 11
16.4268605662
 21
-36.6573221895
  0
LINE
  5
3EA
100
AcDbEntity
  8
0
100
AcDbLine
 62
7
  6
CONTINUOUS
 10
15.6671238273
 20
-37.4192329905
 11
15.7789268036
 21
-37.3546793532
  0
LINE
  5
3EB
100
AcDbEntity
  8
0
100
AcDbLine
 62
7
  6
CONTINUOUS
 10
14.7704565674
 20
-38.0185492981
 11
14.9118779236
 21
-37.9368943795
  0
LINE
  5
3EC
100
AcDbEntity
  8
0
100
AcDbLine
 62
7
  6
CONTINUOUS
 10
15.4370489584
 20
-38.0232395565
 11
15.5725634825
 21
-37.9449951687
  0
LINE
  5
3ED
100
AcDbEntity
  8
0
100
AcDbLine
 62
7
  6
CONTINUOUS
 10
15.1615156087
 20
-38.2443418875
 11
15.302936965
 21
-38.1626869688
  0
LINE
  5
3EE
100
AcDbEntity
  8
0
100
AcDbLine
 62
7
  6
CONTINUOUS
 10
15.8358699109
 20
-38.0970250005
 11
15.9573685637
 21
-38.0268732011
  0
LINE
  5
3EF
100
AcDbEntity
  8
0
100
AcDbLine
 62
7
  6
CONTINUOUS
 10
18.3052176056
 20
-36.844053593
 11
18.4067803436
 21
-36.785412541
  0
LINE
  5
3F0
100
AcDbEntity
  8
0
100
AcDbLine
 62
7
  6
CONTINUOUS
 10
15.8907972586
 20
-38.2852281383
 11
16.00798938
 21
-38.2175628761
  0
LINE
  5
3F1
100
AcDbEntity
  8
0
100
AcDbLine
 62
7
  6
CONTINUOUS
 10
17.7428082063
 20
-37.5804437016
 11
17.8842295626
 21
-37.4987887829
  0
LINE
  5
3F2
100
AcDbEntity
  8
0
100
AcDbLine
 62
7
  6
CONTINUOUS
 10
16.0027421615
 20
-38.730055556
 11
16.1252580512
 21
-38.6593164168
  0
LINE
  5
3F3
100
AcDbEntity
  8
0
100
AcDbLine
 62
7
  6
CONTINUOUS
 10
18.157152274
 20
-37.8196807733
 11
18.2985736303
 21
-37.7380258546
  0
LINE
  5
3F4
100
AcDbEntity
  8
0
100
AcDbLine
 62
7
  6
CONTINUOUS
 10
16.3099178326
 20
-38.9074149387
 11
16.4513391888
 21
-38.82576002
  0
LINE
  5
3F5
100
AcDbEntity
  8
ASSI
100
AcDbLine
 62
7
  6
CONTINUOUS
 10
26.0215295477
 20
-33.3949678975
 11
23.9002092041
 21
-34.6197916775
  0
LINE
  5
3F6
100
AcDbEntity
  8
0
100
AcDbLine
 62
7
  6
CONTINUOUS
 10
27.7185858225
 20
-34.9874163587
 11
27.435681493
 21
-35.2497815773
  0
LINE
  5
3F7
100
AcDbEntity
  8
0
100
AcDbLine
 62
7
  6
CONTINUOUS
 10
17.3702569779
 20
-38.8409497379
 11
17.5116783341
 21
-38.7592948193
  0
LINE
  5
3F8
100
AcDbEntity
  8
0
100
AcDbLine
 62
7
  6
CONTINUOUS
 10
18.9070312373
 20
-38.0072858409
 11
19.0484525935
 21
-37.9256309222
  0
LINE
  5
3F9
100
AcDbEntity
  8
0
100
AcDbLine
 62
7
  6
CONTINUOUS
 10
17.2947316097
 20
-38.950383975
 11
17.4361529659
 21
-38.8687290563
  0
LINE
  5
3FA
100
AcDbEntity
  8
0
100
AcDbLine
 62
7
  6
CONTINUOUS
 10
18.883448519
 20
-38.2390351225
 11
19.0248698753
 21
-38.1573802039
  0
LINE
  5
3FB
100
AcDbEntity
  8
0
100
AcDbLine
 62
7
  6
CONTINUOUS
 10
17.2947316097
 20
-39.476034071
 11
17.4361529659
 21
-39.3943791523
  0
LINE
  5
3FC
100
AcDbEntity
  8
ASSI
100
AcDbLine
 62
7
  6
CONTINUOUS
 10
27.9648155655
 20
-33.9850483008
 11
25.843495222
 21
-35.2098720808
  0
LINE
  5
3FD
100
AcDbEntity
  8
0
100
AcDbLine
 62
7
  6
CONTINUOUS
 10
29.8399061661
 20
-33.7625925787
 11
27.7185858225
 21
-34.9874163587
  0
LINE
  5
3FE
100
AcDbEntity
  8
0
100
AcDbLine
 62
7
  6
CONTINUOUS
 10
30.1228104956
 20
-34.3516486258
 11
28.001490152
 21
-35.5764724058
  0
LINE
  5
3FF
100
AcDbEntity
  8
0
100
AcDbLine
 62
7
  6
CONTINUOUS
 10
32.4764218858
 20
-38.4282231307
 11
30.3551015422
 21
-39.6530469106
  0
LINE
  5
400
100
AcDbEntity
  8
0
100
AcDbLine
 62
7
  6
CONTINUOUS
 10
30.3551015422
 20
-40.306365426
 11
30.7237896426
 21
-40.1925820567
  0
LINE
  5
401
100
AcDbEntity
  8
0
100
AcDbLine
 62
7
  6
CONTINUOUS
 10
27.7185858225
 20
-41.9274137114
 11
28.001490152
 21
-41.6650484928
  0
LINE
  5
402
100
AcDbEntity
  8
RACCORDO
100
AcDbLine
 62
253
  6
CONTINUOUS
 10
23.9002092041
 20
-43.6009647222
 11
26.0215295477
 21
-42.3761409422
  0
LINE
  5
403
100
AcDbEntity
  8
0
100
AcDbLine
 62
7
  6
CONTINUOUS
 10
28.1004163676
 20
-41.7069495401
 11
27.7185858225
 21
-41.9274137114
  0
LINE
  5
404
100
AcDbEntity
  8
0
100
AcDbLine
 62
7
  6
CONTINUOUS
 10
32.8451099861
 20
-38.9677582767
 11
30.7237896426
 21
-40.1925820567
  0
LINE
  5
405
100
AcDbEntity
  8
ASSI
100
AcDbLine
 62
7
  6
CONTINUOUS
 10
31.7149967666
 20
-40.4801342093
 11
29.593676423
 21
-41.7049579893
  0
LINE
  5
406
100
AcDbEntity
  8
RACCORDO
100
AcDbLine
 62
7
  6
CONTINUOUS
 10
22.8647960989
 20
-45.8896490279
 11
24.9861164424
 21
-44.6648252479
  0
ARC
  5
407
100
AcDbEntity
  8
0
100
AcDbCircle
 62
7
  6
CONTINUOUS
 10
-32.9146548665
 20
-19.2953355075
 40
56.8335122918
100
AcDbArc
 50
21.9580578235
 51
22.9356080199
  0
ARC
  5
408
100
AcDbEntity
  8
RACCORDO
100
AcDbCircle
 62
7
  6
CONTINUOUS
 10
0.0161964123
 20
1.021346156
 40
3.9052837646
100
AcDbArc
 50
180.0096782874
 51
182.7711451692
  0
ARC
  5
409
100
AcDbEntity
  8
RACCORDO
100
AcDbCircle
 62
7
  6
CONTINUOUS
 10
-2.1375167559
 20
-2.2461699359
 40
3.9052837646
100
AcDbArc
 50
0.0096782874
 51
2.7711451692
  0
ARC
  5
40A
100
AcDbEntity
  8
0
100
AcDbCircle
 62
7
  6
CONTINUOUS
 10
-0.2604201485
 20
2.8947507733
 40
1.3630392228
100
AcDbArc
 50
109.6698283911
 51
113.9844144059
  0
ARC
  5
40B
100
AcDbEntity
  8
0
100
AcDbCircle
 62
7
  6
CONTINUOUS
 10
14.926113778
 20
-36.1028837935
 40
1.2609592798
100
AcDbArc
 50
54.3386074461
 51
54.9413938165
  0
ARC
  5
40C
100
AcDbEntity
  8
0
100
AcDbCircle
 62
7
  6
CONTINUOUS
 10
14.9666603558
 20
-36.0449127547
 40
1.1902157032
100
AcDbArc
 50
54.9361287954
 51
56.1002658224
  0
ARC
  5
40D
100
AcDbEntity
  8
0
100
AcDbCircle
 62
7
  6
CONTINUOUS
 10
15.0293504715
 20
-35.9511643294
 40
1.0774382817
100
AcDbArc
 50
56.0867780047
 51
58.1101442696
  0
ARC
  5
40E
100
AcDbEntity
  8
0
100
AcDbCircle
 62
7
  6
CONTINUOUS
 10
16.1632974085
 20
-35.4666416128
 40
0.8998701428
100
AcDbArc
 50
241.9373854578
 51
244.4910454683
  0
SPLINE
  5
40F
100
AcDbEntity
  8
ASSI
100
AcDbSpline
 62
7
  6
CONTINUOUS
 70
0
 71
3
 72
18
 73
14
 74
0
 42
0.0000001
 43
0.0000001
 44
0.0000000001
 40
0.0
 40
0.0
 40
0.0
 40
0.0
 40
0.1513214792
 40
0.3019266319
 40
0.4470876122
 40
0.5826078309
 40
0.7054165093
 40
0.7616585572
 40
0.814456415
 40
0.8640823804
 40
0.9110334421
 40
0.9560333585
 40
1.0
 40
1.0
 40
1.0
 40
1.0
 10
22.7032111649
 20
8.7319119509
 30
0.0
 10
22.5857013962
 20
8.9991976785
 30
0.0
 10
22.3162555814
 20
9.5178097947
 30
0.0
 10
21.8246900212
 20
10.229365289
 30
0.0
 10
21.2648395629
 20
10.8486780526
 30
0.0
 10
20.6627172815
 20
11.3467624474
 30
0.0
 10
20.1323905638
 20
11.6507072038
 30
0.0
 10
19.712026753
 20
11.8064342741
 30
0.0
 10
19.4132177228
 20
11.8770137613
 30
0.0
 10
19.1251824347
 20
11.9037128559
 30
0.0
 10
18.8513130884
 20
11.8858242932
 30
0.0
 10
18.5952269127
 20
11.8232026402
 30
0.0
 10
18.4379165739
 20
11.751484973
 30
0.0
 10
18.3644516403
 20
11.7090617805
 30
0.0
  0
SPLINE
  5
410
100
AcDbEntity
  8
0
100
AcDbSpline
 62
7
  6
CONTINUOUS
 70
0
 71
3
 72
11
 73
7
 74
0
 42
0.0000001
 43
0.0000001
 44
0.0000000001
 40
0.0
 40
0.0
 40
0.0
 40
0.0
 40
0.2833256916
 40
0.5403850478
 40
0.7762295452
 40
1.0
 40
1.0
 40
1.0
 40
1.0
 10
28.001490152
 20
-41.6650484928
 30
0.0
 10
28.1434949164
 20
-41.7294461452
 30
0.0
 10
28.4247294926
 20
-41.8316283284
 30
0.0
 10
28.8503933136
 20
-41.8961983521
 30
0.0
 10
29.2475395184
 20
-41.8603593153
 30
0.0
 10
29.4870215123
 20
-41.7665322077
 30
0.0
 10
29.5936701511
 20
-41.70495512
 30
0.0
  0
SPLINE
  5
411
100
AcDbEntity
  8
0
100
AcDbSpline
 62
7
  6
CONTINUOUS
 70
0
 71
3
 72
11
 73
7
 74
0
 42
0.0000001
 43
0.0000001
 44
0.0000000001
 40
0.0
 40
0.0
 40
0.0
 40
0.0
 40
0.2585104064
 40
0.5169125478
 40
0.7666261552
 40
1.0
 40
1.0
 40
1.0
 40
1.0
 10
25.4755410169
 20
-38.7952496298
 30
0.0
 10
25.5828809626
 20
-39.053806536
 30
0.0
 10
25.8326568821
 20
-39.5568770668
 30
0.0
 10
26.2952671208
 20
-40.2489798614
 30
0.0
 10
26.8273715177
 20
-40.8535226447
 30
0.0
 10
27.2287610656
 20
-41.1932473575
 30
0.0
 10
27.435681493
 20
-41.3383576643
 30
0.0
  0
SPLINE
  5
412
100
AcDbEntity
  8
RACCORDO
100
AcDbSpline
 62
7
  6
CONTINUOUS
 70
0
 71
3
 72
13
 73
9
 74
0
 42
0.0000001
 43
0.0000001
 44
0.0000000001
 40
0.0
 40
0.0
 40
0.0
 40
0.0
 40
0.2894145703
 40
0.5483007577
 40
0.667751382
 40
0.7817752316
 40
0.8919068647
 40
1.0
 40
1.0
 40
1.0
 40
1.0
 10
20.3646752982
 20
-45.6419431395
 30
0.0
 10
20.5841653897
 20
-45.7686739675
 30
0.0
 10
21.0203263565
 20
-45.9764456232
 30
0.0
 10
21.5946655264
 20
-46.1147905018
 30
0.0
 10
22.0268933266
 20
-46.1298513813
 30
0.0
 10
22.3271343266
 20
-46.0963702405
 30
0.0
 10
22.6087635042
 20
-46.0184916308
 30
0.0
 10
22.7828165632
 20
-45.9369769245
 30
0.0
 10
22.8647936771
 20
-45.8896443585
 30
0.0
  0
SPLINE
  5
413
100
AcDbEntity
  8
RACCORDO
100
AcDbSpline
 62
7
  6
CONTINUOUS
 70
0
 71
3
 72
15
 73
11
 74
0
 42
0.0000001
 43
0.0000001
 44
0.0000000001
 40
0.0
 40
0.0
 40
0.0
 40
0.0
 40
0.1141546642
 40
0.2373206127
 40
0.3669696178
 40
0.4999939487
 40
0.6330191211
 40
0.7626705848
 40
0.8858404062
 40
1.0
 40
1.0
 40
1.0
 40
1.0
 10
-26.0215295477
 20
-14.7767784333
 30
0.0
 10
-26.0215295477
 20
-15.0562558211
 30
0.0
 10
-25.9703405083
 20
-15.6378154619
 30
0.0
 10
-25.7662645261
 20
-16.5151657036
 30
0.0
 10
-25.4393658912
 20
-17.4038599822
 30
0.0
 10
-25.0018279337
 20
-18.27048425
 30
0.0
 10
-24.4700747054
 20
-19.0827201839
 30
0.0
 10
-23.8638828582
 20
-19.8101847448
 30
0.0
 10
-23.2060985618
 20
-20.4256192154
 30
0.0
 10
-22.7280367126
 20
-20.760751303
 30
0.0
 10
-22.4859956417
 20
-20.9005027839
 30
0.0
  0
SPLINE
  5
414
100
AcDbEntity
  8
ASSI
100
AcDbSpline
 62
7
  6
CONTINUOUS
 70
0
 71
3
 72
11
 73
7
 74
0
 42
0.0000001
 43
0.0000001
 44
0.0000000001
 40
0.0
 40
0.0
 40
0.0
 40
0.0
 40
0.2833280863
 40
0.5403890503
 40
0.776236767
 40
1.0
 40
1.0
 40
1.0
 40
1.0
 10
-29.5570018365
 20
34.0249577973
 30
0.0
 10
-29.4149961597
 20
33.9605597311
 30
0.0
 10
-29.1337600627
 20
33.8583780017
 30
0.0
 10
-28.708092584
 20
33.7938051006
 30
0.0
 10
-28.3109501855
 20
33.8296538419
 30
0.0
 10
-28.0714681236
 20
33.9234710069
 30
0.0
 10
-27.9648223396
 20
33.9850445914
 30
0.0
  0
SPLINE
  5
415
100
AcDbEntity
  8
ASSI
100
AcDbSpline
 62
7
  6
CONTINUOUS
 70
0
 71
3
 72
15
 73
11
 74
0
 42
0.0000001
 43
0.0000001
 44
0.0000000001
 40
0.0
 40
0.0
 40
0.0
 40
0.0
 40
0.1168109252
 40
0.2404888706
 40
0.3689971444
 40
0.4999947016
 40
0.6309929743
 40
0.7595033534
 40
0.8831846661
 40
1.0
 40
1.0
 40
1.0
 40
1.0
 10
-32.4764218858
 20
38.4282231307
 30
0.0
 10
-32.4598705847
 20
38.2405607241
 30
0.0
 10
-32.3993935854
 20
37.8562484311
 30
0.0
 10
-32.2396378996
 20
37.2818436557
 30
0.0
 10
-32.0123063847
 20
36.7060155471
 30
0.0
 10
-31.7238028981
 20
36.1450611161
 30
0.0
 10
-31.3822518778
 20
35.6147298033
 30
0.0
 10
-30.9972305936
 20
35.1299323941
 30
0.0
 10
-30.5796509099
 20
34.7043635514
 30
0.0
 10
-30.2770589287
 20
34.4598208238
 30
0.0
 10
-30.1228104956
 20
34.3516486258
 30
0.0
  0
SPLINE
  5
416
100
AcDbEntity
  8
ASSI
100
AcDbSpline
 62
7
  6
CONTINUOUS
 70
0
 71
3
 72
17
 73
13
 74
0
 42
0.0000001
 43
0.0000001
 44
0.0000000001
 40
0.0
 40
0.0
 40
0.0
 40
0.0
 40
0.1286838693
 40
0.2702707996
 40
0.4174275967
 40
0.5617763322
 40
0.695448224
 40
0.8127149558
 40
0.8646792167
 40
0.9125121523
 40
0.957140876
 40
1.0
 40
1.0
 40
1.0
 40
1.0
 10
-20.5060966544
 20
33.0680720383
 30
0.0
 10
-20.5060966544
 20
33.1962822601
 30
0.0
 10
-20.5419711901
 20
33.4658640683
 30
0.0
 10
-20.6758336016
 20
33.8616997
 30
0.0
 10
-20.8821510243
 20
34.2430106423
 30
0.0
 10
-21.14427759
 20
34.5785542002
 30
0.0
 10
-21.4408423549
 20
34.8411887797
 30
0.0
 10
-21.7092553001
 20
34.9879657168
 30
0.0
 10
-21.9192248695
 20
35.0438267261
 30
0.0
 10
-22.0637329013
 20
35.054449637
 30
0.0
 10
-22.1982938148
 20
35.0347332135
 30
0.0
 10
-22.2798127358
 20
35.0008525791
 30
0.0
 10
-22.3167928344
 20
34.9795012445
 30
0.0
  0
SPLINE
  5
417
100
AcDbEntity
  8
ASSI
100
AcDbSpline
 62
7
  6
CONTINUOUS
 70
0
 71
3
 72
17
 73
13
 74
0
 42
0.0000001
 43
0.0000001
 44
0.0000000001
 40
0.0
 40
0.0
 40
0.0
 40
0.0
 40
0.1286838693
 40
0.2702707996
 40
0.4174275967
 40
0.5617763322
 40
0.695448224
 40
0.8127149558
 40
0.8646792167
 40
0.9125121523
 40
0.957140876
 40
1.0
 40
1.0
 40
1.0
 40
1.0
 10
20.5060966544
 20
-35.5177195983
 30
0.0
 10
20.5060966544
 20
-35.3895093765
 30
0.0
 10
20.4702221187
 20
-35.1199275683
 30
0.0
 10
20.3363597072
 20
-34.7240919366
 30
0.0
 10
20.1300422845
 20
-34.3427809943
 30
0.0
 10
19.8679157189
 20
-34.0072374364
 30
0.0
 10
19.5713509539
 20
-33.7446028569
 30
0.0
 10
19.3029380087
 20
-33.5978259199
 30
0.0
 10
19.0929684393
 20
-33.5419649105
 30
0.0
 10
18.9484604076
 20
-33.5313419996
 30
0.0
 10
18.813899494
 20
-33.5510584231
 30
0.0
 10
18.7323805731
 20
-33.5849390575
 30
0.0
 10
18.6954004745
 20
-33.6062903921
 30
0.0
  0
SPLINE
  5
418
100
AcDbEntity
  8
0
100
AcDbSpline
 62
7
  6
CONTINUOUS
 70
0
 71
3
 72
17
 73
13
 74
0
 42
0.0000001
 43
0.0000001
 44
0.0000000001
 40
0.0
 40
0.0
 40
0.0
 40
0.0
 40
0.1286838693
 40
0.2702707996
 40
0.4174275967
 40
0.5617763322
 40
0.695448224
 40
0.8127149558
 40
0.8646792167
 40
0.9125121523
 40
0.957140876
 40
1.0
 40
1.0
 40
1.0
 40
1.0
 10
0.0
 20
-1.22482378
 30
0.0
 10
0.0
 20
-1.0966135582
 30
0.0
 10
-0.0358745357
 20
-0.82703175
 30
0.0
 10
-0.1697369472
 20
-0.4311961183
 30
0.0
 10
-0.3760543699
 20
-0.049885176
 30
0.0
 10
-0.6381809356
 20
0.2856583819
 30
0.0
 10
-0.9347457005
 20
0.5482929614
 30
0.0
 10
-1.2031586457
 20
0.6950698985
 30
0.0
 10
-1.4131282151
 20
0.7509309078
 30
0.0
 10
-1.5576362469
 20
0.7615538187
 30
0.0
 10
-1.6921971604
 20
0.7418373952
 30
0.0
 10
-1.7737160813
 20
0.7079567608
 30
0.0
 10
-1.81069618
 20
0.6866054262
 30
0.0
  0
SPLINE
  5
419
100
AcDbEntity
  8
RACCORDO
100
AcDbSpline
 62
7
  6
CONTINUOUS
 70
0
 71
3
 72
11
 73
7
 74
0
 42
0.0000001
 43
0.0000001
 44
0.0000000001
 40
0.0
 40
0.0
 40
0.0
 40
0.0
 40
0.2212600707
 40
0.459771826
 40
0.7189677719
 40
1.0
 40
1.0
 40
1.0
 40
1.0
 10
-3.4258636501
 20
2.5441885214
 30
0.0
 10
-3.5031150277
 20
2.4527736076
 30
0.0
 10
-3.6410696299
 20
2.2429879579
 30
0.0
 10
-3.7851966716
 20
1.8794851336
 30
0.0
 10
-3.87152538
 20
1.465414016
 30
0.0
 10
-3.8890872965
 20
1.172703511
 30
0.0
 10
-3.8890872965
 20
1.0206864833
 30
0.0
  0
SPLINE
  5
41A
100
AcDbEntity
  8
RACCORDO
100
AcDbSpline
 62
7
  6
CONTINUOUS
 70
0
 71
3
 72
10
 73
6
 74
0
 42
0.0000001
 43
0.0000001
 44
0.0000000001
 40
0.0
 40
0.0
 40
0.0
 40
0.0
 40
0.5269962444
 40
0.7718488324
 40
1.0
 40
1.0
 40
1.0
 40
1.0
 10
-2.6117283541
 20
-2.4478583059
 30
0.0
 10
-2.3690218012
 20
-2.771774456
 30
0.0
 10
-1.9689906165
 20
-3.216677924
 30
0.0
 10
-1.3671933897
 20
-3.6958782382
 30
0.0
 10
-1.0559918632
 20
-3.8859633095
 30
0.0
 10
-0.899997462
 20
-3.9657845893
 30
0.0
  0
SPLINE
  5
41B
100
AcDbEntity
  8
0
100
AcDbSpline
 62
7
  6
CONTINUOUS
 70
0
 71
3
 72
9
 73
5
 74
0
 42
0.0000001
 43
0.0000001
 44
0.0000000001
 40
0.0
 40
0.0
 40
0.0
 40
0.0
 40
0.4997796482
 40
1.0
 40
1.0
 40
1.0
 40
1.0
 10
17.9818138711
 20
13.7169226893
 30
0.0
 10
17.9602660121
 20
13.820972335
 30
0.0
 10
17.9192862422
 20
14.029598085
 30
0.0
 10
17.8773039442
 20
14.2380222256
 30
0.0
 10
17.8556802981
 20
14.3421518457
 30
0.0
  0
SPLINE
  5
41C
100
AcDbEntity
  8
0
100
AcDbSpline
 62
7
  6
CONTINUOUS
 70
0
 71
3
 72
11
 73
7
 74
0
 42
0.0000001
 43
0.0000001
 44
0.0000000001
 40
0.0
 40
0.0
 40
0.0
 40
0.0
 40
0.2339894271
 40
0.4889078396
 40
0.750659109
 40
1.0
 40
1.0
 40
1.0
 40
1.0
 10
17.8556802981
 20
14.3421518457
 30
0.0
 10
17.846619533
 20
14.3857864161
 30
0.0
 10
17.8283256912
 20
14.4771131442
 30
0.0
 10
17.7885151102
 20
14.6147228841
 30
0.0
 10
17.7314691853
 20
14.749398265
 30
0.0
 10
17.6759567472
 20
14.831051217
 30
0.0
 10
17.6430055212
 20
14.8652483115
 30
0.0
  0
SPLINE
  5
41D
100
AcDbEntity
  8
0
100
AcDbSpline
 62
7
  6
CONTINUOUS
 70
0
 71
3
 72
11
 73
7
 74
0
 42
0.0000001
 43
0.0000001
 44
0.0000000001
 40
0.0
 40
0.0
 40
0.0
 40
0.0
 40
0.2723923626
 40
0.5264900217
 40
0.7675845781
 40
1.0
 40
1.0
 40
1.0
 40
1.0
 10
17.6049639749
 20
15.9301375743
 30
0.0
 10
17.5361748522
 20
15.998551172
 30
0.0
 10
17.3895268057
 20
16.1170763855
 30
0.0
 10
17.1574747909
 20
16.2622061502
 30
0.0
 10
16.9262163926
 20
16.3798042696
 30
0.0
 10
16.7710769455
 20
16.446123561
 30
0.0
 10
16.6944190199
 20
16.4773629557
 30
0.0
  0
SPLINE
  5
41E
100
AcDbEntity
  8
0
100
AcDbSpline
 62
7
  6
CONTINUOUS
 70
0
 71
3
 72
34
 73
30
 74
0
 42
0.0000001
 43
0.0000001
 44
0.0000000001
 40
0.0
 40
0.0
 40
0.0
 40
0.0
 40
0.0552430127
 40
0.110259227
 40
0.1387520043
 40
0.1679776317
 40
0.1970992869
 40
0.2261877041
 40
0.2867103594
 40
0.3169991216
 40
0.3476272705
 40
0.3791673239
 40
0.4107321753
 40
0.4422305894
 40
0.4744778847
 40
0.5070754393
 40
0.5394934286
 40
0.5722995652
 40
0.6055164077
 40
0.63861787
 40
0.6717957938
 40
0.7052110977
 40
0.7385808825
 40
0.7719359119
 40
0.8052744205
 40
0.8710794708
 40
0.9034638578
 40
0.9359307457
 40
1.0
 40
1.0
 40
1.0
 40
1.0
 10
16.0737976616
 20
-35.9637647975
 30
0.0
 10
16.0726929327
 20
-35.9477709194
 30
0.0
 10
16.0725047643
 20
-35.9157470462
 30
0.0
 10
16.0727528154
 20
-35.8754604822
 30
0.0
 10
16.0700840708
 20
-35.8428253327
 30
0.0
 10
16.0666402639
 20
-35.8178561202
 30
0.0
 10
16.063770369
 20
-35.7926483721
 30
0.0
 10
16.0604046263
 20
-35.758325748
 30
0.0
 10
16.0523040252
 20
-35.724395198
 30
0.0
 10
16.0461504092
 20
-35.689705227
 30
0.0
 10
16.0405831871
 20
-35.6634308087
 30
0.0
 10
16.032612995
 20
-35.6374050771
 30
0.0
 10
16.0252263273
 20
-35.6109697703
 30
0.0
 10
16.0182106773
 20
-35.5841914393
 30
0.0
 10
16.0084605683
 20
-35.5579576487
 30
0.0
 10
15.9982123375
 20
-35.5316631061
 30
0.0
 10
15.9891134249
 20
-35.5047532727
 30
0.0
 10
15.9776374499
 20
-35.4785593493
 30
0.0
 10
15.9648407899
 20
-35.4527924625
 30
0.0
 10
15.9534496517
 20
-35.4262474396
 30
0.0
 10
15.94018791
 20
-35.4004999689
 30
0.0
 10
15.9251663854
 20
-35.3756723541
 30
0.0
 10
15.9111782339
 20
-35.3501968059
 30
0.0
 10
15.896593237
 20
-35.3250763667
 30
0.0
 10
15.8755258325
 20
-35.2928888067
 30
0.0
 10
15.8523191172
 20
-35.2625100859
 30
0.0
 10
15.8276021384
 20
-35.2337532703
 30
0.0
 10
15.8039912835
 20
-35.2047357127
 30
0.0
 10
15.7854953701
 20
-35.1836373009
 30
0.0
 10
15.7724482007
 20
-35.1703901429
 30
0.0
  0
SPLINE
  5
41F
100
AcDbEntity
  8
0
100
AcDbSpline
 62
7
  6
CONTINUOUS
 70
0
 71
3
 72
9
 73
5
 74
0
 42
0.0000001
 43
0.0000001
 44
0.0000000001
 40
0.0
 40
0.0
 40
0.0
 40
0.0
 40
0.2596734846
 40
1.0
 40
1.0
 40
1.0
 40
1.0
 10
15.7724482007
 20
-35.1703901429
 30
0.0
 10
15.7636742091
 20
-35.1614816625
 30
0.0
 10
15.7287666242
 20
-35.1282577124
 30
0.0
 10
15.6902092822
 20
-35.0991655472
 30
0.0
 10
15.6612453148
 20
-35.0783839502
 30
0.0
  0
SPLINE
  5
420
100
AcDbEntity
  8
ASSI
100
AcDbSpline
 62
7
  6
CONTINUOUS
 70
0
 71
3
 72
17
 73
13
 74
0
 42
0.0000001
 43
0.0000001
 44
0.0000000001
 40
0.0
 40
0.0
 40
0.0
 40
0.0
 40
0.1286838693
 40
0.2702707996
 40
0.4174275967
 40
0.5617763322
 40
0.695448224
 40
0.8127149558
 40
0.8646792167
 40
0.9125121523
 40
0.957140876
 40
1.0
 40
1.0
 40
1.0
 40
1.0
 10
20.5060966544
 20
16.3281429781
 30
0.0
 10
20.5060966544
 20
16.4563531999
 30
0.0
 10
20.4702221187
 20
16.725935008
 30
0.0
 10
20.3363597072
 20
17.1217706397
 30
0.0
 10
20.1300422845
 20
17.503081582
 30
0.0
 10
19.8679157189
 20
17.8386251399
 30
0.0
 10
19.5713509539
 20
18.1012597194
 30
0.0
 10
19.3029380087
 20
18.2480366565
 30
0.0
 10
19.0929684393
 20
18.3038976658
 30
0.0
 10
18.9484604076
 20
18.3145205767
 30
0.0
 10
18.813899494
 20
18.2948041533
 30
0.0
 10
18.7323805731
 20
18.2609235189
 30
0.0
 10
18.6954004745
 20
18.2395721842
 30
0.0
  0
SPLINE
  5
421
100
AcDbEntity
  8
ASSI
100
AcDbSpline
 62
7
  6
CONTINUOUS
 70
0
 71
3
 72
17
 73
13
 74
0
 42
0.0000001
 43
0.0000001
 44
0.0000000001
 40
0.0
 40
0.0
 40
0.0
 40
0.0
 40
0.1286838693
 40
0.2702707996
 40
0.4174275967
 40
0.5617763322
 40
0.695448224
 40
0.8127149558
 40
0.8646792167
 40
0.9125121523
 40
0.957140876
 40
1.0
 40
1.0
 40
1.0
 40
1.0
 10
-20.5060966544
 20
-18.777790538
 30
0.0
 10
-20.5060966544
 20
-18.6495803162
 30
0.0
 10
-20.5419711901
 20
-18.379998508
 30
0.0
 10
-20.6758336016
 20
-17.9841628764
 30
0.0
 10
-20.8821510243
 20
-17.602851934
 30
0.0
 10
-21.14427759
 20
-17.2673083761
 30
0.0
 10
-21.4408423549
 20
-17.0046737967
 30
0.0
 10
-21.7092553001
 20
-16.8578968596
 30
0.0
 10
-21.9192248695
 20
-16.8020358502
 30
0.0
 10
-22.0637329013
 20
-16.7914129394
 30
0.0
 10
-22.1982938148
 20
-16.8111293628
 30
0.0
 10
-22.2798127358
 20
-16.8450099972
 30
0.0
 10
-22.3167928344
 20
-16.8663613319
 30
0.0
  0
SPLINE
  5
422
100
AcDbEntity
  8
0
100
AcDbSpline
 62
7
  6
CONTINUOUS
 70
0
 71
3
 72
11
 73
7
 74
0
 42
0.0000001
 43
0.0000001
 44
0.0000000001
 40
0.0
 40
0.0
 40
0.0
 40
0.0
 40
0.232477704
 40
0.4779100452
 40
0.7345008058
 40
1.0
 40
1.0
 40
1.0
 40
1.0
 10
-23.3345237792
 20
14.6978853598
 30
0.0
 10
-23.3345237792
 20
13.4777895141
 30
0.0
 10
-23.1939485646
 20
10.9682684873
 30
0.0
 10
-22.6076394165
 20
7.1531875447
 30
0.0
 10
-21.6494231047
 20
3.2359082169
 30
0.0
 10
-20.784353808
 20
0.6325385089
 30
0.0
 10
-20.2954071465
 20
-0.6722584468
 30
0.0
  0
SPLINE
  5
423
100
AcDbEntity
  8
0
100
AcDbSpline
 62
7
  6
CONTINUOUS
 70
0
 71
3
 72
18
 73
14
 74
0
 42
0.0000001
 43
0.0000001
 44
0.0000000001
 40
0.0
 40
0.0
 40
0.0
 40
0.0
 40
0.1397174255
 40
0.2798280119
 40
0.4176909891
 40
0.550796733
 40
0.6148839925
 40
0.676985755
 40
0.7369011146
 40
0.7944721143
 40
0.849591661
 40
0.9022122945
 40
1.0
 40
1.0
 40
1.0
 40
1.0
 10
-19.186821107
 20
-3.4090414608
 30
0.0
 10
-18.4157963029
 20
-5.1788969316
 30
0.0
 10
-16.6928872572
 20
-8.6484288493
 30
0.0
 10
-13.6342231066
 20
-13.5528251543
 30
0.0
 10
-10.1659426218
 20
-18.0626101461
 30
0.0
 10
-6.9743298093
 20
-21.4299102767
 30
0.0
 10
-4.2947064152
 20
-23.8107592336
 30
0.0
 10
-2.2719430918
 20
-25.4011882763
 30
0.0
 10
-0.2252858178
 20
-26.80754589
 30
0.0
 10
1.8308098242
 20
-28.0198469791
 30
0.0
 10
3.8827460776
 20
-29.0296806312
 30
0.0
 10
6.5265809139
 20
-30.0702671192
 30
0.0
 10
8.5616963006
 20
-30.5735661949
 30
0.0
 10
9.901852293
 20
-30.745629828
 30
0.0
  0
SPLINE
  5
424
100
AcDbEntity
  8
0
100
AcDbSpline
 62
7
  6
CONTINUOUS
 70
0
 71
3
 72
11
 73
7
 74
0
 42
0.0000001
 43
0.0000001
 44
0.0000000001
 40
0.0
 40
0.0
 40
0.0
 40
0.0
 40
0.2587326948
 40
0.5106133179
 40
0.7571407254
 40
1.0
 40
1.0
 40
1.0
 40
1.0
 10
12.1593234524
 20
-30.8800489843
 30
0.0
 10
12.608045504
 20
-30.8744320722
 30
0.0
 10
13.4937408668
 20
-30.823350044
 30
0.0
 10
14.7933424412
 20
-30.6204762159
 30
0.0
 10
16.0389756135
 20
-30.2931788571
 30
0.0
 10
16.834285653
 20
-29.9911179044
 30
0.0
 10
17.2193411834
 20
-29.8203452696
 30
0.0
  0
SPLINE
  5
425
100
AcDbEntity
  8
ASSI
100
AcDbSpline
 62
7
  6
CONTINUOUS
 70
0
 71
3
 72
11
 73
7
 74
0
 42
0.0000001
 43
0.0000001
 44
0.0000000001
 40
0.0
 40
0.0
 40
0.0
 40
0.0
 40
0.2177724724
 40
0.4509515099
 40
0.7102006811
 40
1.0
 40
1.0
 40
1.0
 40
1.0
 10
-20.816720818
 20
-19.4643959642
 30
0.0
 10
-20.7672487692
 20
-19.4358321066
 30
0.0
 10
-20.674656136
 20
-19.3580229073
 30
0.0
 10
-20.5761678373
 20
-19.1968859029
 30
0.0
 10
-20.5175766215
 20
-18.9983342163
 30
0.0
 10
-20.5060966544
 20
-18.8538105688
 30
0.0
 10
-20.5060966544
 20
-18.777790538
 30
0.0
  0
SPLINE
  5
426
100
AcDbEntity
  8
ASSI
100
AcDbSpline
 62
7
  6
CONTINUOUS
 70
0
 71
3
 72
11
 73
7
 74
0
 42
0.0000001
 43
0.0000001
 44
0.0000000001
 40
0.0
 40
0.0
 40
0.0
 40
0.0
 40
0.2177724724
 40
0.4509515099
 40
0.7102006811
 40
1.0
 40
1.0
 40
1.0
 40
1.0
 10
20.1954724908
 20
15.6415375519
 30
0.0
 10
20.2449445396
 20
15.6701014095
 30
0.0
 10
20.3375371728
 20
15.7479106087
 30
0.0
 10
20.4360254715
 20
15.9090476132
 30
0.0
 10
20.4946166873
 20
16.1075992998
 30
0.0
 10
20.5060966544
 20
16.2521229473
 30
0.0
 10
20.5060966544
 20
16.3281429781
 30
0.0
  0
SPLINE
  5
427
100
AcDbEntity
  8
ASSI
100
AcDbSpline
 62
7
  6
CONTINUOUS
 70
0
 71
3
 72
9
 73
5
 74
0
 42
0.0000001
 43
0.0000001
 44
0.0000000001
 40
0.0
 40
0.0
 40
0.0
 40
0.0
 40
0.5187676814
 40
1.0
 40
1.0
 40
1.0
 40
1.0
 10
-26.0211194601
 20
39.8295057487
 30
0.0
 10
-26.2168077633
 20
40.1307623694
 30
0.0
 10
-26.6426764501
 20
40.6814255251
 30
0.0
 10
-27.1628437389
 20
41.1470204884
 30
0.0
 10
-27.435681493
 20
41.3383576643
 30
0.0
  0
SPLINE
  5
428
100
AcDbEntity
  8
ASSI
100
AcDbSpline
 62
7
  6
CONTINUOUS
 70
0
 71
3
 72
11
 73
7
 74
0
 42
0.0000001
 43
0.0000001
 44
0.0000000001
 40
0.0
 40
0.0
 40
0.0
 40
0.0
 40
0.2809293614
 40
0.5372516923
 40
0.7741003281
 40
1.0
 40
1.0
 40
1.0
 40
1.0
 10
-28.1005288647
 20
41.7077744272
 30
0.0
 10
-28.2343115164
 20
41.762524715
 30
0.0
 10
-28.498951988
 20
41.8479469061
 30
0.0
 10
-28.8973915445
 20
41.8954278619
 30
0.0
 10
-29.2687238498
 20
41.8532023749
 30
0.0
 10
-29.4929895931
 20
41.7630844193
 30
0.0
 10
-29.593653134
 20
41.7049651419
 30
0.0
  0
SPLINE
  5
429
100
AcDbEntity
  8
0
100
AcDbSpline
 62
7
  6
CONTINUOUS
 70
0
 71
3
 72
11
 73
7
 74
0
 42
0.0000001
 43
0.0000001
 44
0.0000000001
 40
0.0
 40
0.0
 40
0.0
 40
0.0
 40
0.2457170359
 40
0.4969769114
 40
0.7492126418
 40
1.0
 40
1.0
 40
1.0
 40
1.0
 10
15.9366258742
 20
-36.3741941367
 30
0.0
 10
15.9409521752
 20
-36.3716967478
 30
0.0
 10
15.9494779908
 20
-36.3660949435
 30
0.0
 10
15.9597545104
 20
-36.3547647662
 30
0.0
 10
15.9704972004
 20
-36.3438409931
 30
0.0
 10
15.9781727075
 20
-36.3370469329
 30
0.0
 10
15.981639015
 20
-36.3333080823
 30
0.0
  0
SPLINE
  5
42A
100
AcDbEntity
  8
0
100
AcDbSpline
 62
7
  6
CONTINUOUS
 70
0
 71
3
 72
9
 73
5
 74
0
 42
0.0000001
 43
0.0000001
 44
0.0000000001
 40
0.0
 40
0.0
 40
0.0
 40
0.0
 40
0.495772325
 40
1.0
 40
1.0
 40
1.0
 40
1.0
 10
15.981639015
 20
-36.3333080823
 30
0.0
 10
15.9868341658
 20
-36.3277044558
 30
0.0
 10
15.994960127
 20
-36.314440463
 30
0.0
 10
16.0032242944
 20
-36.3014789519
 30
0.0
 10
16.0076488683
 20
-36.2950897398
 30
0.0
  0
SPLINE
  5
42B
100
AcDbEntity
  8
0
100
AcDbSpline
 62
7
  6
CONTINUOUS
 70
0
 71
3
 72
15
 73
11
 74
0
 42
0.0000001
 43
0.0000001
 44
0.0000000001
 40
0.0
 40
0.0
 40
0.0
 40
0.0
 40
0.115450728
 40
0.2363430592
 40
0.3610065755
 40
0.4838853769
 40
0.6068838111
 40
0.7352045399
 40
0.8681219217
 40
1.0
 40
1.0
 40
1.0
 40
1.0
 10
16.0076488683
 20
-36.2950897398
 30
0.0
 10
16.0104282793
 20
-36.2910761903
 30
0.0
 10
16.0160360555
 20
-36.2827638113
 30
0.0
 10
16.0222625267
 20
-36.2687688538
 30
0.0
 10
16.0276275206
 20
-36.2541447572
 30
0.0
 10
16.0340153992
 20
-36.2398326623
 30
0.0
 10
16.0404963696
 20
-36.2253792299
 30
0.0
 10
16.0451786855
 20
-36.2097786599
 30
0.0
 10
16.0488110172
 20
-36.1935597708
 30
0.0
 10
16.0516358492
 20
-36.182720456
 30
0.0
 10
16.0531433777
 20
-36.1773514576
 30
0.0
  0
SPLINE
  5
42C
100
AcDbEntity
  8
0
100
AcDbSpline
 62
7
  6
CONTINUOUS
 70
0
 71
3
 72
14
 73
10
 74
0
 42
0.0000001
 43
0.0000001
 44
0.0000000001
 40
0.0
 40
0.0
 40
0.0
 40
0.0
 40
0.1147414392
 40
0.2358202716
 40
0.3586890473
 40
0.4806697415
 40
0.6076131059
 40
0.7390224519
 40
1.0
 40
1.0
 40
1.0
 40
1.0
 10
16.0531433777
 20
-36.1773514576
 30
0.0
 10
16.0553688651
 20
-36.1694254795
 30
0.0
 10
16.0601358118
 20
-36.153146025
 30
0.0
 10
16.0633498395
 20
-36.1275539429
 30
0.0
 10
16.0665596881
 20
-36.1015125204
 30
0.0
 10
16.0709209511
 20
-36.0751716771
 30
0.0
 10
16.0725321961
 20
-36.0478882521
 30
0.0
 10
16.0726952376
 20
-36.0106395994
 30
0.0
 10
16.0723961513
 20
-35.9824369432
 30
0.0
 10
16.0737976616
 20
-35.9637647975
 30
0.0
  0
LINE
  5
42D
100
AcDbEntity
  8
0
100
AcDbLine
 62
7
  6
CONTINUOUS
 10
15.9058454871
 20
-36.3925186102
 11
15.9256353924
 21
-36.3803572081
  0
SPLINE
  5
42E
100
AcDbEntity
  8
0
100
AcDbSpline
 62
7
  6
CONTINUOUS
 70
0
 71
3
 72
9
 73
5
 74
0
 42
0.0000001
 43
0.0000001
 44
0.0000000001
 40
0.0
 40
0.0
 40
0.0
 40
0.0
 40
0.4764430428
 40
1.0
 40
1.0
 40
1.0
 40
1.0
 10
15.8069098916
 20
-36.2116864133
 30
0.0
 10
15.7909258758
 20
-36.2209153613
 30
0.0
 10
15.7527707936
 20
-36.2328339069
 30
0.0
 10
15.7134173467
 20
-36.2300843334
 30
0.0
 10
15.6935119936
 20
-36.2261927609
 30
0.0
  0
SPLINE
  5
42F
100
AcDbEntity
  8
0
100
AcDbSpline
 62
7
  6
CONTINUOUS
 70
0
 71
3
 72
8
 73
4
 74
0
 42
0.0000001
 43
0.0000001
 44
0.0000000001
 40
0.0
 40
0.0
 40
0.0
 40
0.0
 40
1.0
 40
1.0
 40
1.0
 40
1.0
 10
15.6935119936
 20
-36.2261927609
 30
0.0
 10
15.6845808143
 20
-36.2244466812
 30
0.0
 10
15.675741107
 20
-36.2221870889
 30
0.0
 10
15.6670334964
 20
-36.2195427978
 30
0.0
  0
SPLINE
  5
430
100
AcDbEntity
  8
0
100
AcDbSpline
 62
7
  6
CONTINUOUS
 70
0
 71
3
 72
9
 73
5
 74
0
 42
0.0000001
 43
0.0000001
 44
0.0000000001
 40
0.0
 40
0.0
 40
0.0
 40
0.0
 40
0.2378673183
 40
1.0
 40
1.0
 40
1.0
 40
1.0
 10
15.6670334964
 20
-36.2195427978
 30
0.0
 10
15.6596142476
 20
-36.217289751
 30
0.0
 10
15.6287829497
 20
-36.2066293365
 30
0.0
 10
15.5994670537
 20
-36.1919312454
 30
0.0
 10
15.5779523422
 20
-36.1795090666
 30
0.0
  0
SPLINE
  5
431
100
AcDbEntity
  8
ASSI
100
AcDbSpline
 62
7
  6
CONTINUOUS
 70
0
 71
3
 72
13
 73
9
 74
0
 42
0.0000001
 43
0.0000001
 44
0.0000000001
 40
0.0
 40
0.0
 40
0.0
 40
0.0
 40
0.2726775777
 40
0.5393223726
 40
0.6657430611
 40
0.7853361503
 40
0.8969579385
 40
1.0
 40
1.0
 40
1.0
 40
1.0
 10
-22.7032111649
 20
-8.7319119509
 30
0.0
 10
-22.5429734171
 20
-9.0963860154
 30
0.0
 10
-22.1618061324
 20
-9.7904651421
 30
0.0
 10
-21.5528494473
 20
-10.5553073693
 30
0.0
 10
-21.0059862709
 20
-11.0681134944
 30
0.0
 10
-20.5884893267
 20
-11.3836783344
 30
0.0
 10
-20.1657242438
 20
-11.6299752425
 30
0.0
 10
-19.8742561939
 20
-11.7491707844
 30
0.0
 10
-19.7306201114
 20
-11.7939488697
 30
0.0
  0
SPLINE
  5
432
100
AcDbEntity
  8
0
100
AcDbSpline
 62
7
  6
CONTINUOUS
 70
0
 71
3
 72
11
 73
7
 74
0
 42
0.0000001
 43
0.0000001
 44
0.0000000001
 40
0.0
 40
0.0
 40
0.0
 40
0.0
 40
0.2086120133
 40
0.4460559219
 40
0.7146761685
 40
1.0
 40
1.0
 40
1.0
 40
1.0
 10
17.4727690907
 20
15.2260694917
 30
0.0
 10
17.4592827942
 20
15.2182826816
 30
0.0
 10
17.4255027498
 20
15.2100530744
 30
0.0
 10
17.3721301324
 20
15.2178144716
 30
0.0
 10
17.3162260671
 20
15.2375363129
 30
0.0
 10
17.2791725888
 20
15.2560787749
 30
0.0
 10
17.260522295
 20
15.2663662251
 30
0.0
  0
SPLINE
  5
433
100
AcDbEntity
  8
RACCORDO
100
AcDbSpline
 62
7
  6
CONTINUOUS
 70
0
 71
3
 72
13
 73
9
 74
0
 42
0.0000001
 43
0.0000001
 44
0.0000000001
 40
0.0
 40
0.0
 40
0.0
 40
0.0
 40
0.2894091152
 40
0.5482933193
 40
0.6677445407
 40
0.7817699997
 40
0.8919040306
 40
1.0
 40
1.0
 40
1.0
 40
1.0
 10
26.0215295477
 20
-42.3761409422
 30
0.0
 10
26.0215295477
 20
-42.6295475725
 30
0.0
 10
25.9833781802
 20
-43.1110800154
 30
0.0
 10
25.8160349832
 20
-43.6775501756
 30
0.0
 10
25.6129928414
 20
-44.0593426315
 30
0.0
 10
25.4339034281
 20
-44.3025864753
 30
0.0
 10
25.2256762403
 20
-44.5075236742
 30
0.0
 10
25.0680809917
 20
-44.6174938688
 30
0.0
 10
24.9861140206
 20
-44.6648205785
 30
0.0
  0
SPLINE
  5
434
100
AcDbEntity
  8
0
100
AcDbSpline
 62
7
  6
CONTINUOUS
 70
0
 71
3
 72
18
 73
14
 74
0
 42
0.0000001
 43
0.0000001
 44
0.0000000001
 40
0.0
 40
0.0
 40
0.0
 40
0.0
 40
0.0427211017
 40
0.0874843943
 40
0.1352949412
 40
0.1862419237
 40
0.2979207092
 40
0.4228237218
 40
0.559208889
 40
0.7051420815
 40
0.8542785207
 40
0.9282491979
 40
1.0
 40
1.0
 40
1.0
 40
1.0
 10
17.754293826
 20
14.9064930656
 30
0.0
 10
17.7683770064
 20
14.9146245196
 30
0.0
 10
17.7956558025
 20
14.9343418533
 30
0.0
 10
17.8289637373
 20
14.9741872101
 30
0.0
 10
17.8554714369
 20
15.02226238
 30
0.0
 10
17.8824062208
 20
15.0980242682
 30
0.0
 10
17.8967445282
 20
15.2076165393
 30
0.0
 10
17.8896242623
 20
15.3499285947
 30
0.0
 10
17.8571963994
 20
15.50224717
 30
0.0
 10
17.7971152099
 20
15.6558087158
 30
0.0
 10
17.7269302683
 20
15.7781240588
 30
0.0
 10
17.6608389599
 20
15.8689192692
 30
0.0
 10
17.6243354705
 20
15.9108835407
 30
0.0
 10
17.6049639749
 20
15.9301375743
 30
0.0
  0
SPLINE
  5
435
100
AcDbEntity
  8
RACCORDO
100
AcDbSpline
 62
7
  6
CONTINUOUS
 70
0
 71
3
 72
9
 73
5
 74
0
 42
0.0000001
 43
0.0000001
 44
0.0000000001
 40
0.0
 40
0.0
 40
0.0
 40
0.0
 40
0.245739845
 40
1.0
 40
1.0
 40
1.0
 40
1.0
 10
1.9692255556
 20
-1.5525370906
 30
0.0
 10
1.9801442211
 20
-1.5462370863
 30
0.0
 10
2.0260141215
 20
-1.5231161714
 30
0.0
 10
2.0770734608
 20
-1.5108182678
 30
0.0
 10
2.1156119232
 20
-1.5073784124
 30
0.0
  0
SPLINE
  5
436
100
AcDbEntity
  8
0
100
AcDbSpline
 62
7
  6
CONTINUOUS
 70
0
 71
3
 72
15
 73
11
 74
0
 42
0.0000001
 43
0.0000001
 44
0.0000000001
 40
0.0
 40
0.0
 40
0.0
 40
0.0
 40
0.1168132106
 40
0.2404881211
 40
0.3689974393
 40
0.4999948016
 40
0.6309925729
 40
0.7595042521
 40
0.8831819782
 40
1.0
 40
1.0
 40
1.0
 40
1.0
 10
32.4764218858
 20
-38.4282231307
 30
0.0
 10
32.4598702647
 20
-38.2405570965
 30
0.0
 10
32.3993955759
 20
-37.8562455388
 30
0.0
 10
32.2396324767
 20
-37.2818425478
 30
0.0
 10
32.0123057694
 20
-36.7060166061
 30
0.0
 10
31.7237991846
 20
-36.1450632752
 30
0.0
 10
31.3822505721
 20
-35.6147293769
 30
0.0
 10
30.9972290124
 20
-35.1299382639
 30
0.0
 10
30.5796548202
 20
-34.7043634441
 30
0.0
 10
30.2770624416
 20
-34.4598232874
 30
0.0
 10
30.1228104956
 20
-34.3516486258
 30
0.0
  0
SPLINE
  5
437
100
AcDbEntity
  8
0
100
AcDbSpline
 62
7
  6
CONTINUOUS
 70
0
 71
3
 72
11
 73
7
 74
0
 42
0.0000001
 43
0.0000001
 44
0.0000000001
 40
0.0
 40
0.0
 40
0.0
 40
0.0
 40
0.2809319416
 40
0.5372565724
 40
0.7741085125
 40
1.0
 40
1.0
 40
1.0
 40
1.0
 10
29.4579891692
 20
-33.9822424428
 30
0.0
 10
29.3242019797
 20
-33.9274885523
 30
0.0
 10
29.0595518816
 20
-33.8420623633
 30
0.0
 10
28.6610960242
 20
-33.7945744131
 30
0.0
 10
28.2897558631
 20
-33.8368122832
 30
0.0
 10
28.0654840899
 20
-33.9269259413
 30
0.0
 10
27.9648214511
 20
-33.9850451719
 30
0.0
  0
SPLINE
  5
438
100
AcDbEntity
  8
RACCORDO
100
AcDbSpline
 62
7
  6
CONTINUOUS
 70
0
 71
3
 72
13
 73
9
 74
0
 42
0.0000001
 43
0.0000001
 44
0.0000000001
 40
0.0
 40
0.0
 40
0.0
 40
0.0
 40
0.1080931353
 40
0.2182247684
 40
0.332248618
 40
0.4516992423
 40
0.7105854297
 40
1.0
 40
1.0
 40
1.0
 40
1.0
 10
-22.8647936771
 20
45.8896443585
 30
0.0
 10
-22.7828165632
 20
45.9369769245
 30
0.0
 10
-22.6087635042
 20
46.0184916308
 30
0.0
 10
-22.3271343266
 20
46.0963702405
 30
0.0
 10
-22.0268933266
 20
46.1298513813
 30
0.0
 10
-21.5946655264
 20
46.1147905018
 30
0.0
 10
-21.0203263565
 20
45.9764456232
 30
0.0
 10
-20.5841653897
 20
45.7686739675
 30
0.0
 10
-20.3646752982
 20
45.6419431395
 30
0.0
  0
SPLINE
  5
439
100
AcDbEntity
  8
RACCORDO
100
AcDbSpline
 62
7
  6
CONTINUOUS
 70
0
 71
3
 72
13
 73
9
 74
0
 42
0.0000001
 43
0.0000001
 44
0.0000000001
 40
0.0
 40
0.0
 40
0.0
 40
0.0
 40
0.1080959694
 40
0.2182300003
 40
0.3322554593
 40
0.4517066807
 40
0.7105908848
 40
1.0
 40
1.0
 40
1.0
 40
1.0
 10
-24.9861140206
 20
44.6648205785
 30
0.0
 10
-25.0680809917
 20
44.6174938688
 30
0.0
 10
-25.2256762403
 20
44.5075236742
 30
0.0
 10
-25.4339034281
 20
44.3025864753
 30
0.0
 10
-25.6129928414
 20
44.0593426315
 30
0.0
 10
-25.8160349832
 20
43.6775501756
 30
0.0
 10
-25.9833781802
 20
43.1110800154
 30
0.0
 10
-26.0215295477
 20
42.6295475725
 30
0.0
 10
-26.0215295477
 20
42.3761409422
 30
0.0
  0
SPLINE
  5
43A
100
AcDbEntity
  8
RACCORDO
100
AcDbSpline
 62
7
  6
CONTINUOUS
 70
0
 71
3
 72
15
 73
11
 74
0
 42
0.0000001
 43
0.0000001
 44
0.0000000001
 40
0.0
 40
0.0
 40
0.0
 40
0.0
 40
0.1141595938
 40
0.2373294152
 40
0.3669808789
 40
0.5000060513
 40
0.6330303822
 40
0.7626793873
 40
0.8858453358
 40
1.0
 40
1.0
 40
1.0
 40
1.0
 10
22.4859956417
 20
20.9005027839
 30
0.0
 10
22.7280367126
 20
20.760751303
 30
0.0
 10
23.2060985618
 20
20.4256192154
 30
0.0
 10
23.8638828582
 20
19.8101847448
 30
0.0
 10
24.4700747054
 20
19.0827201839
 30
0.0
 10
25.0018279337
 20
18.27048425
 30
0.0
 10
25.4393658912
 20
17.4038599822
 30
0.0
 10
25.7662645261
 20
16.5151657036
 30
0.0
 10
25.9703405083
 20
15.6378154619
 30
0.0
 10
26.0215295477
 20
15.0562558211
 30
0.0
 10
26.0215295477
 20
14.7767784333
 30
0.0
  0
SPLINE
  5
43B
100
AcDbEntity
  8
0
100
AcDbSpline
 62
7
  6
CONTINUOUS
 70
0
 71
3
 72
11
 73
7
 74
0
 42
0.0000001
 43
0.0000001
 44
0.0000000001
 40
0.0
 40
0.0
 40
0.0
 40
0.0
 40
0.2177724724
 40
0.4509515099
 40
0.7102006811
 40
1.0
 40
1.0
 40
1.0
 40
1.0
 10
-0.3106241636
 20
-1.9114292061
 30
0.0
 10
-0.2611521148
 20
-1.8828653486
 30
0.0
 10
-0.1685594816
 20
-1.8050561493
 30
0.0
 10
-0.0700711829
 20
-1.6439191449
 30
0.0
 10
-0.0114799671
 20
-1.4453674583
 30
0.0
 10
0.0
 20
-1.3008438108
 30
0.0
 10
0.0
 20
-1.22482378
 30
0.0
  0
SPLINE
  5
43C
100
AcDbEntity
  8
0
100
AcDbSpline
 62
7
  6
CONTINUOUS
 70
0
 71
3
 72
11
 73
7
 74
0
 42
0.0000001
 43
0.0000001
 44
0.0000000001
 40
0.0
 40
0.0
 40
0.0
 40
0.0
 40
0.2235984951
 40
0.4593563726
 40
0.7164655212
 40
1.0
 40
1.0
 40
1.0
 40
1.0
 10
3.0607564143
 20
-2.8516341575
 30
0.0
 10
3.1750077044
 20
-2.7856666567
 30
0.0
 10
3.3902820755
 20
-2.6135236092
 30
0.0
 10
3.6357542662
 20
-2.2636189874
 30
0.0
 10
3.8029554535
 20
-1.8332599215
 30
0.0
 10
3.8579758325
 20
-1.5170510945
 30
0.0
 10
3.8738324885
 20
-1.3505123885
 30
0.0
  0
SPLINE
  5
43D
100
AcDbEntity
  8
ASSI
100
AcDbSpline
 62
7
  6
CONTINUOUS
 70
0
 71
3
 72
11
 73
7
 74
0
 42
0.0000001
 43
0.0000001
 44
0.0000000001
 40
0.0
 40
0.0
 40
0.0
 40
0.0
 40
0.2177724724
 40
0.4509515099
 40
0.7102006811
 40
1.0
 40
1.0
 40
1.0
 40
1.0
 10
20.1954724908
 20
-36.2043250245
 30
0.0
 10
20.2449445396
 20
-36.1757611669
 30
0.0
 10
20.3375371728
 20
-36.0979519676
 30
0.0
 10
20.4360254715
 20
-35.9368149632
 30
0.0
 10
20.4946166873
 20
-35.7382632766
 30
0.0
 10
20.5060966544
 20
-35.5937396291
 30
0.0
 10
20.5060966544
 20
-35.5177195983
 30
0.0
  0
SPLINE
  5
43E
100
AcDbEntity
  8
0
100
AcDbSpline
 62
7
  6
CONTINUOUS
 70
0
 71
3
 72
21
 73
17
 74
0
 42
0.0000001
 43
0.0000001
 44
0.0000000001
 40
0.0
 40
0.0
 40
0.0
 40
0.0
 40
0.0456436208
 40
0.0936394174
 40
0.1442723108
 40
0.1976991496
 40
0.2539638355
 40
0.3130117503
 40
0.3747049372
 40
0.4388355515
 40
0.5051379193
 40
0.5732991997
 40
0.6429689369
 40
0.7137678377
 40
0.8570871553
 40
1.0
 40
1.0
 40
1.0
 40
1.0
 10
-12.7960902511
 20
30.8582877984
 30
0.0
 10
-12.1138191641
 20
30.896628952
 30
0.0
 10
-10.7070601353
 20
30.8747718646
 30
0.0
 10
-8.5643265217
 20
30.5659737808
 30
0.0
 10
-6.3586159076
 20
29.9846221623
 30
0.0
 10
-4.109135582
 20
29.1365421842
 30
0.0
 10
-1.8346955647
 20
28.029593386
 30
0.0
 10
0.4453767223
 20
26.6735973459
 30
0.0
 10
2.7116490122
 20
25.080408398
 30
0.0
 10
4.94467558
 20
23.2638680274
 30
0.0
 10
7.1252199058
 20
21.2397309775
 30
0.0
 10
9.2344051789
 20
19.025571267
 30
0.0
 10
11.2540279779
 20
16.6405615296
 30
0.0
 10
13.8138074108
 20
13.2471758515
 30
0.0
 10
16.6769157698
 20
8.7205866762
 30
0.0
 10
18.5717765768
 20
4.8661446201
 30
0.0
 10
19.407194483
 20
2.8963806874
 30
0.0
  0
LINE
  5
43F
100
AcDbEntity
  8
0
100
AcDbLine
 62
7
  6
CONTINUOUS
 10
19.407194483
 20
2.8963806874
 11
19.4257929516
 21
2.8524779652
  0
SPLINE
  5
440
100
AcDbEntity
  8
ASSI
100
AcDbSpline
 62
7
  6
CONTINUOUS
 70
0
 71
3
 72
11
 73
7
 74
0
 42
0.0000001
 43
0.0000001
 44
0.0000000001
 40
0.0
 40
0.0
 40
0.0
 40
0.0
 40
0.2177724724
 40
0.4509515099
 40
0.7102006811
 40
1.0
 40
1.0
 40
1.0
 40
1.0
 10
-20.816720818
 20
32.3814666122
 30
0.0
 10
-20.7672487692
 20
32.4100304697
 30
0.0
 10
-20.674656136
 20
32.487839669
 30
0.0
 10
-20.5761678373
 20
32.6489766735
 30
0.0
 10
-20.5175766215
 20
32.84752836
 30
0.0
 10
-20.5060966544
 20
32.9920520076
 30
0.0
 10
-20.5060966544
 20
33.0680720383
 30
0.0
  0
SPLINE
  5
441
100
AcDbEntity
  8
0
100
AcDbSpline
 62
7
  6
CONTINUOUS
 70
0
 71
3
 72
11
 73
7
 74
0
 42
0.0000001
 43
0.0000001
 44
0.0000000001
 40
0.0
 40
0.0
 40
0.0
 40
0.0
 40
0.2654678726
 40
0.5220276473
 40
0.7674652655
 40
1.0
 40
1.0
 40
1.0
 40
1.0
 10
20.3263611461
 20
0.5894609201
 30
0.0
 10
20.8104242487
 20
-0.7086427223
 30
0.0
 10
21.6667947273
 20
-3.2983121598
 30
0.0
 10
22.6152427927
 20
-7.1943442364
 30
0.0
 10
23.1954590792
 20
-10.9885770034
 30
0.0
 10
23.3345237792
 20
-13.4843358591
 30
0.0
 10
23.3345237792
 20
-14.6978853598
 30
0.0
  0
SPLINE
  5
442
100
AcDbEntity
  8
0
100
AcDbSpline
 62
7
  6
CONTINUOUS
 70
0
 71
3
 72
15
 73
11
 74
0
 42
0.0000001
 43
0.0000001
 44
0.0000000001
 40
0.0
 40
0.0
 40
0.0
 40
0.0
 40
0.1486060903
 40
0.2894992155
 40
0.4227223632
 40
0.5486419649
 40
0.6680000648
 40
0.781937873
 40
0.8919868603
 40
1.0
 40
1.0
 40
1.0
 40
1.0
 10
23.3345237792
 20
-14.6978853598
 30
0.0
 10
23.3345237792
 20
-15.5963976672
 30
0.0
 10
23.2621744615
 20
-17.3480010748
 30
0.0
 10
22.9172659776
 20
-19.8845751953
 30
0.0
 10
22.3413621008
 20
-22.2388657291
 30
0.0
 10
21.5387557556
 20
-24.3883064328
 30
0.0
 10
20.5156356133
 20
-26.3119855109
 30
0.0
 10
19.279963103
 20
-27.9902842186
 30
0.0
 10
17.8432056649
 20
-29.4043739106
 30
0.0
 10
16.7558258926
 20
-30.163194096
 30
0.0
 10
16.1902548897
 20
-30.4897492489
 30
0.0
  0
SPLINE
  5
443
100
AcDbEntity
  8
0
100
AcDbSpline
 62
7
  6
CONTINUOUS
 70
0
 71
3
 72
9
 73
5
 74
0
 42
0.0000001
 43
0.0000001
 44
0.0000000001
 40
0.0
 40
0.0
 40
0.0
 40
0.0
 40
0.4941100176
 40
1.0
 40
1.0
 40
1.0
 40
1.0
 10
25.8434956175
 20
-35.2098720691
 30
0.0
 10
25.7736802042
 20
-35.2501816241
 30
0.0
 10
25.64005759
 20
-35.3457920968
 30
0.0
 10
25.5270022389
 20
-35.4648365647
 30
0.0
 10
25.4755410169
 20
-35.5293685226
 30
0.0
  0
SPLINE
  5
444
100
AcDbEntity
  8
0
100
AcDbSpline
 62
7
  6
CONTINUOUS
 70
0
 71
3
 72
11
 73
7
 74
0
 42
0.0000001
 43
0.0000001
 44
0.0000000001
 40
0.0
 40
0.0
 40
0.0
 40
0.0
 40
0.2259059992
 40
0.4627563421
 40
0.7190775275
 40
1.0
 40
1.0
 40
1.0
 40
1.0
 10
31.7149734741
 20
-40.4801413639
 30
0.0
 10
31.8156242246
 20
-40.4220294717
 30
0.0
 10
32.0057744799
 20
-40.2728894399
 30
0.0
 10
32.2279854398
 20
-39.9724699322
 30
0.0
 10
32.3860737567
 20
-39.603737106
 30
0.0
 10
32.4444196428
 20
-39.3318898497
 30
0.0
 10
32.4638988812
 20
-39.1886821447
 30
0.0
  0
SPLINE
  5
445
100
AcDbEntity
  8
ASSI
100
AcDbSpline
 62
7
  6
CONTINUOUS
 70
0
 71
3
 72
11
 73
7
 74
0
 42
0.0000001
 43
0.0000001
 44
0.0000000001
 40
0.0
 40
0.0
 40
0.0
 40
0.0
 40
0.2237764397
 40
0.4596204659
 40
0.7166871357
 40
1.0
 40
1.0
 40
1.0
 40
1.0
 10
-31.7149963241
 20
40.4801344648
 30
0.0
 10
-31.8216300869
 20
40.4185654973
 30
0.0
 10
-32.0225886171
 20
40.2580977268
 30
0.0
 10
-32.252171985
 20
39.932131844
 30
0.0
 10
-32.4090569142
 20
39.5312796178
 30
0.0
 10
-32.4611868298
 20
39.2366871055
 30
0.0
 10
-32.4764218858
 20
39.081541646
 30
0.0
  0
SPLINE
  5
446
100
AcDbEntity
  8
ASSI
100
AcDbSpline
 62
7
  6
CONTINUOUS
 70
0
 71
3
 72
25
 73
21
 74
0
 42
0.0000001
 43
0.0000001
 44
0.0000000001
 40
0.0
 40
0.0
 40
0.0
 40
0.0
 40
0.0225451213
 40
0.0455155979
 40
0.0940836522
 40
0.1480827474
 40
0.2084452523
 40
0.275013009
 40
0.3468386316
 40
0.4224416813
 40
0.5000119752
 40
0.5775815234
 40
0.6531825853
 40
0.7250053077
 40
0.7915691911
 40
0.8519270367
 40
0.9059215786
 40
0.9544869851
 40
0.9774553205
 40
1.0
 40
1.0
 40
1.0
 40
1.0
 10
-20.4857719839
 20
-12.9338855605
 30
0.0
 10
-20.4201960251
 20
-12.8960179496
 30
0.0
 10
-20.2941287398
 20
-12.8079904212
 30
0.0
 10
-20.0679575548
 20
-12.5854903592
 30
0.0
 10
-19.8440283676
 20
-12.2202616577
 30
0.0
 10
-19.6882282272
 20
-11.6907675727
 30
0.0
 10
-19.6397068633
 20
-11.0814909011
 30
0.0
 10
-19.6985923109
 20
-10.4139398203
 30
0.0
 10
-19.8618992726
 20
-9.7118504241
 30
0.0
 10
-20.1234825917
 20
-9.0009485955
 30
0.0
 10
-20.4735556367
 20
-8.3076524111
 30
0.0
 10
-20.8990180768
 20
-7.6578971489
 30
0.0
 10
-21.3839522053
 20
-7.0759887991
 30
0.0
 10
-21.9103716907
 20
-6.5836081448
 30
0.0
 10
-22.4590742613
 20
-6.1989421099
 30
0.0
 10
-23.0109954432
 20
-5.9364517691
 30
0.0
 10
-23.5474441626
 20
-5.8067542635
 30
0.0
 10
-23.9756677689
 20
-5.8181991065
 30
0.0
 10
-24.2814128506
 20
-5.9028677615
 30
0.0
 10
-24.4206509038
 20
-5.9680752019
 30
0.0
 10
-24.4862232172
 20
-6.0059461579
 30
0.0
  0
SPLINE
  5
447
100
AcDbEntity
  8
ASSI
100
AcDbSpline
 62
7
  6
CONTINUOUS
 70
0
 71
3
 72
21
 73
17
 74
0
 42
0.0000001
 43
0.0000001
 44
0.0000000001
 40
0.0
 40
0.0
 40
0.0
 40
0.0
 40
0.0547076253
 40
0.1139662972
 40
0.1774550453
 40
0.2445698377
 40
0.386143904
 40
0.530959745
 40
0.601973369
 40
0.6706494358
 40
0.7360955627
 40
0.7975924832
 40
0.8546630569
 40
0.9071554599
 40
0.9553397021
 40
1.0
 40
1.0
 40
1.0
 40
1.0
 10
19.7297292398
 20
11.79435014
 30
0.0
 10
19.6967010993
 20
11.647815397
 30
0.0
 10
19.6541099501
 20
11.3363391992
 30
0.0
 10
19.6557679244
 20
10.8478841317
 30
0.0
 10
19.7198806375
 20
10.3293814112
 30
0.0
 10
19.8897742965
 20
9.6004728796
 30
0.0
 10
20.2465309538
 20
8.6916922995
 30
0.0
 10
20.7569631376
 20
7.8476729995
 30
0.0
 10
21.2458752178
 20
7.2372470729
 30
0.0
 10
21.6377563229
 20
6.8314436022
 30
0.0
 10
22.0484325255
 20
6.4837397951
 30
0.0
 10
22.4690998965
 20
6.2017271329
 30
0.0
 10
22.8908260769
 20
5.9916179841
 30
0.0
 10
23.305012077
 20
5.8583083204
 30
0.0
 10
23.7029364237
 20
5.8053986994
 30
0.0
 10
23.9596714136
 20
5.8264429661
 30
0.0
 10
24.0796764344
 20
5.8516501888
 30
0.0
  0
SPLINE
  5
448
100
AcDbEntity
  8
ASSI
100
AcDbSpline
 62
7
  6
CONTINUOUS
 70
0
 71
3
 72
9
 73
5
 74
0
 42
0.0000001
 43
0.0000001
 44
0.0000000001
 40
0.0
 40
0.0
 40
0.0
 40
0.0
 40
0.4958661914
 40
1.0
 40
1.0
 40
1.0
 40
1.0
 10
22.3649028737
 20
4.781122378
 30
0.0
 10
22.4276563002
 20
4.8173653002
 30
0.0
 10
22.5483881134
 20
4.9010062032
 30
0.0
 10
22.6541372553
 20
5.0028423432
 30
0.0
 10
22.7032111649
 20
5.0577957053
 30
0.0
  0
SPLINE
  5
449
100
AcDbEntity
  8
0
100
AcDbSpline
 62
7
  6
CONTINUOUS
 70
0
 71
3
 72
11
 73
7
 74
0
 42
0.0000001
 43
0.0000001
 44
0.0000000001
 40
0.0
 40
0.0
 40
0.0
 40
0.0
 40
0.245699093
 40
0.4931510897
 40
0.7440823522
 40
1.0
 40
1.0
 40
1.0
 40
1.0
 10
-18.3115752333
 20
29.2649254689
 30
0.0
 10
-17.9661753843
 20
29.4643559558
 30
0.0
 10
-17.2514922849
 20
29.8287675843
 30
0.0
 10
-16.1225743144
 20
30.263968688
 30
0.0
 10
-14.9394862404
 20
30.5870915868
 30
0.0
 10
-14.1269615683
 20
30.725519023
 30
0.0
 10
-13.7146489047
 20
30.7762993452
 30
0.0
  0
SPLINE
  5
44A
100
AcDbEntity
  8
0
100
AcDbSpline
 62
7
  6
CONTINUOUS
 70
0
 71
3
 72
15
 73
11
 74
0
 42
0.0000001
 43
0.0000001
 44
0.0000000001
 40
0.0
 40
0.0
 40
0.0
 40
0.0
 40
0.1077063875
 40
0.2182258157
 40
0.3329877715
 40
0.4531406045
 40
0.5795231376
 40
0.7126668113
 40
0.8528261116
 40
1.0
 40
1.0
 40
1.0
 40
1.0
 10
-17.2196794801
 20
29.8197622527
 30
0.0
 10
-17.710293659
 20
29.4619734817
 30
0.0
 10
-18.6486930077
 20
28.6574791636
 30
0.0
 10
-19.8784556584
 20
27.2306978723
 30
0.0
 10
-20.9334865112
 20
25.5866131054
 30
0.0
 10
-21.8056442848
 20
23.7402288573
 30
0.0
 10
-22.4890721422
 20
21.7071006263
 30
0.0
 10
-22.9791694789
 20
19.5038599373
 30
0.0
 10
-23.2726643456
 20
17.1484513934
 30
0.0
 10
-23.3345237792
 20
15.5276114621
 30
0.0
 10
-23.3345237792
 20
14.6978853598
 30
0.0
  0
LINE
  5
44B
100
AcDbEntity
  8
0
100
AcDbLine
 62
7
  6
CONTINUOUS
 10
-19.953998257
 20
-0.6025751014
 11
-20.5655073911
 21
-0.7276487576
  0
LINE
  5
44C
100
AcDbEntity
  8
0
100
AcDbLine
 62
7
  6
CONTINUOUS
 10
12.0307566282
 20
-28.9659704985
 11
12.1560234428
 21
-29.7444012814
  0
LINE
  5
44D
100
AcDbEntity
  8
0
100
AcDbLine
 62
7
  6
CONTINUOUS
 10
19.0701147805
 20
2.8806283459
 11
19.3928001156
 21
2.8389387604
  0
LINE
  5
44E
100
AcDbEntity
  8
0
100
AcDbLine
 62
7
  6
CONTINUOUS
 10
-10.9139161526
 20
29.7142854618
 11
-10.4998255389
 21
29.1026179206
  0
SPLINE
  5
44F
100
AcDbEntity
  8
0
100
AcDbSpline
 62
7
  6
CONTINUOUS
 70
0
 71
3
 72
16
 73
12
 74
0
 42
0.0000001
 43
0.0000001
 44
0.0000000001
 40
0.0
 40
0.0
 40
0.0
 40
0.0
 40
0.1507365399
 40
0.2993772666
 40
0.4423265803
 40
0.5764514261
 40
0.6994246906
 40
0.8101463004
 40
0.9092692835
 40
0.9554301629
 40
1.0
 40
1.0
 40
1.0
 40
1.0
 10
3.2243656641
 20
1.4664899566
 30
0.0
 10
3.1064935585
 20
1.6962058317
 30
0.0
 10
2.8465999444
 20
2.1397208493
 30
0.0
 10
2.3921383053
 20
2.7478854199
 30
0.0
 10
1.8888315302
 20
3.2780990994
 30
0.0
 10
1.3548813367
 20
3.7110501666
 30
0.0
 10
0.808796893
 20
4.0310833995
 30
0.0
 10
0.2692532404
 20
4.2263113323
 30
0.0
 10
-0.1718290662
 20
4.2778665748
 30
0.0
 10
-0.4963608308
 20
4.2440952397
 30
0.0
 10
-0.6473338465
 20
4.2039592852
 30
0.0
 10
-0.7192183863
 20
4.1782538312
 30
0.0
  0
SPLINE
  5
450
100
AcDbEntity
  8
RACCORDO
100
AcDbSpline
 62
7
  6
CONTINUOUS
 70
0
 71
3
 72
11
 73
7
 74
0
 42
0.0000001
 43
0.0000001
 44
0.0000000001
 40
0.0
 40
0.0
 40
0.0
 40
0.0
 40
0.2001685619
 40
0.4339796909
 40
0.7031252516
 40
1.0
 40
1.0
 40
1.0
 40
1.0
 10
2.3652034783
 20
-3.1566004114
 30
0.0
 10
2.327358413
 20
-3.2013841225
 30
0.0
 10
2.2684404709
 20
-3.3183727418
 30
0.0
 10
2.2407464726
 20
-3.524840451
 30
0.0
 10
2.2648237263
 20
-3.7595780382
 30
0.0
 10
2.312676225
 20
-3.919338016
 30
0.0
 10
2.3441319122
 20
-4.0004094831
 30
0.0
  0
SPLINE
  5
451
100
AcDbEntity
  8
RACCORDO
100
AcDbSpline
 62
7
  6
CONTINUOUS
 70
0
 71
3
 72
11
 73
7
 74
0
 42
0.0000001
 43
0.0000001
 44
0.0000000001
 40
0.0
 40
0.0
 40
0.0
 40
0.0
 40
0.2247676885
 40
0.4738464229
 40
0.7365631476
 40
1.0
 40
1.0
 40
1.0
 40
1.0
 10
-0.899997462
 20
-3.9657845893
 30
0.0
 10
-0.8306894015
 20
-4.001249055
 30
0.0
 10
-0.6943369738
 20
-4.0954739869
 30
0.0
 10
-0.5151701573
 20
-4.2787400348
 30
0.0
 10
-0.3607267494
 20
-4.4997547781
 30
0.0
 10
-0.2804663766
 20
-4.6643990223
 30
0.0
 10
-0.2474593489
 20
-4.7494687952
 30
0.0
  0
SPLINE
  5
452
100
AcDbEntity
  8
RACCORDO
100
AcDbSpline
 62
7
  6
CONTINUOUS
 70
0
 71
3
 72
11
 73
7
 74
0
 42
0.0000001
 43
0.0000001
 44
0.0000000001
 40
0.0
 40
0.0
 40
0.0
 40
0.0
 40
0.2968747484
 40
0.5660203091
 40
0.7998314381
 40
1.0
 40
1.0
 40
1.0
 40
1.0
 10
-3.4047920839
 20
3.3879975931
 30
0.0
 10
-3.3733363968
 20
3.306926126
 30
0.0
 10
-3.325483898
 20
3.1471661482
 30
0.0
 10
-3.3014066444
 20
2.912428561
 30
0.0
 10
-3.3291006427
 20
2.7059608518
 30
0.0
 10
-3.3880185848
 20
2.5889722325
 30
0.0
 10
-3.4258636501
 20
2.5441885214
 30
0.0
  0
SPLINE
  5
453
100
AcDbEntity
  8
RACCORDO
100
AcDbSpline
 62
7
  6
CONTINUOUS
 70
0
 71
3
 72
11
 73
7
 74
0
 42
0.0000001
 43
0.0000001
 44
0.0000000001
 40
0.0
 40
0.0
 40
0.0
 40
0.0
 40
0.43379771
 40
0.5654257321
 40
0.7046339561
 40
1.0
 40
1.0
 40
1.0
 40
1.0
 10
-3.3530487903
 20
-1.9954986121
 30
0.0
 10
-3.2240357496
 20
-1.9839832019
 30
0.0
 10
-3.0510802092
 20
-2.0492458736
 30
0.0
 10
-2.8794831192
 20
-2.168825587
 30
0.0
 10
-2.7507515846
 20
-2.2792496319
 30
0.0
 10
-2.6646115039
 20
-2.3772804576
 30
0.0
 10
-2.6117283541
 20
-2.4478583059
 30
0.0
  0
SPLINE
  5
454
100
AcDbEntity
  8
RACCORDO
100
AcDbSpline
 62
7
  6
CONTINUOUS
 70
0
 71
3
 72
11
 73
7
 74
0
 42
0.0000001
 43
0.0000001
 44
0.0000000001
 40
0.0
 40
0.0
 40
0.0
 40
0.0
 40
0.2953660439
 40
0.4345742679
 40
0.56620229
 40
1.0
 40
1.0
 40
1.0
 40
1.0
 10
1.5510681824
 20
1.8354464159
 30
0.0
 10
1.6039513321
 20
1.7648685676
 30
0.0
 10
1.6900914128
 20
1.6668377419
 30
0.0
 10
1.8188229474
 20
1.556413697
 30
0.0
 10
1.9904200374
 20
1.4368339836
 30
0.0
 10
2.1633755778
 20
1.3715713119
 30
0.0
 10
2.2923886185
 20
1.3830867221
 30
0.0
  0
SPLINE
  5
455
100
AcDbEntity
  8
RACCORDO
100
AcDbSpline
 62
7
  6
CONTINUOUS
 70
0
 71
3
 72
11
 73
7
 74
0
 42
0.0000001
 43
0.0000001
 44
0.0000000001
 40
0.0
 40
0.0
 40
0.0
 40
0.0
 40
0.2634368524
 40
0.5261535771
 40
0.7752323115
 40
1.0
 40
1.0
 40
1.0
 40
1.0
 10
-0.8132008229
 20
4.1370569053
 30
0.0
 10
-0.7801937952
 20
4.0519871323
 30
0.0
 10
-0.6999334224
 20
3.8873428882
 30
0.0
 10
-0.5454900145
 20
3.6663281448
 30
0.0
 10
-0.366323198
 20
3.4830620969
 30
0.0
 10
-0.2299707703
 20
3.388837165
 30
0.0
 10
-0.1606627098
 20
3.3533726993
 30
0.0
  0
SPLINE
  5
456
100
AcDbEntity
  8
RACCORDO
100
AcDbSpline
 62
7
  6
CONTINUOUS
 70
0
 71
3
 72
11
 73
7
 74
0
 42
0.0000001
 43
0.0000001
 44
0.0000000001
 40
0.0
 40
0.0
 40
0.0
 40
0.0
 40
0.2929386255
 40
0.5534307629
 40
0.785343988
 40
1.0
 40
1.0
 40
1.0
 40
1.0
 10
-3.8845205603
 20
0.8325383662
 30
0.0
 10
-3.881849952
 20
0.7767970867
 30
0.0
 10
-3.8852839238
 20
0.6707055347
 30
0.0
 10
-3.9217427002
 20
0.5241682734
 30
0.0
 10
-3.9890838174
 20
0.4051721783
 30
0.0
 10
-4.0551266908
 20
0.3481499809
 30
0.0
 10
-4.0905458991
 20
0.3277133107
 30
0.0
  0
LINE
  5
457
100
AcDbEntity
  8
0
100
AcDbLine
 62
7
  6
CONTINUOUS
 10
19.3928001156
 20
2.8389387604
 11
19.442761687
 21
2.8103178492
  0
SPLINE
  5
458
100
AcDbEntity
  8
0
100
AcDbSpline
 62
7
  6
CONTINUOUS
 70
0
 71
3
 72
8
 73
4
 74
0
 42
0.0000001
 43
0.0000001
 44
0.0000000001
 40
0.0
 40
0.0
 40
0.0
 40
0.0
 40
1.0
 40
1.0
 40
1.0
 40
1.0
 10
-11.9556570545
 20
30.8782322399
 30
0.0
 10
-11.6082577154
 20
30.4903864083
 30
0.0
 10
-11.2610038325
 20
30.1024102257
 30
0.0
 10
-10.9139161526
 20
29.7142854618
 30
0.0
  0
SPLINE
  5
459
100
AcDbEntity
  8
0
100
AcDbSpline
 62
7
  6
CONTINUOUS
 70
0
 71
3
 72
8
 73
4
 74
0
 42
0.0000001
 43
0.0000001
 44
0.0000000001
 40
0.0
 40
0.0
 40
0.0
 40
0.0
 40
1.0
 40
1.0
 40
1.0
 40
1.0
 10
12.1560234428
 20
-29.7444012814
 30
0.0
 10
12.1573191627
 20
-30.3877681386
 30
0.0
 10
12.158299835
 20
-31.0311356849
 30
0.0
 10
12.1590139861
 20
-31.6745034505
 30
0.0
  0
SPLINE
  5
45A
100
AcDbEntity
  8
ASSI
100
AcDbSpline
 62
7
  6
CONTINUOUS
 70
0
 71
3
 72
11
 73
7
 74
0
 42
0.0000001
 43
0.0000001
 44
0.0000000001
 40
0.0
 40
0.0
 40
0.0
 40
0.0
 40
0.2833190183
 40
0.5403875575
 40
0.7762290478
 40
1.0
 40
1.0
 40
1.0
 40
1.0
 10
-30.1228104956
 20
40.4402247128
 30
0.0
 10
-30.2648124344
 20
40.5046210838
 30
0.0
 10
-30.5460498924
 20
40.6068002971
 30
0.0
 10
-30.9717139098
 20
40.6713821773
 30
0.0
 10
-31.3688647134
 20
40.6355359047
 30
0.0
 10
-31.6083472615
 20
40.5417122662
 30
0.0
 10
-31.7149963241
 20
40.4801344648
 30
0.0
  0
SPLINE
  5
45B
100
AcDbEntity
  8
ASSI
100
AcDbSpline
 62
7
  6
CONTINUOUS
 70
0
 71
3
 72
17
 73
13
 74
0
 42
0.0000001
 43
0.0000001
 44
0.0000000001
 40
0.0
 40
0.0
 40
0.0
 40
0.0
 40
0.1286838693
 40
0.2702707996
 40
0.4174275967
 40
0.5617763322
 40
0.695448224
 40
0.8127149558
 40
0.8646792167
 40
0.9125121523
 40
0.957140876
 40
1.0
 40
1.0
 40
1.0
 40
1.0
 10
18.3847763109
 20
17.552966758
 30
0.0
 10
18.3847763109
 20
17.4247565362
 30
0.0
 10
18.4206508466
 20
17.1551747281
 30
0.0
 10
18.5545132581
 20
16.7593390964
 30
0.0
 10
18.7608306807
 20
16.378028154
 30
0.0
 10
19.0229572464
 20
16.0424845962
 30
0.0
 10
19.3195220114
 20
15.7798500167
 30
0.0
 10
19.5879349566
 20
15.6330730796
 30
0.0
 10
19.797904526
 20
15.5772120703
 30
0.0
 10
19.9424125577
 20
15.5665891594
 30
0.0
 10
20.0769734712
 20
15.5863055828
 30
0.0
 10
20.1584923922
 20
15.6201862172
 30
0.0
 10
20.1954724908
 20
15.6415375519
 30
0.0
  0
SPLINE
  5
45C
100
AcDbEntity
  8
ASSI
100
AcDbSpline
 62
7
  6
CONTINUOUS
 70
0
 71
3
 72
17
 73
13
 74
0
 42
0.0000001
 43
0.0000001
 44
0.0000000001
 40
0.0
 40
0.0
 40
0.0
 40
0.0
 40
0.1286838693
 40
0.2702707996
 40
0.4174275967
 40
0.5617763322
 40
0.695448224
 40
0.8127149558
 40
0.8646792167
 40
0.9125121523
 40
0.957140876
 40
1.0
 40
1.0
 40
1.0
 40
1.0
 10
-22.627416998
 20
-17.552966758
 30
0.0
 10
-22.627416998
 20
-17.6811769798
 30
0.0
 10
-22.5915424623
 20
-17.950758788
 30
0.0
 10
-22.4576800508
 20
-18.3465944197
 30
0.0
 10
-22.2513626281
 20
-18.727905362
 30
0.0
 10
-21.9892360624
 20
-19.0634489199
 30
0.0
 10
-21.6926712975
 20
-19.3260834994
 30
0.0
 10
-21.4242583522
 20
-19.4728604365
 30
0.0
 10
-21.2142887828
 20
-19.5287214458
 30
0.0
 10
-21.0697807511
 20
-19.5393443567
 30
0.0
 10
-20.9352198376
 20
-19.5196279332
 30
0.0
 10
-20.8537009166
 20
-19.4857472988
 30
0.0
 10
-20.816720818
 20
-19.4643959642
 30
0.0
  0
SPLINE
  5
45D
100
AcDbEntity
  8
ASSI
100
AcDbSpline
 62
7
  6
CONTINUOUS
 70
0
 71
3
 72
11
 73
7
 74
0
 42
0.0000001
 43
0.0000001
 44
0.0000000001
 40
0.0
 40
0.0
 40
0.0
 40
0.0
 40
0.2177724724
 40
0.4509515099
 40
0.7102006811
 40
1.0
 40
1.0
 40
1.0
 40
1.0
 10
-22.3167928344
 20
-16.8663613319
 30
0.0
 10
-22.3662648832
 20
-16.8949251894
 30
0.0
 10
-22.4588575164
 20
-16.9727343887
 30
0.0
 10
-22.557345815
 20
-17.1338713932
 30
0.0
 10
-22.6159370309
 20
-17.3324230797
 30
0.0
 10
-22.627416998
 20
-17.4769467273
 30
0.0
 10
-22.627416998
 20
-17.552966758
 30
0.0
  0
SPLINE
  5
45E
100
AcDbEntity
  8
ASSI
100
AcDbSpline
 62
7
  6
CONTINUOUS
 70
0
 71
3
 72
11
 73
7
 74
0
 42
0.0000001
 43
0.0000001
 44
0.0000000001
 40
0.0
 40
0.0
 40
0.0
 40
0.0
 40
0.2585104863
 40
0.5169125624
 40
0.7666261222
 40
1.0
 40
1.0
 40
1.0
 40
1.0
 10
-27.5968613605
 20
37.5704258498
 30
0.0
 10
-27.7042013394
 20
37.828982836
 30
0.0
 10
-27.9539772646
 20
38.332053384
 30
0.0
 10
-28.4165875149
 20
39.0241561268
 30
0.0
 10
-28.9486918446
 20
39.6286988517
 30
0.0
 10
-29.3500813799
 20
39.9684235569
 30
0.0
 10
-29.5570018365
 20
40.1135338843
 30
0.0
  0
SPLINE
  5
45F
100
AcDbEntity
  8
ASSI
100
AcDbSpline
 62
7
  6
CONTINUOUS
 70
0
 71
3
 72
11
 73
7
 74
0
 42
0.0000001
 43
0.0000001
 44
0.0000000001
 40
0.0
 40
0.0
 40
0.0
 40
0.0
 40
0.2177724724
 40
0.4509515099
 40
0.7102006811
 40
1.0
 40
1.0
 40
1.0
 40
1.0
 10
18.6954004745
 20
18.2395721842
 30
0.0
 10
18.6459284256
 20
18.2110083266
 30
0.0
 10
18.5533357924
 20
18.1331991274
 30
0.0
 10
18.4548474938
 20
17.9720621229
 30
0.0
 10
18.396256278
 20
17.7735104363
 30
0.0
 10
18.3847763109
 20
17.6289867888
 30
0.0
 10
18.3847763109
 20
17.552966758
 30
0.0
  0
LINE
  5
460
100
AcDbEntity
  8
0
100
AcDbLine
 62
7
  6
CONTINUOUS
 10
15.9256353924
 20
-36.3803572081
 11
15.9366258742
 21
-36.3741941367
  0
SPLINE
  5
461
100
AcDbEntity
  8
ASSI
100
AcDbSpline
 62
7
  6
CONTINUOUS
 70
0
 71
3
 72
17
 73
13
 74
0
 42
0.0000001
 43
0.0000001
 44
0.0000000001
 40
0.0
 40
0.0
 40
0.0
 40
0.0
 40
0.1286838693
 40
0.2702707996
 40
0.4174275967
 40
0.5617763322
 40
0.695448224
 40
0.8127149558
 40
0.8646792167
 40
0.9125121523
 40
0.957140876
 40
1.0
 40
1.0
 40
1.0
 40
1.0
 10
-22.627416998
 20
34.2928958183
 30
0.0
 10
-22.627416998
 20
34.1646855965
 30
0.0
 10
-22.5915424623
 20
33.8951037883
 30
0.0
 10
-22.4576800508
 20
33.4992681567
 30
0.0
 10
-22.2513626281
 20
33.1179572143
 30
0.0
 10
-21.9892360624
 20
32.7824136564
 30
0.0
 10
-21.6926712975
 20
32.519779077
 30
0.0
 10
-21.4242583522
 20
32.3730021399
 30
0.0
 10
-21.2142887828
 20
32.3171411305
 30
0.0
 10
-21.0697807511
 20
32.3065182197
 30
0.0
 10
-20.9352198376
 20
32.3262346431
 30
0.0
 10
-20.8537009166
 20
32.3601152775
 30
0.0
 10
-20.816720818
 20
32.3814666122
 30
0.0
  0
SPLINE
  5
462
100
AcDbEntity
  8
0
100
AcDbSpline
 62
7
  6
CONTINUOUS
 70
0
 71
3
 72
11
 73
7
 74
0
 42
0.0000001
 43
0.0000001
 44
0.0000000001
 40
0.0
 40
0.0
 40
0.0
 40
0.0
 40
0.2833281072
 40
0.5403890455
 40
0.7762367084
 40
1.0
 40
1.0
 40
1.0
 40
1.0
 10
27.435681493
 20
-35.2497815773
 30
0.0
 10
27.2936751773
 20
-35.1853832214
 30
0.0
 10
27.0124377862
 20
-35.0832011288
 30
0.0
 10
26.5867683194
 20
-35.0186285766
 30
0.0
 10
26.1896242205
 20
-35.05447871
 30
0.0
 10
25.9501415363
 20
-35.1482975639
 30
0.0
 10
25.8434956175
 20
-35.2098720691
 30
0.0
  0
SPLINE
  5
463
100
AcDbEntity
  8
RACCORDO
100
AcDbSpline
 62
7
  6
CONTINUOUS
 70
0
 71
3
 72
9
 73
5
 74
0
 42
0.0000001
 43
0.0000001
 44
0.0000000001
 40
0.0
 40
0.0
 40
0.0
 40
0.0
 40
0.245739845
 40
1.0
 40
1.0
 40
1.0
 40
1.0
 10
-4.0905458991
 20
0.3277133107
 30
0.0
 10
-4.1014645647
 20
0.3214133063
 30
0.0
 10
-4.1473344651
 20
0.2982923915
 30
0.0
 10
-4.1983938044
 20
0.2859944878
 30
0.0
 10
-4.2369322668
 20
0.2825546324
 30
0.0
  0
SPLINE
  5
464
100
AcDbEntity
  8
RACCORDO
100
AcDbSpline
 62
7
  6
CONTINUOUS
 70
0
 71
3
 72
13
 73
9
 74
0
 42
0.0000001
 43
0.0000001
 44
0.0000000001
 40
0.0
 40
0.0
 40
0.0
 40
0.0
 40
0.1080959694
 40
0.2182300003
 40
0.3322554593
 40
0.4517066807
 40
0.7105908848
 40
1.0
 40
1.0
 40
1.0
 40
1.0
 10
22.8647936771
 20
-45.8896443585
 30
0.0
 10
22.9467606482
 20
-45.8423176488
 30
0.0
 10
23.1043558967
 20
-45.7323474542
 30
0.0
 10
23.3125830846
 20
-45.5274102553
 30
0.0
 10
23.4916724978
 20
-45.2841664115
 30
0.0
 10
23.6947146396
 20
-44.9023739556
 30
0.0
 10
23.8620578366
 20
-44.3359037954
 30
0.0
 10
23.9002092041
 20
-43.8543713524
 30
0.0
 10
23.9002092041
 20
-43.6009647222
 30
0.0
  0
SPLINE
  5
465
100
AcDbEntity
  8
ASSI
100
AcDbSpline
 62
7
  6
CONTINUOUS
 70
0
 71
3
 72
17
 73
13
 74
0
 42
0.0000001
 43
0.0000001
 44
0.0000000001
 40
0.0
 40
0.0
 40
0.0
 40
0.0
 40
0.1286838693
 40
0.2702707996
 40
0.4174275967
 40
0.5617763322
 40
0.695448224
 40
0.8127149558
 40
0.8646792167
 40
0.9125121523
 40
0.957140876
 40
1.0
 40
1.0
 40
1.0
 40
1.0
 10
18.3847763109
 20
-34.2928958183
 30
0.0
 10
18.3847763109
 20
-34.4211060401
 30
0.0
 10
18.4206508466
 20
-34.6906878483
 30
0.0
 10
18.5545132581
 20
-35.08652348
 30
0.0
 10
18.7608306807
 20
-35.4678344223
 30
0.0
 10
19.0229572464
 20
-35.8033779802
 30
0.0
 10
19.3195220114
 20
-36.0660125596
 30
0.0
 10
19.5879349566
 20
-36.2127894967
 30
0.0
 10
19.797904526
 20
-36.2686505061
 30
0.0
 10
19.9424125577
 20
-36.279273417
 30
0.0
 10
20.0769734712
 20
-36.2595569935
 30
0.0
 10
20.1584923922
 20
-36.2256763591
 30
0.0
 10
20.1954724908
 20
-36.2043250245
 30
0.0
  0
SPLINE
  5
466
100
AcDbEntity
  8
0
100
AcDbSpline
 62
7
  6
CONTINUOUS
 70
0
 71
3
 72
10
 73
6
 74
0
 42
0.0000001
 43
0.0000001
 44
0.0000000001
 40
0.0
 40
0.0
 40
0.0
 40
0.0
 40
0.2278023571
 40
0.6123988689
 40
1.0
 40
1.0
 40
1.0
 40
1.0
 10
17.2597270014
 20
14.9325655203
 30
0.0
 10
17.2840948481
 20
14.918495831
 30
0.0
 10
17.3447362872
 20
14.8717676892
 30
0.0
 10
17.4171712424
 20
14.7693412298
 30
0.0
 10
17.4529382081
 20
14.6800564325
 30
0.0
 10
17.4655755078
 20
14.6338781234
 30
0.0
  0
SPLINE
  5
467
100
AcDbEntity
  8
0
100
AcDbSpline
 62
7
  6
CONTINUOUS
 70
0
 71
3
 72
9
 73
5
 74
0
 42
0.0000001
 43
0.0000001
 44
0.0000000001
 40
0.0
 40
0.0
 40
0.0
 40
0.0
 40
0.5015506077
 40
1.0
 40
1.0
 40
1.0
 40
1.0
 10
17.4655755078
 20
14.6338781234
 30
0.0
 10
17.4978213953
 20
14.5161527066
 30
0.0
 10
17.5478848986
 20
14.2777829462
 30
0.0
 10
17.6011103358
 20
14.0403682121
 30
0.0
 10
17.6269140797
 20
13.9218373809
 30
0.0
  0
SPLINE
  5
468
100
AcDbEntity
  8
0
100
AcDbSpline
 62
7
  6
CONTINUOUS
 70
0
 71
3
 72
13
 73
9
 74
0
 42
0.0000001
 43
0.0000001
 44
0.0000000001
 40
0.0
 40
0.0
 40
0.0
 40
0.0
 40
0.1427395291
 40
0.2711512794
 40
0.39637822
 40
0.5205710471
 40
0.7632532068
 40
1.0
 40
1.0
 40
1.0
 40
1.0
 10
17.6430055212
 20
14.8773086045
 30
0.0
 10
17.6481903001
 20
14.8750874523
 30
0.0
 10
17.658755048
 20
14.8722562974
 30
0.0
 10
17.6745863566
 20
14.8731810258
 30
0.0
 10
17.6889843316
 20
14.8773280425
 30
0.0
 10
17.7071655519
 20
14.8842178287
 30
0.0
 10
17.7292663937
 20
14.8932242039
 30
0.0
 10
17.7461920079
 20
14.9018151762
 30
0.0
 10
17.754293826
 20
14.9064930656
 30
0.0
  0
SPLINE
  5
469
100
AcDbEntity
  8
0
100
AcDbSpline
 62
7
  6
CONTINUOUS
 70
0
 71
3
 72
11
 73
7
 74
0
 42
0.0000001
 43
0.0000001
 44
0.0000000001
 40
0.0
 40
0.0
 40
0.0
 40
0.0
 40
0.2177724724
 40
0.4509515099
 40
0.7102006811
 40
1.0
 40
1.0
 40
1.0
 40
1.0
 10
-1.81069618
 20
0.6866054262
 30
0.0
 10
-1.8601682288
 20
0.6580415686
 30
0.0
 10
-1.952760862
 20
0.5802323693
 30
0.0
 10
-2.0512491606
 20
0.4190953649
 30
0.0
 10
-2.1098403765
 20
0.2205436783
 30
0.0
 10
-2.1213203436
 20
0.0760200308
 30
0.0
 10
-2.1213203436
 20
0.0
 30
0.0
  0
SPLINE
  5
46A
100
AcDbEntity
  8
0
100
AcDbSpline
 62
7
  6
CONTINUOUS
 70
0
 71
3
 72
10
 73
6
 74
0
 42
0.0000001
 43
0.0000001
 44
0.0000000001
 40
0.0
 40
0.0
 40
0.0
 40
0.0
 40
0.2356074691
 40
0.4806650841
 40
1.0
 40
1.0
 40
1.0
 40
1.0
 10
17.0496634386
 20
15.9483967427
 30
0.0
 10
17.0737958242
 20
15.939217697
 30
0.0
 10
17.1227074017
 20
15.9195638132
 30
0.0
 10
17.2211476484
 20
15.8712281333
 30
0.0
 10
17.2923391978
 20
15.8265084077
 30
0.0
 10
17.3387129157
 20
15.7935175754
 30
0.0
  0
SPLINE
  5
46B
100
AcDbEntity
  8
0
100
AcDbSpline
 62
7
  6
CONTINUOUS
 70
0
 71
3
 72
11
 73
7
 74
0
 42
0.0000001
 43
0.0000001
 44
0.0000000001
 40
0.0
 40
0.0
 40
0.0
 40
0.0
 40
0.2413629477
 40
0.5033335929
 40
0.764823587
 40
1.0
 40
1.0
 40
1.0
 40
1.0
 10
17.3387129157
 20
15.7935175754
 30
0.0
 10
17.367745721
 20
15.7728623714
 30
0.0
 10
17.422886036
 20
15.7220663791
 30
0.0
 10
17.4896118398
 20
15.6299024962
 30
0.0
 10
17.5331889937
 20
15.5258527889
 30
0.0
 10
17.5466662994
 20
15.4527593639
 30
0.0
 10
17.5471328717
 20
15.4180451493
 30
0.0
  0
SPLINE
  5
46C
100
AcDbEntity
  8
0
100
AcDbSpline
 62
7
  6
CONTINUOUS
 70
0
 71
3
 72
10
 73
6
 74
0
 42
0.0000001
 43
0.0000001
 44
0.0000000001
 40
0.0
 40
0.0
 40
0.0
 40
0.0
 40
0.2878395705
 40
0.5553667354
 40
1.0
 40
1.0
 40
1.0
 40
1.0
 10
17.5471328717
 20
15.4180451493
 30
0.0
 10
17.5474033909
 20
15.3976457615
 30
0.0
 10
17.5448866502
 20
15.3579970375
 30
0.0
 10
17.5291472106
 20
15.2894621934
 30
0.0
 10
17.5000607866
 20
15.2418273577
 30
0.0
 10
17.4727690907
 20
15.2260694917
 30
0.0
  0
SPLINE
  5
46D
100
AcDbEntity
  8
ASSI
100
AcDbSpline
 62
7
  6
CONTINUOUS
 70
0
 71
3
 72
11
 73
7
 74
0
 42
0.0000001
 43
0.0000001
 44
0.0000000001
 40
0.0
 40
0.0
 40
0.0
 40
0.0
 40
0.2177724724
 40
0.4509515099
 40
0.7102006811
 40
1.0
 40
1.0
 40
1.0
 40
1.0
 10
18.6954004745
 20
-33.6062903921
 30
0.0
 10
18.6459284256
 20
-33.6348542497
 30
0.0
 10
18.5533357924
 20
-33.712663449
 30
0.0
 10
18.4548474938
 20
-33.8738004534
 30
0.0
 10
18.396256278
 20
-34.07235214
 30
0.0
 10
18.3847763109
 20
-34.2168757875
 30
0.0
 10
18.3847763109
 20
-34.2928958183
 30
0.0
  0
SPLINE
  5
46E
100
AcDbEntity
  8
0
100
AcDbSpline
 62
7
  6
CONTINUOUS
 70
0
 71
3
 72
15
 73
11
 74
0
 42
0.0000001
 43
0.0000001
 44
0.0000000001
 40
0.0
 40
0.0
 40
0.0
 40
0.0
 40
0.1486060903
 40
0.2894992155
 40
0.4227223632
 40
0.5486419649
 40
0.6680000648
 40
0.781937873
 40
0.8919868603
 40
1.0
 40
1.0
 40
1.0
 40
1.0
 10
-25.4558441227
 20
13.4730615798
 30
0.0
 10
-25.4558441227
 20
14.3715738872
 30
0.0
 10
-25.3834948051
 20
16.1231772948
 30
0.0
 10
-25.0385863212
 20
18.6597514154
 30
0.0
 10
-24.4626824444
 20
21.0140419492
 30
0.0
 10
-23.6600760991
 20
23.1634826528
 30
0.0
 10
-22.6369559569
 20
25.0871617309
 30
0.0
 10
-21.4012834465
 20
26.7654604387
 30
0.0
 10
-19.9645260085
 20
28.1795501306
 30
0.0
 10
-18.8771462361
 20
28.938370316
 30
0.0
 10
-18.3115752333
 20
29.2649254689
 30
0.0
  0
SPLINE
  5
46F
100
AcDbEntity
  8
ASSI
100
AcDbSpline
 62
7
  6
CONTINUOUS
 70
0
 71
3
 72
11
 73
7
 74
0
 42
0.0000001
 43
0.0000001
 44
0.0000000001
 40
0.0
 40
0.0
 40
0.0
 40
0.0
 40
0.2177724724
 40
0.4509515099
 40
0.7102006811
 40
1.0
 40
1.0
 40
1.0
 40
1.0
 10
-22.3167928344
 20
34.9795012445
 30
0.0
 10
-22.3662648832
 20
34.9509373869
 30
0.0
 10
-22.4588575164
 20
34.8731281876
 30
0.0
 10
-22.557345815
 20
34.7119911832
 30
0.0
 10
-22.6159370309
 20
34.5134394966
 30
0.0
 10
-22.627416998
 20
34.3689158491
 30
0.0
 10
-22.627416998
 20
34.2928958183
 30
0.0
  0
SPLINE
  5
470
100
AcDbEntity
  8
0
100
AcDbSpline
 62
7
  6
CONTINUOUS
 70
0
 71
3
 72
11
 73
7
 74
0
 42
0.0000001
 43
0.0000001
 44
0.0000000001
 40
0.0
 40
0.0
 40
0.0
 40
0.0
 40
0.2654678726
 40
0.5220276473
 40
0.7674652655
 40
1.0
 40
1.0
 40
1.0
 40
1.0
 10
-22.4476814897
 20
-1.8142847001
 30
0.0
 10
-22.9317445922
 20
-0.5161810577
 30
0.0
 10
-23.7881150709
 20
2.0734883798
 30
0.0
 10
-24.7365631363
 20
5.9695204564
 30
0.0
 10
-25.3167794228
 20
9.7637532234
 30
0.0
 10
-25.4558441227
 20
12.2595120791
 30
0.0
 10
-25.4558441227
 20
13.4730615798
 30
0.0
  0
SPLINE
  5
471
100
AcDbEntity
  8
0
100
AcDbSpline
 62
7
  6
CONTINUOUS
 70
0
 71
3
 72
22
 73
18
 74
0
 42
0.0000001
 43
0.0000001
 44
0.0000000001
 40
0.0
 40
0.0
 40
0.0
 40
0.0
 40
0.0455462372
 40
0.093492264
 40
0.1441299118
 40
0.1976155913
 40
0.2539872884
 40
0.3131799427
 40
0.3750417896
 40
0.4393486894
 40
0.5058169457
 40
0.5741146228
 40
0.6438716847
 40
0.714689333
 40
0.7861484649
 40
0.8578185912
 40
1.0
 40
1.0
 40
1.0
 40
1.0
 10
10.6747699076
 20
-32.0831115784
 30
0.0
 10
9.9785088876
 20
-32.1222389153
 30
0.0
 10
8.5419316633
 20
-32.0978077486
 30
0.0
 10
6.3537862987
 20
-31.7740574607
 30
0.0
 10
4.1010258716
 20
-31.1669454767
 30
0.0
 10
1.8040257329
 20
-30.2827858556
 30
0.0
 10
-0.5172556123
 20
-29.1300896047
 30
0.0
 10
-2.8423101575
 20
-27.7194791923
 30
0.0
 10
-5.1505281114
 20
-26.0637716986
 30
0.0
 10
-7.4213067287
 20
-24.1779224474
 30
0.0
 10
-9.634288791
 20
-22.0789444157
 30
0.0
 10
-11.7695607865
 20
-19.7857833034
 30
0.0
 10
-13.807875342
 20
-17.3191351269
 30
0.0
 10
-15.7307779713
 20
-14.7013536871
 30
0.0
 10
-17.5210289338
 20
-11.9558958277
 30
0.0
 10
-19.7027936788
 20
-8.1697478913
 30
0.0
 10
-21.103395769
 20
-5.200165258
 30
0.0
 10
-21.9173514038
 20
-3.1811166468
 30
0.0
  0
SPLINE
  5
472
100
AcDbEntity
  8
RACCORDO
100
AcDbSpline
 62
7
  6
CONTINUOUS
 70
0
 71
3
 72
15
 73
11
 74
0
 42
0.0000001
 43
0.0000001
 44
0.0000000001
 40
0.0
 40
0.0
 40
0.0
 40
0.0
 40
0.1141546642
 40
0.2373206127
 40
0.3669696178
 40
0.4999939487
 40
0.6330191211
 40
0.7626705848
 40
0.8858404062
 40
1.0
 40
1.0
 40
1.0
 40
1.0
 10
23.9002092041
 20
13.5519546533
 30
0.0
 10
23.9002092041
 20
13.8314320411
 30
0.0
 10
23.8490201648
 20
14.412991682
 30
0.0
 10
23.6449441825
 20
15.2903419236
 30
0.0
 10
23.3180455476
 20
16.1790362022
 30
0.0
 10
22.8805075902
 20
17.04566047
 30
0.0
 10
22.3487543618
 20
17.8578964039
 30
0.0
 10
21.7425625147
 20
18.5853609648
 30
0.0
 10
21.0847782183
 20
19.2007954354
 30
0.0
 10
20.6067163691
 20
19.535927523
 30
0.0
 10
20.3646752982
 20
19.6756790039
 30
0.0
  0
SPLINE
  5
473
100
AcDbEntity
  8
0
100
AcDbSpline
 62
7
  6
CONTINUOUS
 70
0
 71
3
 72
11
 73
7
 74
0
 42
0.0000001
 43
0.0000001
 44
0.0000000001
 40
0.0
 40
0.0
 40
0.0
 40
0.0
 40
0.2237758433
 40
0.4596227998
 40
0.7166803629
 40
1.0
 40
1.0
 40
1.0
 40
1.0
 10
29.5936701511
 20
-41.70495512
 30
0.0
 10
29.7003038898
 20
-41.6433866354
 30
0.0
 10
29.9012666691
 20
-41.4829213
 30
0.0
 10
30.1308435032
 20
-41.156955196
 30
0.0
 10
30.2877398672
 20
-40.7561075041
 30
0.0
 10
30.3398661139
 20
-40.4615146773
 30
0.0
 10
30.3551015422
 20
-40.306365426
 30
0.0
  0
SPLINE
  5
474
100
AcDbEntity
  8
0
100
AcDbSpline
 62
7
  6
CONTINUOUS
 70
0
 71
3
 72
17
 73
13
 74
0
 42
0.0000001
 43
0.0000001
 44
0.0000000001
 40
0.0
 40
0.0
 40
0.0
 40
0.0
 40
0.1286838693
 40
0.2702707996
 40
0.4174275967
 40
0.5617763322
 40
0.695448224
 40
0.8127149558
 40
0.8646792167
 40
0.9125121523
 40
0.957140876
 40
1.0
 40
1.0
 40
1.0
 40
1.0
 10
-2.1213203436
 20
0.0
 30
0.0
 10
-2.1213203436
 20
-0.1282102218
 30
0.0
 10
-2.0854458078
 20
-0.39779203
 30
0.0
 10
-1.9515833964
 20
-0.7936276617
 30
0.0
 10
-1.7452659737
 20
-1.174938604
 30
0.0
 10
-1.483139408
 20
-1.5104821619
 30
0.0
 10
-1.1865746431
 20
-1.7731167413
 30
0.0
 10
-0.9181616978
 20
-1.9198936784
 30
0.0
 10
-0.7081921284
 20
-1.9757546878
 30
0.0
 10
-0.5636840967
 20
-1.9863775987
 30
0.0
 10
-0.4291231832
 20
-1.9666611752
 30
0.0
 10
-0.3476042622
 20
-1.9327805408
 30
0.0
 10
-0.3106241636
 20
-1.9114292061
 30
0.0
  0
SPLINE
  5
475
100
AcDbEntity
  8
ASSI
100
AcDbSpline
 62
7
  6
CONTINUOUS
 70
0
 71
3
 72
9
 73
5
 74
0
 42
0.0000001
 43
0.0000001
 44
0.0000000001
 40
0.0
 40
0.0
 40
0.0
 40
0.0
 40
0.4941099766
 40
1.0
 40
1.0
 40
1.0
 40
1.0
 10
-27.9648223396
 20
33.9850445914
 30
0.0
 10
-27.8950056465
 20
34.0253543334
 30
0.0
 10
-27.7613806126
 20
34.1209657174
 30
0.0
 10
-27.6483233581
 20
34.2400118121
 30
0.0
 10
-27.5968613605
 20
34.3045447427
 30
0.0
  0
SPLINE
  5
476
100
AcDbEntity
  8
ASSI
100
AcDbSpline
 62
7
  6
CONTINUOUS
 70
0
 71
3
 72
9
 73
5
 74
0
 42
0.0000001
 43
0.0000001
 44
0.0000000001
 40
0.0
 40
0.0
 40
0.0
 40
0.0
 40
0.4958661914
 40
1.0
 40
1.0
 40
1.0
 40
1.0
 10
-24.4862232172
 20
-6.0059461579
 30
0.0
 10
-24.5489766438
 20
-6.0421890802
 30
0.0
 10
-24.6697084569
 20
-6.1258299831
 30
0.0
 10
-24.7754575989
 20
-6.2276661232
 30
0.0
 10
-24.8245315085
 20
-6.2826194853
 30
0.0
  0
SPLINE
  5
477
100
AcDbEntity
  8
ASSI
100
AcDbSpline
 62
7
  6
CONTINUOUS
 70
0
 71
3
 72
18
 73
14
 74
0
 42
0.0000001
 43
0.0000001
 44
0.0000000001
 40
0.0
 40
0.0
 40
0.0
 40
0.0
 40
0.1513214792
 40
0.3019266319
 40
0.4470876122
 40
0.5826078309
 40
0.7054165093
 40
0.7616585572
 40
0.814456415
 40
0.8640823804
 40
0.9110334421
 40
0.9560333585
 40
1.0
 40
1.0
 40
1.0
 40
1.0
 10
-24.8245315085
 20
-9.9567357308
 30
0.0
 10
-24.7070217397
 20
-10.2240214585
 30
0.0
 10
-24.4375759249
 20
-10.7426335747
 30
0.0
 10
-23.9460103647
 20
-11.4541890689
 30
0.0
 10
-23.3861599064
 20
-12.0735018326
 30
0.0
 10
-22.7840376251
 20
-12.5715862274
 30
0.0
 10
-22.2537109073
 20
-12.8755309838
 30
0.0
 10
-21.8333470966
 20
-13.0312580541
 30
0.0
 10
-21.5345380664
 20
-13.1018375412
 30
0.0
 10
-21.2465027783
 20
-13.1285366359
 30
0.0
 10
-20.972633432
 20
-13.1106480732
 30
0.0
 10
-20.7165472562
 20
-13.0480264202
 30
0.0
 10
-20.5592369174
 20
-12.976308753
 30
0.0
 10
-20.4857719839
 20
-12.9338855605
 30
0.0
  0
SPLINE
  5
478
100
AcDbEntity
  8
0
100
AcDbSpline
 62
7
  6
CONTINUOUS
 70
0
 71
3
 72
18
 73
14
 74
0
 42
0.0000001
 43
0.0000001
 44
0.0000000001
 40
0.0
 40
0.0
 40
0.0
 40
0.0
 40
0.1310308294
 40
0.2771013921
 40
0.4239732818
 40
0.560839496
 40
0.6251274217
 40
0.6875115486
 40
0.7472415732
 40
0.8049596829
 40
0.8596014314
 40
0.9103798155
 40
1.0
 40
1.0
 40
1.0
 40
1.0
 10
15.5779491853
 20
-35.1754289596
 30
0.0
 10
15.6225877607
 20
-35.2012026609
 30
0.0
 10
15.7101468668
 20
-35.2684044342
 30
0.0
 10
15.8126985462
 20
-35.4025682019
 30
0.0
 10
15.8776724742
 20
-35.5602143692
 30
0.0
 10
15.9062163273
 20
-35.6948125701
 30
0.0
 10
15.9146962326
 20
-35.7981736225
 30
0.0
 10
15.9181528959
 20
-35.871480558
 30
0.0
 10
15.9148253493
 20
-35.9422211448
 30
0.0
 10
15.9089103474
 20
-36.0096466947
 30
0.0
 10
15.8966404009
 20
-36.0729982694
 30
0.0
 10
15.8716064733
 20
-36.1450382762
 30
0.0
 10
15.8374410098
 20
-36.194058171
 30
0.0
 10
15.8069098916
 20
-36.2116864133
 30
0.0
  0
SPLINE
  5
479
100
AcDbEntity
  8
ASSI
100
AcDbSpline
 62
7
  6
CONTINUOUS
 70
0
 71
3
 72
25
 73
21
 74
0
 42
0.0000001
 43
0.0000001
 44
0.0000000001
 40
0.0
 40
0.0
 40
0.0
 40
0.0
 40
0.0225451213
 40
0.0455155979
 40
0.0940836522
 40
0.1480827474
 40
0.2084452523
 40
0.275013009
 40
0.3468386316
 40
0.4224416813
 40
0.5000119752
 40
0.5775815234
 40
0.6531825853
 40
0.7250053077
 40
0.7915691911
 40
0.8519270367
 40
0.9059215786
 40
0.9544869851
 40
0.9774553205
 40
1.0
 40
1.0
 40
1.0
 40
1.0
 10
18.3644516403
 20
11.7090617805
 30
0.0
 10
18.2988756815
 20
11.6711941696
 30
0.0
 10
18.1728083963
 20
11.5831666412
 30
0.0
 10
17.9466372112
 20
11.3606665793
 30
0.0
 10
17.722708024
 20
10.9954378777
 30
0.0
 10
17.5669078836
 20
10.4659437927
 30
0.0
 10
17.5183865197
 20
9.8566671211
 30
0.0
 10
17.5772719674
 20
9.1891160404
 30
0.0
 10
17.740578929
 20
8.4870266441
 30
0.0
 10
18.0021622481
 20
7.7761248155
 30
0.0
 10
18.3522352931
 20
7.0828286311
 30
0.0
 10
18.7776977332
 20
6.4330733689
 30
0.0
 10
19.2626318618
 20
5.8511650191
 30
0.0
 10
19.7890513471
 20
5.3587843649
 30
0.0
 10
20.3377539177
 20
4.9741183299
 30
0.0
 10
20.8896750996
 20
4.7116279891
 30
0.0
 10
21.426123819
 20
4.5819304835
 30
0.0
 10
21.8543474253
 20
4.5933753265
 30
0.0
 10
22.1600925071
 20
4.6780439815
 30
0.0
 10
22.2993305602
 20
4.7432514219
 30
0.0
 10
22.3649028737
 20
4.781122378
 30
0.0
  0
SPLINE
  5
47A
100
AcDbEntity
  8
0
100
AcDbSpline
 62
7
  6
CONTINUOUS
 70
0
 71
3
 72
15
 73
11
 74
0
 42
0.0000001
 43
0.0000001
 44
0.0000000001
 40
0.0
 40
0.0
 40
0.0
 40
0.0
 40
0.1168135434
 40
0.2404881398
 40
0.3689977142
 40
0.4999948967
 40
0.6309927583
 40
0.7595043334
 40
0.8831821382
 40
1.0
 40
1.0
 40
1.0
 40
1.0
 10
30.3551015422
 20
-39.6530469106
 30
0.0
 10
30.338549874
 20
-39.4653803419
 30
0.0
 10
30.2780752687
 20
-39.0810687191
 30
0.0
 10
30.1183115263
 20
-38.5066654702
 30
0.0
 10
29.8909854834
 20
-37.9308396689
 30
0.0
 10
29.6024781494
 20
-37.3698864149
 30
0.0
 10
29.2609300114
 20
-36.8395525987
 30
0.0
 10
28.8759081692
 20
-36.3547615606
 30
0.0
 10
28.4583341868
 20
-35.929186964
 30
0.0
 10
28.1557418868
 20
-35.6846469192
 30
0.0
 10
28.001490152
 20
-35.5764724058
 30
0.0
  0
SPLINE
  5
47B
100
AcDbEntity
  8
0
100
AcDbSpline
 62
7
  6
CONTINUOUS
 70
0
 71
3
 72
17
 73
13
 74
0
 42
0.0000001
 43
0.0000001
 44
0.0000000001
 40
0.0
 40
0.0
 40
0.0
 40
0.0
 40
0.1439667126
 40
0.2838551313
 40
0.3862409286
 40
0.4854960013
 40
0.5797455116
 40
0.6683038477
 40
0.7535090309
 40
0.8386338344
 40
0.9205868021
 40
1.0
 40
1.0
 40
1.0
 40
1.0
 10
15.5985445977
 20
-36.3423725691
 30
0.0
 10
15.6122329173
 20
-36.3496696559
 30
0.0
 10
15.6395945979
 20
-36.3633720193
 30
0.0
 10
15.6777452506
 20
-36.3800404545
 30
0.0
 10
15.7120324189
 20
-36.3934148988
 30
0.0
 10
15.7423143371
 20
-36.4034910339
 30
0.0
 10
15.7721239131
 20
-36.4098459358
 30
0.0
 10
15.8010761958
 20
-36.4116297412
 30
0.0
 10
15.8288912098
 20
-36.4092537753
 30
0.0
 10
15.8561297141
 20
-36.4091469408
 30
0.0
 10
15.8823439015
 20
-36.4037801427
 30
0.0
 10
15.8984360616
 20
-36.396798034
 30
0.0
 10
15.9058454871
 20
-36.3925186102
 30
0.0
  0
SPLINE
  5
47C
100
AcDbEntity
  8
0
100
AcDbSpline
 62
7
  6
CONTINUOUS
 70
0
 71
3
 72
11
 73
7
 74
0
 42
0.0000001
 43
0.0000001
 44
0.0000000001
 40
0.0
 40
0.0
 40
0.0
 40
0.0
 40
0.245699093
 40
0.4931510897
 40
0.7440823522
 40
1.0
 40
1.0
 40
1.0
 40
1.0
 10
16.1902548897
 20
-30.4897492489
 30
0.0
 10
15.8448550408
 20
-30.6891797358
 30
0.0
 10
15.1301719413
 20
-31.0535913643
 30
0.0
 10
14.0012539708
 20
-31.488792468
 30
0.0
 10
12.8181658969
 20
-31.8119153668
 30
0.0
 10
12.0056412247
 20
-31.950342803
 30
0.0
 10
11.5933285611
 20
-32.0011231251
 30
0.0
  0
SPLINE
  5
47D
100
AcDbEntity
  8
RACCORDO
100
AcDbSpline
 62
7
  6
CONTINUOUS
 70
0
 71
3
 72
13
 73
9
 74
0
 42
0.0000001
 43
0.0000001
 44
0.0000000001
 40
0.0
 40
0.0
 40
0.0
 40
0.0
 40
0.2894145703
 40
0.5483007577
 40
0.667751382
 40
0.7817752316
 40
0.8919068647
 40
1.0
 40
1.0
 40
1.0
 40
1.0
 10
-22.4859956417
 20
44.4171193596
 30
0.0
 10
-22.7054857332
 20
44.5438501875
 30
0.0
 10
-23.1416467
 20
44.7516218433
 30
0.0
 10
-23.7159858699
 20
44.8899667218
 30
0.0
 10
-24.1482136702
 20
44.9050276013
 30
0.0
 10
-24.4484546701
 20
44.8715464606
 30
0.0
 10
-24.7300838477
 20
44.7936678509
 30
0.0
 10
-24.9041369068
 20
44.7121531445
 30
0.0
 10
-24.9861140206
 20
44.6648205785
 30
0.0
  0
SPLINE
  5
47E
100
AcDbEntity
  8
RACCORDO
100
AcDbSpline
 62
7
  6
CONTINUOUS
 70
0
 71
3
 72
11
 73
7
 74
0
 42
0.0000001
 43
0.0000001
 44
0.0000000001
 40
0.0
 40
0.0
 40
0.0
 40
0.0
 40
0.2968747484
 40
0.5660203091
 40
0.7998314381
 40
1.0
 40
1.0
 40
1.0
 40
1.0
 10
1.2834717404
 20
-4.6128213731
 30
0.0
 10
1.2520160532
 20
-4.531749906
 30
0.0
 10
1.2041635545
 20
-4.3719899282
 30
0.0
 10
1.1800863008
 20
-4.137252341
 30
0.0
 10
1.2077802992
 20
-3.9307846318
 30
0.0
 10
1.2666982412
 20
-3.8137960125
 30
0.0
 10
1.3045433065
 20
-3.7690123014
 30
0.0
  0
SPLINE
  5
47F
100
AcDbEntity
  8
RACCORDO
100
AcDbSpline
 62
7
  6
CONTINUOUS
 70
0
 71
3
 72
11
 73
7
 74
0
 42
0.0000001
 43
0.0000001
 44
0.0000000001
 40
0.0
 40
0.0
 40
0.0
 40
0.0
 40
0.43379771
 40
0.5654257321
 40
0.7046339561
 40
1.0
 40
1.0
 40
1.0
 40
1.0
 10
1.2317284468
 20
0.7706748321
 30
0.0
 10
1.1027154061
 20
0.759159422
 30
0.0
 10
0.9297598656
 20
0.8244220936
 30
0.0
 10
0.7581627757
 20
0.944001807
 30
0.0
 10
0.6294312411
 20
1.0544258519
 30
0.0
 10
0.5432911604
 20
1.1524566776
 30
0.0
 10
0.4904080106
 20
1.2230345259
 30
0.0
  0
SPLINE
  5
480
100
AcDbEntity
  8
RACCORDO
100
AcDbSpline
 62
7
  6
CONTINUOUS
 70
0
 71
3
 72
11
 73
7
 74
0
 42
0.0000001
 43
0.0000001
 44
0.0000000001
 40
0.0
 40
0.0
 40
0.0
 40
0.0
 40
0.2247676885
 40
0.4738464229
 40
0.7365631476
 40
1.0
 40
1.0
 40
1.0
 40
1.0
 10
-1.2213228816
 20
2.7409608093
 30
0.0
 10
-1.2906309421
 20
2.776425275
 30
0.0
 10
-1.4269833698
 20
2.8706502069
 30
0.0
 10
-1.6061501863
 20
3.0539162548
 30
0.0
 10
-1.7605935942
 20
3.2749309982
 30
0.0
 10
-1.8408539669
 20
3.4395752423
 30
0.0
 10
-1.8738609947
 20
3.5246450153
 30
0.0
  0
SPLINE
  5
481
100
AcDbEntity
  8
RACCORDO
100
AcDbSpline
 62
7
  6
CONTINUOUS
 70
0
 71
3
 72
10
 73
6
 74
0
 42
0.0000001
 43
0.0000001
 44
0.0000000001
 40
0.0
 40
0.0
 40
0.0
 40
0.0
 40
0.5269962444
 40
0.7718488324
 40
1.0
 40
1.0
 40
1.0
 40
1.0
 10
0.4904080106
 20
1.2230345259
 30
0.0
 10
0.2477014576
 20
1.546950676
 30
0.0
 10
-0.1523297271
 20
1.991854144
 30
0.0
 10
-0.7541269539
 20
2.4710544583
 30
0.0
 10
-1.0653284803
 20
2.6611395296
 30
0.0
 10
-1.2213228816
 20
2.7409608093
 30
0.0
  0
SPLINE
  5
482
100
AcDbEntity
  8
RACCORDO
100
AcDbSpline
 62
7
  6
CONTINUOUS
 70
0
 71
3
 72
11
 73
7
 74
0
 42
0.0000001
 43
0.0000001
 44
0.0000000001
 40
0.0
 40
0.0
 40
0.0
 40
0.0
 40
0.2929386255
 40
0.5534307629
 40
0.785343988
 40
1.0
 40
1.0
 40
1.0
 40
1.0
 10
1.7632002167
 20
-2.0573621461
 30
0.0
 10
1.7605296084
 20
-2.0016208667
 30
0.0
 10
1.7639635802
 20
-1.8955293147
 30
0.0
 10
1.8004223566
 20
-1.7489920534
 30
0.0
 10
1.8677634738
 20
-1.6299959583
 30
0.0
 10
1.9338063472
 20
-1.5729737608
 30
0.0
 10
1.9692255556
 20
-1.5525370906
 30
0.0
  0
SPLINE
  5
483
100
AcDbEntity
  8
0
100
AcDbSpline
 62
7
  6
CONTINUOUS
 70
0
 71
3
 72
11
 73
7
 74
0
 42
0.0000001
 43
0.0000001
 44
0.0000000001
 40
0.0
 40
0.0
 40
0.0
 40
0.0
 40
0.2723415173
 40
0.5344787109
 40
0.777075207
 40
1.0
 40
1.0
 40
1.0
 40
1.0
 10
15.7757663941
 20
-36.2787906057
 30
0.0
 10
15.792611977
 20
-36.2868282771
 30
0.0
 10
15.8262304947
 20
-36.3014674494
 30
0.0
 10
15.8759961542
 20
-36.3203327295
 30
0.0
 10
15.9252871864
 20
-36.3312515033
 30
0.0
 10
15.9573041774
 20
-36.3283709411
 30
0.0
 10
15.9725749947
 20
-36.3278987846
 30
0.0
  0
LINE
  5
484
100
AcDbEntity
  8
0
100
AcDbLine
 62
7
  6
CONTINUOUS
 10
15.9725749947
 20
-36.3278987846
 11
15.9850646762
 21
-36.3274920346
  0
SPLINE
  5
485
100
AcDbEntity
  8
0
100
AcDbSpline
 62
7
  6
CONTINUOUS
 70
0
 71
3
 72
9
 73
5
 74
0
 42
0.0000001
 43
0.0000001
 44
0.0000000001
 40
0.0
 40
0.0
 40
0.0
 40
0.0
 40
0.2577211897
 40
1.0
 40
1.0
 40
1.0
 40
1.0
 10
16.0575681818
 20
-35.7514359857
 30
0.0
 10
16.058045924
 20
-35.7629207471
 30
0.0
 10
16.0592719896
 20
-35.8075168238
 30
0.0
 10
16.0567502058
 20
-35.8521410067
 30
0.0
 10
16.0539267222
 20
-35.8851269683
 30
0.0
  0
SPLINE
  5
486
100
AcDbEntity
  8
0
100
AcDbSpline
 62
7
  6
CONTINUOUS
 70
0
 71
3
 72
9
 73
5
 74
0
 42
0.0000001
 43
0.0000001
 44
0.0000000001
 40
0.0
 40
0.0
 40
0.0
 40
0.0
 40
0.2660877724
 40
1.0
 40
1.0
 40
1.0
 40
1.0
 10
16.0539267222
 20
-35.8851269683
 30
0.0
 10
16.0526804992
 20
-35.8996862389
 30
0.0
 10
16.0468181306
 20
-35.9542004931
 30
0.0
 10
16.0340512788
 20
-36.0086786261
 30
0.0
 10
16.0174117895
 20
-36.0453870563
 30
0.0
  0
SPLINE
  5
487
100
AcDbEntity
  8
0
100
AcDbSpline
 62
7
  6
CONTINUOUS
 70
0
 71
3
 72
9
 73
5
 74
0
 42
0.0000001
 43
0.0000001
 44
0.0000000001
 40
0.0
 40
0.0
 40
0.0
 40
0.0
 40
0.2660125412
 40
1.0
 40
1.0
 40
1.0
 40
1.0
 10
16.0174117895
 20
-36.0453870563
 30
0.0
 10
16.0133813571
 20
-36.0542786059
 30
0.0
 10
15.9967276832
 20
-36.0867969763
 30
0.0
 10
15.9716587277
 20
-36.1165625026
 30
0.0
 10
15.9483313543
 20
-36.1300314331
 30
0.0
  0
SPLINE
  5
488
100
AcDbEntity
  8
RACCORDO
100
AcDbSpline
 62
7
  6
CONTINUOUS
 70
0
 71
3
 72
11
 73
7
 74
0
 42
0.0000001
 43
0.0000001
 44
0.0000000001
 40
0.0
 40
0.0
 40
0.0
 40
0.0
 40
0.2212600707
 40
0.459771826
 40
0.7189677719
 40
1.0
 40
1.0
 40
1.0
 40
1.0
 10
1.3045433065
 20
-3.7690123014
 30
0.0
 10
1.3817946841
 20
-3.6775973876
 30
0.0
 10
1.5197492863
 20
-3.4678117379
 30
0.0
 10
1.663876328
 20
-3.1043089136
 30
0.0
 10
1.7502050364
 20
-2.690237796
 30
0.0
 10
1.767766953
 20
-2.397527291
 30
0.0
 10
1.767766953
 20
-2.2455102633
 30
0.0
  0
SPLINE
  5
489
100
AcDbEntity
  8
0
100
AcDbSpline
 62
7
  6
CONTINUOUS
 70
0
 71
3
 72
10
 73
6
 74
0
 42
0.0000001
 43
0.0000001
 44
0.0000000001
 40
0.0
 40
0.0
 40
0.0
 40
0.0
 40
0.2356074691
 40
0.4806650841
 40
1.0
 40
1.0
 40
1.0
 40
1.0
 10
17.1910847948
 20
16.0300516614
 30
0.0
 10
17.2152171805
 20
16.0208726157
 30
0.0
 10
17.2641287579
 20
16.0012187319
 30
0.0
 10
17.3625690046
 20
15.952883052
 30
0.0
 10
17.4337605541
 20
15.9081633263
 30
0.0
 10
17.480134272
 20
15.8751724941
 30
0.0
  0
SPLINE
  5
48A
100
AcDbEntity
  8
0
100
AcDbSpline
 62
7
  6
CONTINUOUS
 70
0
 71
3
 72
11
 73
7
 74
0
 42
0.0000001
 43
0.0000001
 44
0.0000000001
 40
0.0
 40
0.0
 40
0.0
 40
0.0
 40
0.2413629477
 40
0.5033335929
 40
0.764823587
 40
1.0
 40
1.0
 40
1.0
 40
1.0
 10
17.480134272
 20
15.8751724941
 30
0.0
 10
17.5091670772
 20
15.8545172901
 30
0.0
 10
17.5643073923
 20
15.8037212978
 30
0.0
 10
17.631033196
 20
15.7115574149
 30
0.0
 10
17.67461035
 20
15.6075077076
 30
0.0
 10
17.6880876557
 20
15.5344142825
 30
0.0
 10
17.6885542279
 20
15.4997000679
 30
0.0
  0
SPLINE
  5
48B
100
AcDbEntity
  8
0
100
AcDbSpline
 62
7
  6
CONTINUOUS
 70
0
 71
3
 72
10
 73
6
 74
0
 42
0.0000001
 43
0.0000001
 44
0.0000000001
 40
0.0
 40
0.0
 40
0.0
 40
0.0
 40
0.2878395569
 40
0.5553667171
 40
1.0
 40
1.0
 40
1.0
 40
1.0
 10
17.6885542279
 20
15.4997000679
 30
0.0
 10
17.6888247471
 20
15.4793006851
 30
0.0
 10
17.6863080079
 20
15.4396519703
 30
0.0
 10
17.6705685747
 20
15.3711171381
 30
0.0
 10
17.6414821691
 20
15.3234823089
 30
0.0
 10
17.6141904849
 20
15.3077244323
 30
0.0
  0
SPLINE
  5
48C
100
AcDbEntity
  8
0
100
AcDbSpline
 62
7
  6
CONTINUOUS
 70
0
 71
3
 72
10
 73
6
 74
0
 42
0.0000001
 43
0.0000001
 44
0.0000000001
 40
0.0
 40
0.0
 40
0.0
 40
0.0
 40
0.4728056713
 40
0.7359117982
 40
1.0
 40
1.0
 40
1.0
 40
1.0
 10
17.4011483576
 20
15.014220439
 30
0.0
 10
17.4437264022
 20
14.9896364097
 30
0.0
 10
17.5013593681
 20
14.9353715938
 30
0.0
 10
17.556376929
 20
14.8470032358
 30
0.0
 10
17.5790937189
 20
14.7968769288
 30
0.0
 10
17.5888229303
 20
14.7711963756
 30
0.0
  0
SPLINE
  5
48D
100
AcDbEntity
  8
0
100
AcDbSpline
 62
7
  6
CONTINUOUS
 70
0
 71
3
 72
9
 73
5
 74
0
 42
0.0000001
 43
0.0000001
 44
0.0000000001
 40
0.0
 40
0.0
 40
0.0
 40
0.0
 40
0.2556072451
 40
1.0
 40
1.0
 40
1.0
 40
1.0
 10
17.5888229303
 20
14.7711963756
 30
0.0
 10
17.5905908263
 20
14.7665299596
 30
0.0
 10
17.59729491
 20
14.748194291
 30
0.0
 10
17.6031609365
 20
14.7295500118
 30
0.0
 10
17.6069968641
 20
14.7155330421
 30
0.0
  0
SPLINE
  5
48E
100
AcDbEntity
  8
0
100
AcDbSpline
 62
7
  6
CONTINUOUS
 70
0
 71
3
 72
9
 73
5
 74
0
 42
0.0000001
 43
0.0000001
 44
0.0000000001
 40
0.0
 40
0.0
 40
0.0
 40
0.0
 40
0.5015506077
 40
1.0
 40
1.0
 40
1.0
 40
1.0
 10
17.6069968641
 20
14.7155330421
 30
0.0
 10
17.6392427516
 20
14.5978076253
 30
0.0
 10
17.6893062548
 20
14.3594378649
 30
0.0
 10
17.742531692
 20
14.1220231307
 30
0.0
 10
17.7683354359
 20
14.0034922996
 30
0.0
  0
SPLINE
  5
48F
100
AcDbEntity
  8
0
100
AcDbSpline
 62
7
  6
CONTINUOUS
 70
0
 71
3
 72
9
 73
5
 74
0
 42
0.0000001
 43
0.0000001
 44
0.0000000001
 40
0.0
 40
0.0
 40
0.0
 40
0.0
 40
0.2738822732
 40
1.0
 40
1.0
 40
1.0
 40
1.0
 10
17.7844268774
 20
14.9589635232
 30
0.0
 10
17.7868027598
 20
14.9579456984
 30
0.0
 10
17.7957053453
 20
14.9547580595
 30
0.0
 10
17.8054332509
 20
14.9540957492
 30
0.0
 10
17.8122425165
 20
14.9548653887
 30
0.0
  0
ENDSEC
  0
SECTION
  2
OBJECTS
  0
DICTIONARY
  5
C
100
AcDbDictionary
280
0
281
1
  3
ACAD_GROUP
350
D
  3
ACAD_MLINESTYLE
350
17
  3
ACAD_LAYOUT
350
1A
  3
ACAD_PLOTSETTINGS
350
19
  3
ACAD_PLOTSTYLENAME
350
E
  0
DICTIONARY
  5
D
102
{ACAD_REACTORS
330
C
102
}
100
AcDbDictionary
280
0
281
1
  0
ACDBDICTIONARYWDFLT
  5
E
102
{ACAD_REACTORS
330
C
102
}
100
AcDbDictionary
281
1
  3
Normal
350
F
100
AcDbDictionaryWithDefault
340
F
  0
DICTIONARY
  5
17
102
{ACAD_REACTORS
330
C
102
}
100
AcDbDictionary
280
0
281
1
  3
Standard
350
18
  0
DICTIONARY
  5
19
102
{ACAD_REACTORS
330
C
102
}
100
AcDbDictionary
281
1
  0
DICTIONARY
  5
1A
102
{ACAD_REACTORS
330
C
102
}
100
AcDbDictionary
281
1
  3
Model
350
490
  3
Layout1
350
491
  0
ACDBPLACEHOLDER
  5
F
102
{ACAD_REACTORS
330
E
102
}
  0
MLINESTYLE
  5
18
102
{ACAD_REACTORS
330
17
102
}
100
AcDbMlineStyle
  2
STANDARD
 70
0
  3

 62
256
 51
90.0
 52
90.0
 71
2
 49
0.5
 62
256
  6
BYLAYER
 49
-0.5
 62
256
  6
BYLAYER
  0
LAYOUT
  5
490
102
{ACAD_REACTORS
330
1A
102
}
100
AcDbPlotSettings
  1

  2
none_device
  4
ISO_A4_(297.00_x_210.00_MM)
  6

 40
0.0
 41
0.0
 42
0.0
 43
0.0
 44
297.0
 45
210.0
 46
0.0
 47
0.0
 48
0.0
 49
0.0
140
0.0
141
0.0
142
1.0
143
1.0
 70
1024
 72
1
 73
0
 74
0
  7

 75
0
147
1.0
148
0.0
149
0.0
100
AcDbLayout
  1
Model
 70
0
 71
0
 10
0.0
 20
0.0
 11
297.0
 21
210.0
 12
0.0
 22
0.0
 32
0.0
 14
0.0
 24
0.0
 34
0.0
 15
0.0
 25
0.0
 35
0.0
146
0.0
 13
0.0
 23
0.0
 33
0.0
 16
1.0
 26
0.0
 36
0.0
 17
0.0
 27
1.0
 37
0.0
 76
0
330
20F
345
0
346
0
  0
LAYOUT
  5
491
102
{ACAD_REACTORS
330
1A
102
}
100
AcDbPlotSettings
  1

  2
none_device
  4
ISO_A4_(297.00_x_210.00_MM)
  6

 40
0.0
 41
0.0
 42
0.0
 43
0.0
 44
297.0
 45
210.0
 46
0.0
 47
0.0
 48
0.0
 49
0.0
140
0.0
141
0.0
142
1.0
143
1.0
 70
0
 72
1
 73
0
 74
0
  7

 75
0
147
1.0
148
0.0
149
0.0
100
AcDbLayout
  1
Layout1
 70
0
 71
1
 10
0.0
 20
0.0
 11
297.0
 21
210.0
 12
0.0
 22
0.0
 32
0.0
 14
0.0
 24
0.0
 34
0.0
 15
0.0
 25
0.0
 35
0.0
146
0.0
 13
0.0
 23
0.0
 33
0.0
 16
1.0
 26
0.0
 36
0.0
 17
0.0
 27
1.0
 37
0.0
 76
0
330
210
345
0
346
0
  0
ENDSEC
  0
EOF
