  0
SECTION
  2
HEADER
  9
$ACADVER
  1
AC1021
  9
$DWGCODEPAGE
  3
ANSI_1252
  9
$EXTMAX
 10
297.0
 20
210.0
 30
0.0
  9
$EXTMIN
 10
0.0
 20
0.0
 30
0.0
  9
$LIMMIN
 10
0.0
 20
0.0
  9
$LIMMAX
 10
297.0
 20
210.0
  9
$VIEWCTR
 10
148.5
 20
105.0
  9
$VIEWSIZE
 40
210.0
  9
$CLAYER
  8
0
  9
$LTSCALE
 40
16.335
  9
$CELTYPE
  6
BYLAYER
  9
$DIMSCALE
 40
1.0
  9
$DIMASZ
 40
3.0
  9
$DIMEXO
 40
0.5
  9
$DIMDLI
 40
11.286
  9
$DIMEXE
 40
1.5
  9
$DIMCEN
 40
2.673
  9
$DIMLFAC
 40
1.0
  9
$DIMBLK
  1
_FILLED
  9
$DIMALT
 70
0
  9
$DIMALTF
 40
25.4
  9
$DIMTXT
 40
3.0
  9
$DIMTOL
 70
1
  9
$DIMLIM
 70
0
  9
$DIMTFAC
 40
1.0
  9
$DIMTP
 40
0.01
  9
$DIMTM
 40
0.01
  9
$DIMGAP
 40
0.625
  9
$DIMDSEP
 70
44
  9
$AUNITS
 70
0
  9
$PDMODE
 70
3
  9
$PDSIZE
 40
3.0
  9
$HANDSEED
  5
33D
  9
$TILEMODE
 70
1
  9
$MEASUREMENT
 70
1
  9
$INSUNITS
 70
4
  0
ENDSEC
  0
SECTION
  2
CLASSES
  0
CLASS
  1
ACDBDICTIONARYWDFLT
  2
AcDbDictionaryWithDefault
  3
AutoCAD 2000
 90
0
 91
1
280
0
281
0
  0
CLASS
  1
ACDBPLACEHOLDER
  2
AcDbPlaceHolder
  3
AutoCAD 2000
 90
0
 91
1
280
0
281
0
  0
CLASS
  1
LAYOUT
  2
AcDbLayout
  3
AutoCAD 2000
 90
0
 91
0
280
0
281
0
  0
ENDSEC
  0
SECTION
  2
TABLES
  0
TABLE
  2
VPORT
  5
8
100
AcDbSymbolTable
 70
2
  0
VPORT
  5
1F4
100
AcDbSymbolTableRecord
100
AcDbViewportTableRecord
  2
*ACTIVE
 70
0
 10
0.0
 20
0.0
 11
1.0
 21
1.0
 12
148.5
 22
105.0
 13
0.0
 23
0.0
 14
1.0
 24
1.0
 15
0.0
 25
0.0
 16
0.0
 26
0.0
 36
1.0
 17
0.0
 27
0.0
 37
0.0
 40
210.0
 41
1.4142857143
 42
50.0
 43
0.0
 44
0.0
 50
0.0
 51
0.0
 71
0
 72
100
 73
1
 74
1
 75
0
 76
0
 77
0
 78
0
  0
ENDTAB
  0
TABLE
  2
LTYPE
  5
5
100
AcDbSymbolTable
 70
6
  0
LTYPE
  5
14
100
AcDbSymbolTableRecord
100
AcDbLinetypeTableRecord
  2
BYBLOCK
 70
0
  3

 72
65
 73
0
 40
0.0
  0
LTYPE
  5
15
100
AcDbSymbolTableRecord
100
AcDbLinetypeTableRecord
  2
BYLAYER
 70
0
  3

 72
65
 73
0
 40
0.0
  0
LTYPE
  5
16
100
AcDbSymbolTableRecord
100
AcDbLinetypeTableRecord
  2
CONTINUOUS
 70
64
  3
Solid line
 72
65
 73
0
 40
0.0
  0
LTYPE
  5
1F5
100
AcDbSymbolTableRecord
100
AcDbLinetypeTableRecord
  2
CENTER
 70
64
  3
____ _ ____ _ ____ _ ____ _ ____ _ ____ _ ____
 72
65
 73
4
 40
0.6
 49
0.375
 74
0
 49
-0.075
 74
0
 49
0.075
 74
0
 49
-0.075
 74
0
  0
LTYPE
  5
1F6
100
AcDbSymbolTableRecord
100
AcDbLinetypeTableRecord
  2
HIDDEN
 70
64
  3
- - - - - - - - - - - - - - - - - - - -
 72
65
 73
2
 40
0.2
 49
0.1
 74
0
 49
-0.1
 74
0
  0
LTYPE
  5
1F7
100
AcDbSymbolTableRecord
100
AcDbLinetypeTableRecord
  2
PHANTOM
 70
64
  3
_____ _ _ _____ _ _ _____ _ _ _____
 72
65
 73
6
 40
0.8
 49
0.45
 74
0
 49
-0.05
 74
0
 49
0.1
 74
0
 49
-0.05
 74
0
 49
0.1
 74
0
 49
-0.05
 74
0
  0
LTYPE
  5
1F8
100
AcDbSymbolTableRecord
100
AcDbLinetypeTableRecord
  2
DOT
 70
64
  3
. . . . . . . . . . . . . . . . . . . .
 72
65
 73
2
 40
0.2
 49
0.1
 74
0
 49
-0.1
 74
0
  0
LTYPE
  5
1F9
100
AcDbSymbolTableRecord
100
AcDbLinetypeTableRecord
  2
DASHED
 70
64
  3
- - - - - - - - - - - - - - - - - - - -
 72
65
 73
2
 40
0.2
 49
0.1
 74
0
 49
-0.1
 74
0
  0
ENDTAB
  0
TABLE
  2
LAYER
  5
2
100
AcDbSymbolTable
 70
36
  0
LAYER
  5
10
100
AcDbSymbolTableRecord
100
AcDbLayerTableRecord
  2
0
 70
0
 62
7
  6
CONTINUOUS
370
-3
390
F
  0
LAYER
  5
1FA
100
AcDbSymbolTableRecord
100
AcDbLayerTableRecord
  2
DEFAULT_1
 70
0
 62
7
  6
CENTER
370
-3
390
F
  0
LAYER
  5
1FB
100
AcDbSymbolTableRecord
100
AcDbLayerTableRecord
  2
DEFAULT_2
 70
0
 62
7
  6
HIDDEN
370
-3
390
F
  0
LAYER
  5
1FC
100
AcDbSymbolTableRecord
100
AcDbLayerTableRecord
  2
DEFAULT_3
 70
0
 62
7
  6
PHANTOM
370
-3
390
F
  0
LAYER
  5
1FD
100
AcDbSymbolTableRecord
100
AcDbLayerTableRecord
  2
ASSI
 70
0
 62
7
  6
CONTINUOUS
370
-3
390
F
  0
LAYER
  5
1FE
100
AcDbSymbolTableRecord
100
AcDbLayerTableRecord
  2
COORDINATE
 70
0
 62
7
  6
CONTINUOUS
370
-3
390
F
  0
LAYER
  5
1FF
100
AcDbSymbolTableRecord
100
AcDbLayerTableRecord
  2
COORD_ORIGINE
 70
0
 62
7
  6
CONTINUOUS
370
-3
390
F
  0
LAYER
  5
200
100
AcDbSymbolTableRecord
100
AcDbLayerTableRecord
  2
COPY_PUBLISH
 70
0
 62
7
  6
CONTINUOUS
370
-3
390
F
  0
LAYER
  5
201
100
AcDbSymbolTableRecord
100
AcDbLayerTableRecord
  2
COSMETICHE
 70
0
 62
7
  6
CONTINUOUS
370
-3
390
F
  0
LAYER
  5
202
100
AcDbSymbolTableRecord
100
AcDbLayerTableRecord
  2
COSMETICI
 70
0
 62
7
  6
CONTINUOUS
370
-3
390
F
  0
LAYER
  5
203
100
AcDbSymbolTableRecord
100
AcDbLayerTableRecord
  2
CURVE
 70
0
 62
7
  6
CONTINUOUS
370
-3
390
F
  0
LAYER
  5
204
100
AcDbSymbolTableRecord
100
AcDbLayerTableRecord
  2
DRAFT
 70
0
 62
7
  6
CONTINUOUS
370
-3
390
F
  0
LAYER
  5
205
100
AcDbSymbolTableRecord
100
AcDbLayerTableRecord
  2
IMPORT_IGES
 70
0
 62
7
  6
CONTINUOUS
370
-3
390
F
  0
LAYER
  5
206
100
AcDbSymbolTableRecord
100
AcDbLayerTableRecord
  2
NONE
 70
0
 62
7
  6
CONTINUOUS
370
-3
390
F
  0
LAYER
  5
207
100
AcDbSymbolTableRecord
100
AcDbLayerTableRecord
  2
NOTE
 70
0
 62
7
  6
CONTINUOUS
370
-3
390
F
  0
LAYER
  5
208
100
AcDbSymbolTableRecord
100
AcDbLayerTableRecord
  2
PIANI
 70
0
 62
7
  6
CONTINUOUS
370
-3
390
F
  0
LAYER
  5
209
100
AcDbSymbolTableRecord
100
AcDbLayerTableRecord
  2
PIANI_ORIGINE
 70
0
 62
7
  6
CONTINUOUS
370
-3
390
F
  0
LAYER
  5
20A
100
AcDbSymbolTableRecord
100
AcDbLayerTableRecord
  2
PUNTI
 70
0
 62
7
  6
CONTINUOUS
370
-3
390
F
  0
LAYER
  5
20B
100
AcDbSymbolTableRecord
100
AcDbLayerTableRecord
  2
RACCORDO
 70
0
 62
7
  6
CONTINUOUS
370
-3
390
F
  0
LAYER
  5
20C
100
AcDbSymbolTableRecord
100
AcDbLayerTableRecord
  2
SIMBOLI
 70
0
 62
7
  6
CONTINUOUS
370
-3
390
F
  0
LAYER
  5
20D
100
AcDbSymbolTableRecord
100
AcDbLayerTableRecord
  2
SMUSSO
 70
0
 62
7
  6
CONTINUOUS
370
-3
390
F
  0
LAYER
  5
20E
100
AcDbSymbolTableRecord
100
AcDbLayerTableRecord
  2
SNAPLINE
 70
0
 62
7
  6
CONTINUOUS
370
-3
390
F
  0
LAYER
  5
20F
100
AcDbSymbolTableRecord
100
AcDbLayerTableRecord
  2
SUPERFICI
 70
0
 62
7
  6
CONTINUOUS
370
-3
390
F
  0
LAYER
  5
210
100
AcDbSymbolTableRecord
100
AcDbLayerTableRecord
  2
TRASH
 70
0
 62
7
  6
CONTINUOUS
370
-3
390
F
  0
ENDTAB
  0
TABLE
  2
STYLE
  5
3
100
AcDbSymbolTable
 70
1
  0
STYLE
  5
11
100
AcDbSymbolTableRecord
100
AcDbTextStyleTableRecord
  2
STANDARD
 70
0
 40
0.0
 41
0.8
 50
0.0
 71
0
 42
0.2
  3
txt
  4

  0
STYLE
  5
211
100
AcDbSymbolTableRecord
100
AcDbTextStyleTableRecord
  2
TEXTSTYLE_1
 70
0
 40
0.0
 41
0.8
 50
0.0
 71
0
 42
0.2
  3
gdt
  4

  0
ENDTAB
  0
TABLE
  2
VIEW
  5
6
100
AcDbSymbolTable
 70
0
  0
ENDTAB
  0
TABLE
  2
UCS
  5
7
100
AcDbSymbolTable
 70
0
  0
ENDTAB
  0
TABLE
  2
APPID
  5
9
100
AcDbSymbolTable
 70
1
  0
APPID
  5
212
100
AcDbSymbolTableRecord
100
AcDbRegAppTableRecord
  2
ACAD
 70
0
  0
ENDTAB
  0
TABLE
  2
BLOCK_RECORD
  5
1
100
AcDbSymbolTable
 70
0
  0
BLOCK_RECORD
  5
213
100
AcDbSymbolTableRecord
100
AcDbBlockTableRecord
  2
*Model_Space
  0
BLOCK_RECORD
  5
214
100
AcDbSymbolTableRecord
100
AcDbBlockTableRecord
  2
*Paper_Space
  0
ENDTAB
  0
TABLE
  2
DIMSTYLE
  5
A
100
AcDbSymbolTable
 70
1
100
AcDbDimStyleTable
 71
0
  0
DIMSTYLE
105
215
100
AcDbSymbolTableRecord
100
AcDbDimStyleTableRecord
  2
STANDARD
 70
0
  3

  4

 40
1.0
 41
3.0
 42
0.5
 43
0.38
 44
1.5
 45
0.0
 46
0.0
 47
0.01
 48
0.01
140
3.0
141
0.09
142
0.0
143
25.4
144
1.0
145
0.0
146
1.0
147
0.625
 71
1.0
 72
0.0
 73
0
 74
0
 75
0
 76
0
 77
1
 78
8
170
0
171
1
172
0
173
0
174
0
175
0
176
0
177
0
178
0
270
2
271
2
272
2
273
2
274
2
275
0
280
0
281
0
282
0
283
1
284
8
285
0
286
0
287
3
288
0
340
11
278
44
  0
ENDTAB
  0
ENDSEC
  0
SECTION
  2
BLOCKS
  0
BLOCK
  5
20
100
AcDbEntity
  8
0
100
AcDbBlockBegin
  2
*Model_Space
 70
0
 10
0.0
 20
0.0
 30
0.0
  3
*Model_Space
  1

  0
ENDBLK
  5
21
100
AcDbEntity
  8
0
100
AcDbBlockEnd
  0
BLOCK
  5
1C
100
AcDbEntity
  8
0
100
AcDbBlockBegin
  2
*Paper_Space
 70
0
 10
0.0
 20
0.0
 30
0.0
  3
*Paper_Space
  1

  0
ENDBLK
  5
1D
100
AcDbEntity
  8
0
100
AcDbBlockEnd
  0
ENDSEC
  0
SECTION
  2
ENTITIES
  0
LWPOLYLINE
  5
216
100
AcDbEntity
  8
RACCORDO
100
AcDbPolyline
 62
7
  6
CONTINUOUS
 90
19
 70
0
 10
-60.9772457285
 20
23.2792462544
 10
-60.97198777
 20
23.1408159009
 10
-60.9562735308
 20
23.0023855474
 10
-60.9301924661
 20
22.8647432231
 10
-60.8936854493
 20
22.7278934222
 10
-60.8468116069
 20
22.5918316505
 10
-60.7898377731
 20
22.4573324535
 10
-60.7227063433
 20
22.3244047434
 10
-60.6454749221
 20
22.193039608
 10
-60.5585831574
 20
22.063984857
 10
-60.4619759519
 20
21.9372536675
 10
-60.3557084029
 20
21.8128328624
 10
-60.2403854494
 20
21.69143072
 10
-60.1159554444
 20
21.5730644569
 10
-59.9824700348
 20
21.4577168565
 10
-59.8406891001
 20
21.3460445469
 10
-59.6908659335
 20
21.2382664042
 10
-59.5327472419
 20
21.1341635522
 10
-59.3663330251
 20
21.0337359911
  0
LINE
  5
217
100
AcDbEntity
  8
RACCORDO
100
AcDbLine
 62
7
  6
CONTINUOUS
 10
-60.9772457285
 20
23.2792462544
 11
-60.9772457285
 21
22.1361878669
  0
LINE
  5
218
100
AcDbEntity
  8
0
100
AcDbLine
 62
7
  6
CONTINUOUS
 10
-60.4772457285
 20
20.8142264666
 11
-60.4772457285
 21
-22.7696773567
  0
LINE
  5
219
100
AcDbEntity
  8
RACCORDO
100
AcDbLine
 62
253
  6
CONTINUOUS
 10
-59.3663330251
 20
21.0337359911
 11
-59.3663330251
 21
19.8906776036
  0
LINE
  5
21A
100
AcDbEntity
  8
0
100
AcDbLine
 62
253
  6
CONTINUOUS
 10
-59.0127796345
 20
-24.8110503234
 11
-59.0127796345
 21
19.6865403069
  0
LWPOLYLINE
  5
21B
100
AcDbEntity
  8
RACCORDO
100
AcDbPolyline
 62
7
  6
CONTINUOUS
 90
19
 70
0
 10
-59.3663330251
 20
25.5247565177
 10
-59.5327472419
 20
25.4243289565
 10
-59.6908659335
 20
25.3202261046
 10
-59.8406891001
 20
25.2124479618
 10
-59.9824700348
 20
25.1007756522
 10
-60.1159554444
 20
24.9854280518
 10
-60.2403854494
 20
24.8670617888
 10
-60.3557084029
 20
24.7456596463
 10
-60.4619759519
 20
24.6212388412
 10
-60.5585831574
 20
24.4945076517
 10
-60.6454749221
 20
24.3654529007
 10
-60.7227063433
 20
24.2340877653
 10
-60.7898377731
 20
24.1011600552
 10
-60.8468116069
 20
23.9666608582
 10
-60.8936854493
 20
23.8305990865
 10
-60.9301924661
 20
23.6937492857
 10
-60.9562735308
 20
23.5561069613
 10
-60.97198777
 20
23.4176766078
 10
-60.9772457285
 20
23.2792462544
  0
LINE
  5
21C
100
AcDbEntity
  8
RACCORDO
100
AcDbLine
 62
7
  6
CONTINUOUS
 10
4.2732772817
 20
62.2694699172
 11
-59.3663330251
 21
25.5247565177
  0
LINE
  5
21D
100
AcDbEntity
  8
0
100
AcDbLine
 62
7
  6
CONTINUOUS
 10
5.6622437775
 20
-63.8444480286
 11
-57.9773665256
 21
-27.0997346312
  0
LINE
  5
21E
100
AcDbEntity
  8
0
100
AcDbLine
 62
253
  6
CONTINUOUS
 10
-57.9773665256
 20
-27.0997346312
 11
-57.9775152892
 21
-27.0996487267
  0
LWPOLYLINE
  5
21F
100
AcDbEntity
  8
0
100
AcDbPolyline
 62
253
  6
CONTINUOUS
 90
12
 70
0
 10
-57.9775152892
 20
-27.0996487267
 10
-58.0706964162
 20
-27.0416642679
 10
-58.2426335185
 20
-26.9099492988
 10
-58.399175737
 20
-26.7551885912
 10
-58.5394519075
 20
-26.5782443815
 10
-58.6627231392
 20
-26.3800266918
 10
-58.7682847981
 20
-26.1616167592
 10
-58.8555287638
 20
-25.9242122672
 10
-58.9239691998
 20
-25.6690264476
 10
-58.9731883379
 20
-25.3974168866
 10
-59.0028609837
 20
-25.1108994576
 10
-59.0127796308
 20
-24.8110503255
  0
LWPOLYLINE
  5
220
100
AcDbEntity
  8
0
100
AcDbPolyline
 62
253
  6
CONTINUOUS
 90
12
 70
0
 10
-59.0127796345
 20
-24.8110503234
 10
-59.2681495418
 20
-24.6520887493
 10
-59.5002546507
 20
-24.483983356
 10
-59.708360676
 20
-24.3079210431
 10
-59.8913335526
 20
-24.1257180959
 10
-60.0495303208
 20
-23.937972581
 10
-60.1839897912
 20
-23.7438312015
 10
-60.2941222029
 20
-23.5438290828
 10
-60.3789027435
 20
-23.3394387065
 10
-60.4379238629
 20
-23.131028026
 10
-60.4704868445
 20
-22.9197349693
 10
-60.4772457285
 20
-22.7696773567
  0
LWPOLYLINE
  5
221
100
AcDbEntity
  8
0
100
AcDbPolyline
 62
7
  6
CONTINUOUS
 90
15
 70
0
 10
-57.9775152928
 20
-27.0996487246
 10
-58.3104836572
 20
-26.8894786237
 10
-58.6084842075
 20
-26.6677981332
 10
-58.8875401205
 20
-26.4261636356
 10
-59.1473896765
 20
-26.1652690957
 10
-59.3876463143
 20
-25.885566838
 10
-59.606755844
 20
-25.5887456405
 10
-59.8034745129
 20
-25.2764171427
 10
-59.9773115373
 20
-24.9489909452
 10
-60.1268792104
 20
-24.6084019967
 10
-60.2509866306
 20
-24.2567542254
 10
-60.3490097115
 20
-23.894806547
 10
-60.4199563105
 20
-23.524401828
 10
-60.462873919
 20
-23.1485001124
 10
-60.4772457285
 20
-22.7696773567
  0
LWPOLYLINE
  5
222
100
AcDbEntity
  8
0
100
AcDbPolyline
 62
7
  6
CONTINUOUS
 90
4
 70
0
 10
-22.5544918376
 20
42.0757237507
 10
-22.5141328537
 20
42.1293280146
 10
-22.4949828177
 20
42.1544563904
 10
-22.4765279864
 20
42.1784347154
  0
LINE
  5
223
100
AcDbEntity
  8
0
100
AcDbLine
 62
7
  6
CONTINUOUS
 10
-22.4765279864
 20
42.1784347154
 11
-22.4416505342
 21
42.2231464927
  0
LINE
  5
224
100
AcDbEntity
  8
0
100
AcDbLine
 62
7
  6
CONTINUOUS
 10
-22.4416505342
 20
42.2231464927
 11
-22.409500309
 21
42.2637051487
  0
LINE
  5
225
100
AcDbEntity
  8
0
100
AcDbLine
 62
7
  6
CONTINUOUS
 10
-22.409500309
 20
42.2637051487
 11
-22.3795296483
 21
42.300952985
  0
LINE
  5
226
100
AcDbEntity
  8
0
100
AcDbLine
 62
7
  6
CONTINUOUS
 10
-22.3795296483
 20
42.300952985
 11
-22.3513558716
 21
42.3354485844
  0
LINE
  5
227
100
AcDbEntity
  8
0
100
AcDbLine
 62
7
  6
CONTINUOUS
 10
-22.3513558716
 20
42.3354485844
 11
-22.3242831285
 21
42.3681498038
  0
LINE
  5
228
100
AcDbEntity
  8
0
100
AcDbLine
 62
7
  6
CONTINUOUS
 10
-22.3242831285
 20
42.3681498038
 11
-22.2976088386
 21
42.3999303188
  0
LINE
  5
229
100
AcDbEntity
  8
0
100
AcDbLine
 62
7
  6
CONTINUOUS
 10
-22.2976088386
 20
42.3999303188
 11
-22.2711202316
 21
42.4310594562
  0
LWPOLYLINE
  5
22A
100
AcDbEntity
  8
0
100
AcDbPolyline
 62
7
  6
CONTINUOUS
 90
11
 70
0
 10
-23.1456819788
 20
41.5562746004
 10
-23.109662248
 20
41.5909519543
 10
-23.0742395349
 20
41.6246969044
 10
-23.0394138395
 20
41.6575094508
 10
-23.0051149874
 20
41.6894298089
 10
-22.971413153
 20
41.7204177632
 10
-22.9385188592
 20
41.7503526676
 10
-22.906416853
 20
41.7792421964
 10
-22.8751223875
 20
41.8070786754
 10
-22.8448917449
 20
41.8337184358
 10
-22.8158095448
 20
41.8590863719
  0
LWPOLYLINE
  5
22B
100
AcDbEntity
  8
0
100
AcDbPolyline
 62
7
  6
CONTINUOUS
 90
11
 70
0
 10
-22.6507072319
 20
41.2704823851
 10
-22.6146875012
 20
41.305159739
 10
-22.5792647881
 20
41.3389046891
 10
-22.5444390926
 20
41.3717172355
 10
-22.5101402405
 20
41.4036375935
 10
-22.4764384061
 20
41.4346255478
 10
-22.4435441124
 20
41.4645604523
 10
-22.4114421062
 20
41.4934499811
 10
-22.3801476407
 20
41.52128646
 10
-22.3499169981
 20
41.5479262205
 10
-22.320834798
 20
41.5732941566
  0
LINE
  5
22C
100
AcDbEntity
  8
0
100
AcDbLine
 62
7
  6
CONTINUOUS
 10
-20.7746316246
 20
42.4564280813
 11
-20.8011202316
 21
42.4310594562
  0
LWPOLYLINE
  5
22D
100
AcDbEntity
  8
0
100
AcDbPolyline
 62
7
  6
CONTINUOUS
 90
3
 70
0
 10
-20.7345594241
 20
42.4939945823
 10
-20.7479573347
 20
42.4815413733
 10
-20.7746316246
 20
42.4564280813
  0
LWPOLYLINE
  5
22E
100
AcDbEntity
  8
0
100
AcDbPolyline
 62
253
  6
CONTINUOUS
 90
55
 70
0
 10
-23.9157288692
 20
42.819549412
 10
-23.9991014023
 20
42.747144898
 10
-24.0758720035
 20
42.6723459842
 10
-24.1458348915
 20
42.5953531662
 10
-24.2088025351
 20
42.5163728171
 10
-24.264606148
 20
42.435616644
 10
-24.3130961442
 20
42.3533011214
 10
-24.3541425465
 20
42.2696469021
 10
-24.3876353389
 20
42.1848782105
 10
-24.4134847511
 20
42.0992222518
 10
-24.4316214945
 20
42.012908615
 10
-24.4419969499
 20
41.9261686691
 10
-24.4445833047
 20
41.8392349283
 10
-24.4393736283
 20
41.7523404216
 10
-24.4263818869
 20
41.6657180604
 10
-24.4056429034
 20
41.5796000246
 10
-24.3772122676
 20
41.4942171523
 10
-24.3411661858
 20
41.4097983076
 10
-24.2976012705
 20
41.3265697603
 10
-24.2466342793
 20
41.2447545836
 10
-24.1884018328
 20
41.1645721007
 10
-24.1230600549
 20
41.0862372813
 10
-24.050784126
 20
41.0099601232
 10
-23.9717677651
 20
40.9359450547
 10
-23.886222736
 20
40.8643904328
 10
-23.7943783218
 20
40.7954880478
 10
-23.6964807184
 20
40.7294226019
 10
-23.5927923306
 20
40.6663711803
 10
-23.4835910683
 20
40.6065027808
 10
-23.3691696577
 20
40.5499778921
 10
-23.249834861
 20
40.4969480549
 10
-23.1259066108
 20
40.4475554309
 10
-22.9977170457
 20
40.4019323874
 10
-22.8656096698
 20
40.3602011793
 10
-22.72993852
 20
40.3224736534
 10
-22.591067317
 20
40.288850964
 10
-22.4493683923
 20
40.2594232594
 10
-22.3052216083
 20
40.2342694235
 10
-22.1590133068
 20
40.2134568684
 10
-22.0111353676
 20
40.1970413759
 10
-21.8619841757
 20
40.185066947
 10
-21.7119595221
 20
40.1775656779
 10
-21.5614635037
 20
40.1745576748
 10
-21.4108994755
 20
40.1760510047
 10
-21.2606710637
 20
40.1820416694
 10
-21.1111810442
 20
40.1925136061
 10
-20.9628301816
 20
40.2074387326
 10
-20.8160160594
 20
40.2267770409
 10
-20.6711321119
 20
40.2504767068
 10
-20.5285666565
 20
40.278474216
 10
-20.3887018779
 20
40.3106945193
 10
-20.2519127082
 20
40.3470512467
 10
-20.1185658151
 20
40.3874469429
 10
-19.9890186216
 20
40.4317733314
 10
-19.8636183752
 20
40.4799115976
  0
LWPOLYLINE
  5
22F
100
AcDbEntity
  8
0
100
AcDbPolyline
 62
7
  6
CONTINUOUS
 90
3
 70
0
 10
-22.8158095448
 20
41.8590863719
 10
-22.7608390367
 20
41.9063137374
 10
-22.7350601013
 20
41.9281719359
  0
LWPOLYLINE
  5
230
100
AcDbEntity
  8
0
100
AcDbPolyline
 62
7
  6
CONTINUOUS
 90
3
 70
0
 10
-22.320834798
 20
41.5732941566
 10
-22.2658642899
 20
41.620521522
 10
-22.2400853545
 20
41.6423797206
  0
LWPOLYLINE
  5
231
100
AcDbEntity
  8
0
100
AcDbPolyline
 62
7
  6
CONTINUOUS
 90
13
 70
0
 10
-23.9573008312
 20
42.8040375153
 10
-23.9992410723
 20
42.7689513253
 10
-24.083350683
 20
42.6926841694
 10
-24.1609277803
 20
42.6138848601
 10
-24.2319203889
 20
42.532595003
 10
-24.2960663944
 20
42.4490950079
 10
-24.352987286
 20
42.3639470216
 10
-24.4025871873
 20
42.2774718389
 10
-24.4449110146
 20
42.1897883641
 10
-24.4799108247
 20
42.1012159651
 10
-24.5075938833
 20
42.0120394515
 10
-24.5280086974
 20
41.922489818
 10
-24.5412120885
 20
41.8328318311
  0
LWPOLYLINE
  5
232
100
AcDbEntity
  8
0
100
AcDbPolyline
 62
7
  6
CONTINUOUS
 90
3
 70
0
 10
-22.7350601013
 20
41.9281719359
 10
-22.6863825452
 20
41.9688734106
 10
-22.6631767268
 20
41.9880489165
  0
LWPOLYLINE
  5
233
100
AcDbEntity
  8
0
100
AcDbPolyline
 62
7
  6
CONTINUOUS
 90
3
 70
0
 10
-22.2400853545
 20
41.6423797206
 10
-22.1914077984
 20
41.6830811953
 10
-22.1682019799
 20
41.7022567012
  0
LINE
  5
234
100
AcDbEntity
  8
0
100
AcDbLine
 62
7
  6
CONTINUOUS
 10
-22.6631767268
 20
41.9880489165
 11
-22.6186564539
 21
42.0243700388
  0
LINE
  5
235
100
AcDbEntity
  8
0
100
AcDbLine
 62
7
  6
CONTINUOUS
 10
-22.1682019799
 20
41.7022567012
 11
-22.123681707
 21
41.7385778234
  0
LWPOLYLINE
  5
236
100
AcDbEntity
  8
0
100
AcDbPolyline
 62
7
  6
CONTINUOUS
 90
3
 70
0
 10
-22.6186564539
 20
42.0243700388
 10
-22.5754843235
 20
42.0590661707
 10
-22.5544918376
 20
42.0757237507
  0
LWPOLYLINE
  5
237
100
AcDbEntity
  8
0
100
AcDbPolyline
 62
7
  6
CONTINUOUS
 90
3
 70
0
 10
-22.123681707
 20
41.7385778234
 10
-22.0805095767
 20
41.7732739554
 10
-22.0595170907
 20
41.7899315354
  0
LWPOLYLINE
  5
238
100
AcDbEntity
  8
0
100
AcDbPolyline
 62
7
  6
CONTINUOUS
 90
13
 70
0
 10
-20.5177486256
 20
42.6801293242
 10
-20.5382712696
 20
42.6637164628
 10
-20.5581076095
 20
42.6476515873
 10
-20.5772576454
 20
42.6319346977
 10
-20.5957124767
 20
42.6165505649
 10
-20.613481004
 20
42.6015144179
 10
-20.630589929
 20
42.5868719443
 10
-20.6469948427
 20
42.5726676989
 10
-20.6627401542
 20
42.5588571269
 10
-20.6779857919
 20
42.5453522512
 10
-20.6927108149
 20
42.5321803003
 10
-20.7069361642
 20
42.5193140457
 10
-20.7345594241
 20
42.4939945823
  0
LWPOLYLINE
  5
239
100
AcDbEntity
  8
0
100
AcDbPolyline
 62
7
  6
CONTINUOUS
 90
7
 70
0
 10
-23.7709000602
 20
42.8229830544
 10
-23.7099297789
 20
42.8608799958
 10
-23.63071957
 20
42.9066149777
 10
-23.5488407013
 20
42.9505307553
 10
-23.4644538702
 20
42.992534544
 10
-23.3773983794
 20
43.0327191284
 10
-23.2876742288
 20
43.0710845085
  0
LINE
  5
23A
100
AcDbEntity
  8
0
100
AcDbLine
 62
7
  6
CONTINUOUS
 10
-20.1633301215
 20
41.1446450002
 11
-20.358962496
 21
41.031689319
  0
LWPOLYLINE
  5
23B
100
AcDbEntity
  8
0
100
AcDbPolyline
 62
7
  6
CONTINUOUS
 90
8
 70
0
 10
-21.8225901171
 20
41.8941787189
 10
-21.8528542319
 20
41.8814220506
 10
-21.8843553219
 20
41.8679729934
 10
-21.9170107637
 20
41.8538609236
 10
-21.9508515611
 20
41.8390084791
 10
-21.9858880487
 20
41.8233898726
 10
-22.0221098919
 20
41.8070308913
 10
-22.0595170907
 20
41.7899315354
  0
LWPOLYLINE
  5
23C
100
AcDbEntity
  8
0
100
AcDbPolyline
 62
7
  6
CONTINUOUS
 90
3
 70
0
 10
-21.7379214849
 20
41.9289611588
 10
-21.7652460691
 20
41.9178685091
 10
-21.8225901171
 20
41.8941787189
  0
LINE
  5
23D
100
AcDbEntity
  8
0
100
AcDbLine
 62
7
  6
CONTINUOUS
 10
-21.6855172075
 20
41.9498372773
 11
-21.7379214849
 21
41.9289611588
  0
LINE
  5
23E
100
AcDbEntity
  8
0
100
AcDbLine
 62
7
  6
CONTINUOUS
 10
-23.1202858925
 20
43.2662689782
 11
-23.232978258
 21
43.2225296331
  0
LINE
  5
23F
100
AcDbEntity
  8
0
100
AcDbLine
 62
7
  6
CONTINUOUS
 10
-21.6350769393
 20
41.9694763855
 11
-21.6855172075
 21
41.9498372773
  0
LINE
  5
240
100
AcDbEntity
  8
0
100
AcDbLine
 62
7
  6
CONTINUOUS
 10
-21.5853992623
 20
41.9883724936
 11
-21.6350769393
 21
41.9694763855
  0
LINE
  5
241
100
AcDbEntity
  8
0
100
AcDbLine
 62
7
  6
CONTINUOUS
 10
-21.5361202316
 20
42.0066796679
 11
-21.5853992623
 21
41.9883724936
  0
LWPOLYLINE
  5
242
100
AcDbEntity
  8
0
100
AcDbPolyline
 62
7
  6
CONTINUOUS
 90
22
 70
0
 10
-21.0127233724
 20
42.9659215395
 10
-20.9911959194
 20
42.9736967113
 10
-20.9692872788
 20
42.9814568959
 10
-20.9469974508
 20
42.9892020933
 10
-20.9244346688
 20
42.9969077437
 10
-20.9014906993
 20
43.0045984069
 10
-20.8778408422
 20
43.0123477623
 10
-20.8534740986
 20
43.0201698595
 10
-20.8284014673
 20
43.0280506489
 10
-20.8023312449
 20
43.0360216617
 10
-20.7751517472
 20
43.0441234013
 10
-20.7469746584
 20
43.0523153643
 10
-20.7178433276
 20
43.0605075711
 10
-20.6876857726
 20
43.0687176642
 10
-20.6565739757
 20
43.0769280011
 10
-20.624767233
 20
43.0849956739
 10
-20.5922896904
 20
43.0929084542
 10
-20.5591172019
 20
43.1006785703
 10
-20.5254366259
 20
43.1081997997
 10
-20.4913102485
 20
43.115436735
 10
-20.4566757837
 20
43.1224247837
 10
-20.4215332312
 20
43.1291639457
  0
LWPOLYLINE
  5
243
100
AcDbEntity
  8
0
100
AcDbPolyline
 62
7
  6
CONTINUOUS
 90
22
 70
0
 10
-20.5177486256
 20
42.6801293242
 10
-20.4962211725
 20
42.687904496
 10
-20.474312532
 20
42.6956646806
 10
-20.452022704
 20
42.703409878
 10
-20.429459922
 20
42.7111155284
 10
-20.4065159525
 20
42.7188061916
 10
-20.3828660954
 20
42.726555547
 10
-20.3584993518
 20
42.7343776442
 10
-20.3334267205
 20
42.7422584336
 10
-20.3073564981
 20
42.7502294463
 10
-20.2801770004
 20
42.758331186
 10
-20.2519999115
 20
42.766523149
 10
-20.2228685808
 20
42.7747153557
 10
-20.1927110258
 20
42.7829254489
 10
-20.1615992289
 20
42.7911357858
 10
-20.1297924862
 20
42.7992034586
 10
-20.0973149435
 20
42.8071162388
 10
-20.0641424551
 20
42.8148863549
 10
-20.0304618791
 20
42.8224075844
 10
-19.9963355017
 20
42.8296445197
 10
-19.9617010368
 20
42.8366325683
 10
-19.9265584844
 20
42.8433717303
  0
LWPOLYLINE
  5
244
100
AcDbEntity
  8
0
100
AcDbPolyline
 62
7
  6
CONTINUOUS
 90
5
 70
0
 10
-23.2305881377
 20
43.2234507771
 10
-23.2253665893
 20
43.2251291771
 10
-23.2199703685
 20
43.2264154664
 10
-23.214388868
 20
43.2273137425
 10
-23.208622088
 20
43.2278240053
  0
LINE
  5
245
100
AcDbEntity
  8
0
100
AcDbLine
 62
253
  6
CONTINUOUS
 10
4.6268306723
 20
-61.5557637229
 11
-59.0127796345
 21
-24.8110503234
  0
LWPOLYLINE
  5
246
100
AcDbEntity
  8
0
100
AcDbPolyline
 62
253
  6
CONTINUOUS
 90
55
 70
0
 10
-19.156511594
 20
40.8881861909
 10
-19.0731390609
 20
40.9605907049
 10
-18.9963684597
 20
41.0353896187
 10
-18.9264055717
 20
41.1123824367
 10
-18.8634379281
 20
41.1913627858
 10
-18.8076343152
 20
41.2721189589
 10
-18.759144319
 20
41.3544344815
 10
-18.7180979167
 20
41.4380887008
 10
-18.6846051243
 20
41.5228573924
 10
-18.6587557121
 20
41.6085133511
 10
-18.6406189686
 20
41.6948269879
 10
-18.6302435133
 20
41.7815669338
 10
-18.6276571585
 20
41.8685006746
 10
-18.6328668349
 20
41.9553951813
 10
-18.6458585763
 20
42.0420175426
 10
-18.6665975598
 20
42.1281355783
 10
-18.6950281956
 20
42.2135184506
 10
-18.7310742774
 20
42.2979372954
 10
-18.7746391927
 20
42.3811658427
 10
-18.8256061839
 20
42.4629810193
 10
-18.8838386304
 20
42.5431635022
 10
-18.9491804083
 20
42.6214983216
 10
-19.0214563372
 20
42.6977754797
 10
-19.1004726981
 20
42.7717905483
 10
-19.1860177272
 20
42.8433451701
 10
-19.2778621414
 20
42.9122475551
 10
-19.3757597448
 20
42.978313001
 10
-19.4794481326
 20
43.0413644226
 10
-19.5886493948
 20
43.1012328221
 10
-19.7030708055
 20
43.1577577108
 10
-19.8224056022
 20
43.210787548
 10
-19.9463338524
 20
43.260180172
 10
-20.0745234175
 20
43.3058032156
 10
-20.2066307933
 20
43.3475344237
 10
-20.3423019432
 20
43.3852619495
 10
-20.4811731462
 20
43.4188846389
 10
-20.6228720709
 20
43.4483123435
 10
-20.7670188549
 20
43.4734661794
 10
-20.9132271563
 20
43.4942787345
 10
-21.0611050955
 20
43.510694227
 10
-21.2102562874
 20
43.5226686559
 10
-21.3602809411
 20
43.530169925
 10
-21.5107769594
 20
43.5331779282
 10
-21.6613409876
 20
43.5316845982
 10
-21.8115693995
 20
43.5256939336
 10
-21.9610594189
 20
43.5152219968
 10
-22.1094102816
 20
43.5002968703
 10
-22.2562244038
 20
43.480958562
 10
-22.4011083513
 20
43.4572588961
 10
-22.5436738067
 20
43.4292613869
 10
-22.6835385852
 20
43.3970410836
 10
-22.820327755
 20
43.3606843562
 10
-22.9536746481
 20
43.32028866
 10
-23.0832218415
 20
43.2759622715
 10
-23.208622088
 20
43.2278240053
  0
LWPOLYLINE
  5
247
100
AcDbEntity
  8
0
100
AcDbPolyline
 62
253
  6
CONTINUOUS
 90
16
 70
0
 10
-19.0831290829
 20
40.7172235769
 10
-19.0041081729
 20
40.7846133716
 10
-18.9306267367
 20
40.8540740852
 10
-18.8628481171
 20
40.9254542511
 10
-18.8009216867
 20
40.9986000623
 10
-18.7449875423
 20
41.0733498761
 10
-18.6951745731
 20
41.1495341572
 10
-18.6515899641
 20
41.2269919741
 10
-18.6143344712
 20
41.3055476931
 10
-18.5834994966
 20
41.3850041877
 10
-18.5591544692
 20
41.4651607379
 10
-18.5413368309
 20
41.5458664625
 10
-18.5300753867
 20
41.6269969425
 10
-18.5254018399
 20
41.7084163491
 10
-18.5273416451
 20
41.7899046114
 10
-18.5310283747
 20
41.8328318311
  0
LWPOLYLINE
  5
248
100
AcDbEntity
  8
0
100
AcDbPolyline
 62
7
  6
CONTINUOUS
 90
10
 70
0
 10
-19.0774594531
 20
40.6401592634
 10
-19.1439059597
 20
40.5883536634
 10
-19.2135032175
 20
40.5380889141
 10
-19.2862512266
 20
40.4893650154
 10
-19.3623106843
 20
40.4420891828
 10
-19.4415208932
 20
40.3963542009
 10
-19.5233997619
 20
40.3524384233
 10
-19.607786593
 20
40.3104346346
 10
-19.6948420838
 20
40.2702500502
 10
-19.7845662343
 20
40.2318846701
  0
LWPOLYLINE
  5
249
100
AcDbEntity
  8
0
100
AcDbPolyline
 62
7
  6
CONTINUOUS
 90
11
 70
0
 10
-42.1836382422
 20
-25.7100435273
 10
-41.6714144945
 20
-25.9859649758
 10
-41.165484812
 20
-26.2205323105
 10
-40.6658491947
 20
-26.4137455316
 10
-40.1703233129
 20
-26.5661114835
 10
-39.6810914963
 20
-26.6771233217
 10
-39.2047067344
 20
-26.7452605128
 10
-38.7412143786
 20
-26.7697782242
 10
-38.2905690776
 20
-26.7514212884
 10
-37.8591877662
 20
-26.6909036699
 10
-37.4481029857
 20
-26.5880589533
  0
LWPOLYLINE
  5
24A
100
AcDbEntity
  8
0
100
AcDbPolyline
 62
7
  6
CONTINUOUS
 90
12
 70
0
 10
-11.07093987
 20
-45.7153013257
 10
-10.4801004251
 20
-46.0349697688
 10
-9.8957462428
 20
-46.309881369
 10
-9.317877323
 20
-46.5400361262
 10
-8.7442768118
 20
-46.7259914342
 10
-8.1771615632
 20
-46.8671898994
 10
-7.6231821392
 20
-46.9619593404
 10
-7.0823093501
 20
-47.0095973132
 10
-6.5545723857
 20
-47.010806262
 10
-6.0467093764
 20
-46.966021338
 10
-5.5598903059
 20
-46.8751100217
 10
-5.0929451905
 20
-46.7382048326
  0
LWPOLYLINE
  5
24B
100
AcDbEntity
  8
0
100
AcDbPolyline
 62
7
  6
CONTINUOUS
 90
40
 70
0
 10
-11.636625295
 20
-46.0419210004
 10
-12.2274647399
 20
-45.6793028624
 10
-12.8118189222
 20
-45.2794169001
 10
-13.389687842
 20
-44.8422631136
 10
-13.9632883532
 20
-44.3658389292
 10
-14.5304036018
 20
-43.8521469205
 10
-15.0843830258
 20
-43.3071948086
 10
-15.6252558149
 20
-42.7302464421
 10
-16.1529927793
 20
-42.1220379725
 10
-16.6608557886
 20
-41.4907855755
 10
-17.1476748591
 20
-40.837707799
 10
-17.6146199745
 20
-40.1615860951
 10
-18.0584629546
 20
-39.466980996
 10
-18.4799746288
 20
-38.7523205359
 10
-18.8783841677
 20
-38.0191766805
 10
-19.2481509038
 20
-37.2768258594
 10
-19.5887516734
 20
-36.5251963229
 10
-19.9007096401
 20
-35.7643598207
 10
-20.1800536278
 20
-35.0038080309
 10
-20.4262453212
 20
-34.2437512454
 10
-20.6398230355
 20
-33.4839791724
 10
-20.8184305404
 20
-32.7333526149
 10
-20.961626441
 20
-31.9921048718
 10
-21.0698521321
 20
-31.2600026442
 10
-21.1420755685
 20
-30.545206838
 10
-21.1779072687
 20
-29.84795482
 10
-21.1777367142
 20
-29.1680092235
 10
-21.1417003033
 20
-28.5128188548
 10
-21.0694265955
 20
-27.8826540414
 10
-20.9612870312
 20
-27.2772444557
 10
-20.8185323313
 20
-26.7032279212
 10
-20.6408092799
 20
-26.1609358803
 10
-20.4284710928
 20
-25.6500368905
 10
-20.1838281374
 20
-25.1761744477
 10
-19.9064462732
 20
-24.739672393
 10
-19.5967596407
 20
-24.3402068852
 10
-19.2583810299
 20
-23.9824498977
 10
-18.8907910514
 20
-23.6669236881
 10
-18.4945090946
 20
-23.3931059988
 10
-18.3867596379
 20
-23.3287495916
  0
LWPOLYLINE
  5
24C
100
AcDbEntity
  8
0
100
AcDbPolyline
 62
7
  6
CONTINUOUS
 90
37
 70
0
 10
-42.7493236672
 20
-26.036663202
 10
-43.2615474149
 20
-25.7210815059
 10
-43.7674770974
 20
-25.3714139249
 10
-44.2671127147
 20
-24.9876604589
 10
-44.7626385965
 20
-24.5678055433
 10
-45.2518704131
 20
-24.1138647428
 10
-45.728255175
 20
-23.6318847518
 10
-46.1917475308
 20
-23.1211731086
 10
-46.6423928318
 20
-22.5824222749
 10
-47.0737741432
 20
-22.023756331
 10
-47.4848589237
 20
-21.4462012141
 10
-47.8766797145
 20
-20.848730987
 10
-48.2459172044
 20
-20.236391918
 10
-48.5931297878
 20
-19.6078013433
 10
-48.9177590703
 20
-18.9643419267
 10
-49.2148105573
 20
-18.3152079287
 10
-49.4837245829
 20
-17.6604100211
 10
-49.7250608129
 20
-16.9999375321
 10
-49.9355037508
 20
-16.3429527062
 10
-50.1145144738
 20
-15.6897171636
 10
-50.2626319046
 20
-15.0399692841
 10
-50.3781573155
 20
-14.4020864509
 10
-50.4606638086
 20
-13.7763876623
 10
-50.5105782817
 20
-13.1625539202
 10
-50.5274827
 20
-12.5680056134
 10
-50.5110230887
 20
-11.9929760516
 10
-50.4615534227
 20
-11.4372319251
 10
-50.3797175913
 20
-10.9074936949
 10
-50.2651549773
 20
-10.4040133117
 10
-50.1182261979
 20
-9.9265388247
 10
-49.9406569948
 20
-9.4810348418
 10
-49.732024515
 20
-9.0678092111
 10
-49.4927516113
 20
-8.6865540845
 10
-49.2258325837
 20
-8.3423105258
 10
-48.9307261014
 20
-8.0355462422
 10
-48.607973495
 20
-7.7657935265
 10
-48.2495865806
 20
-7.5293690889
  0
LWPOLYLINE
  5
24D
100
AcDbEntity
  8
0
100
AcDbPolyline
 62
253
  6
CONTINUOUS
 90
20
 70
0
 10
-24.5412120885
 20
41.8328318311
 10
-24.5421650764
 20
41.8235537167
 10
-24.5468386233
 20
41.7421343101
 10
-24.5448988181
 20
41.6606460478
 10
-24.5363526632
 20
41.5793399689
 10
-24.5212403045
 20
41.4984451154
 10
-24.4996012756
 20
41.4180868006
 10
-24.4714610705
 20
41.3383602549
 10
-24.4368451194
 20
41.2593866363
 10
-24.3958370037
 20
41.1813966294
 10
-24.3485718459
 20
41.1046459172
 10
-24.2951778636
 20
41.0293189125
 10
-24.2357719358
 20
40.9555594766
 10
-24.1705188674
 20
40.8835518029
 10
-24.0996099584
 20
40.8134786464
 10
-24.0231883354
 20
40.7454554247
 10
-23.9413546846
 20
40.6795622225
 10
-23.8542580408
 20
40.6159225767
 10
-23.7621129663
 20
40.5546965845
 10
-23.6651197384
 20
40.496017697
  0
LINE
  5
24E
100
AcDbEntity
  8
0
100
AcDbLine
 62
7
  6
CONTINUOUS
 10
-24.5412120885
 20
41.8328318311
 11
-24.6800855512
 21
40.5393061539
  0
LINE
  5
24F
100
AcDbEntity
  8
0
100
AcDbLine
 62
7
  6
CONTINUOUS
 10
-20.4215332312
 20
43.1291639457
 11
-20.5999445867
 21
42.6129692536
  0
LINE
  5
250
100
AcDbEntity
  8
0
100
AcDbLine
 62
7
  6
CONTINUOUS
 10
-20.8011202316
 20
42.0309110109
 11
-20.9548340589
 21
41.5861732782
  0
LWPOLYLINE
  5
251
100
AcDbEntity
  8
0
100
AcDbPolyline
 62
7
  6
CONTINUOUS
 90
12
 70
0
 10
20.6931264319
 20
-47.1402641552
 10
21.1592924612
 20
-47.2790171736
 10
21.6458455221
 20
-47.3717218072
 10
22.1539959501
 20
-47.4182173803
 10
22.6825334096
 20
-47.4186645684
 10
23.2246929056
 20
-47.3723107337
 10
23.7805016771
 20
-47.2783970357
 10
24.349932485
 20
-47.1376823148
 10
24.926138617
 20
-46.9516904544
 10
25.5068378357
 20
-46.7209294155
 10
26.0943123785
 20
-46.444891237
 10
26.6885622453
 20
-46.1235759191
  0
LINE
  5
252
100
AcDbEntity
  8
0
100
AcDbLine
 62
7
  6
CONTINUOUS
 10
20.2634996853
 20
-46.9620961447
 11
20.6931264319
 21
-47.1402641552
  0
LINE
  5
253
100
AcDbEntity
  8
0
100
AcDbLine
 62
7
  6
CONTINUOUS
 10
-22.5544918376
 20
42.0757237507
 11
-22.5544918376
 21
41.3622456039
  0
LINE
  5
254
100
AcDbEntity
  8
0
100
AcDbLine
 62
7
  6
CONTINUOUS
 10
-23.2876742288
 20
43.0710845085
 11
-23.2820045991
 21
43.1416016756
  0
LWPOLYLINE
  5
255
100
AcDbEntity
  8
0
100
AcDbPolyline
 62
7
  6
CONTINUOUS
 90
18
 70
0
 10
-23.2820045991
 20
43.1416016756
 10
-23.2812604692
 20
43.1487773143
 10
-23.2802121167
 20
43.1556971311
 10
-23.2788595417
 20
43.1623611259
 10
-23.2771979484
 20
43.168783504
 10
-23.2752321325
 20
43.1749500602
 10
-23.2729764814
 20
43.1808181787
 10
-23.2704290558
 20
43.1863847902
 10
-23.267591795
 20
43.191652964
 10
-23.2644849032
 20
43.1965892922
 10
-23.2611068982
 20
43.2011911371
 10
-23.2574592623
 20
43.2054611365
 10
-23.2535666469
 20
43.2093737949
 10
-23.2494279761
 20
43.2129267408
 10
-23.2450443257
 20
43.2161223457
 10
-23.2404435741
 20
43.2189422299
 10
-23.2356244066
 20
43.2213843639
 10
-23.2329775307
 20
43.2225282286
  0
LWPOLYLINE
  5
256
100
AcDbEntity
  8
0
100
AcDbPolyline
 62
7
  6
CONTINUOUS
 90
35
 70
0
 10
-48.3520736454
 20
-7.696864127
 10
-48.6491251324
 20
-8.0029705136
 10
-48.9180391579
 20
-8.3472332451
 10
-49.1593753879
 20
-8.7290167049
 10
-49.3698183259
 20
-9.1429873011
 10
-49.5488290488
 20
-9.5895057479
 10
-49.6969464797
 20
-10.0682113309
 10
-49.8124718905
 20
-10.5726883154
 10
-49.8949783836
 20
-11.1031106738
 10
-49.9448928567
 20
-11.6593044337
 10
-49.961797275
 20
-12.2343319419
 10
-49.9453376638
 20
-12.8283686502
 10
-49.8958679977
 20
-13.441239107
 10
-49.8140321663
 20
-14.065479304
 10
-49.6994695523
 20
-14.7012537223
 10
-49.552540773
 20
-15.3483978808
 10
-49.3749715698
 20
-15.9989543286
 10
-49.16633909
 20
-16.6531035174
 10
-48.9270661864
 20
-17.3106649955
 10
-48.6601471587
 20
-17.9631399567
 10
-48.3650406764
 20
-18.610685809
 10
-48.0422880701
 20
-19.2531451444
 10
-47.6965076313
 20
-19.8815469325
 10
-47.328149665
 20
-20.4947037664
 10
-46.9367638662
 20
-21.093803053
 10
-46.5256176123
 20
-21.6734359831
 10
-46.0936248295
 20
-22.2346413763
 10
-45.6418715914
 20
-22.776380413
 10
-45.1768834961
 20
-23.2901278252
 10
-44.6985555901
 20
-23.7751786762
 10
-44.2069928268
 20
-24.2322379026
 10
-43.7090356646
 20
-24.6548950468
 10
-43.2069642561
 20
-25.0410132893
 10
-42.6984984486
 20
-25.3927294495
 10
-42.1836382422
 20
-25.7100435273
  0
LINE
  5
257
100
AcDbEntity
  8
0
100
AcDbLine
 62
7
  6
CONTINUOUS
 10
-48.0274443629
 20
-7.4282784687
 11
-48.3520736454
 21
-7.696864127
  0
LWPOLYLINE
  5
258
100
AcDbEntity
  8
0
100
AcDbPolyline
 62
7
  6
CONTINUOUS
 90
5
 70
0
 10
20.5041633596
 20
-47.1185829356
 10
20.4108983365
 20
-47.0631234053
 10
20.0124887976
 20
-46.790052899
 10
19.6427220614
 20
-46.4746994362
 10
19.3021212919
 20
-46.1163871309
  0
LWPOLYLINE
  5
259
100
AcDbEntity
  8
0
100
AcDbPolyline
 62
7
  6
CONTINUOUS
 90
33
 70
0
 10
-42.7493236672
 20
-8.0743171126
 10
-42.2370999194
 20
-8.3898988087
 10
-41.731170237
 20
-8.7395663897
 10
-41.2315346197
 20
-9.1233198556
 10
-40.7360087379
 20
-9.5431747713
 10
-40.2467769213
 20
-9.9971155718
 10
-39.7703921593
 20
-10.4790955627
 10
-39.3068998036
 20
-10.989807206
 10
-38.8562545025
 20
-11.5285580396
 10
-38.4248731911
 20
-12.0872239835
 10
-38.0137884107
 20
-12.6647791004
 10
-37.6219676199
 20
-13.2622493276
 10
-37.25273013
 20
-13.8745883965
 10
-36.9055175465
 20
-14.5031789713
 10
-36.580888264
 20
-15.1466383879
 10
-36.283836777
 20
-15.7957723859
 10
-36.0149227515
 20
-16.4505702934
 10
-35.7735865215
 20
-17.1110427824
 10
-35.5631435835
 20
-17.7680276084
 10
-35.3841328606
 20
-18.4212631509
 10
-35.2360154297
 20
-19.0710110305
 10
-35.1204900189
 20
-19.7088938636
 10
-35.0379835258
 20
-20.3345926522
 10
-34.9880690527
 20
-20.9484263944
 10
-34.9711646344
 20
-21.5429747011
 10
-34.9876242457
 20
-22.118004263
 10
-35.0370939117
 20
-22.6737483894
 10
-35.1189297431
 20
-23.2034866197
 10
-35.2334923571
 20
-23.7069670028
 10
-35.3804211364
 20
-24.1844414899
 10
-35.5579903396
 20
-24.6299454728
 10
-35.7666228194
 20
-25.0431711035
 10
-36.005895723
 20
-25.4244262301
  0
LINE
  5
25A
100
AcDbEntity
  8
0
100
AcDbLine
 62
7
  6
CONTINUOUS
 10
-19.7845662343
 20
40.2318846701
 11
-19.7902358641
 21
40.3089489836
  0
LINE
  5
25B
100
AcDbEntity
  8
0
100
AcDbLine
 62
7
  6
CONTINUOUS
 10
-22.2711202316
 20
42.4310594562
 11
-22.2711202316
 21
41.616025337
  0
LINE
  5
25C
100
AcDbEntity
  8
0
100
AcDbLine
 62
7
  6
CONTINUOUS
 10
-22.0595170907
 20
42.2394795914
 11
-22.0595170907
 21
41.7899315354
  0
LINE
  5
25D
100
AcDbEntity
  8
0
100
AcDbLine
 62
7
  6
CONTINUOUS
 10
-21.596943928
 20
42.8708049338
 11
-21.596943928
 21
42.0948780226
  0
LINE
  5
25E
100
AcDbEntity
  8
0
100
AcDbLine
 62
7
  6
CONTINUOUS
 10
-21.5361202316
 20
42.8554392445
 11
-21.5361202316
 21
42.0066796679
  0
LINE
  5
25F
100
AcDbEntity
  8
0
100
AcDbLine
 62
7
  6
CONTINUOUS
 10
-21.0127233724
 20
41.6342578321
 11
-21.0127233724
 21
42.9659215395
  0
LINE
  5
260
100
AcDbEntity
  8
0
100
AcDbLine
 62
7
  6
CONTINUOUS
 10
-20.8011202316
 20
42.4310594562
 11
-20.8011202316
 21
41.4536272176
  0
LINE
  5
261
100
AcDbEntity
  8
0
100
AcDbLine
 62
7
  6
CONTINUOUS
 10
-20.768189754
 20
42.3922926605
 11
-20.768189754
 21
41.6163657493
  0
LINE
  5
262
100
AcDbEntity
  8
0
100
AcDbLine
 62
7
  6
CONTINUOUS
 10
-20.5177486256
 20
41.3492818026
 11
-20.5177486256
 21
41.1904542885
  0
LWPOLYLINE
  5
263
100
AcDbEntity
  8
0
100
AcDbPolyline
 62
7
  6
CONTINUOUS
 90
36
 70
0
 10
-11.636625295
 20
-23.997223527
 10
-11.0457858501
 20
-24.359841665
 10
-10.4614316677
 20
-24.7597276272
 10
-9.883562748
 20
-25.1968814137
 10
-9.3099622368
 20
-25.6733055982
 10
-8.7428469882
 20
-26.1869976069
 10
-8.1888675641
 20
-26.7319497188
 10
-7.6479947751
 20
-27.3088980853
 10
-7.1202578106
 20
-27.9171065549
 10
-6.6123948013
 20
-28.5483589519
 10
-6.1255757308
 20
-29.2014367284
 10
-5.6586306155
 20
-29.8775584323
 10
-5.2147876353
 20
-30.5721635314
 10
-4.7932759612
 20
-31.2868239915
 10
-4.3948664223
 20
-32.0199678469
 10
-4.0250996861
 20
-32.762318668
 10
-3.6844989166
 20
-33.5139482045
 10
-3.3725409498
 20
-34.2747847067
 10
-3.0931969621
 20
-35.0353364965
 10
-2.8470052688
 20
-35.795393282
 10
-2.6334275545
 20
-36.5551653549
 10
-2.4548200496
 20
-37.3057919125
 10
-2.311624149
 20
-38.0470396556
 10
-2.2033984578
 20
-38.7791418832
 10
-2.1311750215
 20
-39.4939376893
 10
-2.0953433212
 20
-40.1911897074
 10
-2.0955138757
 20
-40.8711353039
 10
-2.1315502866
 20
-41.5263256726
 10
-2.2038239945
 20
-42.156490486
 10
-2.3119635587
 20
-42.7619000717
 10
-2.4547182587
 20
-43.3359166062
 10
-2.6324413101
 20
-43.8782086471
 10
-2.8447794972
 20
-44.3891076369
 10
-3.0894224525
 20
-44.8629700796
 10
-3.3668043168
 20
-45.2994721344
 10
-3.6764909492
 20
-45.6989376422
  0
LINE
  5
264
100
AcDbEntity
  8
0
100
AcDbLine
 62
7
  6
CONTINUOUS
 10
-18.5310283747
 20
41.8328318311
 11
-18.392154912
 21
40.5393061539
  0
LWPOLYLINE
  5
265
100
AcDbEntity
  8
0
100
AcDbPolyline
 62
7
  6
CONTINUOUS
 90
22
 70
0
 10
-19.7902358641
 20
40.3089489836
 10
-19.790979994
 20
40.3169839248
 10
-19.7920283465
 20
40.3251143527
 10
-19.7933809215
 20
40.3333402672
 10
-19.7950425148
 20
40.3416814116
 10
-19.7970083307
 20
40.3501180427
 10
-19.7992639818
 20
40.3585909306
 10
-19.8018114074
 20
40.3670992453
 10
-19.8046486682
 20
40.3756438168
 10
-19.80775556
 20
40.3841679057
 10
-19.8111335649
 20
40.3926705862
 10
-19.8147812008
 20
40.401152784
 10
-19.8186738163
 20
40.4095605373
 10
-19.8228124871
 20
40.4178927163
 10
-19.8271961374
 20
40.4261504509
 10
-19.8317968891
 20
40.4342831677
 10
-19.8366160566
 20
40.4422903556
 10
-19.8416523254
 20
40.4501725258
 10
-19.8468738739
 20
40.457880639
 10
-19.8522700947
 20
40.4653983489
 10
-19.8578515951
 20
40.4727420017
 10
-19.8636183752
 20
40.4799115976
  0
LINE
  5
266
100
AcDbEntity
  8
0
100
AcDbLine
 62
7
  6
CONTINUOUS
 10
-19.0831290829
 20
40.7172235769
 11
-19.0774594531
 21
40.6401592634
  0
LWPOLYLINE
  5
267
100
AcDbEntity
  8
0
100
AcDbPolyline
 62
7
  6
CONTINUOUS
 90
5
 70
0
 10
-36.005895723
 20
-25.4244262301
 10
-36.2728147507
 20
-25.7686697887
 10
-36.567921233
 20
-26.0754340724
 10
-36.8906738393
 20
-26.345186788
 10
-37.2490607537
 20
-26.5816112257
  0
LWPOLYLINE
  5
268
100
AcDbEntity
  8
0
100
AcDbPolyline
 62
7
  6
CONTINUOUS
 90
13
 70
0
 10
-48.2495865806
 20
-7.5293690889
 10
-47.8938350899
 20
-7.3489040342
 10
-47.5024492912
 20
-7.2017672576
 10
-47.0913030372
 20
-7.0969157158
 10
-46.6593102544
 20
-7.0345647599
 10
-46.2075570164
 20
-7.0144990389
 10
-45.7425689211
 20
-7.0377082238
 10
-45.264241015
 20
-7.105018449
 10
-44.7726782518
 20
-7.2156035802
 10
-44.2747210895
 20
-7.3679748853
 10
-43.772649681
 20
-7.5616361204
 10
-43.2641838736
 20
-7.7970835295
 10
-42.7493236672
 20
-8.0743171126
  0
LWPOLYLINE
  5
269
100
AcDbEntity
  8
0
100
AcDbPolyline
 62
7
  6
CONTINUOUS
 90
36
 70
0
 10
19.3021212919
 20
-46.1163871309
 10
18.9901633251
 20
-45.7157918692
 10
18.7108193374
 20
-45.2778195144
 10
18.4646276441
 20
-44.8020587254
 10
18.2510499298
 20
-44.2889208434
 10
18.0724424249
 20
-43.7445457556
 10
17.9292465243
 20
-43.1686570491
 10
17.8210208331
 20
-42.5615311368
 10
17.7487973968
 20
-41.9301371447
 10
17.7129656965
 20
-41.274262676
 10
17.7131362511
 20
-40.5941201274
 10
17.7491726619
 20
-39.8973158146
 10
17.8214463698
 20
-39.183691135
 10
17.929585934
 20
-38.4534046911
 10
18.072340634
 20
-37.7145386074
 10
18.2500636854
 20
-36.9670164415
 10
18.4624018725
 20
-36.2109146357
 10
18.7070448278
 20
-35.4545446403
 10
18.9844266921
 20
-34.6977289615
 10
19.2941133246
 20
-33.9406450932
 10
19.6324919354
 20
-33.1921369676
 10
20.0000819138
 20
-32.4521270649
 10
20.3963638707
 20
-31.7206929049
 10
20.8161668482
 20
-31.0069109797
 10
21.2588118568
 20
-30.3121888807
 10
21.7249778861
 20
-29.6351190164
 10
22.2115309471
 20
-28.9805551039
 10
22.719681375
 20
-28.347260154
 10
23.2482188346
 20
-27.7364711558
 10
23.7903783306
 20
-27.1567527942
 10
24.346187102
 20
-26.6088324548
 10
24.9156179099
 20
-26.091982752
 10
25.491824042
 20
-25.6125862143
 10
26.0725232606
 20
-25.1727703512
 10
26.6599978034
 20
-24.7704076532
 10
27.2542476703
 20
-24.4054981203
  0
LWPOLYLINE
  5
26A
100
AcDbEntity
  8
0
100
AcDbPolyline
 62
7
  6
CONTINUOUS
 90
42
 70
0
 10
-18.5310283747
 20
41.8328318311
 10
-18.5442436232
 20
41.9225530669
 10
-18.5647186096
 20
42.0123071883
 10
-18.5925441348
 20
42.1018241092
 10
-18.6278130244
 20
42.1908898306
 10
-18.6705581293
 20
42.2791838741
 10
-18.7207184083
 20
42.3663037727
 10
-18.7783483741
 20
42.4521172093
 10
-18.8433667428
 20
42.5362994612
 10
-18.9153566279
 20
42.6182279016
 10
-18.994052721
 20
42.6976180016
 10
-19.0793996648
 20
42.7744227293
 10
-19.1711633032
 20
42.84842382
 10
-19.269252609
 20
42.9195319302
 10
-19.3733855877
 20
42.987521424
 10
-19.4829334301
 20
43.0520051988
 10
-19.597497698
 20
43.1128123956
 10
-19.7168920736
 20
43.1698995553
 10
-19.8406979347
 20
43.2231144029
 10
-19.9685446434
 20
43.2723507563
 10
-20.1001495203
 20
43.3175471815
 10
-20.2351858202
 20
43.3586304359
 10
-20.3733107933
 20
43.3955306181
 10
-20.5141792522
 20
43.4281861982
 10
-20.6574407676
 20
43.4565431908
 10
-20.8027167095
 20
43.480552001
 10
-20.9496696029
 20
43.5001795437
 10
-21.0980000475
 20
43.5154021332
 10
-21.2473582439
 20
43.5261945475
 10
-21.3973671485
 20
43.5325381976
 10
-21.5476824318
 20
43.5344248788
 10
-21.6979365066
 20
43.5318536156
 10
-21.8477664707
 20
43.5248324072
 10
-21.9968357134
 20
43.5133756523
 10
-22.1447770192
 20
43.4975073121
 10
-22.2912364337
 20
43.4772591093
 10
-22.4359030591
 20
43.4526633018
 10
-22.5784375382
 20
43.4237617065
 10
-22.7184762469
 20
43.3906096441
 10
-22.8556841611
 20
43.3532654868
 10
-22.9897357773
 20
43.3117925855
 10
-23.1202858925
 20
43.2662689782
  0
LWPOLYLINE
  5
26B
100
AcDbEntity
  8
0
100
AcDbPolyline
 62
7
  6
CONTINUOUS
 90
11
 70
0
 10
54.4623485559
 20
-26.174318789
 10
54.8734948099
 20
-26.2791703307
 10
55.3054875927
 20
-26.3415212866
 10
55.7572408307
 20
-26.3615870076
 10
56.222228926
 20
-26.3383778227
 10
56.7005568321
 20
-26.2710675975
 10
57.1921195953
 20
-26.1604824664
 10
57.6900767576
 20
-26.0081111613
 10
58.1921481661
 20
-25.8144499262
 10
58.7006139735
 20
-25.5790025171
 10
59.2154741799
 20
-25.301768934
  0
LWPOLYLINE
  5
26C
100
AcDbEntity
  8
RACCORDO
100
AcDbPolyline
 62
7
  6
CONTINUOUS
 90
37
 70
0
 10
4.2732772817
 20
-15.7109774084
 10
4.4472117138
 20
-15.8070628915
 10
4.6275115261
 20
-15.8983586424
 10
4.8141767187
 20
-15.9848646611
 10
5.0075863716
 20
-16.0667271958
 10
5.2073614048
 20
-16.1437999984
 10
5.4123645782
 20
-16.2156443238
 10
5.6226257103
 20
-16.2822303518
 10
5.8381149826
 20
-16.3435879028
 10
6.0576057002
 20
-16.3993676924
 10
6.2811206852
 20
-16.4495379084
 10
6.5086371154
 20
-16.4941303631
 10
6.7388598302
 20
-16.5328912093
 10
6.9718042646
 20
-16.5657871868
 10
7.2074549836
 20
-16.592851556
 10
7.444470521
 20
-16.6139302499
 10
7.6828586611
 20
-16.6289891298
 10
7.9226116197
 20
-16.6380623346
 10
8.1623645782
 20
-16.6410982139
 10
8.4021175368
 20
-16.6380623346
 10
8.6418704954
 20
-16.6289891298
 10
8.8802586355
 20
-16.6139302499
 10
9.1172741729
 20
-16.592851556
 10
9.3529248919
 20
-16.5657871868
 10
9.5858693263
 20
-16.5328912093
 10
9.8160920411
 20
-16.4941303631
 10
10.0436084713
 20
-16.4495379084
 10
10.2671234563
 20
-16.3993676924
 10
10.4866141739
 20
-16.3435879028
 10
10.7021034462
 20
-16.2822303518
 10
10.9123645782
 20
-16.2156443238
 10
11.1173677517
 20
-16.1437999984
 10
11.3171427849
 20
-16.0667271958
 10
11.5105524378
 20
-15.9848646611
 10
11.6972176304
 20
-15.8983586424
 10
11.8775174427
 20
-15.8070628915
 10
12.0514518748
 20
-15.7109774084
  0
LINE
  5
26D
100
AcDbEntity
  8
RACCORDO
100
AcDbLine
 62
7
  6
CONTINUOUS
 10
-59.3663330251
 20
19.8906776036
 11
4.2732772817
 21
-16.8540357959
  0
LINE
  5
26E
100
AcDbEntity
  8
RACCORDO
100
AcDbLine
 62
7
  6
CONTINUOUS
 10
-59.3663330251
 20
21.0337359911
 11
4.2732772817
 21
-15.7109774084
  0
LWPOLYLINE
  5
26F
100
AcDbEntity
  8
RACCORDO
100
AcDbPolyline
 62
7
  6
CONTINUOUS
 90
19
 70
0
 10
-59.3663330251
 20
19.8906776036
 10
-59.5327472419
 20
19.9911051647
 10
-59.6908659335
 20
20.0952080167
 10
-59.8406891001
 20
20.2029861594
 10
-59.9824700348
 20
20.314658469
 10
-60.1159554444
 20
20.4300060694
 10
-60.2403854494
 20
20.5483723325
 10
-60.3557084029
 20
20.6697744749
 10
-60.4619759519
 20
20.79419528
 10
-60.5585831574
 20
20.9209264695
 10
-60.6454749221
 20
21.0499812205
 10
-60.7227063433
 20
21.1813463559
 10
-60.7898377731
 20
21.314274066
 10
-60.8468116069
 20
21.448773263
 10
-60.8936854493
 20
21.5848350347
 10
-60.9301924661
 20
21.7216848356
 10
-60.9562735308
 20
21.8593271599
 10
-60.97198777
 20
21.9977575134
 10
-60.9772457285
 20
22.1361878669
  0
LINE
  5
270
100
AcDbEntity
  8
0
100
AcDbLine
 62
7
  6
CONTINUOUS
 10
-22.2711202316
 20
42.0309110109
 11
-22.1598827143
 21
41.7090692997
  0
LWPOLYLINE
  5
271
100
AcDbEntity
  8
0
100
AcDbPolyline
 62
253
  6
CONTINUOUS
 90
12
 70
0
 10
4.6268306723
 20
-61.5557637229
 10
4.6367388502
 20
-61.8554578135
 10
4.6663854234
 20
-62.1418717494
 10
4.7155709462
 20
-62.4134257085
 10
4.7839796148
 20
-62.6686031415
 10
4.8712007762
 20
-62.9060352456
 10
4.9767500202
 20
-63.1244903703
 10
5.1000234783
 20
-63.3227657074
 10
5.2403204006
 20
-63.4997743924
 10
5.3968966583
 20
-63.6545928114
 10
5.5688816675
 20
-63.7863561153
 10
5.6622437775
 20
-63.8444480286
  0
LWPOLYLINE
  5
272
100
AcDbEntity
  8
0
100
AcDbPolyline
 62
7
  6
CONTINUOUS
 90
3
 70
0
 10
33.7534247284
 20
-4.4909012254
 10
33.8919757608
 20
-4.4528097584
 10
34.03546556
 20
-4.3957920036
  0
LINE
  5
273
100
AcDbEntity
  8
0
100
AcDbLine
 62
7
  6
CONTINUOUS
 10
33.7023599426
 20
-4.4981277299
 11
33.7534247284
 21
-4.4909012254
  0
LINE
  5
274
100
AcDbEntity
  8
0
100
AcDbLine
 62
7
  6
CONTINUOUS
 10
54.0709627572
 20
-26.0271820123
 11
54.4623485559
 21
-26.174318789
  0
LWPOLYLINE
  5
275
100
AcDbEntity
  8
0
100
AcDbPolyline
 62
7
  6
CONTINUOUS
 90
40
 70
0
 10
34.004331981
 20
-23.7371107785
 10
34.0975970041
 20
-23.7925703088
 10
34.496006543
 20
-24.0656408151
 10
34.8657732791
 20
-24.3809942778
 10
35.2063740487
 20
-24.7393065831
 10
35.5183320154
 20
-25.1399018449
 10
35.7976760031
 20
-25.5778741997
 10
36.0438676965
 20
-26.0536349887
 10
36.2574454108
 20
-26.5667728707
 10
36.4360529157
 20
-27.1111479585
 10
36.5792488163
 20
-27.6870366649
 10
36.6874745074
 20
-28.2941625772
 10
36.7596979438
 20
-28.9255565694
 10
36.795529644
 20
-29.5814310381
 10
36.7953590895
 20
-30.2615735867
 10
36.7593226786
 20
-30.9583778994
 10
36.6870489708
 20
-31.6720025791
 10
36.5789094065
 20
-32.4022890229
 10
36.4361547066
 20
-33.1411551067
 10
36.2584316552
 20
-33.8886772725
 10
36.0460934681
 20
-34.6447790784
 10
35.8014505127
 20
-35.4011490737
 10
35.5240686485
 20
-36.1579647525
 10
35.214382016
 20
-36.9150486209
 10
34.8760034052
 20
-37.6635567464
 10
34.5084134267
 20
-38.4035666491
 10
34.1121314699
 20
-39.1350008091
 10
33.6923284924
 20
-39.8487827344
 10
33.2496834838
 20
-40.5435048333
 10
32.7835174544
 20
-41.2205746976
 10
32.2969643935
 20
-41.8751386101
 10
31.7888139656
 20
-42.5084335601
 10
31.260276506
 20
-43.1192225583
 10
30.71811701
 20
-43.6989409198
 10
30.1623082385
 20
-44.2468612593
 10
29.5928774306
 20
-44.7637109621
 10
29.0166712986
 20
-45.2431074997
 10
28.4359720799
 20
-45.6829233628
 10
27.8484975372
 20
-46.0852860608
 10
27.2542476703
 20
-46.4501955937
  0
LINE
  5
276
100
AcDbEntity
  8
RACCORDO
100
AcDbLine
 62
253
  6
CONTINUOUS
 10
4.2732772817
 20
-15.7109774084
 11
4.2732772817
 21
-16.8540357959
  0
LINE
  5
277
100
AcDbEntity
  8
0
100
AcDbLine
 62
253
  6
CONTINUOUS
 10
4.6268306723
 20
-17.0410722761
 11
4.6268306723
 21
-61.5557637229
  0
LWPOLYLINE
  5
278
100
AcDbEntity
  8
0
100
AcDbPolyline
 62
7
  6
CONTINUOUS
 90
38
 70
0
 10
-18.3126987427
 20
-23.3307465471
 10
-18.6824654789
 20
-23.6461000099
 10
-19.0230662484
 20
-24.0044123151
 10
-19.3350242152
 20
-24.4050075769
 10
-19.6143682029
 20
-24.8429799317
 10
-19.8605598962
 20
-25.3187407207
 10
-20.0741376105
 20
-25.8318786027
 10
-20.2527451154
 20
-26.3762536905
 10
-20.395941016
 20
-26.952142397
 10
-20.5041667072
 20
-27.5592683092
 10
-20.5763901435
 20
-28.1906623014
 10
-20.6122218438
 20
-28.8465367701
 10
-20.6120512893
 20
-29.5266793187
 10
-20.5760148784
 20
-30.2234836314
 10
-20.5037411705
 20
-30.9371083111
 10
-20.3956016063
 20
-31.6673947549
 10
-20.2528469063
 20
-32.4062608387
 10
-20.0751238549
 20
-33.1537830046
 10
-19.8627856678
 20
-33.9098848104
 10
-19.6181427125
 20
-34.6662548057
 10
-19.3407608482
 20
-35.4230704845
 10
-19.0310742158
 20
-36.1801543529
 10
-18.6926956049
 20
-36.9286624785
 10
-18.3251056265
 20
-37.6686723812
 10
-17.9288236696
 20
-38.4001065411
 10
-17.5090206921
 20
-39.1138884664
 10
-17.0663756835
 20
-39.8086105653
 10
-16.6002096542
 20
-40.4856804296
 10
-16.1136565932
 20
-41.1402443421
 10
-15.6055061653
 20
-41.7735392921
 10
-15.0769687057
 20
-42.3843282903
 10
-14.5348092098
 20
-42.9640466518
 10
-13.9790004383
 20
-43.5119669913
 10
-13.4095696304
 20
-44.0288166941
 10
-12.8333634984
 20
-44.5082132318
 10
-12.2526642797
 20
-44.9480290948
 10
-11.6651897369
 20
-45.3503917928
 10
-11.07093987
 20
-45.7153013257
  0
LWPOLYLINE
  5
279
100
AcDbEntity
  8
0
100
AcDbPolyline
 62
7
  6
CONTINUOUS
 90
5
 70
0
 10
36.1663814819
 20
8.9283849376
 10
36.1716030304
 20
8.9300633376
 10
36.1769992512
 20
8.9313496269
 10
36.1825807516
 20
8.9322479029
 10
36.1883475317
 20
8.9327581658
  0
LWPOLYLINE
  5
27A
100
AcDbEntity
  8
0
100
AcDbPolyline
 62
7
  6
CONTINUOUS
 90
5
 70
0
 10
50.6498004348
 20
5.2973670079
 10
50.7160996646
 20
5.3060733661
 10
50.8572264768
 20
5.3439181992
 10
51.0033455467
 20
5.4014745034
 10
51.1544568744
 20
5.4787422788
  0
LINE
  5
27B
100
AcDbEntity
  8
0
100
AcDbLine
 62
7
  6
CONTINUOUS
 10
33.9427280018
 20
-23.7485786068
 11
33.6780394365
 21
-23.5656875867
  0
LINE
  5
27C
100
AcDbEntity
  8
0
100
AcDbLine
 62
253
  6
CONTINUOUS
 10
11.6978984842
 20
-61.5557637229
 11
11.6978984842
 21
-17.0410722761
  0
LINE
  5
27D
100
AcDbEntity
  8
RACCORDO
100
AcDbLine
 62
253
  6
CONTINUOUS
 10
12.0514518748
 20
-15.7109774084
 11
12.0514518748
 21
-16.8540357959
  0
LINE
  5
27E
100
AcDbEntity
  8
0
100
AcDbLine
 62
7
  6
CONTINUOUS
 10
-18.061687855
 20
-23.1587033014
 11
-18.3126987427
 21
-23.3307465471
  0
LWPOLYLINE
  5
27F
100
AcDbEntity
  8
0
100
AcDbPolyline
 62
7
  6
CONTINUOUS
 90
7
 70
0
 10
35.6260695594
 20
8.5279172148
 10
35.6870398408
 20
8.5658141563
 10
35.7662500497
 20
8.6115491382
 10
35.8481289184
 20
8.6554649158
 10
35.9325157495
 20
8.6974687045
 10
36.0195712403
 20
8.7376532889
 10
36.1092953908
 20
8.776018669
  0
LWPOLYLINE
  5
280
100
AcDbEntity
  8
0
100
AcDbPolyline
 62
7
  6
CONTINUOUS
 90
13
 70
0
 10
-37.2490607537
 20
-26.5816112257
 10
-37.6048122444
 20
-26.7620762803
 10
-37.9961980432
 20
-26.909213057
 10
-38.4073442972
 20
-27.0140645987
 10
-38.83933708
 20
-27.0764155546
 10
-39.291090318
 20
-27.0964812756
 10
-39.7560784133
 20
-27.0732720907
 10
-40.2344063193
 20
-27.0059618655
 10
-40.7259690826
 20
-26.8953767344
 10
-41.2239262449
 20
-26.7430054293
 10
-41.7259976533
 20
-26.5493441942
 10
-42.2344634608
 20
-26.3138967851
 10
-42.7493236672
 20
-26.036663202
  0
LWPOLYLINE
  5
281
100
AcDbEntity
  8
0
100
AcDbPolyline
 62
7
  6
CONTINUOUS
 90
8
 70
0
 10
37.5743795025
 20
7.5991128793
 10
37.5441153878
 20
7.5863562111
 10
37.5126142978
 20
7.5729071539
 10
37.479958856
 20
7.5587950841
 10
37.4461180586
 20
7.5439426396
 10
37.411081571
 20
7.528324033
 10
37.3748597278
 20
7.5119650518
 10
37.3374525289
 20
7.4948656958
  0
LWPOLYLINE
  5
282
100
AcDbEntity
  8
0
100
AcDbPolyline
 62
7
  6
CONTINUOUS
 90
3
 70
0
 10
37.6590481348
 20
7.6338953193
 10
37.6317235505
 20
7.6228026696
 10
37.5743795025
 20
7.5991128793
  0
LINE
  5
283
100
AcDbEntity
  8
0
100
AcDbLine
 62
7
  6
CONTINUOUS
 10
37.7114524122
 20
7.6547714377
 11
37.6590481348
 21
7.6338953193
  0
LINE
  5
284
100
AcDbEntity
  8
0
100
AcDbLine
 62
7
  6
CONTINUOUS
 10
36.2766837272
 20
8.9712031387
 11
36.1639913617
 21
8.9274637936
  0
LINE
  5
285
100
AcDbEntity
  8
0
100
AcDbLine
 62
7
  6
CONTINUOUS
 10
37.7618926803
 20
7.674410546
 11
37.7114524122
 21
7.6547714377
  0
LINE
  5
286
100
AcDbEntity
  8
0
100
AcDbLine
 62
7
  6
CONTINUOUS
 10
37.8115703573
 20
7.6933066541
 11
37.7618926803
 21
7.674410546
  0
LINE
  5
287
100
AcDbEntity
  8
0
100
AcDbLine
 62
7
  6
CONTINUOUS
 10
37.8608493881
 20
7.7116138284
 11
37.8115703573
 21
7.6933066541
  0
LWPOLYLINE
  5
288
100
AcDbEntity
  8
0
100
AcDbPolyline
 62
7
  6
CONTINUOUS
 90
22
 70
0
 10
38.3842462472
 20
8.6708557
 10
38.4057737003
 20
8.6786308718
 10
38.4276823409
 20
8.6863910564
 10
38.4499721688
 20
8.6941362538
 10
38.4725349509
 20
8.7018419042
 10
38.4954789203
 20
8.7095325674
 10
38.5191287774
 20
8.7172819228
 10
38.5434955211
 20
8.72510402
 10
38.5685681524
 20
8.7329848094
 10
38.5946383748
 20
8.7409558221
 10
38.6218178725
 20
8.7490575618
 10
38.6499949613
 20
8.7572495248
 10
38.6791262921
 20
8.7654417315
 10
38.709283847
 20
8.7736518247
 10
38.740395644
 20
8.7818621616
 10
38.7722023867
 20
8.7899298344
 10
38.8046799293
 20
8.7978426146
 10
38.8378524178
 20
8.8056127307
 10
38.8715329937
 20
8.8131339602
 10
38.9056593711
 20
8.8203708955
 10
38.940293836
 20
8.8273589441
 10
38.9754363884
 20
8.8340981061
  0
LWPOLYLINE
  5
289
100
AcDbEntity
  8
0
100
AcDbPolyline
 62
7
  6
CONTINUOUS
 90
22
 70
0
 10
38.8792209941
 20
8.3850634847
 10
38.9007484471
 20
8.3928386565
 10
38.9226570877
 20
8.4005988411
 10
38.9449469157
 20
8.4083440385
 10
38.9675096977
 20
8.4160496888
 10
38.9904536672
 20
8.423740352
 10
39.0141035243
 20
8.4314897075
 10
39.0384702679
 20
8.4393118046
 10
39.0635428992
 20
8.447192594
 10
39.0896131216
 20
8.4551636068
 10
39.1167926193
 20
8.4632653465
 10
39.1449697081
 20
8.4714573095
 10
39.1741010389
 20
8.4796495162
 10
39.2042585939
 20
8.4878596094
 10
39.2353703908
 20
8.4960699463
 10
39.2671771335
 20
8.5041376191
 10
39.2996546761
 20
8.5120503993
 10
39.3328271646
 20
8.5198205154
 10
39.3665077406
 20
8.5273417449
 10
39.400634118
 20
8.5345786802
 10
39.4352685828
 20
8.5415667288
 10
39.4704111353
 20
8.5483058908
  0
LINE
  5
28A
100
AcDbEntity
  8
0
100
AcDbLine
 62
7
  6
CONTINUOUS
 10
37.8608493881
 20
8.560373405
 11
37.9101284188
 21
8.572875736
  0
LWPOLYLINE
  5
28B
100
AcDbEntity
  8
0
100
AcDbPolyline
 62
7
  6
CONTINUOUS
 90
3
 70
0
 10
37.9101284188
 20
8.572875736
 10
37.9598060958
 20
8.5850383688
 10
37.9847792623
 20
8.590989237
  0
LWPOLYLINE
  5
28C
100
AcDbEntity
  8
0
100
AcDbPolyline
 62
7
  6
CONTINUOUS
 90
13
 70
0
 10
37.9847792623
 20
8.590989237
 10
38.0362015351
 20
8.602881095
 10
38.0626506414
 20
8.6088220848
 10
38.0899752256
 20
8.6148129067
 10
38.1182095107
 20
8.6208689934
 10
38.1473192736
 20
8.6269749123
 10
38.1775833884
 20
8.6331395254
 10
38.2090844784
 20
8.6393851128
 10
38.2417399202
 20
8.6456893944
 10
38.2755807176
 20
8.6519943917
 10
38.3106172052
 20
8.6582807787
 10
38.3468390484
 20
8.6645678815
 10
38.3842462472
 20
8.6708557
  0
LWPOLYLINE
  5
28D
100
AcDbEntity
  8
0
100
AcDbPolyline
 62
7
  6
CONTINUOUS
 90
10
 70
0
 10
35.4812407505
 20
8.5244835725
 10
35.4754643219
 20
8.5239723778
 10
35.4698732534
 20
8.5230714293
 10
35.4644675448
 20
8.5217807271
 10
35.4592359475
 20
8.5200958388
 10
35.4541897102
 20
8.5180211967
 10
35.4493625788
 20
8.5155700979
 10
35.4447563252
 20
8.5127401048
 10
35.4403691775
 20
8.509533655
 10
35.439669411
 20
8.5089707204
  0
LWPOLYLINE
  5
28E
100
AcDbEntity
  8
0
100
AcDbPolyline
 62
7
  6
CONTINUOUS
 90
4
 70
0
 10
54.2809020085
 20
-26.173327434
 10
53.9373534842
 20
-25.9478075779
 10
53.6127242017
 20
-25.6792219196
 10
53.3156727147
 20
-25.3731155329
  0
LINE
  5
28F
100
AcDbEntity
  8
0
100
AcDbLine
 62
7
  6
CONTINUOUS
 10
-20.8011202316
 20
42.4310594562
 11
-20.7791707699
 21
42.4052930705
  0
LINE
  5
290
100
AcDbEntity
  8
0
100
AcDbLine
 62
7
  6
CONTINUOUS
 10
-20.7791707699
 20
42.4052930705
 11
-20.768189754
 21
42.3922926605
  0
LWPOLYLINE
  5
291
100
AcDbEntity
  8
0
100
AcDbPolyline
 62
7
  6
CONTINUOUS
 90
31
 70
0
 10
-19.8636183752
 20
40.4799115976
 10
-19.9048919341
 20
40.5294527826
 10
-19.9468018499
 20
40.5790271464
 10
-19.9893481227
 20
40.6286346893
 10
-20.0326641249
 20
40.6784362645
 10
-20.0766164841
 20
40.7282710187
 10
-20.1208050827
 20
40.7776563915
 10
-20.1652406193
 20
40.8265784247
 10
-20.2099123954
 20
40.8750510765
 10
-20.2543881977
 20
40.9226336611
 10
-20.2986456816
 20
40.9692802064
 10
-20.3427071919
 20
41.0150366846
 10
-20.3862075494
 20
41.0596003263
 10
-20.4290495468
 20
41.1028629363
 10
-20.4713303916
 20
41.1449327099
 10
-20.5129765266
 20
41.1858314641
 10
-20.55397179
 20
41.225544367
 10
-20.5943323436
 20
41.2640862505
 10
-20.6340331164
 20
41.3015234264
 10
-20.6731393219
 20
41.3379144705
 10
-20.7115857465
 20
41.373200807
 10
-20.7491516777
 20
41.4072730202
 10
-20.7858738379
 20
41.4401559029
 10
-20.8217155047
 20
41.4718246623
 10
-20.8563457985
 20
41.5020955039
 10
-20.8896821807
 20
41.5308933627
 10
-20.9218071899
 20
41.5582933039
 10
-20.9526375624
 20
41.584336728
 10
-20.9820316511
 20
41.608913922
 10
-21.0101311031
 20
41.632134599
 10
-21.0634299283
 20
41.6755999806
  0
LWPOLYLINE
  5
292
100
AcDbEntity
  8
0
100
AcDbPolyline
 62
7
  6
CONTINUOUS
 90
22
 70
0
 10
-19.156511594
 20
40.8881861909
 10
-19.1507351655
 20
40.8810045214
 10
-19.1451440969
 20
40.8736471471
 10
-19.1397383883
 20
40.8661140681
 10
-19.134506791
 20
40.8583878624
 10
-19.1294605537
 20
40.8504859519
 10
-19.1246334223
 20
40.8424606028
 10
-19.1200271687
 20
40.8343114235
 10
-19.115640021
 20
40.8260388055
 10
-19.1115004095
 20
40.8176961895
 10
-19.1076100024
 20
40.8092833434
 10
-19.1039671314
 20
40.8008004992
 10
-19.1005952214
 20
40.7923017934
 10
-19.0974959545
 20
40.7837872541
 10
-19.0946676486
 20
40.7752568532
 10
-19.0921286828
 20
40.7667646425
 10
-19.0898806909
 20
40.7583100428
 10
-19.087922039
 20
40.7498936332
 10
-19.0862662046
 20
40.7415712029
 10
-19.08491768
 20
40.7333613483
 10
-19.0838719728
 20
40.7252454729
 10
-19.0831290829
 20
40.7172235769
  0
LWPOLYLINE
  5
293
100
AcDbEntity
  8
0
100
AcDbPolyline
 62
253
  6
CONTINUOUS
 90
55
 70
0
 10
35.4812407505
 20
8.5244835725
 10
35.3978682174
 20
8.4520790584
 10
35.3210976162
 20
8.3772801446
 10
35.2511347282
 20
8.3002873267
 10
35.1881670846
 20
8.2213069776
 10
35.1323634717
 20
8.1405508044
 10
35.0838734755
 20
8.0582352819
 10
35.0428270732
 20
7.9745810626
 10
35.0093342808
 20
7.889812371
 10
34.9834848686
 20
7.8041564122
 10
34.9653481251
 20
7.7178427755
 10
34.9549726698
 20
7.6311028296
 10
34.952386315
 20
7.5441690888
 10
34.9575959913
 20
7.4572745821
 10
34.9705877328
 20
7.3706522208
 10
34.9913267163
 20
7.2845341851
 10
35.0197573521
 20
7.1991513127
 10
35.0558034339
 20
7.114732468
 10
35.0993683492
 20
7.0315039207
 10
35.1503353403
 20
6.9496887441
 10
35.2085677869
 20
6.8695062612
 10
35.2739095648
 20
6.7911714418
 10
35.3461854937
 20
6.7148942837
 10
35.4252018546
 20
6.6408792151
 10
35.5107468837
 20
6.5693245933
 10
35.6025912979
 20
6.5004222082
 10
35.7004889013
 20
6.4343567624
 10
35.8041772891
 20
6.3713053408
 10
35.9133785513
 20
6.3114369413
 10
36.027799962
 20
6.2549120526
 10
36.1471347587
 20
6.2018822154
 10
36.2710630089
 20
6.1524895914
 10
36.399252574
 20
6.1068665478
 10
36.5313599498
 20
6.0651353397
 10
36.6670310997
 20
6.0274078139
 10
36.8059023027
 20
5.9937851245
 10
36.9476012274
 20
5.9643574199
 10
37.0917480114
 20
5.939203584
 10
37.2379563128
 20
5.9183910288
 10
37.385834252
 20
5.9019755364
 10
37.5349854439
 20
5.8900011075
 10
37.6850100976
 20
5.8824998383
 10
37.8355061159
 20
5.8794918352
 10
37.9860701441
 20
5.8809851651
 10
38.136298556
 20
5.8869758298
 10
38.2857885754
 20
5.8974477666
 10
38.4341394381
 20
5.9123728931
 10
38.5809535603
 20
5.9317112014
 10
38.7258375078
 20
5.9554108673
 10
38.8684029632
 20
5.9834083765
 10
39.0082677417
 20
6.0156286798
 10
39.1450569115
 20
6.0519854072
 10
39.2784038046
 20
6.0923811033
 10
39.407950998
 20
6.1367074919
 10
39.5333512445
 20
6.1848457581
  0
LWPOLYLINE
  5
294
100
AcDbEntity
  8
0
100
AcDbPolyline
 62
7
  6
CONTINUOUS
 90
3
 70
0
 10
36.5811600748
 20
7.5640205324
 10
36.6361305829
 20
7.6112478978
 10
36.6619095184
 20
7.6331060964
  0
LWPOLYLINE
  5
295
100
AcDbEntity
  8
0
100
AcDbPolyline
 62
7
  6
CONTINUOUS
 90
3
 70
0
 10
37.0761348217
 20
7.2782283171
 10
37.1311053298
 20
7.3254556825
 10
37.1568842652
 20
7.3473138811
  0
LWPOLYLINE
  5
296
100
AcDbEntity
  8
0
100
AcDbPolyline
 62
7
  6
CONTINUOUS
 90
13
 70
0
 10
35.4396687885
 20
8.5089716757
 10
35.3977285474
 20
8.4738854858
 10
35.3136189366
 20
8.3976183299
 10
35.2360418393
 20
8.3188190205
 10
35.1650492308
 20
8.2375291635
 10
35.1009032252
 20
8.1540291684
 10
35.0439823337
 20
8.0688811821
 10
34.9943824324
 20
7.9824059994
 10
34.9520586051
 20
7.8947225246
 10
34.917058795
 20
7.8061501256
 10
34.8893757363
 20
7.7169736119
 10
34.8689609223
 20
7.6274239785
 10
34.8557575312
 20
7.5377659915
  0
LWPOLYLINE
  5
297
100
AcDbEntity
  8
0
100
AcDbPolyline
 62
7
  6
CONTINUOUS
 90
3
 70
0
 10
36.6619095184
 20
7.6331060964
 10
36.7105870745
 20
7.6738075711
 10
36.7337928929
 20
7.692983077
  0
LWPOLYLINE
  5
298
100
AcDbEntity
  8
0
100
AcDbPolyline
 62
7
  6
CONTINUOUS
 90
3
 70
0
 10
37.1568842652
 20
7.3473138811
 10
37.2055618213
 20
7.3880153558
 10
37.2287676397
 20
7.4071908617
  0
LINE
  5
299
100
AcDbEntity
  8
0
100
AcDbLine
 62
7
  6
CONTINUOUS
 10
36.7337928929
 20
7.692983077
 11
36.7783131658
 21
7.7293041992
  0
LINE
  5
29A
100
AcDbEntity
  8
0
100
AcDbLine
 62
7
  6
CONTINUOUS
 10
37.2287676397
 20
7.4071908617
 11
37.2732879127
 21
7.4435119839
  0
LWPOLYLINE
  5
29B
100
AcDbEntity
  8
0
100
AcDbPolyline
 62
7
  6
CONTINUOUS
 90
3
 70
0
 10
36.7783131658
 20
7.7293041992
 10
36.8214852961
 20
7.7640003312
 10
36.8424777821
 20
7.7806579112
  0
LWPOLYLINE
  5
29C
100
AcDbEntity
  8
0
100
AcDbPolyline
 62
7
  6
CONTINUOUS
 90
3
 70
0
 10
37.2732879127
 20
7.4435119839
 10
37.316460043
 20
7.4782081159
 10
37.3374525289
 20
7.4948656958
  0
LWPOLYLINE
  5
29D
100
AcDbEntity
  8
0
100
AcDbPolyline
 62
7
  6
CONTINUOUS
 90
13
 70
0
 10
38.8792209941
 20
8.3850634847
 10
38.8586983501
 20
8.3686506233
 10
38.8388620101
 20
8.3525857478
 10
38.8197119742
 20
8.3368688582
 10
38.8012571429
 20
8.3214847254
 10
38.7834886157
 20
8.3064485784
 10
38.7663796907
 20
8.2918061048
 10
38.749974777
 20
8.2776018594
 10
38.7342294655
 20
8.2637912873
 10
38.7189838278
 20
8.2502864117
 10
38.7042588048
 20
8.2371144608
 10
38.6900334555
 20
8.2242482062
 10
38.6624101956
 20
8.1989287427
  0
LINE
  5
29E
100
AcDbEntity
  8
0
100
AcDbLine
 62
7
  6
CONTINUOUS
 10
39.2336394981
 20
6.8495791607
 11
39.0380071236
 21
6.7366234795
  0
LWPOLYLINE
  5
29F
100
AcDbEntity
  8
0
100
AcDbPolyline
 62
7
  6
CONTINUOUS
 90
14
 70
0
 10
-18.3867596379
 20
-23.3287495916
 10
-18.0747061171
 20
-23.1641020292
 10
-17.6320611084
 20
-22.9805352909
 10
-17.1658950791
 20
-22.8417822724
 10
-16.6793420182
 20
-22.7490776388
 10
-16.1711915902
 20
-22.7025820658
 10
-15.6426541307
 20
-22.7021348776
 10
-15.1004946347
 20
-22.7484887123
 10
-14.5446858632
 20
-22.8424024103
 10
-13.9752550553
 20
-22.9831171312
 10
-13.3990489233
 20
-23.1691089917
 10
-12.8183497046
 20
-23.3998700306
 10
-12.2308751619
 20
-23.675908209
 10
-11.636625295
 20
-23.997223527
  0
LINE
  5
2A0
100
AcDbEntity
  8
0
100
AcDbLine
 62
7
  6
CONTINUOUS
 10
-37.4481029857
 20
-26.5880589533
 11
-37.0562821949
 21
-26.4430535541
  0
LWPOLYLINE
  5
2A1
100
AcDbEntity
  8
0
100
AcDbPolyline
 62
7
  6
CONTINUOUS
 90
49
 70
0
 10
36.1883475317
 20
8.9327581658
 10
36.2296210906
 20
8.9346376795
 10
36.2715310064
 20
8.935815523
 10
36.3140772792
 20
8.9362916965
 10
36.3573932814
 20
8.9360730381
 10
36.4013456406
 20
8.9351527097
 10
36.4455342392
 20
8.9335101964
 10
36.4899697758
 20
8.9311191857
 10
36.5346415519
 20
8.9280059903
 10
36.5791173542
 20
8.9242290332
 10
36.6233748381
 20
8.9197681454
 10
36.6674363483
 20
8.914643496
 10
36.7109367058
 20
8.9089740153
 10
36.7537787033
 20
8.9027637605
 10
36.7960595481
 20
8.8960086744
 10
36.8377056831
 20
8.8888155157
 10
36.8787009465
 20
8.8811881161
 10
36.9190615001
 20
8.8731226439
 10
36.9587622729
 20
8.8647143625
 10
36.9978684784
 20
8.8559465407
 10
37.036314903
 20
8.8468359098
 10
37.0738808342
 20
8.8375279273
 10
37.1106029944
 20
8.8280049799
 10
37.1464446612
 20
8.8182846808
 10
37.181074955
 20
8.8085653272
 10
37.2144113372
 20
8.7988671675
 10
37.2465363464
 20
8.7891699532
 10
37.2773667189
 20
8.779611236
 10
37.3067608076
 20
8.7702448731
 10
37.3348602596
 20
8.7610170073
 10
37.3620067529
 20
8.7519036178
 10
37.3881590848
 20
8.7429342416
 10
37.413358458
 20
8.7340793417
 10
37.4380701591
 20
8.7252262867
 10
37.4622977221
 20
8.7163879324
 10
37.4860376129
 20
8.7075514229
 10
37.5097445165
 20
8.6985655588
 10
37.5335121811
 20
8.6894032687
 10
37.5572468584
 20
8.680091624
 10
37.5811219885
 20
8.6705606387
 10
37.6052169306
 20
8.6607798929
 10
37.6294523255
 20
8.6507798065
 10
37.653763535
 20
8.6405816537
 10
37.678168566
 20
8.63017537
 10
37.7026494117
 20
8.6195710199
 10
37.727087413
 20
8.6088200705
 10
37.751443017
 20
8.5979396777
 10
37.7757557765
 20
8.5869126856
 10
37.8000256917
 20
8.5757390943
  0
LWPOLYLINE
  5
2A2
100
AcDbEntity
  8
0
100
AcDbPolyline
 62
7
  6
CONTINUOUS
 90
59
 70
0
 10
36.8925477182
 20
4.4010091474
 10
36.9942966329
 20
4.3831169274
 10
37.0970369275
 20
4.3672251895
 10
37.2007652224
 20
4.3533271144
 10
37.3051271244
 20
4.3414701857
 10
37.4101248005
 20
4.331661385
 10
37.5157560835
 20
4.3238937307
 10
37.6216600783
 20
4.3181937613
 10
37.7278377176
 20
4.3145685493
 10
37.8342880688
 20
4.3130110224
 10
37.9406474382
 20
4.3135265018
 10
38.0469155146
 20
4.3161220782
 10
38.1530926092
 20
4.3207906609
 10
38.2588159621
 20
4.3275162995
 10
38.3640840212
 20
4.3363060301
 10
38.4688983387
 20
4.3471528166
 10
38.5729008104
 20
4.3600196004
 10
38.6760886596
 20
4.3749132907
 10
38.7784646631
 20
4.3918269782
 10
38.8796790476
 20
4.4107028764
 10
38.9797278398
 20
4.431547697
 10
39.0786150131
 20
4.4543547282
 10
39.1760027138
 20
4.4790460486
 10
39.2718858131
 20
4.5056281034
 10
39.3662694398
 20
4.5340944473
 10
39.4588311271
 20
4.5643478236
 10
39.5495646432
 20
4.5963943447
 10
39.6384762197
 20
4.6302278982
 10
39.7252620855
 20
4.6657328898
 10
39.8099149695
 20
4.7029150365
 10
39.8924421428
 20
4.7417686214
 10
39.9725616465
 20
4.782160899
 10
40.0502652455
 20
4.8240971323
 10
40.125561175
 20
4.8675720583
 10
40.1981921823
 20
4.9124371425
 10
40.2681491521
 20
4.9586971399
 10
40.3354411996
 20
5.0063472954
 10
40.399838418
 20
5.0552248097
 10
40.4613309054
 20
5.1053338809
 10
40.5199285636
 20
5.1566703109
 10
40.5754311904
 20
5.2090587059
 10
40.6278281994
 20
5.2625026641
 10
40.677130177
 20
5.3169985873
 10
40.7231686802
 20
5.3723602871
 10
40.7659325465
 20
5.4285907249
 10
40.8054329384
 20
5.4856869394
 10
40.8415349007
 20
5.5434538581
 10
40.8742268091
 20
5.6018937752
 10
40.9035202879
 20
5.6610043966
 10
40.9293152543
 20
5.7205837674
 10
40.9515997417
 20
5.7806334912
 10
40.9703857166
 20
5.8411519644
 10
40.9856089958
 20
5.9019324225
 10
40.9972573931
 20
5.9629757614
 10
41.0053430947
 20
6.0242810851
 10
41.0098384753
 20
6.0856389406
 10
41.0107312543
 20
6.1470495075
 10
41.0080337122
 20
6.2085126061
 10
41.0048129235
 20
6.2442402506
  0
LWPOLYLINE
  5
2A3
100
AcDbEntity
  8
0
100
AcDbPolyline
 62
7
  6
CONTINUOUS
 90
4
 70
0
 10
36.5942662994
 20
4.4664505473
 10
36.6923581453
 20
4.4427066345
 10
36.7917868039
 20
4.4208950302
 10
36.8925477182
 20
4.4010091474
  0
LINE
  5
2A4
100
AcDbEntity
  8
0
100
AcDbLine
 62
253
  6
CONTINUOUS
 10
34.1172014601
 20
-4.1135485342
 11
34.3213322894
 21
-4.2314111166
  0
LWPOLYLINE
  5
2A5
100
AcDbEntity
  8
0
100
AcDbPolyline
 62
7
  6
CONTINUOUS
 90
6
 70
0
 10
34.0324883056
 20
-4.9086615468
 10
33.9987484584
 20
-4.8879116014
 10
33.9058546564
 20
-4.8144056217
 10
33.825453638
 20
-4.7239664831
 10
33.7565317292
 20
-4.6161647404
 10
33.6703675304
 20
-4.4284182199
  0
LINE
  5
2A6
100
AcDbEntity
  8
0
100
AcDbLine
 62
7
  6
CONTINUOUS
 10
-22.2875807566
 20
42.4468727572
 11
-22.3040507091
 21
42.4625303405
  0
LINE
  5
2A7
100
AcDbEntity
  8
0
100
AcDbLine
 62
7
  6
CONTINUOUS
 10
-22.2711202316
 20
42.4310594562
 11
-22.2875807566
 21
42.4468727572
  0
LINE
  5
2A8
100
AcDbEntity
  8
0
100
AcDbLine
 62
7
  6
CONTINUOUS
 10
-20.5177486256
 20
41.3492818026
 11
-20.768189754
 21
41.6163657493
  0
LWPOLYLINE
  5
2A9
100
AcDbEntity
  8
0
100
AcDbPolyline
 62
7
  6
CONTINUOUS
 90
4
 70
0
 10
36.8424777821
 20
7.7806579112
 10
36.882836766
 20
7.8342621751
 10
36.9019868019
 20
7.8593905508
 10
36.9204416332
 20
7.8833688758
  0
LINE
  5
2AA
100
AcDbEntity
  8
0
100
AcDbLine
 62
7
  6
CONTINUOUS
 10
36.9204416332
 20
7.8833688758
 11
36.9553190855
 21
7.9280806532
  0
LINE
  5
2AB
100
AcDbEntity
  8
0
100
AcDbLine
 62
7
  6
CONTINUOUS
 10
36.9553190855
 20
7.9280806532
 11
36.9874693107
 21
7.9686393092
  0
LINE
  5
2AC
100
AcDbEntity
  8
0
100
AcDbLine
 62
7
  6
CONTINUOUS
 10
36.9874693107
 20
7.9686393092
 11
37.0174399714
 21
8.0058871455
  0
LINE
  5
2AD
100
AcDbEntity
  8
0
100
AcDbLine
 62
7
  6
CONTINUOUS
 10
37.0174399714
 20
8.0058871455
 11
37.045613748
 21
8.0403827448
  0
LINE
  5
2AE
100
AcDbEntity
  8
0
100
AcDbLine
 62
7
  6
CONTINUOUS
 10
37.045613748
 20
8.0403827448
 11
37.0726864912
 21
8.0730839642
  0
LINE
  5
2AF
100
AcDbEntity
  8
0
100
AcDbLine
 62
7
  6
CONTINUOUS
 10
37.0726864912
 20
8.0730839642
 11
37.0993607811
 21
8.1048644793
  0
LINE
  5
2B0
100
AcDbEntity
  8
0
100
AcDbLine
 62
7
  6
CONTINUOUS
 10
37.0993607811
 20
8.1048644793
 11
37.1258493881
 21
8.1359936167
  0
LWPOLYLINE
  5
2B1
100
AcDbEntity
  8
0
100
AcDbPolyline
 62
7
  6
CONTINUOUS
 90
11
 70
0
 10
36.2512876409
 20
7.2612087609
 10
36.2873073717
 20
7.2958861148
 10
36.3227300848
 20
7.3296310649
 10
36.3575557802
 20
7.3624436113
 10
36.3918546323
 20
7.3943639693
 10
36.4255564667
 20
7.4253519236
 10
36.4584507605
 20
7.4552868281
 10
36.4905527666
 20
7.4841763569
 10
36.5218472321
 20
7.5120128358
 10
36.5520778747
 20
7.5386525963
 10
36.5811600748
 20
7.5640205324
  0
LWPOLYLINE
  5
2B2
100
AcDbEntity
  8
0
100
AcDbPolyline
 62
7
  6
CONTINUOUS
 90
11
 70
0
 10
36.7462623877
 20
6.9754165456
 10
36.7822821185
 20
7.0100938995
 10
36.8177048316
 20
7.0438388496
 10
36.852530527
 20
7.076651396
 10
36.8868293791
 20
7.108571754
 10
36.9205312135
 20
7.1395597083
 10
36.9534255073
 20
7.1694946128
 10
36.9855275135
 20
7.1983841416
 10
37.016821979
 20
7.2262206205
 10
37.0470526216
 20
7.2528603809
 10
37.0761348217
 20
7.2782283171
  0
LINE
  5
2B3
100
AcDbEntity
  8
0
100
AcDbLine
 62
7
  6
CONTINUOUS
 10
38.622337995
 20
8.1613622418
 11
38.5958493881
 21
8.1359936167
  0
LWPOLYLINE
  5
2B4
100
AcDbEntity
  8
0
100
AcDbPolyline
 62
7
  6
CONTINUOUS
 90
3
 70
0
 10
38.6624101956
 20
8.1989287427
 10
38.649012285
 20
8.1864755338
 10
38.622337995
 20
8.1613622418
  0
LWPOLYLINE
  5
2B5
100
AcDbEntity
  8
0
100
AcDbPolyline
 62
253
  6
CONTINUOUS
 90
55
 70
0
 10
40.2404580257
 20
6.5931203514
 10
40.3238305587
 20
6.6655248654
 10
40.40060116
 20
6.7403237792
 10
40.470564048
 20
6.8173165972
 10
40.5335316916
 20
6.8962969463
 10
40.5893353045
 20
6.9770531194
 10
40.6378253007
 20
7.0593686419
 10
40.678871703
 20
7.1430228612
 10
40.7123644953
 20
7.2277915529
 10
40.7382139076
 20
7.3134475116
 10
40.756350651
 20
7.3997611484
 10
40.7667261064
 20
7.4865010942
 10
40.7693124612
 20
7.5734348351
 10
40.7641027848
 20
7.6603293418
 10
40.7511110434
 20
7.746951703
 10
40.7303720599
 20
7.8330697388
 10
40.7019414241
 20
7.9184526111
 10
40.6658953423
 20
8.0028714558
 10
40.622330427
 20
8.0861000031
 10
40.5713634358
 20
8.1679151798
 10
40.5131309893
 20
8.2480976627
 10
40.4477892114
 20
8.3264324821
 10
40.3755132825
 20
8.4027096401
 10
40.2964969216
 20
8.4767247087
 10
40.2109518925
 20
8.5482793306
 10
40.1191074783
 20
8.6171817156
 10
40.0212098749
 20
8.6832471614
 10
39.917521487
 20
8.7462985831
 10
39.8083202248
 20
8.8061669825
 10
39.6938988142
 20
8.8626918713
 10
39.5745640175
 20
8.9157217085
 10
39.4506357673
 20
8.9651143325
 10
39.3224462021
 20
9.010737376
 10
39.1903388263
 20
9.0524685841
 10
39.0546676765
 20
9.09019611
 10
38.9157964735
 20
9.1238187994
 10
38.7740975488
 20
9.153246504
 10
38.6299507648
 20
9.1784003399
 10
38.4837424633
 20
9.199212895
 10
38.3358645241
 20
9.2156283875
 10
38.1867133322
 20
9.2276028164
 10
38.0366886786
 20
9.2351040855
 10
37.8861926602
 20
9.2381120886
 10
37.735628632
 20
9.2366187587
 10
37.5854002202
 20
9.230628094
 10
37.4359102007
 20
9.2201561573
 10
37.2875593381
 20
9.2052310307
 10
37.1407452159
 20
9.1858927225
 10
36.9958612684
 20
9.1621930566
 10
36.853295813
 20
9.1341955473
 10
36.7134310344
 20
9.101975244
 10
36.5766418647
 20
9.0656185167
 10
36.4432949716
 20
9.0252228205
 10
36.3137477781
 20
8.9808964319
 10
36.1883475317
 20
8.9327581658
  0
LWPOLYLINE
  5
2B6
100
AcDbEntity
  8
0
100
AcDbPolyline
 62
253
  6
CONTINUOUS
 90
16
 70
0
 10
40.3138405367
 20
6.4221577374
 10
40.3928614467
 20
6.4895475321
 10
40.4663428829
 20
6.5590082457
 10
40.5341215026
 20
6.6303884115
 10
40.596047933
 20
6.7035342228
 10
40.6519820774
 20
6.7782840366
 10
40.7017950466
 20
6.8544683176
 10
40.7453796556
 20
6.9319261346
 10
40.7826351485
 20
7.0104818536
 10
40.8134701231
 20
7.0899383481
 10
40.8378151505
 20
7.1700948984
 10
40.8556327887
 20
7.250800623
 10
40.8668942329
 20
7.331931103
 10
40.8715677798
 20
7.4133505096
 10
40.8696279745
 20
7.4948387719
 10
40.865941245
 20
7.5377659915
  0
LWPOLYLINE
  5
2B7
100
AcDbEntity
  8
0
100
AcDbPolyline
 62
7
  6
CONTINUOUS
 90
10
 70
0
 10
40.3195101665
 20
6.3450934239
 10
40.25306366
 20
6.2932878239
 10
40.1834664022
 20
6.2430230746
 10
40.110718393
 20
6.1942991759
 10
40.0346589354
 20
6.1470233433
 10
39.9554487264
 20
6.1012883614
 10
39.8735698578
 20
6.0573725838
 10
39.7891830267
 20
6.0153687951
 10
39.7021275358
 20
5.9751842107
 10
39.6124033853
 20
5.9368188306
  0
LWPOLYLINE
  5
2B8
100
AcDbEntity
  8
0
100
AcDbPolyline
 62
7
  6
CONTINUOUS
 90
7
 70
0
 10
34.1838941259
 20
-4.3198479611
 10
34.3350270168
 20
-4.2225990193
 10
34.481163468
 20
-4.1114041003
 10
34.6223034793
 20
-3.986263204
 10
34.7598027016
 20
-3.8455313239
 10
34.892305484
 20
-3.6908534665
 10
34.9254843061
 20
-3.646856149
  0
LWPOLYLINE
  5
2B9
100
AcDbEntity
  8
0
100
AcDbPolyline
 62
7
  6
CONTINUOUS
 90
7
 70
0
 10
51.1544568744
 20
5.4787422788
 10
51.3028854403
 20
5.5741998237
 10
51.4463752395
 20
5.6828804923
 10
51.5849262719
 20
5.8047842846
 10
51.7197049778
 20
5.941349959
 10
51.8495449169
 20
6.0911387571
 10
51.8957840619
 20
6.1515822421
  0
LWPOLYLINE
  5
2BA
100
AcDbEntity
  8
RACCORDO
100
AcDbPolyline
 62
7
  6
CONTINUOUS
 90
19
 70
0
 10
75.6910621816
 20
21.0337359911
 10
75.8574763984
 20
21.1341635522
 10
76.01559509
 20
21.2382664042
 10
76.1654182566
 20
21.3460445469
 10
76.3071991913
 20
21.4577168565
 10
76.4406846009
 20
21.5730644569
 10
76.5651146059
 20
21.69143072
 10
76.6804375594
 20
21.8128328624
 10
76.7867051084
 20
21.9372536675
 10
76.8833123138
 20
22.063984857
 10
76.9702040786
 20
22.193039608
 10
77.0474354998
 20
22.3244047434
 10
77.1145669296
 20
22.4573324535
 10
77.1715407634
 20
22.5918316505
 10
77.2184146058
 20
22.7278934222
 10
77.2549216226
 20
22.8647432231
 10
77.2810026873
 20
23.0023855474
 10
77.2967169265
 20
23.1408159009
 10
77.301974885
 20
23.2792462544
  0
LINE
  5
2BB
100
AcDbEntity
  8
RACCORDO
100
AcDbLine
 62
7
  6
CONTINUOUS
 10
12.0514518748
 20
-15.7109774084
 11
75.6910621816
 21
21.0337359911
  0
LINE
  5
2BC
100
AcDbEntity
  8
RACCORDO
100
AcDbLine
 62
7
  6
CONTINUOUS
 10
12.0514518748
 20
-16.8540357959
 11
75.6910621816
 21
19.8906776036
  0
LINE
  5
2BD
100
AcDbEntity
  8
0
100
AcDbLine
 62
253
  6
CONTINUOUS
 10
36.2571671347
 20
-3.2861548572
 11
50.7782401404
 21
5.0981307045
  0
LWPOLYLINE
  5
2BE
100
AcDbEntity
  8
RACCORDO
100
AcDbPolyline
 62
7
  6
CONTINUOUS
 90
37
 70
0
 10
12.0514518748
 20
-16.8540357959
 10
11.8775174427
 20
-16.9501212791
 10
11.6972176304
 20
-17.0414170299
 10
11.5105524378
 20
-17.1279230486
 10
11.3171427849
 20
-17.2097855834
 10
11.1173677517
 20
-17.2868583859
 10
10.9123645782
 20
-17.3587027113
 10
10.7021034462
 20
-17.4252887393
 10
10.4866141739
 20
-17.4866462903
 10
10.2671234563
 20
-17.5424260799
 10
10.0436084713
 20
-17.5925962959
 10
9.8160920411
 20
-17.6371887506
 10
9.5858693263
 20
-17.6759495968
 10
9.3529248919
 20
-17.7088455744
 10
9.1172741729
 20
-17.7359099435
 10
8.8802586355
 20
-17.7569886374
 10
8.6418704954
 20
-17.7720475173
 10
8.4021175368
 20
-17.7811207221
 10
8.1623645782
 20
-17.7841566014
 10
7.9226116197
 20
-17.7811207221
 10
7.6828586611
 20
-17.7720475173
 10
7.444470521
 20
-17.7569886374
 10
7.2074549836
 20
-17.7359099435
 10
6.9718042646
 20
-17.7088455744
 10
6.7388598302
 20
-17.6759495968
 10
6.5086371154
 20
-17.6371887506
 10
6.2811206852
 20
-17.5925962959
 10
6.0576057002
 20
-17.5424260799
 10
5.8381149826
 20
-17.4866462903
 10
5.6226257103
 20
-17.4252887393
 10
5.4123645782
 20
-17.3587027113
 10
5.2073614048
 20
-17.2868583859
 10
5.0075863716
 20
-17.2097855834
 10
4.8141767187
 20
-17.1279230486
 10
4.6275115261
 20
-17.0414170299
 10
4.4472117138
 20
-16.9501212791
 10
4.2732772817
 20
-16.8540357959
  0
LWPOLYLINE
  5
2BF
100
AcDbEntity
  8
0
100
AcDbPolyline
 62
7
  6
CONTINUOUS
 90
10
 70
0
 10
52.0029850118
 20
4.9888127668
 10
51.8782238343
 20
4.9233765439
 10
51.7562268779
 20
4.871481862
 10
51.6369941428
 20
4.8331287212
 10
51.5196620581
 20
4.8082305038
 10
51.4050941946
 20
4.7968738274
 10
51.2958812649
 20
4.799318545
 10
51.1921460464
 20
4.815881094
 10
51.0937657616
 20
4.8462450371
 10
51.0029391039
 20
4.8897345896
  0
LINE
  5
2C0
100
AcDbEntity
  8
0
100
AcDbLine
 62
7
  6
CONTINUOUS
 10
34.03546556
 20
-4.3957920036
 11
34.1838941259
 21
-4.3198479611
  0
LWPOLYLINE
  5
2C1
100
AcDbEntity
  8
0
100
AcDbPolyline
 62
7
  6
CONTINUOUS
 90
9
 70
0
 10
35.0324222633
 20
-4.809777473
 10
34.8839936974
 20
-4.8857215156
 10
34.7405038982
 20
-4.9427392704
 10
34.6019528658
 20
-4.9808307374
 10
34.4671741599
 20
-4.9999041343
 10
34.3373342208
 20
-5.0000512433
 10
34.2159323688
 20
-4.9815474119
 10
34.10312137
 20
-4.9440549769
 10
34.0324883056
 20
-4.9086615468
  0
LINE
  5
2C2
100
AcDbEntity
  8
0
100
AcDbLine
 62
7
  6
CONTINUOUS
 10
37.8000256917
 20
8.5757390943
 11
37.8304399165
 21
8.5681380129
  0
LINE
  5
2C3
100
AcDbEntity
  8
0
100
AcDbLine
 62
7
  6
CONTINUOUS
 10
37.8304399165
 20
8.5681380129
 11
37.8608493881
 21
8.560373405
  0
LINE
  5
2C4
100
AcDbEntity
  8
0
100
AcDbLine
 62
7
  6
CONTINUOUS
 10
37.8000256917
 20
7.7998121831
 11
37.3374525289
 21
7.9444137519
  0
LINE
  5
2C5
100
AcDbEntity
  8
0
100
AcDbLine
 62
7
  6
CONTINUOUS
 10
37.8912588596
 20
7.7003662772
 11
37.8608493881
 21
7.7116138284
  0
LINE
  5
2C6
100
AcDbEntity
  8
0
100
AcDbLine
 62
7
  6
CONTINUOUS
 10
37.9216730844
 20
7.6889522277
 11
37.8912588596
 21
7.7003662772
  0
LWPOLYLINE
  5
2C7
100
AcDbEntity
  8
0
100
AcDbPolyline
 62
253
  6
CONTINUOUS
 90
31
 70
0
 10
35.7318498813
 20
6.2009518575
 10
35.8335707132
 20
6.1449005082
 10
35.9397120474
 20
6.0916528439
 10
36.0500422827
 20
6.0413249194
 10
36.1642833694
 20
5.9940411153
 10
36.2822210094
 20
5.9498877599
 10
36.4037166775
 20
5.9089231238
 10
36.5285704978
 20
5.8712301019
 10
36.6564646956
 20
5.8369197531
 10
36.7870784411
 20
5.8060878462
 10
36.9201626328
 20
5.7788019728
 10
37.0553961502
 20
5.7551366115
 10
37.1923313869
 20
5.7351704487
 10
37.330563216
 20
5.7189520281
 10
37.4698852775
 20
5.7064951546
 10
37.6101415559
 20
5.6978138994
 10
37.7511397424
 20
5.6929311391
 10
37.8924566634
 20
5.6918724672
 10
38.0335895851
 20
5.6946401365
 10
38.174153682
 20
5.701214239
 10
38.3139171925
 20
5.7115715529
 10
38.4526095155
 20
5.7256840634
 10
38.5899042828
 20
5.743510897
 10
38.725529411
 20
5.765008994
 10
38.8592967755
 20
5.7901464509
 10
38.9909579134
 20
5.8188812481
 10
39.120177191
 20
5.8511448844
 10
39.2466400749
 20
5.8868600299
 10
39.3700604493
 20
5.92594506
 10
39.4901791072
 20
5.9683170476
 10
39.6067337556
 20
6.013883144
  0
LWPOLYLINE
  5
2C8
100
AcDbEntity
  8
0
100
AcDbPolyline
 62
7
  6
CONTINUOUS
 90
12
 70
0
 10
35.6334630273
 20
4.8456483656
 10
35.7101164041
 20
4.8028710203
 10
35.7890393839
 20
4.7617008032
 10
35.870231967
 20
4.7221377142
 10
35.9537919003
 20
4.6841403102
 10
36.0396214368
 20
4.6477500344
 10
36.1274273351
 20
4.6130912161
 10
36.2172163552
 20
4.5801697777
 10
36.308981737
 20
4.5489797969
 10
36.4024099592
 20
4.519627836
 10
36.4975067092
 20
4.4921201817
 10
36.5942662994
 20
4.4664505473
  0
LWPOLYLINE
  5
2C9
100
AcDbEntity
  8
0
100
AcDbPolyline
 62
7
  6
CONTINUOUS
 90
12
 70
0
 10
-23.7635065923
 20
39.1407142052
 10
-23.6868532156
 20
39.0979368599
 10
-23.6079302357
 20
39.0567666427
 10
-23.5267376527
 20
39.0172035537
 10
-23.4431777194
 20
38.9792061497
 10
-23.3573481829
 20
38.9428158739
 10
-23.2695422846
 20
38.9081570556
 10
-23.1797532645
 20
38.8752356173
 10
-23.0879878826
 20
38.8440456364
 10
-22.9945596605
 20
38.8146936755
 10
-22.8994629105
 20
38.7871860212
 10
-22.8027033203
 20
38.7615163869
  0
LWPOLYLINE
  5
2CA
100
AcDbEntity
  8
0
100
AcDbPolyline
 62
7
  6
CONTINUOUS
 90
26
 70
0
 10
-23.7635065923
 20
39.1407142052
 10
-23.8375943544
 20
39.1849729042
 10
-23.9088986682
 20
39.2305420436
 10
-23.9774195338
 20
39.2774216235
 10
-24.043228728
 20
39.3256680817
 10
-24.106254474
 20
39.3752249804
 10
-24.1662814407
 20
39.4259230056
 10
-24.2232993711
 20
39.4777660605
 10
-24.2773185222
 20
39.5307502419
 10
-24.3281543346
 20
39.5846945264
 10
-24.3757959198
 20
39.639602198
 10
-24.4202541664
 20
39.6954699727
 10
-24.4613771802
 20
39.7521069752
 10
-24.4991535533
 20
39.8095158365
 10
-24.5335946936
 20
39.8676939256
 10
-24.5645829311
 20
39.9264424738
 10
-24.5921064553
 20
39.9857634322
 10
-24.6161770767
 20
40.0456548497
 10
-24.6367125566
 20
40.1059121039
 10
-24.6537008032
 20
40.1665364461
 10
-24.6671539085
 20
40.2275266251
 10
-24.6770259089
 20
40.2886742644
 10
-24.6833045557
 20
40.3499799026
 10
-24.6860020978
 20
40.4114430013
 10
-24.6851093188
 20
40.4728535681
 10
-24.68007894
 20
40.5393059171
  0
LWPOLYLINE
  5
2CB
100
AcDbEntity
  8
0
100
AcDbPolyline
 62
7
  6
CONTINUOUS
 90
26
 70
0
 10
35.6334630273
 20
4.8456483656
 10
35.5593752653
 20
4.8899070646
 10
35.4880709514
 20
4.9354762041
 10
35.4195500859
 20
4.982355784
 10
35.3537408917
 20
5.0306022422
 10
35.2907151457
 20
5.0801591409
 10
35.2306881789
 20
5.1308571661
 10
35.1736702486
 20
5.182700221
 10
35.1196510975
 20
5.2356844024
 10
35.0688152851
 20
5.2896286869
 10
35.0211736998
 20
5.3445363585
 10
34.9767154533
 20
5.4004041332
 10
34.9355924394
 20
5.4570411357
 10
34.8978160664
 20
5.514449997
 10
34.863374926
 20
5.5726280861
 10
34.8323866885
 20
5.6313766342
 10
34.8048631644
 20
5.6906975927
 10
34.780792543
 20
5.7505890102
 10
34.7602570631
 20
5.8108462644
 10
34.7432688164
 20
5.8714706066
 10
34.7298157112
 20
5.9324607856
 10
34.7199437107
 20
5.9936084249
 10
34.7136650639
 20
6.0549140631
 10
34.7109675219
 20
6.1163771617
 10
34.7118603009
 20
6.1777877286
 10
34.7168906797
 20
6.2442400775
  0
LWPOLYLINE
  5
2CC
100
AcDbEntity
  8
0
100
AcDbPolyline
 62
7
  6
CONTINUOUS
 90
8
 70
0
 10
-20.768189754
 20
42.3922926605
 10
-20.7437260679
 20
42.3753043392
 10
-20.7192318289
 20
42.3581264532
 10
-20.694707037
 20
42.3407590026
 10
-20.6701191729
 20
42.3231785069
 10
-20.6455007558
 20
42.3054084465
 10
-20.6209493443
 20
42.2875192631
 10
-20.5964820879
 20
42.2695215907
  0
LWPOLYLINE
  5
2CD
100
AcDbEntity
  8
0
100
AcDbPolyline
 62
7
  6
CONTINUOUS
 90
8
 70
0
 10
-21.304723169
 20
41.8620849316
 10
-21.3290343785
 20
41.8799607541
 10
-21.3534394095
 20
41.8977367886
 10
-21.3779202552
 20
41.9154023054
 10
-21.4023582565
 20
41.9328717474
 10
-21.4267138605
 20
41.9501165955
 10
-21.45102662
 20
41.9671653688
 10
-21.4752965352
 20
41.9840180672
  0
LWPOLYLINE
  5
2CE
100
AcDbEntity
  8
0
100
AcDbPolyline
 62
7
  6
CONTINUOUS
 90
4
 70
0
 10
-20.5964820879
 20
42.2695215907
 10
-20.5477947006
 20
42.2332074173
 10
-20.5236937287
 20
42.2149862295
 10
-20.4997058713
 20
42.1966844592
  0
LWPOLYLINE
  5
2CF
100
AcDbEntity
  8
0
100
AcDbPolyline
 62
7
  6
CONTINUOUS
 90
3
 70
0
 10
-21.2325177019
 20
41.8080156857
 10
-21.256392832
 20
41.8260551021
 10
-21.304723169
 20
41.8620849316
  0
LINE
  5
2D0
100
AcDbEntity
  8
0
100
AcDbLine
 62
7
  6
CONTINUOUS
 10
-21.18501536
 20
41.7716351067
 11
-21.2325177019
 21
41.8080156857
  0
LWPOLYLINE
  5
2D1
100
AcDbEntity
  8
0
100
AcDbPolyline
 62
7
  6
CONTINUOUS
 90
3
 70
0
 10
-20.4997058713
 20
42.1966844592
 10
-20.4516332752
 20
42.1595163595
 10
-20.4275485365
 20
42.1406500303
  0
LINE
  5
2D2
100
AcDbEntity
  8
0
100
AcDbLine
 62
7
  6
CONTINUOUS
 10
-21.1375685656
 20
41.7346671114
 11
-21.18501536
 21
41.7716351067
  0
LWPOLYLINE
  5
2D3
100
AcDbEntity
  8
0
100
AcDbPolyline
 62
7
  6
CONTINUOUS
 90
34
 70
0
 10
-20.4275485365
 20
42.1406500303
 10
-20.3779356743
 20
42.1012467915
 10
-20.3524075507
 20
42.080709882
 10
-20.3259711834
 20
42.0592183642
 10
-20.2985842334
 20
42.0367518163
 10
-20.2702890396
 20
42.01333066
 10
-20.240786041
 20
41.9886232533
 10
-20.2099364166
 20
41.9625201579
 10
-20.1778789874
 20
41.9351308121
 10
-20.1447306554
 20
41.906451889
 10
-20.1104230448
 20
41.876419334
 10
-20.0750245313
 20
41.8450972016
 10
-20.0388571442
 20
41.8126743282
 10
-20.0019738987
 20
41.7791912412
 10
-19.9643217794
 20
41.7446074132
 10
-19.9260637701
 20
41.7089900979
 10
-19.887299385
 20
41.6724352068
 10
-19.8479291099
 20
41.6348468285
 10
-19.8078173856
 20
41.5960044818
 10
-19.7669358926
 20
41.5558895346
 10
-19.7253129504
 20
41.5145206191
 10
-19.6828979586
 20
41.4717331514
 10
-19.6395252434
 20
41.4273518358
 10
-19.5953604786
 20
41.381551968
 10
-19.5508500847
 20
41.3346948506
 10
-19.5059495555
 20
41.2867045978
 10
-19.4607033973
 20
41.2376570954
 10
-19.4156915501
 20
41.1881413033
 10
-19.3709291524
 20
41.1381388821
 10
-19.3264010656
 20
41.0876681713
 10
-19.282641814
 20
41.0373731489
 10
-19.2398295722
 20
40.9874684744
 10
-19.1977861655
 20
40.9377394884
 10
-19.156511594
 20
40.8881861909
  0
LWPOLYLINE
  5
2D4
100
AcDbEntity
  8
0
100
AcDbPolyline
 62
7
  6
CONTINUOUS
 90
3
 70
0
 10
-21.0634299283
 20
41.6755999806
 10
-21.0886293015
 20
41.6958446853
 10
-21.1375685656
 20
41.7346671114
  0
LINE
  5
2D5
100
AcDbEntity
  8
0
100
AcDbLine
 62
7
  6
CONTINUOUS
 10
33.6703675304
 20
-4.4284182199
 11
33.6438098241
 21
-4.3868789318
  0
LWPOLYLINE
  5
2D6
100
AcDbEntity
  8
0
100
AcDbPolyline
 62
253
  6
CONTINUOUS
 90
20
 70
0
 10
34.8557575312
 20
7.5377659915
 10
34.8548045432
 20
7.5284878772
 10
34.8501309964
 20
7.4470684706
 10
34.8520708016
 20
7.3655802083
 10
34.8606169565
 20
7.2842741294
 10
34.8757293152
 20
7.2033792759
 10
34.8973683441
 20
7.123020961
 10
34.9255085492
 20
7.0432944154
 10
34.9601245003
 20
6.9643207968
 10
35.0011326159
 20
6.8863307899
 10
35.0483977738
 20
6.8095800776
 10
35.1017917561
 20
6.734253073
 10
35.1611976839
 20
6.6604936371
 10
35.2264507522
 20
6.5884859633
 10
35.2973596612
 20
6.5184128069
 10
35.3737812843
 20
6.4503895851
 10
35.4556149351
 20
6.3844963829
 10
35.5427115789
 20
6.3208567372
 10
35.6348566534
 20
6.259630745
 10
35.7318498813
 20
6.2009518575
  0
LINE
  5
2D7
100
AcDbEntity
  8
0
100
AcDbLine
 62
7
  6
CONTINUOUS
 10
34.8557575312
 20
7.5377659915
 11
34.7168840685
 21
6.2442403144
  0
LWPOLYLINE
  5
2D8
100
AcDbEntity
  8
0
100
AcDbPolyline
 62
7
  6
CONTINUOUS
 90
5
 70
0
 10
-3.6764909492
 20
-45.6989376422
 10
-4.0148695601
 20
-46.0566946297
 10
-4.3824595385
 20
-46.3722208393
 10
-4.7787414954
 20
-46.6460385286
 10
-4.8864909521
 20
-46.7103949358
  0
LWPOLYLINE
  5
2D9
100
AcDbEntity
  8
0
100
AcDbPolyline
 62
7
  6
CONTINUOUS
 90
49
 70
0
 10
37.0929189105
 20
8.167464501
 10
37.0684552244
 20
8.1787262312
 10
37.0439609854
 20
8.1898336784
 10
37.0194361935
 20
8.2007868428
 10
36.9948483294
 20
8.2115997962
 10
36.9702299123
 20
8.2222584667
 10
36.9456785008
 20
8.2327206381
 10
36.9212112444
 20
8.2429771399
 10
36.8968109935
 20
8.2530371426
 10
36.8725238571
 20
8.2628859411
 10
36.8484228852
 20
8.2724959515
 10
36.8244350278
 20
8.2818947576
 10
36.8003872435
 20
8.2911504058
 10
36.7763624317
 20
8.300239687
 10
36.752277693
 20
8.3091858103
 10
36.7277112884
 20
8.3181264484
 10
36.7026648308
 20
8.3270742612
 10
36.6771367072
 20
8.3360165889
 10
36.6507003399
 20
8.3450531254
 10
36.6233133899
 20
8.3542123409
 10
36.5950181961
 20
8.3634657652
 10
36.5655151975
 20
8.3728276818
 10
36.5346655731
 20
8.3823489594
 10
36.5026081439
 20
8.3919787292
 10
36.4694598119
 20
8.401578669
 10
36.4351522013
 20
8.4111636827
 10
36.3997536878
 20
8.4207188664
 10
36.3635863007
 20
8.430061185
 10
36.3267030551
 20
8.4391699456
 10
36.2890509359
 20
8.4480658411
 10
36.2507929266
 20
8.4566279159
 10
36.2120285415
 20
8.4648371651
 10
36.1726582664
 20
8.4727125936
 10
36.1325465421
 20
8.4801902607
 10
36.0916650491
 20
8.4872842369
 10
36.0500421069
 20
8.4939804517
 10
36.0076271151
 20
8.5001727534
 10
35.9642543999
 20
8.5058771622
 10
35.9200896351
 20
8.5110776578
 10
35.8755792412
 20
8.5156200275
 10
35.830678712
 20
8.5194797803
 10
35.7854325538
 20
8.5226814073
 10
35.7404207066
 20
8.5251441681
 10
35.6956583089
 20
8.5268322418
 10
35.6511302221
 20
8.5277814494
 10
35.6073709705
 20
8.5280185139
 10
35.5645587287
 20
8.5275523431
 10
35.522515322
 20
8.5263740293
 10
35.4812407505
 20
8.5244835725
  0
LWPOLYLINE
  5
2DA
100
AcDbEntity
  8
0
100
AcDbPolyline
 62
7
  6
CONTINUOUS
 90
10
 70
0
 10
36.2512876409
 20
7.2612087609
 10
36.3049039552
 20
7.2317431388
 10
36.3588895186
 20
7.2016913754
 10
36.4132443313
 20
7.1710534707
 10
36.468000432
 20
7.1398109258
 10
36.523125782
 20
7.1079822397
 10
36.5785242642
 20
7.0756229089
 10
36.6341638397
 20
7.0427514324
 10
36.6900765476
 20
7.0093493113
 10
36.7462623877
 20
6.9754165456
  0
LWPOLYLINE
  5
2DB
100
AcDbEntity
  8
0
100
AcDbPolyline
 62
7
  6
CONTINUOUS
 90
10
 70
0
 10
-23.1456819788
 20
41.5562746004
 10
-23.0920656645
 20
41.5268089783
 10
-23.038080101
 20
41.4967572149
 10
-22.9837252884
 20
41.4661193102
 10
-22.9289691876
 20
41.4348767654
 10
-22.8738438377
 20
41.4030480792
 10
-22.8184453555
 20
41.3706887484
 10
-22.7628057799
 20
41.3378172719
 10
-22.7068930721
 20
41.3044151508
 10
-22.6507072319
 20
41.2704823851
  0
LWPOLYLINE
  5
2DC
100
AcDbEntity
  8
0
100
AcDbPolyline
 62
253
  6
CONTINUOUS
 90
31
 70
0
 10
-23.6651197384
 20
40.496017697
 10
-23.5633989064
 20
40.4399663478
 10
-23.4572575723
 20
40.3867186835
 10
-23.346927337
 20
40.336390759
 10
-23.2326862503
 20
40.2891069549
 10
-23.1147486102
 20
40.2449535994
 10
-22.9932529422
 20
40.2039889633
 10
-22.8683991218
 20
40.1662959415
 10
-22.7405049241
 20
40.1319855927
 10
-22.6098911786
 20
40.1011536857
 10
-22.4768069869
 20
40.0738678124
 10
-22.3415734695
 20
40.050202451
 10
-22.2046382328
 20
40.0302362882
 10
-22.0664064037
 20
40.0140178676
 10
-21.9270843422
 20
40.0015609941
 10
-21.7868280638
 20
39.992879739
 10
-21.6458298773
 20
39.9879969786
 10
-21.5045129563
 20
39.9869383067
 10
-21.3633800346
 20
39.989705976
 10
-21.2228159377
 20
39.9962800786
 10
-21.0830524272
 20
40.0066373924
 10
-20.9443601041
 20
40.0207499029
 10
-20.8070653369
 20
40.0385767365
 10
-20.6714402087
 20
40.0600748336
 10
-20.5376728442
 20
40.0852122905
 10
-20.4060117063
 20
40.1139470876
 10
-20.2767924287
 20
40.1462107239
 10
-20.1503295448
 20
40.1819258694
 10
-20.0269091703
 20
40.2210108995
 10
-19.9067905124
 20
40.2633828871
 10
-19.7902358641
 20
40.3089489836
  0
LINE
  5
2DD
100
AcDbEntity
  8
0
100
AcDbLine
 62
7
  6
CONTINUOUS
 10
-22.2711202316
 20
42.3616565929
 11
-22.0595170907
 21
42.2394795914
  0
LINE
  5
2DE
100
AcDbEntity
  8
0
100
AcDbLine
 62
7
  6
CONTINUOUS
 10
-20.5177486256
 20
41.3492818026
 11
-20.1633301215
 21
41.1446450002
  0
LINE
  5
2DF
100
AcDbEntity
  8
0
100
AcDbLine
 62
7
  6
CONTINUOUS
 10
37.1258493881
 20
8.0665907534
 11
37.3374525289
 21
7.9444137519
  0
LINE
  5
2E0
100
AcDbEntity
  8
0
100
AcDbLine
 62
7
  6
CONTINUOUS
 10
38.8792209941
 20
7.054215963
 11
39.2336394981
 21
6.8495791607
  0
LINE
  5
2E1
100
AcDbEntity
  8
0
100
AcDbLine
 62
7
  6
CONTINUOUS
 10
40.3195101665
 20
6.3450934239
 11
38.6287798656
 21
7.3212999098
  0
LINE
  5
2E2
100
AcDbEntity
  8
0
100
AcDbLine
 62
7
  6
CONTINUOUS
 10
37.8000256917
 20
7.7998121831
 11
36.1092953908
 21
8.776018669
  0
LINE
  5
2E3
100
AcDbEntity
  8
0
100
AcDbLine
 62
7
  6
CONTINUOUS
 10
-19.0774594531
 20
40.6401592634
 11
-20.768189754
 21
41.6163657493
  0
LINE
  5
2E4
100
AcDbEntity
  8
0
100
AcDbLine
 62
7
  6
CONTINUOUS
 10
-21.596943928
 20
42.0948780226
 11
-23.2876742288
 21
43.0710845085
  0
LWPOLYLINE
  5
2E5
100
AcDbEntity
  8
0
100
AcDbPolyline
 62
7
  6
CONTINUOUS
 90
10
 70
0
 10
-19.9265584844
 20
42.8433717303
 10
-19.9801747987
 20
42.8787881081
 10
-20.0341603622
 20
42.9133029382
 10
-20.0885151748
 20
42.9469162207
 10
-20.1432712755
 20
42.9796464545
 10
-20.1983966255
 20
43.0114751406
 10
-20.2537951077
 20
43.0423467825
 10
-20.3094346833
 20
43.0722428812
 10
-20.3653473911
 20
43.1011819356
 10
-20.4215332312
 20
43.1291639457
  0
LWPOLYLINE
  5
2E6
100
AcDbEntity
  8
0
100
AcDbPolyline
 62
7
  6
CONTINUOUS
 90
10
 70
0
 10
39.4704111353
 20
8.5483058908
 10
39.416794821
 20
8.5837222685
 10
39.3628092575
 20
8.6182370987
 10
39.3084544449
 20
8.6518503812
 10
39.2536983441
 20
8.6845806149
 10
39.1985729942
 20
8.7164093011
 10
39.143174512
 20
8.747280943
 10
39.0875349364
 20
8.7771770417
 10
39.0316222286
 20
8.806116096
 10
38.9754363884
 20
8.8340981061
  0
LWPOLYLINE
  5
2E7
100
AcDbEntity
  8
0
100
AcDbPolyline
 62
7
  6
CONTINUOUS
 90
8
 70
0
 10
38.6287798656
 20
8.097226821
 10
38.6532435518
 20
8.0802384997
 10
38.6777377908
 20
8.0630606137
 10
38.7022625826
 20
8.0456931631
 10
38.7268504468
 20
8.0281126673
 10
38.7514688638
 20
8.0103426069
 10
38.7760202754
 20
7.9924534236
 10
38.8004875317
 20
7.9744557511
  0
LWPOLYLINE
  5
2E8
100
AcDbEntity
  8
0
100
AcDbPolyline
 62
7
  6
CONTINUOUS
 90
8
 70
0
 10
38.0922464507
 20
7.5670190921
 10
38.0679352412
 20
7.5848949146
 10
38.0435302101
 20
7.6026709491
 10
38.0190493645
 20
7.6203364659
 10
37.9946113631
 20
7.6378059079
 10
37.9702557592
 20
7.655050756
 10
37.9459429996
 20
7.6720995293
 10
37.9216730844
 20
7.6889522277
  0
LWPOLYLINE
  5
2E9
100
AcDbEntity
  8
0
100
AcDbPolyline
 62
7
  6
CONTINUOUS
 90
4
 70
0
 10
38.8004875317
 20
7.9744557511
 10
38.8491749191
 20
7.9381415778
 10
38.873275891
 20
7.91992039
 10
38.8972637484
 20
7.9016186196
  0
LWPOLYLINE
  5
2EA
100
AcDbEntity
  8
0
100
AcDbPolyline
 62
7
  6
CONTINUOUS
 90
3
 70
0
 10
38.1644519178
 20
7.5129498461
 10
38.1405767877
 20
7.5309892626
 10
38.0922464507
 20
7.5670190921
  0
LINE
  5
2EB
100
AcDbEntity
  8
0
100
AcDbLine
 62
7
  6
CONTINUOUS
 10
38.2119542597
 20
7.4765692671
 11
38.1644519178
 21
7.5129498461
  0
LWPOLYLINE
  5
2EC
100
AcDbEntity
  8
0
100
AcDbPolyline
 62
7
  6
CONTINUOUS
 90
3
 70
0
 10
38.8972637484
 20
7.9016186196
 10
38.9453363445
 20
7.86445052
 10
38.9694210832
 20
7.8455841907
  0
LINE
  5
2ED
100
AcDbEntity
  8
0
100
AcDbLine
 62
7
  6
CONTINUOUS
 10
38.2594010541
 20
7.4396012719
 11
38.2119542597
 21
7.4765692671
  0
LWPOLYLINE
  5
2EE
100
AcDbEntity
  8
0
100
AcDbPolyline
 62
7
  6
CONTINUOUS
 90
34
 70
0
 10
38.9694210832
 20
7.8455841907
 10
39.0190339454
 20
7.806180952
 10
39.0445620689
 20
7.7856440425
 10
39.0709984362
 20
7.7641525247
 10
39.0983853863
 20
7.7416859767
 10
39.1266805801
 20
7.7182648205
 10
39.1561835787
 20
7.6935574138
 10
39.1870332031
 20
7.6674543184
 10
39.2190906323
 20
7.6400649726
 10
39.2522389643
 20
7.6113860494
 10
39.2865465749
 20
7.5813534944
 10
39.3219450883
 20
7.5500313621
 10
39.3581124754
 20
7.5176084886
 10
39.394995721
 20
7.4841254017
 10
39.4326478403
 20
7.4495415737
 10
39.4709058495
 20
7.4139242584
 10
39.5096702346
 20
7.3773693673
 10
39.5490405098
 20
7.3397809889
 10
39.5891522341
 20
7.3009386423
 10
39.6300337271
 20
7.2608236951
 10
39.6716566692
 20
7.2194547796
 10
39.7140716611
 20
7.1766673118
 10
39.7574443763
 20
7.1322859963
 10
39.8016091411
 20
7.0864861285
 10
39.8461195349
 20
7.0396290111
 10
39.8910200642
 20
6.9916387583
 10
39.9362662224
 20
6.9425912559
 10
39.9812780696
 20
6.8930754638
 10
40.0260404673
 20
6.8430730426
 10
40.070568554
 20
6.7926023318
 10
40.1143278057
 20
6.7423073094
 10
40.1571400475
 20
6.6924026349
 10
40.1991834541
 20
6.6426736489
 10
40.2404580257
 20
6.5931203514
  0
LWPOLYLINE
  5
2EF
100
AcDbEntity
  8
0
100
AcDbPolyline
 62
7
  6
CONTINUOUS
 90
3
 70
0
 10
38.3335396914
 20
7.3805341411
 10
38.3083403182
 20
7.4007788458
 10
38.2594010541
 20
7.4396012719
  0
LINE
  5
2F0
100
AcDbEntity
  8
0
100
AcDbLine
 62
7
  6
CONTINUOUS
 10
53.3156727147
 20
-25.3731155329
 11
53.0467586892
 21
-25.0288528015
  0
LWPOLYLINE
  5
2F1
100
AcDbEntity
  8
0
100
AcDbPolyline
 62
7
  6
CONTINUOUS
 90
33
 70
0
 10
53.0467586892
 20
-25.0288528015
 10
52.8054224592
 20
-24.6470693416
 10
52.5949795212
 20
-24.2330987455
 10
52.4159687983
 20
-23.7865802987
 10
52.2678513674
 20
-23.3078747156
 10
52.1523259566
 20
-22.8033977312
 10
52.0698194635
 20
-22.2729753727
 10
52.0199049904
 20
-21.7167816129
 10
52.0030005721
 20
-21.1417541047
 10
52.0194601833
 20
-20.5477173963
 10
52.0689298494
 20
-19.9348469396
 10
52.1507656808
 20
-19.3106067425
 10
52.2653282948
 20
-18.6748323243
 10
52.4122570741
 20
-18.0276881658
 10
52.5898262773
 20
-17.377131718
 10
52.7984587571
 20
-16.7229825292
 10
53.0377316607
 20
-16.065421051
 10
53.3046506884
 20
-15.4129460898
 10
53.5997571707
 20
-14.7654002375
 10
53.922509777
 20
-14.1229409022
 10
54.2682902158
 20
-13.494539114
 10
54.6366481821
 20
-12.8813822802
 10
55.0280339809
 20
-12.2822829936
 10
55.4391802348
 20
-11.7026500635
 10
55.8711730176
 20
-11.1414446702
 10
56.3229262557
 20
-10.5997056335
 10
56.787914351
 20
-10.0859582213
 10
57.266242257
 20
-9.6009073704
 10
57.7578050203
 20
-9.1438481439
 10
58.2557621825
 20
-8.7211909998
 10
58.757833591
 20
-8.3350727573
 10
59.2662993985
 20
-7.9833565971
 10
59.7811596049
 20
-7.6660425192
  0
LWPOLYLINE
  5
2F2
100
AcDbEntity
  8
0
100
AcDbPolyline
 62
7
  6
CONTINUOUS
 90
22
 70
0
 10
39.6067337556
 20
6.013883144
 10
39.6059896257
 20
6.0219180853
 10
39.6049412732
 20
6.0300485132
 10
39.6035886982
 20
6.0382744277
 10
39.6019271049
 20
6.0466155721
 10
39.599961289
 20
6.0550522032
 10
39.5977056378
 20
6.0635250911
 10
39.5951582123
 20
6.0720334058
 10
39.5923209515
 20
6.0805779773
 10
39.5892140597
 20
6.0891020662
 10
39.5858360547
 20
6.0976047466
 10
39.5821884188
 20
6.1060869445
 10
39.5782958033
 20
6.1144946977
 10
39.5741571326
 20
6.1228268768
 10
39.5697734822
 20
6.1310846113
 10
39.5651727306
 20
6.1392173282
 10
39.5603535631
 20
6.147224516
 10
39.5553172942
 20
6.1551066863
 10
39.5500957458
 20
6.1628147995
 10
39.544699525
 20
6.1703325093
 10
39.5391180245
 20
6.1776761622
 10
39.5333512445
 20
6.1848457581
  0
LINE
  5
2F3
100
AcDbEntity
  8
0
100
AcDbLine
 62
7
  6
CONTINUOUS
 10
39.6124033853
 20
5.9368188306
 11
39.6067337556
 21
6.013883144
  0
LINE
  5
2F4
100
AcDbEntity
  8
0
100
AcDbLine
 62
7
  6
CONTINUOUS
 10
36.8424777821
 20
7.7806579112
 11
36.8424777821
 21
7.0671797643
  0
LINE
  5
2F5
100
AcDbEntity
  8
0
100
AcDbLine
 62
7
  6
CONTINUOUS
 10
37.1258493881
 20
8.1359936167
 11
37.1258493881
 21
7.3209594974
  0
LINE
  5
2F6
100
AcDbEntity
  8
0
100
AcDbLine
 62
7
  6
CONTINUOUS
 10
37.3374525289
 20
7.9444137519
 11
37.3374525289
 21
7.4948656958
  0
LINE
  5
2F7
100
AcDbEntity
  8
0
100
AcDbLine
 62
7
  6
CONTINUOUS
 10
37.8000256917
 20
8.5757390943
 11
37.8000256917
 21
7.7998121831
  0
LINE
  5
2F8
100
AcDbEntity
  8
0
100
AcDbLine
 62
7
  6
CONTINUOUS
 10
37.8608493881
 20
8.560373405
 11
37.8608493881
 21
7.7116138284
  0
LINE
  5
2F9
100
AcDbEntity
  8
0
100
AcDbLine
 62
7
  6
CONTINUOUS
 10
38.3842462472
 20
7.3391919925
 11
38.3842462472
 21
8.6708557
  0
LINE
  5
2FA
100
AcDbEntity
  8
0
100
AcDbLine
 62
7
  6
CONTINUOUS
 10
38.5958493881
 20
8.1359936167
 11
38.5958493881
 21
7.1585613781
  0
LINE
  5
2FB
100
AcDbEntity
  8
0
100
AcDbLine
 62
7
  6
CONTINUOUS
 10
38.6287798656
 20
8.097226821
 11
38.6287798656
 21
7.3212999098
  0
LINE
  5
2FC
100
AcDbEntity
  8
0
100
AcDbLine
 62
7
  6
CONTINUOUS
 10
38.8792209941
 20
7.054215963
 11
38.8792209941
 21
6.895388449
  0
LINE
  5
2FD
100
AcDbEntity
  8
0
100
AcDbLine
 62
7
  6
CONTINUOUS
 10
36.1092953908
 20
8.776018669
 11
36.1149650206
 21
8.8465358361
  0
LWPOLYLINE
  5
2FE
100
AcDbEntity
  8
0
100
AcDbPolyline
 62
7
  6
CONTINUOUS
 90
18
 70
0
 10
36.1149650206
 20
8.8465358361
 10
36.1157091505
 20
8.8537114748
 10
36.116757503
 20
8.8606312915
 10
36.118110078
 20
8.8672952863
 10
36.1197716713
 20
8.8737176645
 10
36.1217374871
 20
8.8798842206
 10
36.1239931383
 20
8.8857523391
 10
36.1265405639
 20
8.8913189506
 10
36.1293778247
 20
8.8965871245
 10
36.1324847165
 20
8.9015234526
 10
36.1358627214
 20
8.9061252976
 10
36.1395103573
 20
8.910395297
 10
36.1434029728
 20
8.9143079554
 10
36.1475416436
 20
8.9178609013
 10
36.1519252939
 20
8.9210565062
 10
36.1565260456
 20
8.9238763903
 10
36.1613452131
 20
8.9263185244
 10
36.163992089
 20
8.9274623891
  0
LWPOLYLINE
  5
2FF
100
AcDbEntity
  8
0
100
AcDbPolyline
 62
7
  6
CONTINUOUS
 90
6
 70
0
 10
36.2571671347
 20
-3.2861548572
 10
36.2913997132
 20
-3.1829663138
 10
36.3136257296
 20
-3.0791641422
 10
36.3241430599
 20
-2.9750181969
 10
36.3232909968
 20
-2.8699056172
 10
36.3200679178
 20
-2.8416410499
  0
LINE
  5
300
100
AcDbEntity
  8
0
100
AcDbLine
 62
7
  6
CONTINUOUS
 10
38.9754363884
 20
8.8340981061
 11
38.7970250329
 21
8.317903414
  0
LINE
  5
301
100
AcDbEntity
  8
0
100
AcDbLine
 62
7
  6
CONTINUOUS
 10
38.5958493881
 20
7.7358451714
 11
38.4421355608
 21
7.2911074387
  0
LWPOLYLINE
  5
302
100
AcDbEntity
  8
0
100
AcDbPolyline
 62
7
  6
CONTINUOUS
 90
13
 70
0
 10
36.2571671347
 20
-3.2861548572
 10
36.1898368985
 20
-3.4464879913
 10
36.1149293484
 20
-3.6024592822
 10
36.0324444845
 20
-3.7540687296
 10
35.9416415136
 20
-3.9024016029
 10
35.8432612288
 20
-4.0463726329
 10
35.7395260103
 20
-4.182726012
 10
35.6303130805
 20
-4.3112870835
 10
35.515745217
 20
-4.4322305041
 10
35.3984131323
 20
-4.542824437
 10
35.2791803972
 20
-4.64215827
 10
35.1571834409
 20
-4.7311426154
 10
35.0324222633
 20
-4.809777473
  0
LWPOLYLINE
  5
303
100
AcDbEntity
  8
0
100
AcDbPolyline
 62
7
  6
CONTINUOUS
 90
14
 70
0
 10
27.2542476703
 20
-24.4054981203
 10
27.8450871152
 20
-24.0858296773
 10
28.4294412975
 20
-23.8109180771
 10
29.0073102173
 20
-23.5807633199
 10
29.5809107285
 20
-23.3948080118
 10
30.1480259771
 20
-23.2536095467
 10
30.7020054011
 20
-23.1588401056
 10
31.2428781902
 20
-23.1112021328
 10
31.7706151546
 20
-23.1099931841
 10
32.2784781639
 20
-23.154778108
 10
32.7652972344
 20
-23.2456894244
 10
33.2322423498
 20
-23.3825946135
 10
33.6760853299
 20
-23.5646609644
 10
34.004331981
 20
-23.7371107785
  0
LWPOLYLINE
  5
304
100
AcDbEntity
  8
0
100
AcDbPolyline
 62
7
  6
CONTINUOUS
 90
13
 70
0
 10
59.7811596049
 20
-7.6660425192
 10
60.2933833526
 20
-7.3901210708
 10
60.7993130351
 20
-7.1555537361
 10
61.2989486524
 20
-6.962340515
 10
61.7944745342
 20
-6.8099745631
 10
62.2837063508
 20
-6.6989627248
 10
62.7600911127
 20
-6.6308255337
 10
63.2235834685
 20
-6.6063078224
 10
63.6742287695
 20
-6.6246647582
 10
64.1056100809
 20
-6.6851823767
 10
64.5166948614
 20
-6.7880270933
 10
64.9085156522
 20
-6.9330324925
 10
65.2814172012
 20
-7.1211036939
  0
LWPOLYLINE
  5
305
100
AcDbEntity
  8
0
100
AcDbPolyline
 62
7
  6
CONTINUOUS
 90
4
 70
0
 10
-22.8027033203
 20
38.7615163869
 10
-22.7046114743
 20
38.7377724741
 10
-22.6051828158
 20
38.7159608697
 10
-22.5044219015
 20
38.6960749869
  0
LINE
  5
306
100
AcDbEntity
  8
0
100
AcDbLine
 62
7
  6
CONTINUOUS
 10
-21.596943928
 20
42.0948780226
 11
-22.0595170907
 21
42.2394795914
  0
LINE
  5
307
100
AcDbEntity
  8
0
100
AcDbLine
 62
7
  6
CONTINUOUS
 10
-21.50571076
 20
41.9954321167
 11
-21.5361202316
 21
42.0066796679
  0
LINE
  5
308
100
AcDbEntity
  8
0
100
AcDbLine
 62
7
  6
CONTINUOUS
 10
-21.4752965352
 20
41.9840180672
 11
-21.50571076
 21
41.9954321167
  0
LWPOLYLINE
  5
309
100
AcDbEntity
  8
0
100
AcDbPolyline
 62
7
  6
CONTINUOUS
 90
49
 70
0
 10
-22.3040507091
 20
42.4625303405
 10
-22.3285143953
 20
42.4737920707
 10
-22.3530086343
 20
42.484899518
 10
-22.3775334262
 20
42.4958526823
 10
-22.4021212903
 20
42.5066656357
 10
-22.4267397073
 20
42.5173243062
 10
-22.4512911189
 20
42.5277864776
 10
-22.4757583753
 20
42.5380429794
 10
-22.5001586261
 20
42.5481029822
 10
-22.5244457626
 20
42.5579517806
 10
-22.5485467345
 20
42.567561791
 10
-22.5725345919
 20
42.5769605972
 10
-22.5965823762
 20
42.5862162453
 10
-22.620607188
 20
42.5953055266
 10
-22.6446919267
 20
42.6042516498
 10
-22.6692583313
 20
42.6131922879
 10
-22.6943047889
 20
42.6221401007
 10
-22.7198329124
 20
42.6310824284
 10
-22.7462692798
 20
42.6401189649
 10
-22.7736562298
 20
42.6492781804
 10
-22.8019514236
 20
42.6585316047
 10
-22.8314544222
 20
42.6678935213
 10
-22.8623040466
 20
42.6774147989
 10
-22.8943614758
 20
42.6870445688
 10
-22.9275098078
 20
42.6966445085
 10
-22.9618174184
 20
42.7062295223
 10
-22.9972159318
 20
42.7157847059
 10
-23.0333833189
 20
42.7251270246
 10
-23.0702665645
 20
42.7342357851
 10
-23.1079186838
 20
42.7431316806
 10
-23.146176693
 20
42.7516937555
 10
-23.1849410781
 20
42.7599030046
 10
-23.2243113533
 20
42.7677784331
 10
-23.2644230776
 20
42.7752561002
 10
-23.3053045706
 20
42.7823500764
 10
-23.3469275127
 20
42.7890462912
 10
-23.3893425046
 20
42.7952385929
 10
-23.4327152198
 20
42.8009430017
 10
-23.4768799846
 20
42.8061434973
 10
-23.5213903784
 20
42.810685867
 10
-23.5662909077
 20
42.8145456199
 10
-23.6115370659
 20
42.8177472468
 10
-23.6565489131
 20
42.8202100077
 10
-23.7013113108
 20
42.8218980813
 10
-23.7458393976
 20
42.8228472889
 10
-23.7895986492
 20
42.8230843535
 10
-23.832410891
 20
42.8226181827
 10
-23.8744542976
 20
42.8214398688
 10
-23.9157288692
 20
42.819549412
  0
LINE
  5
30A
100
AcDbEntity
  8
0
100
AcDbLine
 62
253
  6
CONTINUOUS
 10
53.3363183451
 20
6.8472897586
 11
53.2185127706
 21
6.9153092209
  0
LWPOLYLINE
  5
30B
100
AcDbEntity
  8
0
100
AcDbPolyline
 62
7
  6
CONTINUOUS
 90
37
 70
0
 10
65.2814172012
 20
-7.1211036939
 10
65.6249657255
 20
-7.34662355
 10
65.949595008
 20
-7.6152092083
 10
66.246646495
 20
-7.921315595
 10
66.5155605205
 20
-8.2655783264
 10
66.7568967506
 20
-8.6473617863
 10
66.9673396885
 20
-9.0613323824
 10
67.1463504115
 20
-9.5078508292
 10
67.2944678423
 20
-9.9865564123
 10
67.4099932532
 20
-10.4910333967
 10
67.4924997463
 20
-11.0214557552
 10
67.5424142194
 20
-11.577649515
 10
67.5593186377
 20
-12.1526770232
 10
67.5428590264
 20
-12.7467137316
 10
67.4933893603
 20
-13.3595841883
 10
67.411553529
 20
-13.9838243854
 10
67.2969909149
 20
-14.6195988036
 10
67.1500621356
 20
-15.2667429621
 10
66.9724929324
 20
-15.9172994099
 10
66.7638604527
 20
-16.5714485987
 10
66.524587549
 20
-17.2290100769
 10
66.2576685214
 20
-17.8814850381
 10
65.962562039
 20
-18.5290308904
 10
65.6398094327
 20
-19.1714902257
 10
65.294028994
 20
-19.7998920139
 10
64.9256710276
 20
-20.4130488477
 10
64.5342852289
 20
-21.0121481343
 10
64.1231389749
 20
-21.5917810644
 10
63.6911461921
 20
-22.1529864576
 10
63.239392954
 20
-22.6947254944
 10
62.7744048587
 20
-23.2084729066
 10
62.2960769527
 20
-23.6935237575
 10
61.8045141894
 20
-24.150582984
 10
61.3065570272
 20
-24.5732401281
 10
60.8044856187
 20
-24.9593583706
 10
60.2960198113
 20
-25.3110745308
 10
59.7811596049
 20
-25.6283886087
  0
LWPOLYLINE
  5
30C
100
AcDbEntity
  8
0
100
AcDbPolyline
 62
7
  6
CONTINUOUS
 90
4
 70
0
 10
51.0029391039
 20
4.8897345896
 10
50.9204779268
 20
4.9460789099
 10
50.8455703767
 20
5.0155488395
 10
50.7782401404
 20
5.0981307045
  0
LINE
  5
30D
100
AcDbEntity
  8
0
100
AcDbLine
 62
7
  6
CONTINUOUS
 10
65.3968766141
 20
-7.3006519742
 11
65.0741240078
 21
-7.0308992585
  0
LINE
  5
30E
100
AcDbEntity
  8
0
100
AcDbLine
 62
7
  6
CONTINUOUS
 10
37.109388863
 20
8.1518069177
 11
37.0929189105
 21
8.167464501
  0
LINE
  5
30F
100
AcDbEntity
  8
0
100
AcDbLine
 62
7
  6
CONTINUOUS
 10
37.1258493881
 20
8.1359936167
 11
37.109388863
 21
8.1518069177
  0
LINE
  5
310
100
AcDbEntity
  8
0
100
AcDbLine
 62
7
  6
CONTINUOUS
 10
38.8792209941
 20
7.054215963
 11
38.6287798656
 21
7.3212999098
  0
LINE
  5
311
100
AcDbEntity
  8
0
100
AcDbLine
 62
7
  6
CONTINUOUS
 10
38.5958493881
 20
8.1359936167
 11
38.6177988498
 21
8.110227231
  0
LINE
  5
312
100
AcDbEntity
  8
0
100
AcDbLine
 62
7
  6
CONTINUOUS
 10
38.6177988498
 20
8.110227231
 11
38.6287798656
 21
8.097226821
  0
LWPOLYLINE
  5
313
100
AcDbEntity
  8
0
100
AcDbPolyline
 62
7
  6
CONTINUOUS
 90
31
 70
0
 10
39.5333512445
 20
6.1848457581
 10
39.4920776856
 20
6.234386943
 10
39.4501677697
 20
6.2839613069
 10
39.407621497
 20
6.3335688498
 10
39.3643054947
 20
6.383370425
 10
39.3203531356
 20
6.4332051791
 10
39.276164537
 20
6.4825905519
 10
39.2317290004
 20
6.5315125851
 10
39.1870572243
 20
6.5799852369
 10
39.1425814219
 20
6.6275678216
 10
39.098323938
 20
6.6742143669
 10
39.0542624278
 20
6.719970845
 10
39.0107620703
 20
6.7645344868
 10
38.9679200729
 20
6.8077970968
 10
38.9256392281
 20
6.8498668704
 10
38.8839930931
 20
6.8907656245
 10
38.8429978297
 20
6.9304785275
 10
38.802637276
 20
6.969020411
 10
38.7629365033
 20
7.0064575868
 10
38.7238302978
 20
7.042848631
 10
38.6853838732
 20
7.0781349675
 10
38.647817942
 20
7.1122071807
 10
38.6110957818
 20
7.1450900634
 10
38.575254115
 20
7.1767588227
 10
38.5406238212
 20
7.2070296644
 10
38.507287439
 20
7.2358275232
 10
38.4751624298
 20
7.2632274643
 10
38.4443320572
 20
7.2892708885
 10
38.4149379686
 20
7.3138480824
 10
38.3868385166
 20
7.3370687594
 10
38.3335396914
 20
7.3805341411
  0
LWPOLYLINE
  5
314
100
AcDbEntity
  8
0
100
AcDbPolyline
 62
7
  6
CONTINUOUS
 90
22
 70
0
 10
40.2404580257
 20
6.5931203514
 10
40.2462344542
 20
6.5859386818
 10
40.2518255228
 20
6.5785813076
 10
40.2572312314
 20
6.5710482286
 10
40.2624628287
 20
6.5633220228
 10
40.267509066
 20
6.5554201124
 10
40.2723361974
 20
6.5473947632
 10
40.276942451
 20
6.539245584
 10
40.2813295986
 20
6.530972966
 10
40.2854692102
 20
6.52263035
 10
40.2893596173
 20
6.5142175039
 10
40.2930024883
 20
6.5057346597
 10
40.2963743982
 20
6.4972359538
 10
40.2994736652
 20
6.4887214146
 10
40.3023019711
 20
6.4801910137
 10
40.3048409369
 20
6.471698803
 10
40.3070889288
 20
6.4632442032
 10
40.3090475806
 20
6.4548277937
 10
40.3107034151
 20
6.4465053634
 10
40.3120519397
 20
6.4382955087
 10
40.3130976469
 20
6.4301796334
 10
40.3138405367
 20
6.4221577374
  0
LINE
  5
315
100
AcDbEntity
  8
0
100
AcDbLine
 62
7
  6
CONTINUOUS
 10
37.1258493881
 20
7.7358451714
 11
37.2370869053
 21
7.4140034601
  0
LINE
  5
316
100
AcDbEntity
  8
0
100
AcDbLine
 62
7
  6
CONTINUOUS
 10
40.865941245
 20
7.5377659915
 11
41.0048147077
 21
6.2442403144
  0
LINE
  5
317
100
AcDbEntity
  8
0
100
AcDbLine
 62
7
  6
CONTINUOUS
 10
40.3138405367
 20
6.4221577374
 11
40.3195101665
 21
6.3450934239
  0
LWPOLYLINE
  5
318
100
AcDbEntity
  8
0
100
AcDbPolyline
 62
7
  6
CONTINUOUS
 90
14
 70
0
 10
-4.8864909521
 20
-46.7103949358
 10
-5.1985444729
 20
-46.8750424982
 10
-5.6411894815
 20
-47.0586092365
 10
-6.1073555108
 20
-47.197362255
 10
-6.5939085718
 20
-47.2900668886
 10
-7.1020589997
 20
-47.3365624616
 10
-7.6305964593
 20
-47.3370096498
 10
-8.1727559552
 20
-47.2906558151
 10
-8.7285647267
 20
-47.196742117
 10
-9.2979955346
 20
-47.0560273961
 10
-9.8742016666
 20
-46.8700355357
 10
-10.4549008853
 20
-46.6392744968
 10
-11.0423754281
 20
-46.3632363184
 10
-11.636625295
 20
-46.0419210004
  0
LINE
  5
319
100
AcDbEntity
  8
0
100
AcDbLine
 62
7
  6
CONTINUOUS
 10
-5.0929451905
 20
-46.7382048326
 11
-4.6491022104
 21
-46.5561384817
  0
LWPOLYLINE
  5
31A
100
AcDbEntity
  8
0
100
AcDbPolyline
 62
7
  6
CONTINUOUS
 90
59
 70
0
 10
-22.5044219015
 20
38.6960749869
 10
-22.4026729868
 20
38.678182767
 10
-22.2999326922
 20
38.6622910291
 10
-22.1962043972
 20
38.648392954
 10
-22.0918424953
 20
38.6365360252
 10
-21.9868448192
 20
38.6267272245
 10
-21.8812135362
 20
38.6189595702
 10
-21.7753095414
 20
38.6132596008
 10
-21.669131902
 20
38.6096343889
 10
-21.5626815509
 20
38.6080768619
 10
-21.4563221815
 20
38.6085923413
 10
-21.3500541051
 20
38.6111879177
 10
-21.2438770105
 20
38.6158565004
 10
-21.1381536576
 20
38.6225821391
 10
-21.0328855984
 20
38.6313718697
 10
-20.928071281
 20
38.6422186562
 10
-20.8240688092
 20
38.6550854399
 10
-20.7208809601
 20
38.6699791302
 10
-20.6185049566
 20
38.6868928177
 10
-20.5172905721
 20
38.7057687159
 10
-20.4172417798
 20
38.7266135365
 10
-20.3183546066
 20
38.7494205677
 10
-20.2209669059
 20
38.7741118882
 10
-20.1250838066
 20
38.8006939429
 10
-20.0307001798
 20
38.8291602869
 10
-19.9381384925
 20
38.8594136632
 10
-19.8474049765
 20
38.8914601843
 10
-19.7584934
 20
38.9252937377
 10
-19.6717075342
 20
38.9607987293
 10
-19.5870546502
 20
38.9979808761
 10
-19.5045274769
 20
39.036834461
 10
-19.4244079731
 20
39.0772267386
 10
-19.3467043742
 20
39.1191629719
 10
-19.2714084447
 20
39.1626378979
 10
-19.1987774374
 20
39.2075029821
 10
-19.1288204676
 20
39.2537629794
 10
-19.06152842
 20
39.3014131349
 10
-18.9971312017
 20
39.3502906492
 10
-18.9356387142
 20
39.4003997204
 10
-18.877041056
 20
39.4517361504
 10
-18.8215384292
 20
39.5041245454
 10
-18.7691414203
 20
39.5575685036
 10
-18.7198394427
 20
39.6120644268
 10
-18.6738009395
 20
39.6674261266
 10
-18.6310370732
 20
39.7236565644
 10
-18.5915366813
 20
39.7807527789
 10
-18.555434719
 20
39.8385196977
 10
-18.5227428106
 20
39.8969596148
 10
-18.4934493318
 20
39.9560702361
 10
-18.4676543654
 20
40.015649607
 10
-18.445369878
 20
40.0756993307
 10
-18.426583903
 20
40.136217804
 10
-18.4113606239
 20
40.196998262
 10
-18.3997122265
 20
40.2580416009
 10
-18.3916265249
 20
40.3193469247
 10
-18.3871311444
 20
40.3807047801
 10
-18.3862383654
 20
40.442115347
 10
-18.3889359075
 20
40.5035784456
 10
-18.3921566962
 20
40.5393060901
  0
LINE
  5
31B
100
AcDbEntity
  8
0
100
AcDbLine
 62
7
  6
CONTINUOUS
 10
-21.596943928
 20
42.8708049338
 11
-21.5665297031
 21
42.8632038524
  0
LINE
  5
31C
100
AcDbEntity
  8
0
100
AcDbLine
 62
7
  6
CONTINUOUS
 10
-21.5665297031
 20
42.8632038524
 11
-21.5361202316
 21
42.8554392445
  0
LWPOLYLINE
  5
31D
100
AcDbEntity
  8
0
100
AcDbPolyline
 62
7
  6
CONTINUOUS
 90
42
 70
0
 10
40.865941245
 20
7.5377659915
 10
40.8527259965
 20
7.6274872274
 10
40.8322510101
 20
7.7172413487
 10
40.8044254849
 20
7.8067582697
 10
40.7691565953
 20
7.8958239911
 10
40.7264114903
 20
7.9841180345
 10
40.6762512113
 20
8.0712379331
 10
40.6186212456
 20
8.1570513698
 10
40.5536028769
 20
8.2412336217
 10
40.4816129917
 20
8.323162062
 10
40.4029168986
 20
8.4025521621
 10
40.3175699549
 20
8.4793568897
 10
40.2258063165
 20
8.5533579805
 10
40.1277170107
 20
8.6244660907
 10
40.023584032
 20
8.6924555844
 10
39.9140361895
 20
8.7569393592
 10
39.7994719217
 20
8.8177465561
 10
39.6800775461
 20
8.8748337157
 10
39.556271685
 20
8.9280485633
 10
39.4284249762
 20
8.9772849168
 10
39.2968200994
 20
9.022481342
 10
39.1617837994
 20
9.0635645964
 10
39.0236588264
 20
9.1004647786
 10
38.8827903675
 20
9.1331203587
 10
38.7395288521
 20
9.1614773513
 10
38.5942529101
 20
9.1854861615
 10
38.4473000167
 20
9.2051137042
 10
38.2989695722
 20
9.2203362937
 10
38.1496113757
 20
9.2311287079
 10
37.9996024712
 20
9.2374723581
 10
37.8492871878
 20
9.2393590393
 10
37.699033113
 20
9.236787776
 10
37.5492031489
 20
9.2297665677
 10
37.4001339063
 20
9.2183098128
 10
37.2521926005
 20
9.2024414726
 10
37.105733186
 20
9.1821932697
 10
36.9610665606
 20
9.1575974623
 10
36.8185320814
 20
9.128695867
 10
36.6784933727
 20
9.0955438046
 10
36.5412854586
 20
9.0581996473
 10
36.4072338424
 20
9.016726746
 10
36.2766837272
 20
8.9712031387
  0
LWPOLYLINE
  5
31E
100
AcDbEntity
  8
0
100
AcDbPolyline
 62
7
  6
CONTINUOUS
 90
3
 70
0
 10
53.3915974511
 20
7.0152461461
 10
53.3650397448
 20
6.9430386845
 10
53.2788755459
 20
6.6557919069
  0
LWPOLYLINE
  5
31F
100
AcDbEntity
  8
0
100
AcDbPolyline
 62
7
  6
CONTINUOUS
 90
12
 70
0
 10
53.2788755459
 20
6.6557919069
 10
53.2099536371
 20
6.4684008715
 10
53.1295526188
 20
6.2851166523
 10
53.0366588167
 20
6.1043392384
 10
52.9322859051
 20
5.9276686408
 10
52.8194749063
 20
5.7599048921
 10
52.6980730544
 20
5.6012092451
 10
52.5682331152
 20
5.451420447
 10
52.4334544094
 20
5.3148547726
 10
52.2949033769
 20
5.1929509803
 10
52.1514135777
 20
5.0842703117
 10
52.0029850118
 20
4.9888127668
  0
LWPOLYLINE
  5
320
100
AcDbEntity
  8
0
100
AcDbPolyline
 62
7
  6
CONTINUOUS
 90
5
 70
0
 10
50.5886089562
 20
5.3968357189
 10
50.6504117035
 20
5.2963731945
 10
50.6952945677
 20
5.2243274991
 10
50.7378061559
 20
5.1580439591
 10
50.7782401404
 20
5.0981307045
  0
LWPOLYLINE
  5
321
100
AcDbEntity
  8
0
100
AcDbPolyline
 62
7
  6
CONTINUOUS
 90
35
 70
0
 10
59.2154741799
 20
-25.301768934
 10
59.7276979277
 20
-24.9861872379
 10
60.2336276101
 20
-24.6365196569
 10
60.7332632274
 20
-24.252766191
 10
61.2287891092
 20
-23.8329112753
 10
61.7180209258
 20
-23.3789704748
 10
62.1944056878
 20
-22.8969904838
 10
62.6578980435
 20
-22.3862788406
 10
63.1085433446
 20
-21.8475280069
 10
63.539924656
 20
-21.288862063
 10
63.9510094364
 20
-20.7113069461
 10
64.3428302272
 20
-20.113836719
 10
64.7120677171
 20
-19.50149765
 10
65.0592803006
 20
-18.8729070753
 10
65.3839095831
 20
-18.2294476587
 10
65.6809610701
 20
-17.5803136607
 10
65.9498750956
 20
-16.9255157531
 10
66.1912113256
 20
-16.2650432641
 10
66.4016542636
 20
-15.6080584382
 10
66.5806649865
 20
-14.9548228956
 10
66.7287824174
 20
-14.3050750161
 10
66.8443078282
 20
-13.667192183
 10
66.9268143213
 20
-13.0414933944
 10
66.9767287944
 20
-12.4276596522
 10
66.9936332127
 20
-11.8331113454
 10
66.9771736014
 20
-11.2580817836
 10
66.9277039354
 20
-10.7023376572
 10
66.845868104
 20
-10.1725994269
 10
66.73130549
 20
-9.6691190437
 10
66.5843767107
 20
-9.1916445567
 10
66.4068075075
 20
-8.7461405738
 10
66.1981750277
 20
-8.3329149431
 10
65.9589021241
 20
-7.9516598165
 10
65.6919830964
 20
-7.6074162579
 10
65.3968766141
 20
-7.3006519742
  0
LWPOLYLINE
  5
322
100
AcDbEntity
  8
0
100
AcDbPolyline
 62
7
  6
CONTINUOUS
 90
38
 70
0
 10
26.6885622453
 20
-46.1235759191
 10
27.2794016902
 20
-45.7609577811
 10
27.8637558726
 20
-45.3610718188
 10
28.4416247923
 20
-44.9239180323
 10
29.0152253035
 20
-44.4474938478
 10
29.5823405521
 20
-43.9338018391
 10
30.1363199762
 20
-43.3888497273
 10
30.6771927652
 20
-42.8119013608
 10
31.2049297297
 20
-42.2036928911
 10
31.712792739
 20
-41.5724404941
 10
32.1996118095
 20
-40.9193627176
 10
32.6665569248
 20
-40.2432410138
 10
33.110399905
 20
-39.5486359147
 10
33.5319115791
 20
-38.8339754546
 10
33.9303211181
 20
-38.1008315992
 10
34.3000878542
 20
-37.3584807781
 10
34.6406886237
 20
-36.6068512416
 10
34.9526465905
 20
-35.8460147393
 10
35.2319905782
 20
-35.0854629496
 10
35.4781822715
 20
-34.3254061641
 10
35.6917599858
 20
-33.5656340911
 10
35.8703674908
 20
-32.8150075336
 10
36.0135633913
 20
-32.0737597905
 10
36.1217890825
 20
-31.3416575628
 10
36.1940125188
 20
-30.6268617567
 10
36.2298442191
 20
-29.9296097387
 10
36.2296736646
 20
-29.2496641422
 10
36.1936372537
 20
-28.5944737734
 10
36.1213635458
 20
-27.96430896
 10
36.0132239816
 20
-27.3588993744
 10
35.8704692816
 20
-26.7848828398
 10
35.6927462303
 20
-26.2425907989
 10
35.4804080431
 20
-25.7316918091
 10
35.2357650878
 20
-25.2578293664
 10
34.9583832235
 20
-24.8213273116
 10
34.6486965911
 20
-24.4218618039
 10
34.3103179802
 20
-24.0641048163
 10
33.9427280018
 20
-23.7485786068
  0
LWPOLYLINE
  5
323
100
AcDbEntity
  8
0
100
AcDbPolyline
 62
7
  6
CONTINUOUS
 90
14
 70
0
 10
27.2542476703
 20
-46.4501955937
 10
26.6634082254
 20
-46.7698640368
 10
26.079054043
 20
-47.0447756369
 10
25.5011851233
 20
-47.2749303942
 10
24.9275846121
 20
-47.4608857022
 10
24.3604693635
 20
-47.6020841674
 10
23.8064899394
 20
-47.6968536084
 10
23.2656171504
 20
-47.7444915812
 10
22.7378801859
 20
-47.74570053
 10
22.2300171767
 20
-47.700915606
 10
21.7431981061
 20
-47.6100042896
 10
21.2762529908
 20
-47.4730991006
 10
20.8324100106
 20
-47.2910327496
 10
20.5041633596
 20
-47.1185829356
  0
LWPOLYLINE
  5
324
100
AcDbEntity
  8
0
100
AcDbPolyline
 62
7
  6
CONTINUOUS
 90
13
 70
0
 10
59.7811596049
 20
-25.6283886087
 10
59.2689358571
 20
-25.9043100571
 10
58.7630061746
 20
-26.1388773918
 10
58.2633705574
 20
-26.3320906129
 10
57.7678446755
 20
-26.4844565648
 10
57.2786128589
 20
-26.5954684031
 10
56.802228097
 20
-26.6636055942
 10
56.3387357413
 20
-26.6881233055
 10
55.8880904402
 20
-26.6697663697
 10
55.4567091288
 20
-26.6092487512
 10
55.0456243483
 20
-26.5064040346
 10
54.6538035575
 20
-26.3613986354
 10
54.2809020085
 20
-26.173327434
  0
LINE
  5
325
100
AcDbEntity
  8
0
100
AcDbLine
 62
7
  6
CONTINUOUS
 10
-21.5361202316
 20
42.8554392445
 11
-21.4868412008
 21
42.8679415755
  0
LWPOLYLINE
  5
326
100
AcDbEntity
  8
0
100
AcDbPolyline
 62
7
  6
CONTINUOUS
 90
3
 70
0
 10
-21.4868412008
 20
42.8679415755
 10
-21.4371635238
 20
42.8801042084
 10
-21.4121903574
 20
42.8860550766
  0
LWPOLYLINE
  5
327
100
AcDbEntity
  8
0
100
AcDbPolyline
 62
7
  6
CONTINUOUS
 90
13
 70
0
 10
-21.4121903574
 20
42.8860550766
 10
-21.3607680846
 20
42.8979469346
 10
-21.3343189783
 20
42.9038879243
 10
-21.306994394
 20
42.9098787462
 10
-21.278760109
 20
42.915934833
 10
-21.249650346
 20
42.9220407519
 10
-21.2193862313
 20
42.9282053649
 10
-21.1878851413
 20
42.9344509523
 10
-21.1552296995
 20
42.9407552339
 10
-21.1213889021
 20
42.9470602313
 10
-21.0863524145
 20
42.9533466183
 10
-21.0501305713
 20
42.959633721
 10
-21.0127233724
 20
42.9659215395
  0
LWPOLYLINE
  5
328
100
AcDbEntity
  8
0
100
AcDbPolyline
 62
7
  6
CONTINUOUS
 90
10
 70
0
 10
-23.9157288692
 20
42.819549412
 10
-23.9215052977
 20
42.8190382173
 10
-23.9270963663
 20
42.8181372689
 10
-23.9325020749
 20
42.8168465667
 10
-23.9377336722
 20
42.8151616783
 10
-23.9427799095
 20
42.8130870362
 10
-23.9476070409
 20
42.8106359375
 10
-23.9522132945
 20
42.8078059444
 10
-23.9566004421
 20
42.8045994946
 10
-23.9573002087
 20
42.8040365599
  0
LWPOLYLINE
  5
329
100
AcDbEntity
  8
0
100
AcDbPolyline
 62
7
  6
CONTINUOUS
 90
49
 70
0
 10
-23.208622088
 20
43.2278240053
 10
-23.1673485291
 20
43.229703519
 10
-23.1254386132
 20
43.2308813626
 10
-23.0828923405
 20
43.2313575361
 10
-23.0395763382
 20
43.2311388777
 10
-22.9956239791
 20
43.2302185492
 10
-22.9514353805
 20
43.2285760359
 10
-22.9069998439
 20
43.2261850253
 10
-22.8623280678
 20
43.2230718298
 10
-22.8178522654
 20
43.2192948727
 10
-22.7735947815
 20
43.2148339849
 10
-22.7295332713
 20
43.2097093355
 10
-22.6860329138
 20
43.2040398548
 10
-22.6431909164
 20
43.1978296
 10
-22.6009100716
 20
43.1910745139
 10
-22.5592639366
 20
43.1838813552
 10
-22.5182686732
 20
43.1762539556
 10
-22.4779081195
 20
43.1681884834
 10
-22.4382073468
 20
43.159780202
 10
-22.3991011413
 20
43.1510123803
 10
-22.3606547167
 20
43.1419017494
 10
-22.3230887855
 20
43.1325937668
 10
-22.2863666253
 20
43.1230708194
 10
-22.2505249585
 20
43.1133505204
 10
-22.2158946647
 20
43.1036311667
 10
-22.1825582825
 20
43.093933007
 10
-22.1504332733
 20
43.0842357928
 10
-22.1196029007
 20
43.0746770755
 10
-22.0902088121
 20
43.0653107127
 10
-22.0621093601
 20
43.0560828469
 10
-22.0349628668
 20
43.0469694574
 10
-22.0088105349
 20
43.0380000812
 10
-21.9836111617
 20
43.0291451813
 10
-21.9588994605
 20
43.0202921262
 10
-21.9346718976
 20
43.0114537719
 10
-21.9109320068
 20
43.0026172625
 10
-21.8872251032
 20
42.9936313983
 10
-21.8634574386
 20
42.9844691083
 10
-21.8397227613
 20
42.9751574635
 10
-21.8158476312
 20
42.9656264782
 10
-21.7917526891
 20
42.9558457324
 10
-21.7675172942
 20
42.945845646
 10
-21.7432060847
 20
42.9356474932
 10
-21.7188010536
 20
42.9252412095
 10
-21.694320208
 20
42.9146368594
 10
-21.6698822067
 20
42.90388591
 10
-21.6455266027
 20
42.8930055172
 10
-21.6212138431
 20
42.8819785251
 10
-21.596943928
 20
42.8708049338
  0
LWPOLYLINE
  5
32A
100
AcDbEntity
  8
0
100
AcDbPolyline
 62
253
  6
CONTINUOUS
 90
12
 70
0
 10
10.6624853826
 20
-63.8444480265
 10
10.7558152731
 20
-63.7863776632
 10
10.9277523755
 20
-63.6546626941
 10
11.0842945939
 20
-63.4999019865
 10
11.2245707644
 20
-63.3229577768
 10
11.3478419962
 20
-63.1247400871
 10
11.4534036551
 20
-62.9063301545
 10
11.5406476208
 20
-62.6689256626
 10
11.6090880567
 20
-62.4137398429
 10
11.6583071949
 20
-62.1421302819
 10
11.6879798406
 20
-61.8556128529
 10
11.6978984878
 20
-61.5557637208
  0
LINE
  5
32B
100
AcDbEntity
  8
0
100
AcDbLine
 62
253
  6
CONTINUOUS
 10
75.337508791
 20
-24.8110503234
 11
11.6978984842
 21
-61.5557637229
  0
LINE
  5
32C
100
AcDbEntity
  8
0
100
AcDbLine
 62
7
  6
CONTINUOUS
 10
74.3020956857
 20
-27.0997346291
 11
10.6624853826
 21
-63.8444480265
  0
LINE
  5
32D
100
AcDbEntity
  8
0
100
AcDbLine
 62
253
  6
CONTINUOUS
 10
74.3022444493
 20
-27.0996487246
 11
74.3020956857
 21
-27.0997346291
  0
LWPOLYLINE
  5
32E
100
AcDbEntity
  8
0
100
AcDbPolyline
 62
253
  6
CONTINUOUS
 90
22
 70
0
 10
11.6978984842
 20
-61.5557637229
 10
11.4225866993
 20
-61.7032111068
 10
11.1314383753
 20
-61.8372256877
 10
10.8265091504
 20
-61.9573834986
 10
10.5109447198
 20
-62.0630297444
 10
10.185780899
 20
-62.1543705757
 10
9.8495398295
 20
-62.2320057887
 10
9.5031483158
 20
-62.2955948629
 10
9.1491566066
 20
-62.3445460845
 10
8.7882019749
 20
-62.3786241391
 10
8.4222552429
 20
-62.3974255966
 10
8.0531589623
 20
-62.4006394248
 10
7.6814007066
 20
-62.3879405632
 10
7.3079024428
 20
-62.3588603559
 10
6.9360862127
 20
-62.3131565037
 10
6.5702269041
 20
-62.2510549367
 10
6.2130695579
 20
-62.1728979073
 10
5.8662266464
 20
-62.0789110325
 10
5.5321228247
 20
-61.9696000729
 10
5.2129139751
 20
-61.8455450965
 10
4.910508462
 20
-61.7073560759
 10
4.6268306723
 20
-61.5557637229
  0
LWPOLYLINE
  5
32F
100
AcDbEntity
  8
RACCORDO
100
AcDbPolyline
 62
7
  6
CONTINUOUS
 90
37
 70
0
 10
12.0514518748
 20
62.2694699172
 10
11.8775174427
 20
62.3655554003
 10
11.6972176304
 20
62.4568511512
 10
11.5105524378
 20
62.5433571698
 10
11.3171427849
 20
62.6252197046
 10
11.1173677517
 20
62.7022925071
 10
10.9123645782
 20
62.7741368325
 10
10.7021034462
 20
62.8407228606
 10
10.4866141739
 20
62.9020804115
 10
10.2671234563
 20
62.9578602011
 10
10.0436084713
 20
63.0080304171
 10
9.8160920411
 20
63.0526228718
 10
9.5858693263
 20
63.091383718
 10
9.3529248919
 20
63.1242796956
 10
9.1172741729
 20
63.1513440647
 10
8.8802586355
 20
63.1724227587
 10
8.6418704954
 20
63.1874816386
 10
8.4021175368
 20
63.1965548433
 10
8.1623645782
 20
63.1995907227
 10
7.9226116197
 20
63.1965548433
 10
7.6828586611
 20
63.1874816386
 10
7.444470521
 20
63.1724227587
 10
7.2074549836
 20
63.1513440647
 10
6.9718042646
 20
63.1242796956
 10
6.7388598302
 20
63.091383718
 10
6.5086371154
 20
63.0526228718
 10
6.2811206852
 20
63.0080304171
 10
6.0576057002
 20
62.9578602011
 10
5.8381149826
 20
62.9020804115
 10
5.6226257103
 20
62.8407228606
 10
5.4123645782
 20
62.7741368325
 10
5.2073614048
 20
62.7022925071
 10
5.0075863716
 20
62.6252197046
 10
4.8141767187
 20
62.5433571698
 10
4.6275115261
 20
62.4568511512
 10
4.4472117138
 20
62.3655554003
 10
4.2732772817
 20
62.2694699172
  0
LINE
  5
330
100
AcDbEntity
  8
RACCORDO
100
AcDbLine
 62
7
  6
CONTINUOUS
 10
75.6910621816
 20
25.5247565177
 11
12.0514518748
 21
62.2694699172
  0
LWPOLYLINE
  5
331
100
AcDbEntity
  8
0
100
AcDbPolyline
 62
7
  6
CONTINUOUS
 90
15
 70
0
 10
74.3022444493
 20
-27.0996487246
 10
74.6352128129
 20
-26.8894786242
 10
74.9332133633
 20
-26.6677981338
 10
75.2122692764
 20
-26.4261636362
 10
75.4721188325
 20
-26.1652690963
 10
75.7123754703
 20
-25.8855668385
 10
75.9314850001
 20
-25.588745641
 10
76.1282036691
 20
-25.2764171432
 10
76.3020406936
 20
-24.9489909457
 10
76.4516083667
 20
-24.6084019971
 10
76.575715787
 20
-24.2567542258
 10
76.6737388679
 20
-23.8948065472
 10
76.744685467
 20
-23.5244018282
 10
76.7876030754
 20
-23.1485001125
 10
76.801974885
 20
-22.7696773567
  0
LINE
  5
332
100
AcDbEntity
  8
0
100
AcDbLine
 62
253
  6
CONTINUOUS
 10
75.337508791
 20
19.6865403069
 11
75.337508791
 21
-24.8110503234
  0
LINE
  5
333
100
AcDbEntity
  8
RACCORDO
100
AcDbLine
 62
253
  6
CONTINUOUS
 10
75.6910621816
 20
21.0337359911
 11
75.6910621816
 21
19.8906776036
  0
LINE
  5
334
100
AcDbEntity
  8
0
100
AcDbLine
 62
7
  6
CONTINUOUS
 10
76.801974885
 20
20.8142264666
 11
76.801974885
 21
-22.7696773567
  0
LINE
  5
335
100
AcDbEntity
  8
RACCORDO
100
AcDbLine
 62
7
  6
CONTINUOUS
 10
77.301974885
 20
23.2792462544
 11
77.301974885
 21
22.1361878669
  0
LWPOLYLINE
  5
336
100
AcDbEntity
  8
0
100
AcDbPolyline
 62
253
  6
CONTINUOUS
 90
12
 70
0
 10
76.801974885
 20
-22.7696773567
 10
76.8007821561
 20
-22.8327313107
 10
76.7787884996
 20
-23.0473798684
 10
76.7284233481
 20
-23.2630330849
 10
76.6492670539
 20
-23.4777151162
 10
76.5417109142
 20
-23.6889576956
 10
76.4063476896
 20
-23.8951758711
 10
76.243568135
 20
-24.0954386213
 10
76.0542481968
 20
-24.2883459806
 10
75.8393925176
 20
-24.4726531697
 10
75.6000575328
 20
-24.6472583229
 10
75.337508791
 20
-24.8110503234
  0
LWPOLYLINE
  5
337
100
AcDbEntity
  8
0
100
AcDbPolyline
 62
253
  6
CONTINUOUS
 90
12
 70
0
 10
75.337508791
 20
-24.8110503234
 10
75.3276006131
 20
-25.110744414
 10
75.2979540399
 20
-25.3971583499
 10
75.248768517
 20
-25.668712309
 10
75.1803598485
 20
-25.923889742
 10
75.0931386871
 20
-26.1613218461
 10
74.9875894431
 20
-26.3797769708
 10
74.864315985
 20
-26.5780523079
 10
74.7240190627
 20
-26.755060993
 10
74.567442805
 20
-26.9098794119
 10
74.3954577958
 20
-27.0416427158
 10
74.3022444493
 20
-27.0996487246
  0
LWPOLYLINE
  5
338
100
AcDbEntity
  8
RACCORDO
100
AcDbPolyline
 62
7
  6
CONTINUOUS
 90
19
 70
0
 10
77.301974885
 20
22.1361878669
 10
77.2967169265
 20
21.9977575134
 10
77.2810026873
 20
21.8593271599
 10
77.2549216226
 20
21.7216848356
 10
77.2184146058
 20
21.5848350347
 10
77.1715407634
 20
21.448773263
 10
77.1145669296
 20
21.314274066
 10
77.0474354998
 20
21.1813463559
 10
76.9702040786
 20
21.0499812205
 10
76.8833123138
 20
20.9209264695
 10
76.7867051084
 20
20.79419528
 10
76.6804375594
 20
20.6697744749
 10
76.5651146059
 20
20.5483723325
 10
76.4406846009
 20
20.4300060694
 10
76.3071991913
 20
20.314658469
 10
76.1654182566
 20
20.2029861594
 10
76.01559509
 20
20.0952080167
 10
75.8574763984
 20
19.9911051647
 10
75.6910621816
 20
19.8906776036
  0
LWPOLYLINE
  5
339
100
AcDbEntity
  8
RACCORDO
100
AcDbPolyline
 62
7
  6
CONTINUOUS
 90
19
 70
0
 10
77.301974885
 20
23.2792462544
 10
77.2967169265
 20
23.4176766078
 10
77.2810026873
 20
23.5561069613
 10
77.2549216226
 20
23.6937492857
 10
77.2184146058
 20
23.8305990865
 10
77.1715407634
 20
23.9666608582
 10
77.1145669296
 20
24.1011600552
 10
77.0474354998
 20
24.2340877653
 10
76.9702040786
 20
24.3654529007
 10
76.8833123138
 20
24.4945076517
 10
76.7867051084
 20
24.6212388412
 10
76.6804375594
 20
24.7456596463
 10
76.5651146059
 20
24.8670617888
 10
76.4406846009
 20
24.9854280518
 10
76.3071991913
 20
25.1007756522
 10
76.1654182566
 20
25.2124479618
 10
76.01559509
 20
25.3202261046
 10
75.8574763984
 20
25.4243289565
 10
75.6910621816
 20
25.5247565177
  0
ARC
  5
33A
100
AcDbEntity
  8
0
100
AcDbCircle
 62
7
  6
CONTINUOUS
 10
8.1623645782
 20
-59.5143907562
 40
5.0
100
AcDbArc
 50
239.9984015712
 51
300.0015984409
  0
ENDSEC
  0
SECTION
  2
OBJECTS
  0
DICTIONARY
  5
C
100
AcDbDictionary
280
0
281
1
  3
ACAD_GROUP
350
D
  3
ACAD_MLINESTYLE
350
17
  3
ACAD_LAYOUT
350
1A
  3
ACAD_PLOTSETTINGS
350
19
  3
ACAD_PLOTSTYLENAME
350
E
  0
DICTIONARY
  5
D
102
{ACAD_REACTORS
330
C
102
}
100
AcDbDictionary
280
0
281
1
  0
ACDBDICTIONARYWDFLT
  5
E
102
{ACAD_REACTORS
330
C
102
}
100
AcDbDictionary
281
1
  3
Normal
350
F
100
AcDbDictionaryWithDefault
340
F
  0
DICTIONARY
  5
17
102
{ACAD_REACTORS
330
C
102
}
100
AcDbDictionary
280
0
281
1
  3
Standard
350
18
  0
DICTIONARY
  5
19
102
{ACAD_REACTORS
330
C
102
}
100
AcDbDictionary
281
1
  0
DICTIONARY
  5
1A
102
{ACAD_REACTORS
330
C
102
}
100
AcDbDictionary
281
1
  3
Model
350
33B
  3
Layout1
350
33C
  0
ACDBPLACEHOLDER
  5
F
102
{ACAD_REACTORS
330
E
102
}
  0
MLINESTYLE
  5
18
102
{ACAD_REACTORS
330
17
102
}
100
AcDbMlineStyle
  2
STANDARD
 70
0
  3

 62
256
 51
90.0
 52
90.0
 71
2
 49
0.5
 62
256
  6
BYLAYER
 49
-0.5
 62
256
  6
BYLAYER
  0
LAYOUT
  5
33B
102
{ACAD_REACTORS
330
1A
102
}
100
AcDbPlotSettings
  1

  2
none_device
  4
ISO_A4_(297.00_x_210.00_MM)
  6

 40
0.0
 41
0.0
 42
0.0
 43
0.0
 44
297.0
 45
210.0
 46
0.0
 47
0.0
 48
0.0
 49
0.0
140
0.0
141
0.0
142
1.0
143
1.0
 70
1024
 72
1
 73
0
 74
0
  7

 75
0
147
1.0
148
0.0
149
0.0
100
AcDbLayout
  1
Model
 70
0
 71
0
 10
0.0
 20
0.0
 11
297.0
 21
210.0
 12
0.0
 22
0.0
 32
0.0
 14
0.0
 24
0.0
 34
0.0
 15
0.0
 25
0.0
 35
0.0
146
0.0
 13
0.0
 23
0.0
 33
0.0
 16
1.0
 26
0.0
 36
0.0
 17
0.0
 27
1.0
 37
0.0
 76
0
330
213
345
0
346
0
  0
LAYOUT
  5
33C
102
{ACAD_REACTORS
330
1A
102
}
100
AcDbPlotSettings
  1

  2
none_device
  4
ISO_A4_(297.00_x_210.00_MM)
  6

 40
0.0
 41
0.0
 42
0.0
 43
0.0
 44
297.0
 45
210.0
 46
0.0
 47
0.0
 48
0.0
 49
0.0
140
0.0
141
0.0
142
1.0
143
1.0
 70
0
 72
1
 73
0
 74
0
  7

 75
0
147
1.0
148
0.0
149
0.0
100
AcDbLayout
  1
Layout1
 70
0
 71
1
 10
0.0
 20
0.0
 11
297.0
 21
210.0
 12
0.0
 22
0.0
 32
0.0
 14
0.0
 24
0.0
 34
0.0
 15
0.0
 25
0.0
 35
0.0
146
0.0
 13
0.0
 23
0.0
 33
0.0
 16
1.0
 26
0.0
 36
0.0
 17
0.0
 27
1.0
 37
0.0
 76
0
330
214
345
0
346
0
  0
ENDSEC
  0
EOF
