  0
SECTION
  2
HEADER
  9
$ACADVER
  1
AC1024
  9
$DWGCODEPAGE
  3
ANSI_1252
  9
$EXTMAX
 10
558.8
 20
431.8
 30
0.0
  9
$EXTMIN
 10
0.0
 20
0.0
 30
0.0
  9
$LIMMIN
 10
0.0
 20
0.0
  9
$LIMMAX
 10
558.8
 20
431.8
  9
$VIEWCTR
 10
279.4
 20
215.9
  9
$VIEWSIZE
 40
431.8
  9
$CLAYER
  8
0
  9
$LTSCALE
 40
30.734
  9
$CELTYPE
  6
BYLAYER
  9
$DIMSCALE
 40
1.0
  9
$DIMASZ
 40
3.0
  9
$DIMEXO
 40
0.5
  9
$DIMDLI
 40
21.2344
  9
$DIMEXE
 40
1.5
  9
$DIMCEN
 40
5.0292
  9
$DIMLFAC
 40
1.0
  9
$DIMBLK
  1
_FILLED
  9
$DIMALT
 70
0
  9
$DIMALTF
 40
0.0393700787
  9
$DIMTXT
 40
3.0
  9
$DIMTOL
 70
1
  9
$DIMLIM
 70
0
  9
$DIMTFAC
 40
1.0
  9
$DIMTP
 40
0.01
  9
$DIMTM
 40
0.01
  9
$DIMGAP
 40
0.625
  9
$DIMDSEP
 70
44
  9
$AUNITS
 70
0
  9
$PDMODE
 70
3
  9
$PDSIZE
 40
3.0
  9
$HANDSEED
  5
3DD
  9
$TILEMODE
 70
1
  9
$MEASUREMENT
 70
1
  9
$INSUNITS
 70
4
  0
ENDSEC
  0
SECTION
  2
CLASSES
  0
CLASS
  1
ACDBDICTIONARYWDFLT
  2
AcDbDictionaryWithDefault
  3
AutoCAD 2000
 90
0
 91
1
280
0
281
0
  0
CLASS
  1
ACDBPLACEHOLDER
  2
AcDbPlaceHolder
  3
AutoCAD 2000
 90
0
 91
1
280
0
281
0
  0
CLASS
  1
LAYOUT
  2
AcDbLayout
  3
AutoCAD 2000
 90
0
 91
0
280
0
281
0
  0
ENDSEC
  0
SECTION
  2
TABLES
  0
TABLE
  2
VPORT
  5
8
100
AcDbSymbolTable
 70
2
  0
VPORT
  5
1F4
100
AcDbSymbolTableRecord
100
AcDbViewportTableRecord
  2
*ACTIVE
 70
0
 10
0.0
 20
0.0
 11
1.0
 21
1.0
 12
279.4
 22
215.9
 13
0.0
 23
0.0
 14
1.0
 24
1.0
 15
0.0
 25
0.0
 16
0.0
 26
0.0
 36
1.0
 17
0.0
 27
0.0
 37
0.0
 40
431.8
 41
1.2941176471
 42
50.0
 43
0.0
 44
0.0
 50
0.0
 51
0.0
 71
0
 72
100
 73
1
 74
1
 75
0
 76
0
 77
0
 78
0
  0
ENDTAB
  0
TABLE
  2
LTYPE
  5
5
100
AcDbSymbolTable
 70
6
  0
LTYPE
  5
14
100
AcDbSymbolTableRecord
100
AcDbLinetypeTableRecord
  2
BYBLOCK
 70
0
  3

 72
65
 73
0
 40
0.0
  0
LTYPE
  5
15
100
AcDbSymbolTableRecord
100
AcDbLinetypeTableRecord
  2
BYLAYER
 70
0
  3

 72
65
 73
0
 40
0.0
  0
LTYPE
  5
16
100
AcDbSymbolTableRecord
100
AcDbLinetypeTableRecord
  2
CONTINUOUS
 70
64
  3
Solid line
 72
65
 73
0
 40
0.0
  0
LTYPE
  5
1F5
100
AcDbSymbolTableRecord
100
AcDbLinetypeTableRecord
  2
CENTER
 70
64
  3
____ _ ____ _ ____ _ ____ _ ____ _ ____ _ ____
 72
65
 73
4
 40
0.6
 49
0.375
 74
0
 49
-0.075
 74
0
 49
0.075
 74
0
 49
-0.075
 74
0
  0
LTYPE
  5
1F6
100
AcDbSymbolTableRecord
100
AcDbLinetypeTableRecord
  2
HIDDEN
 70
64
  3
- - - - - - - - - - - - - - - - - - - -
 72
65
 73
2
 40
0.2
 49
0.1
 74
0
 49
-0.1
 74
0
  0
LTYPE
  5
1F7
100
AcDbSymbolTableRecord
100
AcDbLinetypeTableRecord
  2
PHANTOM
 70
64
  3
_____ _ _ _____ _ _ _____ _ _ _____
 72
65
 73
6
 40
0.8
 49
0.45
 74
0
 49
-0.05
 74
0
 49
0.1
 74
0
 49
-0.05
 74
0
 49
0.1
 74
0
 49
-0.05
 74
0
  0
LTYPE
  5
1F8
100
AcDbSymbolTableRecord
100
AcDbLinetypeTableRecord
  2
DOT
 70
64
  3
. . . . . . . . . . . . . . . . . . . .
 72
65
 73
2
 40
0.2
 49
0.1
 74
0
 49
-0.1
 74
0
  0
LTYPE
  5
1F9
100
AcDbSymbolTableRecord
100
AcDbLinetypeTableRecord
  2
DASHED
 70
64
  3
- - - - - - - - - - - - - - - - - - - -
 72
65
 73
2
 40
0.2
 49
0.1
 74
0
 49
-0.1
 74
0
  0
ENDTAB
  0
TABLE
  2
LAYER
  5
2
100
AcDbSymbolTable
 70
36
  0
LAYER
  5
10
100
AcDbSymbolTableRecord
100
AcDbLayerTableRecord
  2
0
 70
0
 62
7
  6
CONTINUOUS
370
-3
390
F
  0
LAYER
  5
1FA
100
AcDbSymbolTableRecord
100
AcDbLayerTableRecord
  2
DEFAULT_1
 70
0
 62
7
  6
CENTER
370
-3
390
F
  0
LAYER
  5
1FB
100
AcDbSymbolTableRecord
100
AcDbLayerTableRecord
  2
DEFAULT_2
 70
0
 62
7
  6
HIDDEN
370
-3
390
F
  0
LAYER
  5
1FC
100
AcDbSymbolTableRecord
100
AcDbLayerTableRecord
  2
DEFAULT_3
 70
0
 62
7
  6
PHANTOM
370
-3
390
F
  0
LAYER
  5
1FD
100
AcDbSymbolTableRecord
100
AcDbLayerTableRecord
  2
ASSI
 70
0
 62
7
  6
CONTINUOUS
370
-3
390
F
  0
LAYER
  5
1FE
100
AcDbSymbolTableRecord
100
AcDbLayerTableRecord
  2
COORDINATE
 70
0
 62
7
  6
CONTINUOUS
370
-3
390
F
  0
LAYER
  5
1FF
100
AcDbSymbolTableRecord
100
AcDbLayerTableRecord
  2
COPY_PUBLISH
 70
0
 62
7
  6
CONTINUOUS
370
-3
390
F
  0
LAYER
  5
200
100
AcDbSymbolTableRecord
100
AcDbLayerTableRecord
  2
COSMETICI
 70
0
 62
7
  6
CONTINUOUS
370
-3
390
F
  0
LAYER
  5
201
100
AcDbSymbolTableRecord
100
AcDbLayerTableRecord
  2
CURVE
 70
0
 62
7
  6
CONTINUOUS
370
-3
390
F
  0
LAYER
  5
202
100
AcDbSymbolTableRecord
100
AcDbLayerTableRecord
  2
IMPORT_IGES
 70
0
 62
7
  6
CONTINUOUS
370
-3
390
F
  0
LAYER
  5
203
100
AcDbSymbolTableRecord
100
AcDbLayerTableRecord
  2
INTF_1
 70
0
 62
7
  6
CONTINUOUS
370
-3
390
F
  0
LAYER
  5
204
100
AcDbSymbolTableRecord
100
AcDbLayerTableRecord
  2
NOTE
 70
0
 62
7
  6
CONTINUOUS
370
-3
390
F
  0
LAYER
  5
205
100
AcDbSymbolTableRecord
100
AcDbLayerTableRecord
  2
PIANI
 70
0
 62
7
  6
CONTINUOUS
370
-3
390
F
  0
LAYER
  5
206
100
AcDbSymbolTableRecord
100
AcDbLayerTableRecord
  2
PUNTI
 70
0
 62
7
  6
CONTINUOUS
370
-3
390
F
  0
LAYER
  5
207
100
AcDbSymbolTableRecord
100
AcDbLayerTableRecord
  2
RACCORDO
 70
0
 62
7
  6
CONTINUOUS
370
-3
390
F
  0
LAYER
  5
208
100
AcDbSymbolTableRecord
100
AcDbLayerTableRecord
  2
SIMBOLI
 70
0
 62
7
  6
CONTINUOUS
370
-3
390
F
  0
LAYER
  5
209
100
AcDbSymbolTableRecord
100
AcDbLayerTableRecord
  2
SMUSSO
 70
0
 62
7
  6
CONTINUOUS
370
-3
390
F
  0
LAYER
  5
20A
100
AcDbSymbolTableRecord
100
AcDbLayerTableRecord
  2
SUPERFICI
 70
0
 62
7
  6
CONTINUOUS
370
-3
390
F
  0
LAYER
  5
20B
100
AcDbSymbolTableRecord
100
AcDbLayerTableRecord
  2
TRASH
 70
0
 62
7
  6
CONTINUOUS
370
-3
390
F
  0
ENDTAB
  0
TABLE
  2
STYLE
  5
3
100
AcDbSymbolTable
 70
1
  0
STYLE
  5
11
100
AcDbSymbolTableRecord
100
AcDbTextStyleTableRecord
  2
STANDARD
 70
0
 40
0.0
 41
0.8
 50
0.0
 71
0
 42
0.2
  3
txt
  4

  0
STYLE
  5
20C
100
AcDbSymbolTableRecord
100
AcDbTextStyleTableRecord
  2
TEXTSTYLE_1
 70
0
 40
0.0
 41
0.8
 50
0.0
 71
0
 42
0.2
  3
gdt
  4

  0
ENDTAB
  0
TABLE
  2
VIEW
  5
6
100
AcDbSymbolTable
 70
0
  0
ENDTAB
  0
TABLE
  2
UCS
  5
7
100
AcDbSymbolTable
 70
0
  0
ENDTAB
  0
TABLE
  2
APPID
  5
9
100
AcDbSymbolTable
 70
1
  0
APPID
  5
20D
100
AcDbSymbolTableRecord
100
AcDbRegAppTableRecord
  2
ACAD
 70
0
  0
ENDTAB
  0
TABLE
  2
BLOCK_RECORD
  5
1
100
AcDbSymbolTable
 70
0
  0
BLOCK_RECORD
  5
20E
100
AcDbSymbolTableRecord
100
AcDbBlockTableRecord
  2
*Model_Space
  0
BLOCK_RECORD
  5
20F
100
AcDbSymbolTableRecord
100
AcDbBlockTableRecord
  2
*Paper_Space
  0
BLOCK_RECORD
  5
210
100
AcDbSymbolTableRecord
100
AcDbBlockTableRecord
  2
_FILLED
  0
ENDTAB
  0
TABLE
  2
DIMSTYLE
  5
A
100
AcDbSymbolTable
 70
1
100
AcDbDimStyleTable
 71
0
  0
DIMSTYLE
105
211
100
AcDbSymbolTableRecord
100
AcDbDimStyleTableRecord
  2
STANDARD
 70
0
  3

  4

 40
1.0
 41
3.0
 42
0.5
 43
0.38
 44
1.5
 45
0.0
 46
0.0
 47
0.01
 48
0.01
140
3.0
141
0.09
142
0.0
143
25.4
144
1.0
145
0.0
146
1.0
147
0.625
 71
1
 72
0
 73
0
 74
0
 75
0
 76
0
 77
1
 78
8
 79
2
170
0
171
1
172
0
173
0
174
0
175
0
176
0
177
0
178
0
270
2
179
2
271
2
272
2
273
2
274
2
275
0
280
0
281
0
282
0
283
1
284
8
285
0
286
0
287
3
288
0
340
11
278
44
341
210
342
210
343
210
344
210
  0
ENDTAB
  0
ENDSEC
  0
SECTION
  2
BLOCKS
  0
BLOCK
  5
20
100
AcDbEntity
  8
0
100
AcDbBlockBegin
  2
*Model_Space
 70
0
 10
0.0
 20
0.0
 30
0.0
  3
*Model_Space
  1

  0
ENDBLK
  5
21
100
AcDbEntity
  8
0
100
AcDbBlockEnd
  0
BLOCK
  5
1C
100
AcDbEntity
  8
0
100
AcDbBlockBegin
  2
*Paper_Space
 70
0
 10
0.0
 20
0.0
 30
0.0
  3
*Paper_Space
  1

  0
ENDBLK
  5
1D
100
AcDbEntity
  8
0
100
AcDbBlockEnd
  0
BLOCK
  5
212
100
AcDbEntity
  8
0
100
AcDbBlockBegin
  2
_FILLED
 70
64
 10
0.0
 20
0.0
  3
_FILLED
  1

  0
SOLID
  5
213
100
AcDbEntity
  8
0
  6
BYBLOCK
 62
0
100
AcDbTrace
 10
0.0
 20
0.0
 11
-1.0
 21
0.1333333333
 12
-1.0
 22
-0.1333333333
 13
-1.0
 23
-0.1333333333
  0
ENDBLK
  5
214
100
AcDbEntity
  8
0
  6
BYBLOCK
 62
0
100
AcDbBlockEnd
  0
ENDSEC
  0
SECTION
  2
ENTITIES
  0
LINE
  5
215
100
AcDbEntity
  8
0
100
AcDbLine
 62
7
  6
CONTINUOUS
 10
-83.0088440723
 20
92.5514413194
 11
-60.734980465
 21
105.4120910092
  0
LINE
  5
216
100
AcDbEntity
  8
0
100
AcDbLine
 62
250
  6
CONTINUOUS
 10
-81.1337534718
 20
92.3656619031
 11
-58.8598898644
 21
105.2263115929
  0
LINE
  5
217
100
AcDbEntity
  8
SUPERFICI
100
AcDbLine
 62
7
  6
CONTINUOUS
 10
-58.8706131691
 20
102.3748768534
 11
-58.6831131691
 21
102.4831160793
  0
LINE
  5
218
100
AcDbEntity
  8
0
100
AcDbLine
 62
250
  6
CONTINUOUS
 10
-84.3157339871
 20
90.4801826201
 11
-84.1566349613
 21
91.1561916564
  0
LINE
  5
219
100
AcDbEntity
  8
0
100
AcDbLine
 62
250
  6
CONTINUOUS
 10
-67.8830885752
 20
80.9921791087
 11
-68.2290547151
 21
80.7924225954
  0
LINE
  5
21A
100
AcDbEntity
  8
0
100
AcDbLine
 62
7
  6
CONTINUOUS
 10
-67.1413166237
 20
80.5638892805
 11
-67.6987246292
 21
80.2420488841
  0
LINE
  5
21B
100
AcDbEntity
  8
0
100
AcDbLine
 62
7
  6
CONTINUOUS
 10
-66.6109865378
 20
80.2576833355
 11
-67.6987246292
 21
79.6296369941
  0
LINE
  5
21C
100
AcDbEntity
  8
ASSI
100
AcDbLine
 62
7
  6
CONTINUOUS
 10
-87.2724065089
 20
82.7662312664
 11
-87.2724065089
 21
89.3575319204
  0
LINE
  5
21D
100
AcDbEntity
  8
ASSI
100
AcDbLine
 62
7
  6
CONTINUOUS
 10
-86.925602876
 20
82.3822676282
 11
-86.925602876
 21
88.9735682823
  0
LINE
  5
21E
100
AcDbEntity
  8
ASSI
100
AcDbLine
 62
250
  6
CONTINUOUS
 10
-83.2550738153
 20
79.5209285232
 11
-83.2550738153
 21
89.8677707301
  0
LINE
  5
21F
100
AcDbEntity
  8
0
100
AcDbLine
 62
7
  6
CONTINUOUS
 10
-82.7247437294
 20
-14.8979135721
 11
-82.7247437294
 21
76.1385222903
  0
LINE
  5
220
100
AcDbEntity
  8
0
100
AcDbLine
 62
7
  6
CONTINUOUS
 10
-82.1944136436
 20
-15.2041195171
 11
-82.1944136436
 21
75.8323163453
  0
LINE
  5
221
100
AcDbEntity
  8
0
100
AcDbLine
 62
7
  6
CONTINUOUS
 10
-74.7697924411
 20
84.9684756102
 11
-74.7697924411
 21
-19.0819390551
  0
LINE
  5
222
100
AcDbEntity
  8
ASSI
100
AcDbLine
 62
250
  6
CONTINUOUS
 10
-41.7125504206
 20
59.0539803857
 11
-42.2428805065
 21
58.7477744407
  0
LINE
  5
223
100
AcDbEntity
  8
0
100
AcDbLine
 62
7
  6
CONTINUOUS
 10
-68.2290547151
 20
-12.2851889589
 11
-68.2290547151
 21
80.7924225954
  0
LINE
  5
224
100
AcDbEntity
  8
0
100
AcDbLine
 62
7
  6
CONTINUOUS
 10
-67.6987246292
 20
-11.9789830139
 11
-67.6987246292
 21
80.8857296769
  0
LINE
  5
225
100
AcDbEntity
  8
0
100
AcDbLine
 62
250
  6
CONTINUOUS
 10
-32.5277495159
 20
60.5784494423
 11
-32.8737156558
 21
60.3786929291
  0
LINE
  5
226
100
AcDbEntity
  8
0
100
AcDbLine
 62
7
  6
CONTINUOUS
 10
-61.1933422423
 20
-2.3027331143
 11
-61.1933422423
 21
-10.3857888546
  0
LINE
  5
227
100
AcDbEntity
  8
0
100
AcDbLine
 62
250
  6
CONTINUOUS
 10
-61.016565547
 20
77.0275347699
 11
-61.016565547
 21
-2.2007236484
  0
LINE
  5
228
100
AcDbEntity
  8
0
100
AcDbLine
 62
250
  6
CONTINUOUS
 10
-60.3094587658
 20
76.6192601766
 11
-60.3094587658
 21
-2.5069000022
  0
LINE
  5
229
100
AcDbEntity
  8
SUPERFICI
100
AcDbLine
 62
7
  6
CONTINUOUS
 10
-58.6831131691
 20
102.4831160793
 11
-58.6831131691
 21
104.5119099645
  0
LINE
  5
22A
100
AcDbEntity
  8
0
100
AcDbLine
 62
7
  6
CONTINUOUS
 10
67.8385065302
 20
-105.2129467824
 11
67.3081764443
 21
-104.9067408374
  0
LINE
  5
22B
100
AcDbEntity
  8
0
100
AcDbLine
 62
7
  6
CONTINUOUS
 10
-80.653917519
 20
-19.4752821836
 11
-80.1235874331
 21
-19.7814881286
  0
LINE
  5
22C
100
AcDbEntity
  8
0
100
AcDbLine
 62
250
  6
CONTINUOUS
 10
65.7676803197
 20
-100.635578171
 11
65.2373502338
 21
-100.329372226
  0
LINE
  5
22D
100
AcDbEntity
  8
0
100
AcDbLine
 62
250
  6
CONTINUOUS
 10
-82.7247437294
 20
-14.8979135721
 11
-82.1944136436
 21
-15.2041195171
  0
LINE
  5
22E
100
AcDbEntity
  8
0
100
AcDbLine
 62
7
  6
CONTINUOUS
 10
-74.7697924411
 20
-19.0819390551
 11
65.2373502338
 21
-99.920308534
  0
LINE
  5
22F
100
AcDbEntity
  8
IMPORT_IGES
100
AcDbLine
 62
7
  6
CONTINUOUS
 10
-5.36658552
 20
-56.912559666
 11
-3.4634482771
 21
-58.0114072581
  0
LINE
  5
230
100
AcDbEntity
  8
CURVE
100
AcDbLine
 62
250
  6
CONTINUOUS
 10
-5.36658552
 20
-56.912559666
 11
-3.4634482771
 21
-58.0114072581
  0
LINE
  5
231
100
AcDbEntity
  8
IMPORT_IGES
100
AcDbLine
 62
7
  6
CONTINUOUS
 10
-3.2760282105
 20
-58.1196212556
 11
-1.7465138164
 21
-59.0027436975
  0
LINE
  5
232
100
AcDbEntity
  8
CURVE
100
AcDbLine
 62
250
  6
CONTINUOUS
 10
-3.2760282105
 20
-58.1196212556
 11
-1.7465138164
 21
-59.0027436975
  0
LINE
  5
233
100
AcDbEntity
  8
IMPORT_IGES
100
AcDbLine
 62
7
  6
CONTINUOUS
 10
-0.4892051274
 20
-59.7286979767
 11
1.2676200552
 21
-60.7430668189
  0
LINE
  5
234
100
AcDbEntity
  8
CURVE
100
AcDbLine
 62
250
  6
CONTINUOUS
 10
-0.4892051274
 20
-59.7286979767
 11
1.2676200552
 21
-60.7430668189
  0
LINE
  5
235
100
AcDbEntity
  8
IMPORT_IGES
100
AcDbLine
 62
7
  6
CONTINUOUS
 10
1.4328631318
 20
-60.8333233565
 11
2.0251428428
 21
-61.1752982386
  0
LINE
  5
236
100
AcDbEntity
  8
CURVE
100
AcDbLine
 62
250
  6
CONTINUOUS
 10
1.4328631318
 20
-60.8333233565
 11
2.0251428428
 21
-61.1752982386
  0
LINE
  5
237
100
AcDbEntity
  8
IMPORT_IGES
100
AcDbLine
 62
7
  6
CONTINUOUS
 10
2.7169467726
 20
-61.5747371573
 11
3.3090910726
 21
-61.9166338548
  0
LINE
  5
238
100
AcDbEntity
  8
CURVE
100
AcDbLine
 62
250
  6
CONTINUOUS
 10
2.7169467726
 20
-61.5747371573
 11
3.3090910726
 21
-61.9166338548
  0
LINE
  5
239
100
AcDbEntity
  8
IMPORT_IGES
100
AcDbLine
 62
7
  6
CONTINUOUS
 10
0.7041885331
 20
-60.0111401982
 11
0.0742263946
 21
-59.6474079547
  0
LINE
  5
23A
100
AcDbEntity
  8
CURVE
100
AcDbLine
 62
250
  6
CONTINUOUS
 10
0.7041885331
 20
-60.0111401982
 11
0.0742263946
 21
-59.6474079547
  0
LINE
  5
23B
100
AcDbEntity
  8
IMPORT_IGES
100
AcDbLine
 62
7
  6
CONTINUOUS
 10
-1.7465138164
 20
-58.492797999
 11
-2.7428414132
 21
-57.9175309315
  0
LINE
  5
23C
100
AcDbEntity
  8
CURVE
100
AcDbLine
 62
250
  6
CONTINUOUS
 10
-1.7465138164
 20
-58.492797999
 11
-2.7428414132
 21
-57.9175309315
  0
LINE
  5
23D
100
AcDbEntity
  8
IMPORT_IGES
100
AcDbLine
 62
7
  6
CONTINUOUS
 10
-3.4634482771
 20
-57.5014615597
 11
-4.821904702
 21
-56.7171058454
  0
LINE
  5
23E
100
AcDbEntity
  8
CURVE
100
AcDbLine
 62
250
  6
CONTINUOUS
 10
-3.4634482771
 20
-57.5014615597
 11
-4.821904702
 21
-56.7171058454
  0
LINE
  5
23F
100
AcDbEntity
  8
IMPORT_IGES
100
AcDbLine
 62
7
  6
CONTINUOUS
 10
-4.821904702
 20
-56.4621332003
 11
-4.1595793468
 21
-56.8445515595
  0
LINE
  5
240
100
AcDbEntity
  8
CURVE
100
AcDbLine
 62
250
  6
CONTINUOUS
 10
-4.821904702
 20
-56.4621332003
 11
-4.1595793468
 21
-56.8445515595
  0
LINE
  5
241
100
AcDbEntity
  8
IMPORT_IGES
100
AcDbLine
 62
7
  6
CONTINUOUS
 10
0.0742263946
 20
-59.1857605555
 11
0.7041885331
 21
-59.549492799
  0
LINE
  5
242
100
AcDbEntity
  8
CURVE
100
AcDbLine
 62
250
  6
CONTINUOUS
 10
0.0742263946
 20
-59.1857605555
 11
0.7041885331
 21
-59.549492799
  0
LINE
  5
243
100
AcDbEntity
  8
IMPORT_IGES
100
AcDbLine
 62
7
  6
CONTINUOUS
 10
1.2676200552
 20
-59.4682023688
 11
-0.4892051274
 21
-58.4538335265
  0
LINE
  5
244
100
AcDbEntity
  8
CURVE
100
AcDbLine
 62
250
  6
CONTINUOUS
 10
1.2676200552
 20
-59.4682023688
 11
-0.4892051274
 21
-58.4538335265
  0
LINE
  5
245
100
AcDbEntity
  8
IMPORT_IGES
100
AcDbLine
 62
7
  6
CONTINUOUS
 10
-2.7428414132
 20
-57.1526121798
 11
-3.2760282105
 21
-56.8447568054
  0
LINE
  5
246
100
AcDbEntity
  8
CURVE
100
AcDbLine
 62
250
  6
CONTINUOUS
 10
-2.7428414132
 20
-57.1526121798
 11
-3.2760282105
 21
-56.8447568054
  0
LINE
  5
247
100
AcDbEntity
  8
IMPORT_IGES
100
AcDbLine
 62
7
  6
CONTINUOUS
 10
-4.1595793468
 20
-56.3346054528
 11
-4.821904702
 21
-55.9521870936
  0
LINE
  5
248
100
AcDbEntity
  8
CURVE
100
AcDbLine
 62
250
  6
CONTINUOUS
 10
-4.1595793468
 20
-56.3346054528
 11
-4.821904702
 21
-55.9521870936
  0
LINE
  5
249
100
AcDbEntity
  8
IMPORT_IGES
100
AcDbLine
 62
7
  6
CONTINUOUS
 10
-4.821904702
 20
-55.6972140403
 11
-3.6624974218
 21
-56.3666412731
  0
LINE
  5
24A
100
AcDbEntity
  8
CURVE
100
AcDbLine
 62
250
  6
CONTINUOUS
 10
-4.821904702
 20
-55.6972140403
 11
-3.6624974218
 21
-56.3666412731
  0
LINE
  5
24B
100
AcDbEntity
  8
IMPORT_IGES
100
AcDbLine
 62
7
  6
CONTINUOUS
 10
-3.4765651079
 20
-56.4739962609
 11
-2.0582043642
 21
-57.292939978
  0
LINE
  5
24C
100
AcDbEntity
  8
CURVE
100
AcDbLine
 62
250
  6
CONTINUOUS
 10
-3.4765651079
 20
-56.4739962609
 11
-2.0582043642
 21
-57.292939978
  0
LINE
  5
24D
100
AcDbEntity
  8
IMPORT_IGES
100
AcDbLine
 62
7
  6
CONTINUOUS
 10
-0.5346402737
 20
-58.1726267892
 11
1.5112932946
 21
-59.3539231899
  0
LINE
  5
24E
100
AcDbEntity
  8
CURVE
100
AcDbLine
 62
250
  6
CONTINUOUS
 10
-0.5346402737
 20
-58.1726267892
 11
1.5112932946
 21
-59.3539231899
  0
LINE
  5
24F
100
AcDbEntity
  8
IMPORT_IGES
100
AcDbLine
 62
7
  6
CONTINUOUS
 10
1.1902721193
 20
-58.6586242965
 11
-0.810631475
 21
-57.5033276383
  0
LINE
  5
250
100
AcDbEntity
  8
CURVE
100
AcDbLine
 62
250
  6
CONTINUOUS
 10
1.1902721193
 20
-58.6586242965
 11
-0.810631475
 21
-57.5033276383
  0
LINE
  5
251
100
AcDbEntity
  8
IMPORT_IGES
100
AcDbLine
 62
7
  6
CONTINUOUS
 10
-1.7822135165
 20
-56.9423483444
 11
-3.4765651079
 21
-55.9640509707
  0
LINE
  5
252
100
AcDbEntity
  8
CURVE
100
AcDbLine
 62
250
  6
CONTINUOUS
 10
-1.7822135165
 20
-56.9423483444
 11
-3.4765651079
 21
-55.9640509707
  0
LINE
  5
253
100
AcDbEntity
  8
IMPORT_IGES
100
AcDbLine
 62
7
  6
CONTINUOUS
 10
-3.6624974218
 20
-55.8566959829
 11
-5.36658552
 21
-54.8727768723
  0
LINE
  5
254
100
AcDbEntity
  8
CURVE
100
AcDbLine
 62
250
  6
CONTINUOUS
 10
-3.6624974218
 20
-55.8566959829
 11
-5.36658552
 21
-54.8727768723
  0
LINE
  5
255
100
AcDbEntity
  8
IMPORT_IGES
100
AcDbLine
 62
7
  6
CONTINUOUS
 10
3.3090910726
 20
-59.8799732435
 11
2.7169467726
 21
-59.5380765459
  0
LINE
  5
256
100
AcDbEntity
  8
CURVE
100
AcDbLine
 62
250
  6
CONTINUOUS
 10
3.3090910726
 20
-59.8799732435
 11
2.7169467726
 21
-59.5380765459
  0
LINE
  5
257
100
AcDbEntity
  8
IMPORT_IGES
100
AcDbLine
 62
7
  6
CONTINUOUS
 10
2.0251428428
 20
-59.1386376272
 11
1.4328631318
 21
-58.7966627451
  0
LINE
  5
258
100
AcDbEntity
  8
CURVE
100
AcDbLine
 62
250
  6
CONTINUOUS
 10
2.0251428428
 20
-59.1386376272
 11
1.4328631318
 21
-58.7966627451
  0
LINE
  5
259
100
AcDbEntity
  8
0
100
AcDbLine
 62
7
  6
CONTINUOUS
 10
65.2373502338
 20
-89.7552535879
 11
38.1905158535
 21
-74.1387503932
  0
LINE
  5
25A
100
AcDbEntity
  8
0
100
AcDbLine
 62
7
  6
CONTINUOUS
 10
30.4123412604
 20
-69.6477298666
 11
2.8351767941
 21
-53.7250207268
  0
LINE
  5
25B
100
AcDbEntity
  8
0
100
AcDbLine
 62
7
  6
CONTINUOUS
 10
-4.9429977989
 20
-49.2340002002
 11
-32.5201622652
 21
-33.3112910604
  0
LINE
  5
25C
100
AcDbEntity
  8
0
100
AcDbLine
 62
7
  6
CONTINUOUS
 10
-40.2983368582
 20
-28.8202705338
 11
-67.8755013245
 21
-12.897561394
  0
LINE
  5
25D
100
AcDbEntity
  8
0
100
AcDbLine
 62
7
  6
CONTINUOUS
 10
65.2373502338
 20
-89.142841698
 11
38.7208459393
 21
-73.8325444482
  0
LINE
  5
25E
100
AcDbEntity
  8
0
100
AcDbLine
 62
7
  6
CONTINUOUS
 10
30.765894651
 20
-69.2394552732
 11
3.36550688
 21
-53.4188147818
  0
LINE
  5
25F
100
AcDbEntity
  8
0
100
AcDbLine
 62
7
  6
CONTINUOUS
 10
-4.5894444083
 20
-48.8257256068
 11
-31.9898321793
 21
-33.0050851154
  0
LINE
  5
260
100
AcDbEntity
  8
0
100
AcDbLine
 62
7
  6
CONTINUOUS
 10
-39.9447834677
 20
-28.4119959405
 11
-67.3451712386
 21
-12.591355449
  0
LINE
  5
261
100
AcDbEntity
  8
0
100
AcDbLine
 62
7
  6
CONTINUOUS
 10
-39.9447834677
 20
64.4614388623
 11
-39.9447834677
 21
-28.6161726921
  0
LINE
  5
262
100
AcDbEntity
  8
ASSI
100
AcDbLine
 62
250
  6
CONTINUOUS
 10
-6.3572113613
 20
38.6402507193
 11
-6.8875414472
 21
38.3340447743
  0
LINE
  5
263
100
AcDbEntity
  8
0
100
AcDbLine
 62
250
  6
CONTINUOUS
 10
-61.5468956329
 20
-10.9981612896
 11
-39.9447834677
 21
-23.4709501158
  0
LINE
  5
264
100
AcDbEntity
  8
0
100
AcDbLine
 62
250
  6
CONTINUOUS
 10
-32.3433855699
 20
-27.8599019941
 11
-4.5894444083
 21
-43.8846797822
  0
LINE
  5
265
100
AcDbEntity
  8
0
100
AcDbLine
 62
250
  6
CONTINUOUS
 10
3.0119534894
 20
-48.2736316605
 11
30.765894651
 21
-64.2984094486
  0
LINE
  5
266
100
AcDbEntity
  8
0
100
AcDbLine
 62
250
  6
CONTINUOUS
 10
38.3672925488
 20
-68.6873613268
 11
65.2373502338
 21
-84.2017958733
  0
LINE
  5
267
100
AcDbEntity
  8
0
100
AcDbLine
 62
250
  6
CONTINUOUS
 10
-61.1933422423
 20
-10.3857888546
 11
-39.9447834677
 21
-22.6544403841
  0
LINE
  5
268
100
AcDbEntity
  8
0
100
AcDbLine
 62
250
  6
CONTINUOUS
 10
-32.3433855699
 20
-27.0433922623
 11
-4.5894444083
 21
-43.0681700505
  0
LINE
  5
269
100
AcDbEntity
  8
0
100
AcDbLine
 62
250
  6
CONTINUOUS
 10
3.0119534894
 20
-47.4571219287
 11
30.765894651
 21
-63.4818997168
  0
LINE
  5
26A
100
AcDbEntity
  8
0
100
AcDbLine
 62
250
  6
CONTINUOUS
 10
38.3672925488
 20
-67.8708515951
 11
65.2373502338
 21
-83.3852861416
  0
LINE
  5
26B
100
AcDbEntity
  8
0
100
AcDbLine
 62
7
  6
CONTINUOUS
 10
-32.8737156558
 20
-32.6989186253
 11
-32.8737156558
 21
60.3786929291
  0
LINE
  5
26C
100
AcDbEntity
  8
0
100
AcDbLine
 62
7
  6
CONTINUOUS
 10
-32.3433855699
 20
-32.3927126803
 11
-32.3433855699
 21
60.4720000105
  0
LINE
  5
26D
100
AcDbEntity
  8
0
100
AcDbLine
 62
250
  6
CONTINUOUS
 10
2.8275895435
 20
40.1647197759
 11
2.4816234035
 21
39.9649632627
  0
LINE
  5
26E
100
AcDbEntity
  8
ASSI
100
AcDbLine
 62
250
  6
CONTINUOUS
 10
-50.1978317949
 20
5.820591798
 11
-50.7281618807
 21
5.514385853
  0
LINE
  5
26F
100
AcDbEntity
  8
ASSI
100
AcDbLine
 62
250
  6
CONTINUOUS
 10
-40.9170552918
 20
10.524983922
 11
-41.4473853777
 21
10.218777977
  0
LINE
  5
270
100
AcDbEntity
  8
0
100
AcDbLine
 62
7
  6
CONTINUOUS
 10
-61.016565547
 20
-2.2007236484
 11
-67.6987246292
 21
-6.0589185553
  0
LINE
  5
271
100
AcDbEntity
  8
ASSI
100
AcDbLine
 62
250
  6
CONTINUOUS
 10
-57.6226582725
 20
-0.567988419
 11
-58.1881384223
 21
-0.8944895703
  0
LINE
  5
272
100
AcDbEntity
  8
0
100
AcDbLine
 62
250
  6
CONTINUOUS
 10
-60.3094715796
 20
-2.5068778095
 11
-60.5746238088
 21
-2.6599733835
  0
LINE
  5
273
100
AcDbEntity
  8
0
100
AcDbLine
 62
7
  6
CONTINUOUS
 10
-61.1933422423
 20
-2.3027331143
 11
-60.5746238088
 21
-2.6599733835
  0
LINE
  5
274
100
AcDbEntity
  8
0
100
AcDbLine
 62
250
  6
CONTINUOUS
 10
-67.6987246292
 20
-11.9789830139
 11
-68.2290547151
 21
-12.2851889589
  0
LINE
  5
275
100
AcDbEntity
  8
0
100
AcDbLine
 62
250
  6
CONTINUOUS
 10
-67.3451712386
 20
-12.591355449
 11
-67.8755013245
 21
-12.897561394
  0
LINE
  5
276
100
AcDbEntity
  8
ASSI
100
AcDbLine
 62
250
  6
CONTINUOUS
 10
-70.2089537024
 20
-14.5711360778
 11
-70.7392837883
 21
-14.8773420228
  0
LINE
  5
277
100
AcDbEntity
  8
ASSI
100
AcDbLine
 62
250
  6
CONTINUOUS
 10
-70.0940488505
 20
-14.6374806992
 11
-70.0687025918
 21
-14.622846087
  0
LINE
  5
278
100
AcDbEntity
  8
0
100
AcDbLine
 62
7
  6
CONTINUOUS
 10
-61.5468956329
 20
-10.9981612896
 11
-65.8256911615
 21
-13.468684202
  0
LINE
  5
279
100
AcDbEntity
  8
0
100
AcDbLine
 62
7
  6
CONTINUOUS
 10
-75.1233458317
 20
-19.2860763518
 11
-74.7697924411
 21
-19.0819390551
  0
LINE
  5
27A
100
AcDbEntity
  8
IMPORT_IGES
100
AcDbLine
 62
7
  6
CONTINUOUS
 10
1.4328631318
 20
-58.7966627451
 11
2.0749051289
 21
-60.1857000533
  0
LINE
  5
27B
100
AcDbEntity
  8
CURVE
100
AcDbLine
 62
250
  6
CONTINUOUS
 10
1.4328631318
 20
-58.7966627451
 11
2.0749051289
 21
-60.1857000533
  0
LINE
  5
27C
100
AcDbEntity
  8
IMPORT_IGES
100
AcDbLine
 62
7
  6
CONTINUOUS
 10
2.3710449844
 20
-59.8868696771
 11
2.0251428428
 21
-59.1386376272
  0
LINE
  5
27D
100
AcDbEntity
  8
CURVE
100
AcDbLine
 62
250
  6
CONTINUOUS
 10
2.3710449844
 20
-59.8868696771
 11
2.0251428428
 21
-59.1386376272
  0
LINE
  5
27E
100
AcDbEntity
  8
IMPORT_IGES
100
AcDbLine
 62
7
  6
CONTINUOUS
 10
2.3710449844
 20
-60.826349774
 11
2.7169467726
 21
-61.5747371573
  0
LINE
  5
27F
100
AcDbEntity
  8
CURVE
100
AcDbLine
 62
250
  6
CONTINUOUS
 10
2.3710449844
 20
-60.826349774
 11
2.7169467726
 21
-61.5747371573
  0
LINE
  5
280
100
AcDbEntity
  8
IMPORT_IGES
100
AcDbLine
 62
7
  6
CONTINUOUS
 10
3.3090910726
 20
-61.9166338548
 11
2.6671848399
 21
-60.5276749354
  0
LINE
  5
281
100
AcDbEntity
  8
CURVE
100
AcDbLine
 62
250
  6
CONTINUOUS
 10
3.3090910726
 20
-61.9166338548
 11
2.6671848399
 21
-60.5276749354
  0
LINE
  5
282
100
AcDbEntity
  8
IMPORT_IGES
100
AcDbLine
 62
7
  6
CONTINUOUS
 10
1.5112932946
 20
-59.3539231899
 11
1.1902721193
 21
-58.6586242965
  0
LINE
  5
283
100
AcDbEntity
  8
CURVE
100
AcDbLine
 62
250
  6
CONTINUOUS
 10
1.5112932946
 20
-59.3539231899
 11
1.1902721193
 21
-58.6586242965
  0
LINE
  5
284
100
AcDbEntity
  8
IMPORT_IGES
100
AcDbLine
 62
7
  6
CONTINUOUS
 10
-2.0582043642
 20
-57.292939978
 11
-1.2963544367
 21
-59.2626600815
  0
LINE
  5
285
100
AcDbEntity
  8
CURVE
100
AcDbLine
 62
250
  6
CONTINUOUS
 10
-2.0582043642
 20
-57.292939978
 11
-1.2963544367
 21
-59.2626600815
  0
LINE
  5
286
100
AcDbEntity
  8
IMPORT_IGES
100
AcDbLine
 62
7
  6
CONTINUOUS
 10
-1.2963544367
 20
-58.1984257757
 11
-1.7822135165
 21
-56.9423483444
  0
LINE
  5
287
100
AcDbEntity
  8
CURVE
100
AcDbLine
 62
250
  6
CONTINUOUS
 10
-1.2963544367
 20
-58.1984257757
 11
-1.7822135165
 21
-56.9423483444
  0
LINE
  5
288
100
AcDbEntity
  8
ASSI
100
AcDbLine
 62
250
  6
CONTINUOUS
 10
-63.014323116
 20
-18.0620632715
 11
-63.4472451073
 21
-18.3120270035
  0
LINE
  5
289
100
AcDbEntity
  8
ASSI
100
AcDbLine
 62
250
  6
CONTINUOUS
 10
-86.925602876
 20
82.3822676282
 11
-87.2724065089
 21
82.7662312664
  0
LINE
  5
28A
100
AcDbEntity
  8
IMPORT_IGES
100
AcDbLine
 62
7
  6
CONTINUOUS
 10
-5.36658552
 20
-54.8727768723
 11
-5.36658552
 21
-56.912559666
  0
LINE
  5
28B
100
AcDbEntity
  8
CURVE
100
AcDbLine
 62
250
  6
CONTINUOUS
 10
-5.36658552
 20
-54.8727768723
 11
-5.36658552
 21
-56.912559666
  0
LINE
  5
28C
100
AcDbEntity
  8
IMPORT_IGES
100
AcDbLine
 62
7
  6
CONTINUOUS
 10
-4.821904702
 20
-56.7171058454
 11
-4.821904702
 21
-56.4621332003
  0
LINE
  5
28D
100
AcDbEntity
  8
CURVE
100
AcDbLine
 62
250
  6
CONTINUOUS
 10
-4.821904702
 20
-56.7171058454
 11
-4.821904702
 21
-56.4621332003
  0
LINE
  5
28E
100
AcDbEntity
  8
IMPORT_IGES
100
AcDbLine
 62
7
  6
CONTINUOUS
 10
-4.821904702
 20
-55.9521870936
 11
-4.821904702
 21
-55.6972140403
  0
LINE
  5
28F
100
AcDbEntity
  8
CURVE
100
AcDbLine
 62
250
  6
CONTINUOUS
 10
-4.821904702
 20
-55.9521870936
 11
-4.821904702
 21
-55.6972140403
  0
LINE
  5
290
100
AcDbEntity
  8
0
100
AcDbLine
 62
7
  6
CONTINUOUS
 10
-4.5894444083
 20
44.0477091959
 11
-4.5894444083
 21
-49.0299023584
  0
LINE
  5
291
100
AcDbEntity
  8
IMPORT_IGES
100
AcDbLine
 62
7
  6
CONTINUOUS
 10
-4.1595793468
 20
-56.8445515595
 11
-4.1595793468
 21
-56.3346054528
  0
LINE
  5
292
100
AcDbEntity
  8
CURVE
100
AcDbLine
 62
250
  6
CONTINUOUS
 10
-4.1595793468
 20
-56.8445515595
 11
-4.1595793468
 21
-56.3346054528
  0
LINE
  5
293
100
AcDbEntity
  8
IMPORT_IGES
100
AcDbLine
 62
7
  6
CONTINUOUS
 10
-3.6624974218
 20
-56.3666412731
 11
-3.6624974218
 21
-55.8566959829
  0
LINE
  5
294
100
AcDbEntity
  8
CURVE
100
AcDbLine
 62
250
  6
CONTINUOUS
 10
-3.6624974218
 20
-56.3666412731
 11
-3.6624974218
 21
-55.8566959829
  0
LINE
  5
295
100
AcDbEntity
  8
IMPORT_IGES
100
AcDbLine
 62
7
  6
CONTINUOUS
 10
-3.4765651079
 20
-55.9640509707
 11
-3.4765651079
 21
-56.4739962609
  0
LINE
  5
296
100
AcDbEntity
  8
CURVE
100
AcDbLine
 62
250
  6
CONTINUOUS
 10
-3.4765651079
 20
-55.9640509707
 11
-3.4765651079
 21
-56.4739962609
  0
LINE
  5
297
100
AcDbEntity
  8
IMPORT_IGES
100
AcDbLine
 62
7
  6
CONTINUOUS
 10
-3.4634482771
 20
-58.0114072581
 11
-3.4634482771
 21
-57.5014615597
  0
LINE
  5
298
100
AcDbEntity
  8
CURVE
100
AcDbLine
 62
250
  6
CONTINUOUS
 10
-3.4634482771
 20
-58.0114072581
 11
-3.4634482771
 21
-57.5014615597
  0
LINE
  5
299
100
AcDbEntity
  8
IMPORT_IGES
100
AcDbLine
 62
7
  6
CONTINUOUS
 10
-3.2760282105
 20
-56.8447568054
 11
-3.2760282105
 21
-58.1196212556
  0
LINE
  5
29A
100
AcDbEntity
  8
CURVE
100
AcDbLine
 62
250
  6
CONTINUOUS
 10
-3.2760282105
 20
-56.8447568054
 11
-3.2760282105
 21
-58.1196212556
  0
LINE
  5
29B
100
AcDbEntity
  8
IMPORT_IGES
100
AcDbLine
 62
7
  6
CONTINUOUS
 10
-2.7428414132
 20
-57.9175309315
 11
-2.7428414132
 21
-57.1526121798
  0
LINE
  5
29C
100
AcDbEntity
  8
CURVE
100
AcDbLine
 62
250
  6
CONTINUOUS
 10
-2.7428414132
 20
-57.9175309315
 11
-2.7428414132
 21
-57.1526121798
  0
LINE
  5
29D
100
AcDbEntity
  8
IMPORT_IGES
100
AcDbLine
 62
7
  6
CONTINUOUS
 10
-1.7465138164
 20
-59.0027436975
 11
-1.7465138164
 21
-58.492797999
  0
LINE
  5
29E
100
AcDbEntity
  8
CURVE
100
AcDbLine
 62
250
  6
CONTINUOUS
 10
-1.7465138164
 20
-59.0027436975
 11
-1.7465138164
 21
-58.492797999
  0
LINE
  5
29F
100
AcDbEntity
  8
IMPORT_IGES
100
AcDbLine
 62
7
  6
CONTINUOUS
 10
-0.4892051274
 20
-58.4538335265
 11
-0.4892051274
 21
-59.7286979767
  0
LINE
  5
2A0
100
AcDbEntity
  8
CURVE
100
AcDbLine
 62
250
  6
CONTINUOUS
 10
-0.4892051274
 20
-58.4538335265
 11
-0.4892051274
 21
-59.7286979767
  0
LINE
  5
2A1
100
AcDbEntity
  8
IMPORT_IGES
100
AcDbLine
 62
7
  6
CONTINUOUS
 10
0.0742263946
 20
-59.6474079547
 11
0.0742263946
 21
-59.1857605555
  0
LINE
  5
2A2
100
AcDbEntity
  8
CURVE
100
AcDbLine
 62
250
  6
CONTINUOUS
 10
0.0742263946
 20
-59.6474079547
 11
0.0742263946
 21
-59.1857605555
  0
LINE
  5
2A3
100
AcDbEntity
  8
IMPORT_IGES
100
AcDbLine
 62
7
  6
CONTINUOUS
 10
0.7041885331
 20
-59.549492799
 11
0.7041885331
 21
-60.0111401982
  0
LINE
  5
2A4
100
AcDbEntity
  8
CURVE
100
AcDbLine
 62
250
  6
CONTINUOUS
 10
0.7041885331
 20
-59.549492799
 11
0.7041885331
 21
-60.0111401982
  0
LINE
  5
2A5
100
AcDbEntity
  8
ASSI
100
AcDbLine
 62
250
  6
CONTINUOUS
 10
28.998127698
 20
18.2265210529
 11
28.4677976121
 21
17.9203151079
  0
LINE
  5
2A6
100
AcDbEntity
  8
ASSI
100
AcDbLine
 62
7
  6
CONTINUOUS
 10
-86.5425150883
 20
81.3727935015
 11
-86.8763819076
 21
81.7166159207
  0
LINE
  5
2A7
100
AcDbEntity
  8
0
100
AcDbLine
 62
250
  6
CONTINUOUS
 10
-86.925602876
 20
88.9735682823
 11
-87.2724065089
 21
89.3575319204
  0
LINE
  5
2A8
100
AcDbEntity
  8
IMPORT_IGES
100
AcDbLine
 62
7
  6
CONTINUOUS
 10
1.2676200552
 20
-60.7430668189
 11
1.2676200552
 21
-59.4682023688
  0
LINE
  5
2A9
100
AcDbEntity
  8
CURVE
100
AcDbLine
 62
250
  6
CONTINUOUS
 10
1.2676200552
 20
-60.7430668189
 11
1.2676200552
 21
-59.4682023688
  0
LINE
  5
2AA
100
AcDbEntity
  8
0
100
AcDbLine
 62
7
  6
CONTINUOUS
 10
2.4816234035
 20
-53.1126482917
 11
2.4816234035
 21
39.9649632627
  0
LINE
  5
2AB
100
AcDbEntity
  8
0
100
AcDbLine
 62
7
  6
CONTINUOUS
 10
3.0119534894
 20
-52.8064423467
 11
3.0119534894
 21
40.0582703441
  0
LINE
  5
2AC
100
AcDbEntity
  8
0
100
AcDbLine
 62
250
  6
CONTINUOUS
 10
38.1829286028
 20
19.7509901095
 11
37.8369624629
 21
19.5512335963
  0
LINE
  5
2AD
100
AcDbEntity
  8
ASSI
100
AcDbLine
 62
250
  6
CONTINUOUS
 10
-45.159876891
 20
-28.370996753
 11
-45.5927988824
 21
-28.620960485
  0
LINE
  5
2AE
100
AcDbEntity
  8
0
100
AcDbLine
 62
250
  6
CONTINUOUS
 10
-39.9448005527
 20
-28.6161431018
 11
-40.2983368582
 21
-28.8202705338
  0
LINE
  5
2AF
100
AcDbEntity
  8
ASSI
100
AcDbLine
 62
250
  6
CONTINUOUS
 10
-14.8424927355
 20
-14.5931378684
 11
-15.3728228214
 21
-14.8993438134
  0
LINE
  5
2B0
100
AcDbEntity
  8
ASSI
100
AcDbLine
 62
250
  6
CONTINUOUS
 10
-5.5617162325
 20
-9.8887457444
 11
-6.0920463183
 21
-10.1949516894
  0
LINE
  5
2B1
100
AcDbEntity
  8
ASSI
100
AcDbLine
 62
250
  6
CONTINUOUS
 10
-38.0355951585
 20
-33.1476300742
 11
-38.5659252443
 21
-33.4538360192
  0
LINE
  5
2B2
100
AcDbEntity
  8
ASSI
100
AcDbLine
 62
250
  6
CONTINUOUS
 10
-37.9206903065
 20
-33.2139746956
 11
-37.8953440478
 21
-33.1993400835
  0
LINE
  5
2B3
100
AcDbEntity
  8
0
100
AcDbLine
 62
250
  6
CONTINUOUS
 10
-32.3433855699
 20
-32.3927126803
 11
-32.8737156558
 21
-32.6989186253
  0
LINE
  5
2B4
100
AcDbEntity
  8
0
100
AcDbLine
 62
250
  6
CONTINUOUS
 10
-31.9898321793
 20
-33.0050851154
 11
-32.5201622652
 21
-33.3112910604
  0
LINE
  5
2B5
100
AcDbEntity
  8
ASSI
100
AcDbLine
 62
250
  6
CONTINUOUS
 10
-27.6589840567
 20
-38.4757929379
 11
-28.091906048
 21
-38.7257566699
  0
LINE
  5
2B6
100
AcDbEntity
  8
ASSI
100
AcDbLine
 62
250
  6
CONTINUOUS
 10
61.4832580921
 20
-3.3071486949
 11
62.1482597765
 21
-3.5073887661
  0
LINE
  5
2B7
100
AcDbEntity
  8
ASSI
100
AcDbLine
 62
7
  6
CONTINUOUS
 10
62.5972863873
 20
-4.6339498808
 11
61.9306080948
 21
-4.4014847713
  0
LINE
  5
2B8
100
AcDbEntity
  8
0
100
AcDbLine
 62
250
  6
CONTINUOUS
 10
84.3292333259
 20
22.5507064441
 11
62.0553697185
 21
9.6900567543
  0
LINE
  5
2B9
100
AcDbEntity
  8
0
100
AcDbLine
 62
250
  6
CONTINUOUS
 10
86.9808837553
 20
17.9579131811
 11
64.707020148
 21
5.0972634913
  0
LINE
  5
2BA
100
AcDbEntity
  8
0
100
AcDbLine
 62
250
  6
CONTINUOUS
 10
61.4832580921
 20
3.2841519592
 11
62.1482597765
 21
3.083911888
  0
LINE
  5
2BB
100
AcDbEntity
  8
ASSI
100
AcDbLine
 62
250
  6
CONTINUOUS
 10
65.2373502338
 20
-9.2929363636
 11
65.7676803197
 21
-9.5991423086
  0
LINE
  5
2BC
100
AcDbEntity
  8
ASSI
100
AcDbLine
 62
250
  6
CONTINUOUS
 10
-82.1944136436
 20
75.8323163453
 11
-82.7247437294
 21
76.1385222903
  0
LINE
  5
2BD
100
AcDbEntity
  8
ASSI
100
AcDbLine
 62
250
  6
CONTINUOUS
 10
64.1766900621
 20
-5.6043241857
 11
64.707020148
 21
-5.9105301307
  0
LINE
  5
2BE
100
AcDbEntity
  8
ASSI
100
AcDbLine
 62
250
  6
CONTINUOUS
 10
-83.2550738153
 20
79.5209285232
 11
-83.7854039012
 21
79.8271344682
  0
LINE
  5
2BF
100
AcDbEntity
  8
0
100
AcDbLine
 62
7
  6
CONTINUOUS
 10
30.765894651
 20
23.6339795296
 11
30.765894651
 21
-69.4436320248
  0
LINE
  5
2C0
100
AcDbEntity
  8
IMPORT_IGES
100
AcDbLine
 62
7
  6
CONTINUOUS
 10
-0.810631475
 20
-57.5033276383
 11
-1.2963544367
 21
-58.1984257757
  0
LINE
  5
2C1
100
AcDbEntity
  8
CURVE
100
AcDbLine
 62
250
  6
CONTINUOUS
 10
-0.810631475
 20
-57.5033276383
 11
-1.2963544367
 21
-58.1984257757
  0
LINE
  5
2C2
100
AcDbEntity
  8
IMPORT_IGES
100
AcDbLine
 62
7
  6
CONTINUOUS
 10
-1.2963544367
 20
-59.2626600815
 11
-0.5346402737
 21
-58.1726267892
  0
LINE
  5
2C3
100
AcDbEntity
  8
CURVE
100
AcDbLine
 62
250
  6
CONTINUOUS
 10
-1.2963544367
 20
-59.2626600815
 11
-0.5346402737
 21
-58.1726267892
  0
LINE
  5
2C4
100
AcDbEntity
  8
ASSI
100
AcDbLine
 62
250
  6
CONTINUOUS
 10
-9.8045378317
 20
-48.7847264194
 11
-10.2374598231
 21
-49.0346901514
  0
LINE
  5
2C5
100
AcDbEntity
  8
ASSI
100
AcDbLine
 62
7
  6
CONTINUOUS
 10
30.765894651
 20
16.5934226796
 11
28.4677976121
 21
17.9203151079
  0
LINE
  5
2C6
100
AcDbEntity
  8
ASSI
100
AcDbLine
 62
7
  6
CONTINUOUS
 10
-4.5894444083
 20
37.007152346
 11
-6.8875414472
 21
38.3340447743
  0
LINE
  5
2C7
100
AcDbEntity
  8
ASSI
100
AcDbLine
 62
7
  6
CONTINUOUS
 10
-39.9447834677
 20
57.4208820124
 11
-42.2428805065
 21
58.7477744407
  0
LINE
  5
2C8
100
AcDbEntity
  8
ASSI
100
AcDbLine
 62
7
  6
CONTINUOUS
 10
30.765894651
 20
17.2058345696
 11
28.998127698
 21
18.2265210529
  0
LINE
  5
2C9
100
AcDbEntity
  8
ASSI
100
AcDbLine
 62
7
  6
CONTINUOUS
 10
-4.5894444083
 20
37.619564236
 11
-6.3572113613
 21
38.6402507193
  0
LINE
  5
2CA
100
AcDbEntity
  8
ASSI
100
AcDbLine
 62
7
  6
CONTINUOUS
 10
-39.9447834677
 20
58.0332939024
 11
-41.7125504206
 21
59.0539803857
  0
LINE
  5
2CB
100
AcDbEntity
  8
ASSI
100
AcDbLine
 62
7
  6
CONTINUOUS
 10
-42.2428805065
 20
60.5848325635
 11
-39.9447834677
 21
59.2579401352
  0
LINE
  5
2CC
100
AcDbEntity
  8
ASSI
100
AcDbLine
 62
7
  6
CONTINUOUS
 10
-6.8875414472
 20
40.1711028971
 11
-4.5894444083
 21
38.8442104688
  0
LINE
  5
2CD
100
AcDbEntity
  8
ASSI
100
AcDbLine
 62
7
  6
CONTINUOUS
 10
28.4677976121
 20
19.7573732307
 11
30.765894651
 21
18.4304808024
  0
LINE
  5
2CE
100
AcDbEntity
  8
0
100
AcDbLine
 62
7
  6
CONTINUOUS
 10
-84.3157339871
 20
90.4801826201
 11
58.8733892032
 21
7.8045774712
  0
LINE
  5
2CF
100
AcDbEntity
  8
0
100
AcDbLine
 62
7
  6
CONTINUOUS
 10
-84.1566349613
 20
91.1561916564
 11
59.0324882289
 21
8.4805865076
  0
LINE
  5
2D0
100
AcDbEntity
  8
0
100
AcDbLine
 62
7
  6
CONTINUOUS
 10
37.8369624629
 20
-73.5263779581
 11
37.8369624629
 21
19.5512335963
  0
LINE
  5
2D1
100
AcDbEntity
  8
0
100
AcDbLine
 62
7
  6
CONTINUOUS
 10
38.3672925488
 20
-73.2201720131
 11
38.3672925488
 21
19.6445406777
  0
LINE
  5
2D2
100
AcDbEntity
  8
IMPORT_IGES
100
AcDbLine
 62
7
  6
CONTINUOUS
 10
2.6671848399
 20
-60.5276749354
 11
3.3090910726
 21
-59.8799732435
  0
LINE
  5
2D3
100
AcDbEntity
  8
CURVE
100
AcDbLine
 62
250
  6
CONTINUOUS
 10
2.6671848399
 20
-60.5276749354
 11
3.3090910726
 21
-59.8799732435
  0
LINE
  5
2D4
100
AcDbEntity
  8
IMPORT_IGES
100
AcDbLine
 62
7
  6
CONTINUOUS
 10
2.0749051289
 20
-60.1857000533
 11
1.4328631318
 21
-60.8333233565
  0
LINE
  5
2D5
100
AcDbEntity
  8
CURVE
100
AcDbLine
 62
250
  6
CONTINUOUS
 10
2.0749051289
 20
-60.1857000533
 11
1.4328631318
 21
-60.8333233565
  0
LINE
  5
2D6
100
AcDbEntity
  8
IMPORT_IGES
100
AcDbLine
 62
7
  6
CONTINUOUS
 10
2.0251428428
 20
-61.1752982386
 11
2.3710449844
 21
-60.826349774
  0
LINE
  5
2D7
100
AcDbEntity
  8
CURVE
100
AcDbLine
 62
250
  6
CONTINUOUS
 10
2.0251428428
 20
-61.1752982386
 11
2.3710449844
 21
-60.826349774
  0
LINE
  5
2D8
100
AcDbEntity
  8
IMPORT_IGES
100
AcDbLine
 62
7
  6
CONTINUOUS
 10
2.7169467726
 20
-59.5380765459
 11
2.3710449844
 21
-59.8868696771
  0
LINE
  5
2D9
100
AcDbEntity
  8
CURVE
100
AcDbLine
 62
250
  6
CONTINUOUS
 10
2.7169467726
 20
-59.5380765459
 11
2.3710449844
 21
-59.8868696771
  0
LINE
  5
2DA
100
AcDbEntity
  8
0
100
AcDbLine
 62
250
  6
CONTINUOUS
 10
-4.5894614934
 20
-49.0298727682
 11
-4.9429977989
 21
-49.2340002002
  0
LINE
  5
2DB
100
AcDbEntity
  8
ASSI
100
AcDbLine
 62
250
  6
CONTINUOUS
 10
29.7936228269
 20
-30.3024754108
 11
29.263292741
 21
-30.6086813557
  0
LINE
  5
2DC
100
AcDbEntity
  8
ASSI
100
AcDbLine
 62
250
  6
CONTINUOUS
 10
-2.6802560991
 20
-53.5613597406
 11
-3.210586185
 21
-53.8675656856
  0
LINE
  5
2DD
100
AcDbEntity
  8
ASSI
100
AcDbLine
 62
250
  6
CONTINUOUS
 10
-2.5653512472
 20
-53.627704362
 11
-2.5400049885
 21
-53.6130697498
  0
LINE
  5
2DE
100
AcDbEntity
  8
0
100
AcDbLine
 62
250
  6
CONTINUOUS
 10
-81.1337534718
 20
92.3656619031
 11
62.0553697185
 21
9.6900567543
  0
LINE
  5
2DF
100
AcDbEntity
  8
0
100
AcDbLine
 62
250
  6
CONTINUOUS
 10
58.8733892032
 20
7.8045774712
 11
59.0324882289
 21
8.4805865076
  0
LINE
  5
2E0
100
AcDbEntity
  8
0
100
AcDbLine
 62
250
  6
CONTINUOUS
 10
3.0119534894
 20
-52.8064423467
 11
2.4816234035
 21
-53.1126482917
  0
LINE
  5
2E1
100
AcDbEntity
  8
0
100
AcDbLine
 62
250
  6
CONTINUOUS
 10
3.36550688
 20
-53.4188147818
 11
2.8351767941
 21
-53.7250207268
  0
LINE
  5
2E2
100
AcDbEntity
  8
ASSI
100
AcDbLine
 62
250
  6
CONTINUOUS
 10
7.6963550026
 20
-58.8895226043
 11
7.2634330113
 21
-59.1394863363
  0
LINE
  5
2E3
100
AcDbEntity
  8
ASSI
100
AcDbLine
 62
7
  6
CONTINUOUS
 10
61.4832580921
 20
3.2841519592
 11
61.4832580921
 21
-3.3071486949
  0
LINE
  5
2E4
100
AcDbEntity
  8
ASSI
100
AcDbLine
 62
7
  6
CONTINUOUS
 10
62.1482597765
 20
3.083911888
 11
62.1482597765
 21
-3.5073887661
  0
LINE
  5
2E5
100
AcDbEntity
  8
ASSI
100
AcDbLine
 62
250
  6
CONTINUOUS
 10
64.707020148
 20
5.0972634913
 11
64.707020148
 21
-5.9105301307
  0
LWPOLYLINE
  5
2E6
100
AcDbEntity
  8
SUPERFICI
100
AcDbPolyline
 62
7
  6
CONTINUOUS
 90
27
 70
0
 10
-58.7345617372
 20
104.6261591247
 10
-58.8017881541
 20
104.663766294
 10
-58.8694668562
 20
104.6991904511
 10
-58.937540872
 20
104.732358149
 10
-59.0060093262
 20
104.7632184745
 10
-59.0746593858
 20
104.7916265751
 10
-59.1432507644
 20
104.8174491801
 10
-59.211802743
 20
104.8406623586
 10
-59.2801569714
 20
104.8611797665
 10
-59.3480816548
 20
104.8789126301
 10
-59.4156134638
 20
104.8938543312
 10
-59.4825905685
 20
104.9059524795
 10
-59.5487393421
 20
104.9151604141
 10
-59.614054474
 20
104.9214930785
 10
-59.6784653083
 20
104.9249793955
 10
-59.7417831808
 20
104.9256669617
 10
-59.8038920849
 20
104.9236235786
 10
-59.8648530225
 20
104.9189113746
 10
-59.9247398664
 20
104.9115710183
 10
-59.98347746
 20
104.9016488678
 10
-60.0410175564
 20
104.889188978
 10
-60.0973975309
 20
104.874209531
 10
-60.1525455424
 20
104.8567472952
 10
-60.2063891184
 20
104.8368421808
 10
-60.2589312256
 20
104.8145033017
 10
-60.3101143928
 20
104.789756942
 10
-60.3598511523
 20
104.76264661
  0
LWPOLYLINE
  5
2E7
100
AcDbEntity
  8
0
100
AcDbPolyline
 62
7
  6
CONTINUOUS
 90
30
 70
0
 10
-58.3594112573
 20
105.2755920295
 10
-58.4241373737
 20
105.3120823642
 10
-58.5166668634
 20
105.3611990325
 10
-58.6093504244
 20
105.4068278822
 10
-58.7021212927
 20
105.4489448932
 10
-58.7948457216
 20
105.4875026345
 10
-58.8873340387
 20
105.5224466817
 10
-58.9794118656
 20
105.5537488079
 10
-59.070999184
 20
105.5814242274
 10
-59.1620722253
 20
105.6055029505
 10
-59.2525943156
 20
105.6260071765
 10
-59.3423714415
 20
105.642931066
 10
-59.4311668823
 20
105.6562806548
 10
-59.5187923128
 20
105.666093131
 10
-59.605243073
 20
105.6724520266
 10
-59.690572266
 20
105.6754573168
 10
-59.7747952631
 20
105.6751975841
 10
-59.8577962076
 20
105.6717627841
 10
-59.9394202737
 20
105.6652557087
 10
-60.0195716325
 20
105.6557613591
 10
-60.098252758
 20
105.6433472661
 10
-60.1754388705
 20
105.628080441
 10
-60.2510307024
 20
105.6100470052
 10
-60.3250503742
 20
105.5893090381
 10
-60.3976475017
 20
105.565877364
 10
-60.4688062875
 20
105.5397977659
 10
-60.5384868362
 20
105.511126075
 10
-60.6067987937
 20
105.4798508444
 10
-60.6737627848
 20
105.4459843826
 10
-60.735047177
 20
105.4120524874
  0
LINE
  5
2E8
100
AcDbEntity
  8
SUPERFICI
100
AcDbLine
 62
7
  6
CONTINUOUS
 10
84.6935100212
 20
19.4827514044
 11
86.4505536694
 21
18.4682564228
  0
LINE
  5
2E9
100
AcDbEntity
  8
SUPERFICI
100
AcDbLine
 62
7
  6
CONTINUOUS
 10
-58.8706131691
 20
102.3748768534
 11
-60.6276568174
 21
103.389371835
  0
LINE
  5
2EA
100
AcDbEntity
  8
0
100
AcDbLine
 62
250
  6
CONTINUOUS
 10
-58.8598898644
 20
105.2263115929
 11
84.3292333259
 21
22.5507064441
  0
LINE
  5
2EB
100
AcDbEntity
  8
0
100
AcDbLine
 62
7
  6
CONTINUOUS
 10
-58.3598657043
 20
105.2758527706
 11
84.829257486
 21
22.6002476218
  0
LWPOLYLINE
  5
2EC
100
AcDbEntity
  8
0
100
AcDbPolyline
 62
7
  6
CONTINUOUS
 90
46
 70
0
 10
84.8296761032
 20
22.6000075715
 10
84.9159057801
 20
22.5486445595
 10
85.0055111635
 20
22.4919034311
 10
85.0947119848
 20
22.4319560903
 10
85.1836356483
 20
22.3686930822
 10
85.2721269681
 20
22.3021931023
 10
85.3597665929
 20
22.2327641961
 10
85.4465050764
 20
22.1604534058
 10
85.5322923372
 20
22.0852942764
 10
85.6167334018
 20
22.0076305414
 10
85.6997760195
 20
21.9275155967
 10
85.7813568053
 20
21.845003009
 10
85.8611107759
 20
21.7604731004
 10
85.938965906
 20
21.6740823118
 10
86.0149329611
 20
21.585909895
 10
86.0888072488
 20
21.4962845628
 10
86.160463148
 20
21.4054621021
 10
86.2299861578
 20
21.3134281828
 10
86.2974843819
 20
21.2201078584
 10
86.3628954799
 20
21.1256425411
 10
86.426193759
 20
21.0301154683
 10
86.4875114236
 20
20.9333432365
 10
86.5467929963
 20
20.8353993946
 10
86.6039738081
 20
20.7363674713
 10
86.6591622394
 20
20.6360595964
 10
86.7123183264
 20
20.5345733515
 10
86.763406014
 20
20.4319936793
 10
86.8125178298
 20
20.3281148199
 10
86.8595945386
 20
20.2230006499
 10
86.9045448423
 20
20.1167758581
 10
86.9473794203
 20
20.0093098035
 10
86.9880679274
 20
19.9005214141
 10
87.0264517362
 20
19.7906472305
 10
87.0623485433
 20
19.6800288519
 10
87.095684365
 20
19.5686965936
 10
87.1263596331
 20
19.4567910766
 10
87.1542274326
 20
19.3448184415
 10
87.1792731068
 20
19.2328603208
 10
87.201476578
 20
19.1209886243
 10
87.2207376759
 20
19.0097171369
 10
87.2370524112
 20
18.8991060594
 10
87.2504047768
 20
18.7892218759
 10
87.2607376714
 20
18.6805815995
 10
87.2680605319
 20
18.5733589039
 10
87.2724044555
 20
18.467388773
 10
87.2737783663
 20
18.3666708808
  0
LINE
  5
2ED
100
AcDbEntity
  8
0
100
AcDbLine
 62
7
  6
CONTINUOUS
 10
65.2373502338
 20
-100.329372226
 11
65.2373502338
 21
-9.2929363636
  0
LINE
  5
2EE
100
AcDbEntity
  8
0
100
AcDbLine
 62
7
  6
CONTINUOUS
 10
65.7676803197
 20
-100.635578171
 11
65.7676803197
 21
-9.5991423086
  0
LINE
  5
2EF
100
AcDbEntity
  8
ASSI
100
AcDbLine
 62
250
  6
CONTINUOUS
 10
25.5508012276
 20
-69.1984560858
 11
25.1178792363
 21
-69.4484198178
  0
LINE
  5
2F0
100
AcDbEntity
  8
0
100
AcDbLine
 62
250
  6
CONTINUOUS
 10
30.765877566
 20
-69.4436024346
 11
30.4123412604
 21
-69.6477298666
  0
LINE
  5
2F1
100
AcDbEntity
  8
ASSI
100
AcDbLine
 62
250
  6
CONTINUOUS
 10
65.1489618862
 20
-50.7162050771
 11
64.6186318003
 21
-51.0224110221
  0
LINE
  5
2F2
100
AcDbEntity
  8
0
100
AcDbLine
 62
250
  6
CONTINUOUS
 10
38.3672925488
 20
-73.2201720131
 11
37.8369624629
 21
-73.5263779581
  0
LINE
  5
2F3
100
AcDbEntity
  8
0
100
AcDbLine
 62
250
  6
CONTINUOUS
 10
38.7208459393
 20
-73.8325444482
 11
38.1905158535
 21
-74.1387503932
  0
LINE
  5
2F4
100
AcDbEntity
  8
SUPERFICI
100
AcDbLine
 62
7
  6
CONTINUOUS
 10
84.5060100212
 20
19.8075109304
 11
84.6935100212
 21
19.4827514044
  0
LWPOLYLINE
  5
2F5
100
AcDbEntity
  8
SUPERFICI
100
AcDbPolyline
 62
7
  6
CONTINUOUS
 90
49
 70
0
 10
86.5237777392
 20
18.3665381914
 10
86.5226899208
 20
18.4463575895
 10
86.5194261326
 20
18.5274791098
 10
86.5139839658
 20
18.6098265059
 10
86.5063542245
 20
18.6933705592
 10
86.4965340414
 20
18.7779814555
 10
86.4845369034
 20
18.8634435108
 10
86.4703611057
 20
18.9496909413
 10
86.4540081049
 20
19.036625828
 10
86.4355105839
 20
19.1240098655
 10
86.4148726797
 20
19.211773436
 10
86.3921021971
 20
19.299823648
 10
86.3672513055
 20
19.3879158953
 10
86.3403456062
 20
19.4759634584
 10
86.3114361789
 20
19.5638770453
 10
86.2806264416
 20
19.6514305491
 10
86.2480033272
 20
19.7384684836
 10
86.2136061443
 20
19.8249627892
 10
86.1774678659
 20
19.9108842376
 10
86.1396558149
 20
19.9961138945
 10
86.1002099741
 20
20.0805942308
 10
86.0591094984
 20
20.1643819544
 10
86.0163935733
 20
20.2473925274
 10
85.9721032158
 20
20.3295364898
 10
85.9262029514
 20
20.4108564325
 10
85.8787277024
 20
20.4912672881
 10
85.829734287
 20
20.5706952922
 10
85.7792035044
 20
20.649192641
 10
85.727191643
 20
20.7266801485
 10
85.6737530569
 20
20.8030805311
 10
85.6188489372
 20
20.8784404362
 10
85.5625084
 20
20.9526974489
 10
85.5048012526
 20
21.0257331574
 10
85.4457362596
 20
21.0975044805
 10
85.3853179285
 20
21.167963511
 10
85.3236369946
 20
21.2369577033
 10
85.2608376407
 20
21.304284284
 10
85.1969724993
 20
21.369853462
 10
85.1321029305
 20
21.4336006597
 10
85.0664147474
 20
21.4953582634
 10
84.9999855434
 20
21.555072087
 10
84.9328725564
 20
21.6127046334
 10
84.8652658571
 20
21.6681083657
 10
84.7972505133
 20
21.7212322589
 10
84.7288834624
 20
21.7720456073
 10
84.6603448043
 20
21.8204288143
 10
84.5917491128
 20
21.8663189604
 10
84.523126088
 20
21.9097095765
 10
84.4545429506
 20
21.9505646622
  0
LINE
  5
2F6
100
AcDbEntity
  8
SUPERFICI
100
AcDbLine
 62
7
  6
CONTINUOUS
 10
84.5060100212
 20
19.8075109304
 11
84.5060100212
 21
21.8363048156
  0
LINE
  5
2F7
100
AcDbEntity
  8
0
100
AcDbLine
 62
250
  6
CONTINUOUS
 10
86.9808837553
 20
17.9579131811
 11
86.9808837553
 21
-96.5520431391
  0
LINE
  5
2F8
100
AcDbEntity
  8
0
100
AcDbLine
 62
7
  6
CONTINUOUS
 10
87.2737769741
 20
18.3661877745
 11
87.2737769741
 21
-96.1437685457
  0
LINE
  5
2F9
100
AcDbEntity
  8
ASSI
100
AcDbLine
 62
250
  6
CONTINUOUS
 10
35.8570634755
 20
-75.8123250769
 11
35.3267333897
 21
-76.1185310219
  0
LINE
  5
2FA
100
AcDbEntity
  8
ASSI
100
AcDbLine
 62
250
  6
CONTINUOUS
 10
35.9719683275
 20
-75.8786696983
 11
35.9973145862
 21
-75.8640350862
  0
LINE
  5
2FB
100
AcDbEntity
  8
0
100
AcDbLine
 62
250
  6
CONTINUOUS
 10
43.051694062
 20
-79.3032522706
 11
42.6187720706
 21
-79.5532160027
  0
LINE
  5
2FC
100
AcDbEntity
  8
0
100
AcDbLine
 62
250
  6
CONTINUOUS
 10
60.9061402869
 20
-89.6121857522
 11
60.4732182956
 21
-89.8621494842
  0
LINE
  5
2FD
100
AcDbEntity
  8
0
100
AcDbLine
 62
7
  6
CONTINUOUS
 10
86.9808837553
 20
-96.5520431391
 11
72.8387481316
 21
-104.7175350056
  0
ARC
  5
2FE
100
AcDbEntity
  8
0
100
AcDbCircle
 62
7
  6
CONTINUOUS
 10
69.527935458
 20
-102.2912545637
 40
3.3749748923
100
AcDbArc
 50
229.68389166
 51
239.9619299084
  0
ARC
  5
2FF
100
AcDbEntity
  8
0
100
AcDbCircle
 62
7
  6
CONTINUOUS
 10
-78.4341585053
 20
-16.8597959099
 40
3.3749748923
100
AcDbArc
 50
229.68389166
 51
239.9619299084
  0
ARC
  5
300
100
AcDbEntity
  8
ASSI
100
AcDbCircle
 62
7
  6
CONTINUOUS
 10
61.7773305474
 20
-7.2273404569
 40
2.8698600616
100
AcDbArc
 50
55.145746378
 51
59.8345096695
  0
ARC
  5
301
100
AcDbEntity
  8
0
100
AcDbCircle
 62
250
  6
CONTINUOUS
 10
-60.1095757951
 20
104.3289210975
 40
1.2507542822
100
AcDbArc
 50
118.2694598624
 51
120.0014372942
  0
ARC
  5
302
100
AcDbEntity
  8
ASSI
100
AcDbCircle
 62
7
  6
CONTINUOUS
 10
-69.2767937043
 20
-14.9160069154
 40
0.7331019163
100
AcDbArc
 50
238.8363037481
 51
243.0473219551
  0
ARC
  5
303
100
AcDbEntity
  8
ASSI
100
AcDbCircle
 62
7
  6
CONTINUOUS
 10
-1.748096101
 20
-53.9062305782
 40
0.7331019163
100
AcDbArc
 50
238.8363037481
 51
243.0473219551
  0
ARC
  5
304
100
AcDbEntity
  8
ASSI
100
AcDbCircle
 62
7
  6
CONTINUOUS
 10
-37.1034351603
 20
-33.4925009118
 40
0.7331019163
100
AcDbArc
 50
238.8363037481
 51
243.0473219551
  0
ARC
  5
305
100
AcDbEntity
  8
ASSI
100
AcDbCircle
 62
7
  6
CONTINUOUS
 10
36.7892234736
 20
-76.1571959146
 40
0.7331019163
100
AcDbArc
 50
238.836303748
 51
243.0473219551
  0
ARC
  5
306
100
AcDbEntity
  8
ASSI
100
AcDbCircle
 62
7
  6
CONTINUOUS
 10
-56.7256483383
 20
-0.933154463
 40
0.7331019163
100
AcDbArc
 50
238.836303748
 51
243.0473219551
  0
ARC
  5
307
100
AcDbEntity
  8
ASSI
100
AcDbCircle
 62
7
  6
CONTINUOUS
 10
36.5769739074
 20
-75.8120404971
 40
0.7199104881
100
AcDbArc
 50
176.9264488628
 51
180.022648959
  0
ARC
  5
308
100
AcDbEntity
  8
ASSI
100
AcDbCircle
 62
7
  6
CONTINUOUS
 10
-37.3156847266
 20
-33.1473454943
 40
0.7199104881
100
AcDbArc
 50
176.9264488628
 51
180.022648959
  0
ARC
  5
309
100
AcDbEntity
  8
ASSI
100
AcDbCircle
 62
7
  6
CONTINUOUS
 10
-1.9603456672
 20
-53.5610751607
 40
0.7199104881
100
AcDbArc
 50
176.9264488628
 51
180.022648959
  0
ARC
  5
30A
100
AcDbEntity
  8
ASSI
100
AcDbCircle
 62
7
  6
CONTINUOUS
 10
-69.4890432705
 20
-14.5708514979
 40
0.7199104881
100
AcDbArc
 50
176.9264488628
 51
180.022648959
  0
ARC
  5
30B
100
AcDbEntity
  8
ASSI
100
AcDbCircle
 62
7
  6
CONTINUOUS
 10
-56.9378979045
 20
-0.5879990455
 40
0.7199104881
100
AcDbArc
 50
176.9264488628
 51
180.0226489591
  0
ARC
  5
30C
100
AcDbEntity
  8
ASSI
100
AcDbCircle
 62
7
  6
CONTINUOUS
 10
-1.9937817133
 20
-53.627440691
 40
0.5715695947
100
AcDbArc
 50
176.6776990066
 51
180.0264311367
  0
ARC
  5
30D
100
AcDbEntity
  8
ASSI
100
AcDbCircle
 62
7
  6
CONTINUOUS
 10
-37.3491207726
 20
-33.2137110246
 40
0.5715695947
100
AcDbArc
 50
176.6776990066
 51
180.0264311367
  0
ARC
  5
30E
100
AcDbEntity
  8
ASSI
100
AcDbCircle
 62
7
  6
CONTINUOUS
 10
36.5435378614
 20
-75.8784060274
 40
0.5715695947
100
AcDbArc
 50
176.6776990067
 51
180.0264311367
  0
ARC
  5
30F
100
AcDbEntity
  8
ASSI
100
AcDbCircle
 62
7
  6
CONTINUOUS
 10
-69.5224793166
 20
-14.6372170282
 40
0.5715695947
100
AcDbArc
 50
176.6776990067
 51
180.0264311367
  0
SPLINE
  5
310
100
AcDbEntity
  8
0
100
AcDbSpline
 62
7
  6
CONTINUOUS
 70
0
 71
3
 72
9
 73
5
 74
0
 42
0.0000001
 43
0.0000001
 44
0.0000000001
 40
0.0
 40
0.0
 40
0.0
 40
0.0
 40
0.4672846859
 40
1.0
 40
1.0
 40
1.0
 40
1.0
 10
2.5851646643
 20
40.1938316645
 30
0.0
 10
2.6096879238
 20
40.2079911042
 30
0.0
 10
2.6709430949
 20
40.2241280166
 30
0.0
 10
2.7320021378
 20
40.2125294277
 30
0.0
 10
2.7626106681
 20
40.2022686648
 30
0.0
  0
SPLINE
  5
311
100
AcDbEntity
  8
0
100
AcDbSpline
 62
7
  6
CONTINUOUS
 70
0
 71
3
 72
9
 73
5
 74
0
 42
0.0000001
 43
0.0000001
 44
0.0000000001
 40
0.0
 40
0.0
 40
0.0
 40
0.0
 40
0.4672846859
 40
1.0
 40
1.0
 40
1.0
 40
1.0
 10
37.9405037236
 20
19.7801019981
 30
0.0
 10
37.9650269831
 20
19.7942614379
 30
0.0
 10
38.0262821543
 20
19.8103983502
 30
0.0
 10
38.0873411972
 20
19.7987997613
 30
0.0
 10
38.1179497274
 20
19.7885389984
 30
0.0
  0
SPLINE
  5
312
100
AcDbEntity
  8
0
100
AcDbSpline
 62
7
  6
CONTINUOUS
 70
0
 71
3
 72
9
 73
5
 74
0
 42
0.0000001
 43
0.0000001
 44
0.0000000001
 40
0.0
 40
0.0
 40
0.0
 40
0.0
 40
0.4672846859
 40
1.0
 40
1.0
 40
1.0
 40
1.0
 10
-68.1255134544
 20
81.0212909973
 30
0.0
 10
-68.1009901949
 20
81.035450437
 30
0.0
 10
-68.0397350237
 20
81.0515873493
 30
0.0
 10
-67.9786759808
 20
81.0399887605
 30
0.0
 10
-67.9480674505
 20
81.0297279976
 30
0.0
  0
SPLINE
  5
313
100
AcDbEntity
  8
0
100
AcDbSpline
 62
7
  6
CONTINUOUS
 70
0
 71
3
 72
9
 73
5
 74
0
 42
0.0000001
 43
0.0000001
 44
0.0000000001
 40
0.0
 40
0.0
 40
0.0
 40
0.0
 40
0.4672846859
 40
1.0
 40
1.0
 40
1.0
 40
1.0
 10
-32.770174395
 20
60.6075613309
 30
0.0
 10
-32.7456511355
 20
60.6217207706
 30
0.0
 10
-32.6843959644
 20
60.6378576829
 30
0.0
 10
-32.6233369215
 20
60.6262590941
 30
0.0
 10
-32.5927283912
 20
60.6159983312
 30
0.0
  0
SPLINE
  5
314
100
AcDbEntity
  8
ASSI
100
AcDbSpline
 62
7
  6
CONTINUOUS
 70
0
 71
3
 72
11
 73
7
 74
0
 42
0.0000001
 43
0.0000001
 44
0.0000000001
 40
0.0
 40
0.0
 40
0.0
 40
0.0
 40
0.2177724906
 40
0.4509525223
 40
0.7101901104
 40
1.0
 40
1.0
 40
1.0
 40
1.0
 10
-62.7078936672
 20
-19.092536089
 30
0.0
 10
-62.6876899893
 20
-19.0808743977
 30
0.0
 10
-62.6498763654
 20
-19.0491029373
 30
0.0
 10
-62.6096571649
 20
-18.9833035621
 30
0.0
 10
-62.5857269523
 20
-18.9022250164
 30
0.0
 10
-62.5810393004
 20
-18.8432077558
 30
0.0
 10
-62.5810393004
 20
-18.8121633803
 30
0.0
  0
SPLINE
  5
315
100
AcDbEntity
  8
ASSI
100
AcDbSpline
 62
7
  6
CONTINUOUS
 70
0
 71
3
 72
11
 73
7
 74
0
 42
0.0000001
 43
0.0000001
 44
0.0000000001
 40
0.0
 40
0.0
 40
0.0
 40
0.0
 40
0.2177724906
 40
0.4509525223
 40
0.7101901104
 40
1.0
 40
1.0
 40
1.0
 40
1.0
 10
-44.8534474423
 20
-29.4014695705
 30
0.0
 10
-44.8332437643
 20
-29.3898078792
 30
0.0
 10
-44.7954301404
 20
-29.3580364188
 30
0.0
 10
-44.75521094
 20
-29.2922370436
 30
0.0
 10
-44.7312807273
 20
-29.211158498
 30
0.0
 10
-44.7265930754
 20
-29.1521412373
 30
0.0
 10
-44.7265930754
 20
-29.1210968618
 30
0.0
  0
SPLINE
  5
316
100
AcDbEntity
  8
ASSI
100
AcDbSpline
 62
7
  6
CONTINUOUS
 70
0
 71
3
 72
11
 73
7
 74
0
 42
0.0000001
 43
0.0000001
 44
0.0000000001
 40
0.0
 40
0.0
 40
0.0
 40
0.0
 40
0.2177724906
 40
0.4509525223
 40
0.7101901104
 40
1.0
 40
1.0
 40
1.0
 40
1.0
 10
-27.3525546079
 20
-39.5062657554
 30
0.0
 10
-27.3323509299
 20
-39.4946040641
 30
0.0
 10
-27.2945373061
 20
-39.4628326037
 30
0.0
 10
-27.2543181056
 20
-39.3970332284
 30
0.0
 10
-27.230387893
 20
-39.3159546828
 30
0.0
 10
-27.2257002411
 20
-39.2569374222
 30
0.0
 10
-27.2257002411
 20
-39.2258930467
 30
0.0
  0
SPLINE
  5
317
100
AcDbEntity
  8
ASSI
100
AcDbSpline
 62
7
  6
CONTINUOUS
 70
0
 71
3
 72
11
 73
7
 74
0
 42
0.0000001
 43
0.0000001
 44
0.0000000001
 40
0.0
 40
0.0
 40
0.0
 40
0.0
 40
0.2177724906
 40
0.4509525223
 40
0.7101901104
 40
1.0
 40
1.0
 40
1.0
 40
1.0
 10
-9.498108383
 20
-49.8151992369
 30
0.0
 10
-9.477904705
 20
-49.8035375456
 30
0.0
 10
-9.4400910811
 20
-49.7717660852
 30
0.0
 10
-9.3998718806
 20
-49.70596671
 30
0.0
 10
-9.375941668
 20
-49.6248881644
 30
0.0
 10
-9.3712540161
 20
-49.5658709037
 30
0.0
 10
-9.3712540161
 20
-49.5348265282
 30
0.0
  0
SPLINE
  5
318
100
AcDbEntity
  8
ASSI
100
AcDbSpline
 62
7
  6
CONTINUOUS
 70
0
 71
3
 72
11
 73
7
 74
0
 42
0.0000001
 43
0.0000001
 44
0.0000000001
 40
0.0
 40
0.0
 40
0.0
 40
0.0
 40
0.2177724906
 40
0.4509525223
 40
0.7101901104
 40
1.0
 40
1.0
 40
1.0
 40
1.0
 10
8.0027844514
 20
-59.9199954218
 30
0.0
 10
8.0229881294
 20
-59.9083337305
 30
0.0
 10
8.0608017533
 20
-59.8765622701
 30
0.0
 10
8.1010209537
 20
-59.8107628948
 30
0.0
 10
8.1249511664
 20
-59.7296843492
 30
0.0
 10
8.1296388183
 20
-59.6706670886
 30
0.0
 10
8.1296388183
 20
-59.6396227131
 30
0.0
  0
SPLINE
  5
319
100
AcDbEntity
  8
ASSI
100
AcDbSpline
 62
7
  6
CONTINUOUS
 70
0
 71
3
 72
11
 73
7
 74
0
 42
0.0000001
 43
0.0000001
 44
0.0000000001
 40
0.0
 40
0.0
 40
0.0
 40
0.0
 40
0.2177724906
 40
0.4509525223
 40
0.7101901104
 40
1.0
 40
1.0
 40
1.0
 40
1.0
 10
25.8572306764
 20
-70.2289289033
 30
0.0
 10
25.8774343543
 20
-70.217267212
 30
0.0
 10
25.9152479782
 20
-70.1854957516
 30
0.0
 10
25.9554671787
 20
-70.1196963764
 30
0.0
 10
25.9793973913
 20
-70.0386178307
 30
0.0
 10
25.9840850432
 20
-69.9796005701
 30
0.0
 10
25.9840850432
 20
-69.9485561946
 30
0.0
  0
SPLINE
  5
31A
100
AcDbEntity
  8
0
100
AcDbSpline
 62
7
  6
CONTINUOUS
 70
0
 71
3
 72
11
 73
7
 74
0
 42
0.0000001
 43
0.0000001
 44
0.0000000001
 40
0.0
 40
0.0
 40
0.0
 40
0.0
 40
0.2177724906
 40
0.4509525223
 40
0.7101901104
 40
1.0
 40
1.0
 40
1.0
 40
1.0
 10
43.3581235107
 20
-80.3337250882
 30
0.0
 10
43.3783271887
 20
-80.3220633968
 30
0.0
 10
43.4161408126
 20
-80.2902919365
 30
0.0
 10
43.4563600131
 20
-80.2244925612
 30
0.0
 10
43.4802902257
 20
-80.1434140156
 30
0.0
 10
43.4849778776
 20
-80.0843967549
 30
0.0
 10
43.4849778776
 20
-80.0533523795
 30
0.0
  0
SPLINE
  5
31B
100
AcDbEntity
  8
0
100
AcDbSpline
 62
7
  6
CONTINUOUS
 70
0
 71
3
 72
11
 73
7
 74
0
 42
0.0000001
 43
0.0000001
 44
0.0000000001
 40
0.0
 40
0.0
 40
0.0
 40
0.0
 40
0.2177724906
 40
0.4509525223
 40
0.7101901104
 40
1.0
 40
1.0
 40
1.0
 40
1.0
 10
61.2125697357
 20
-90.6426585697
 30
0.0
 10
61.2327734137
 20
-90.6309968784
 30
0.0
 10
61.2705870376
 20
-90.599225418
 30
0.0
 10
61.310806238
 20
-90.5334260427
 30
0.0
 10
61.3347364507
 20
-90.4523474971
 30
0.0
 10
61.3394241026
 20
-90.3933302365
 30
0.0
 10
61.3394241026
 20
-90.362285861
 30
0.0
  0
SPLINE
  5
31C
100
AcDbEntity
  8
ASSI
100
AcDbSpline
 62
7
  6
CONTINUOUS
 70
0
 71
3
 72
11
 73
7
 74
0
 42
0.0000001
 43
0.0000001
 44
0.0000000001
 40
0.0
 40
0.0
 40
0.0
 40
0.0
 40
0.2177725752
 40
0.450952672
 40
0.7101953065
 40
1.0
 40
1.0
 40
1.0
 40
1.0
 10
36.2924538715
 20
-77.1379503112
 30
0.0
 10
36.3188360772
 20
-77.1227139275
 30
0.0
 10
36.3682148376
 20
-77.0812160068
 30
0.0
 10
36.4207359943
 20
-76.9952786185
 30
0.0
 10
36.4519821532
 20
-76.8893890991
 30
0.0
 10
36.4581042396
 20
-76.8123133415
 30
0.0
 10
36.4581042396
 20
-76.7717703712
 30
0.0
  0
SPLINE
  5
31D
100
AcDbEntity
  8
ASSI
100
AcDbSpline
 62
7
  6
CONTINUOUS
 70
0
 71
3
 72
11
 73
7
 74
0
 42
0.0000001
 43
0.0000001
 44
0.0000000001
 40
0.0
 40
0.0
 40
0.0
 40
0.0
 40
0.2177725752
 40
0.450952672
 40
0.7101953065
 40
1.0
 40
1.0
 40
1.0
 40
1.0
 10
-37.6002047625
 20
-34.4732553085
 30
0.0
 10
-37.5738225568
 20
-34.4580189247
 30
0.0
 10
-37.5244437964
 20
-34.4165210041
 30
0.0
 10
-37.4719226396
 20
-34.3305836158
 30
0.0
 10
-37.4406764808
 20
-34.2246940964
 30
0.0
 10
-37.4345543944
 20
-34.1476183387
 30
0.0
 10
-37.4345543944
 20
-34.1070753685
 30
0.0
  0
SPLINE
  5
31E
100
AcDbEntity
  8
ASSI
100
AcDbSpline
 62
7
  6
CONTINUOUS
 70
0
 71
3
 72
11
 73
7
 74
0
 42
0.0000001
 43
0.0000001
 44
0.0000000001
 40
0.0
 40
0.0
 40
0.0
 40
0.0
 40
0.2177725752
 40
0.450952672
 40
0.7101953065
 40
1.0
 40
1.0
 40
1.0
 40
1.0
 10
-2.2448657032
 20
-54.8869849749
 30
0.0
 10
-2.2184834975
 20
-54.8717485911
 30
0.0
 10
-2.1691047371
 20
-54.8302506704
 30
0.0
 10
-2.1165835803
 20
-54.7443132822
 30
0.0
 10
-2.0853374215
 20
-54.6384237628
 30
0.0
 10
-2.0792153351
 20
-54.5613480051
 30
0.0
 10
-2.0792153351
 20
-54.5208050349
 30
0.0
  0
SPLINE
  5
31F
100
AcDbEntity
  8
ASSI
100
AcDbSpline
 62
7
  6
CONTINUOUS
 70
0
 71
3
 72
11
 73
7
 74
0
 42
0.0000001
 43
0.0000001
 44
0.0000000001
 40
0.0
 40
0.0
 40
0.0
 40
0.0
 40
0.2177725752
 40
0.450952672
 40
0.7101953065
 40
1.0
 40
1.0
 40
1.0
 40
1.0
 10
-69.7735633065
 20
-15.8967613121
 30
0.0
 10
-69.7471811008
 20
-15.8815249283
 30
0.0
 10
-69.6978023404
 20
-15.8400270076
 30
0.0
 10
-69.6452811836
 20
-15.7540896194
 30
0.0
 10
-69.6140350248
 20
-15.6482001
 30
0.0
 10
-69.6079129384
 20
-15.5711243423
 30
0.0
 10
-69.6079129384
 20
-15.5305813721
 30
0.0
  0
SPLINE
  5
320
100
AcDbEntity
  8
0
100
AcDbSpline
 62
7
  6
CONTINUOUS
 70
0
 71
3
 72
11
 73
7
 74
0
 42
0.0000001
 43
0.0000001
 44
0.0000000001
 40
0.0
 40
0.0
 40
0.0
 40
0.0
 40
0.2898089725
 40
0.5490451958
 40
0.7822275044
 40
1.0
 40
1.0
 40
1.0
 40
1.0
 10
30.765894651
 20
-69.4436320248
 30
0.0
 10
30.765894651
 20
-69.4689728318
 30
0.0
 10
30.7620686861
 20
-69.517147248
 30
0.0
 10
30.7425358202
 20
-69.5833300974
 30
0.0
 10
30.7097083886
 20
-69.6370424026
 30
0.0
 10
30.6788439405
 20
-69.6629789782
 30
0.0
 10
30.6623533902
 20
-69.6725004267
 30
0.0
  0
SPLINE
  5
321
100
AcDbEntity
  8
0
100
AcDbSpline
 62
7
  6
CONTINUOUS
 70
0
 71
3
 72
11
 73
7
 74
0
 42
0.0000001
 43
0.0000001
 44
0.0000000001
 40
0.0
 40
0.0
 40
0.0
 40
0.0
 40
0.2488260016
 40
0.5114555231
 40
0.767985066
 40
1.0
 40
1.0
 40
1.0
 40
1.0
 10
30.4849073864
 20
24.1957619816
 30
0.0
 10
30.526292997
 20
24.1618444321
 30
0.0
 10
30.6026694409
 20
24.0812470958
 30
0.0
 10
30.6910046841
 20
23.9405751658
 30
0.0
 10
30.7496639308
 20
23.7890352449
 30
0.0
 10
30.765894651
 20
23.6838729945
 30
0.0
 10
30.765894651
 20
23.6339795296
 30
0.0
  0
SPLINE
  5
322
100
AcDbEntity
  8
ASSI
100
AcDbSpline
 62
7
  6
CONTINUOUS
 70
0
 71
3
 72
15
 73
11
 74
0
 42
0.0000001
 43
0.0000001
 44
0.0000000001
 40
0.0
 40
0.0
 40
0.0
 40
0.0
 40
0.1288179957
 40
0.2705656299
 40
0.4178830858
 40
0.5623884875
 40
0.6962058276
 40
0.8135981026
 40
0.9130679578
 40
1.0
 40
1.0
 40
1.0
 40
1.0
 10
36.4581042396
 20
-76.7717703712
 30
0.0
 10
36.4581042396
 20
-76.7033936633
 30
0.0
 10
36.4389705818
 20
-76.5596135278
 30
0.0
 10
36.367577914
 20
-76.3485002608
 30
0.0
 10
36.2575282681
 20
-76.145117223
 30
0.0
 10
36.117764207
 20
-75.9661962284
 30
0.0
 10
35.9594474762
 20
-75.8260102217
 30
0.0
 10
35.7943464052
 20
-75.73582814
 30
0.0
 10
35.6327410756
 20
-75.7034674856
 30
0.0
 10
35.5323422689
 20
-75.7292740421
 30
0.0
 10
35.4923837577
 20
-75.7523510819
 30
0.0
  0
SPLINE
  5
323
100
AcDbEntity
  8
ASSI
100
AcDbSpline
 62
7
  6
CONTINUOUS
 70
0
 71
3
 72
15
 73
11
 74
0
 42
0.0000001
 43
0.0000001
 44
0.0000000001
 40
0.0
 40
0.0
 40
0.0
 40
0.0
 40
0.1288179957
 40
0.2705656299
 40
0.4178830858
 40
0.5623884875
 40
0.6962058276
 40
0.8135981026
 40
0.9130679578
 40
1.0
 40
1.0
 40
1.0
 40
1.0
 10
-37.4345543944
 20
-34.1070753685
 30
0.0
 10
-37.4345543944
 20
-34.0386986606
 30
0.0
 10
-37.4536880522
 20
-33.8949185251
 30
0.0
 10
-37.5250807199
 20
-33.6838052581
 30
0.0
 10
-37.6351303659
 20
-33.4804222203
 30
0.0
 10
-37.774894427
 20
-33.3015012257
 30
0.0
 10
-37.9332111578
 20
-33.161315219
 30
0.0
 10
-38.0983122288
 20
-33.0711331372
 30
0.0
 10
-38.2599175584
 20
-33.0387724829
 30
0.0
 10
-38.3603163651
 20
-33.0645790393
 30
0.0
 10
-38.4002748763
 20
-33.0876560792
 30
0.0
  0
SPLINE
  5
324
100
AcDbEntity
  8
ASSI
100
AcDbSpline
 62
7
  6
CONTINUOUS
 70
0
 71
3
 72
15
 73
11
 74
0
 42
0.0000001
 43
0.0000001
 44
0.0000000001
 40
0.0
 40
0.0
 40
0.0
 40
0.0
 40
0.1288179957
 40
0.2705656299
 40
0.4178830858
 40
0.5623884875
 40
0.6962058276
 40
0.8135981026
 40
0.9130679578
 40
1.0
 40
1.0
 40
1.0
 40
1.0
 10
-2.0792153351
 20
-54.5208050349
 30
0.0
 10
-2.0792153351
 20
-54.452428327
 30
0.0
 10
-2.0983489929
 20
-54.3086481915
 30
0.0
 10
-2.1697416606
 20
-54.0975349245
 30
0.0
 10
-2.2797913066
 20
-53.8941518867
 30
0.0
 10
-2.4195553676
 20
-53.7152308921
 30
0.0
 10
-2.5778720985
 20
-53.5750448854
 30
0.0
 10
-2.7429731694
 20
-53.4848628036
 30
0.0
 10
-2.904578499
 20
-53.4525021492
 30
0.0
 10
-3.0049773057
 20
-53.4783087057
 30
0.0
 10
-3.044935817
 20
-53.5013857456
 30
0.0
  0
SPLINE
  5
325
100
AcDbEntity
  8
ASSI
100
AcDbSpline
 62
7
  6
CONTINUOUS
 70
0
 71
3
 72
15
 73
11
 74
0
 42
0.0000001
 43
0.0000001
 44
0.0000000001
 40
0.0
 40
0.0
 40
0.0
 40
0.0
 40
0.1288179957
 40
0.2705656299
 40
0.4178830858
 40
0.5623884875
 40
0.6962058276
 40
0.8135981026
 40
0.9130679578
 40
1.0
 40
1.0
 40
1.0
 40
1.0
 10
-69.6079129384
 20
-15.5305813721
 30
0.0
 10
-69.6079129384
 20
-15.4622046642
 30
0.0
 10
-69.6270465962
 20
-15.3184245287
 30
0.0
 10
-69.6984392639
 20
-15.1073112617
 30
0.0
 10
-69.8084889099
 20
-14.9039282239
 30
0.0
 10
-69.948252971
 20
-14.7250072293
 30
0.0
 10
-70.1065697018
 20
-14.5848212226
 30
0.0
 10
-70.2716707728
 20
-14.4946391408
 30
0.0
 10
-70.4332761023
 20
-14.4622784864
 30
0.0
 10
-70.533674909
 20
-14.4880850429
 30
0.0
 10
-70.5736334203
 20
-14.5111620828
 30
0.0
  0
SPLINE
  5
326
100
AcDbEntity
  8
0
100
AcDbSpline
 62
7
  6
CONTINUOUS
 70
0
 71
3
 72
15
 73
11
 74
0
 42
0.0000001
 43
0.0000001
 44
0.0000000001
 40
0.0
 40
0.0
 40
0.0
 40
0.0
 40
0.1288165481
 40
0.2705614397
 40
0.4178769395
 40
0.5623815329
 40
0.6961996216
 40
0.8135941965
 40
0.9130669694
 40
1.0
 40
1.0
 40
1.0
 40
1.0
 10
43.4849778776
 20
-80.0533523795
 30
0.0
 10
43.4849778776
 20
-80.0010034257
 30
0.0
 10
43.4703301456
 20
-79.8909263127
 30
0.0
 10
43.4156739822
 20
-79.729298829
 30
0.0
 10
43.3314231364
 20
-79.5735883969
 30
0.0
 10
43.2244227789
 20
-79.4366039388
 30
0.0
 10
43.1032176008
 20
-79.3292721326
 30
0.0
 10
42.9768173759
 20
-79.2602213121
 30
0.0
 10
42.8530911404
 20
-79.2354327196
 30
0.0
 10
42.7762234387
 20
-79.2551825104
 30
0.0
 10
42.7456264375
 20
-79.2728432939
 30
0.0
  0
SPLINE
  5
327
100
AcDbEntity
  8
0
100
AcDbSpline
 62
7
  6
CONTINUOUS
 70
0
 71
3
 72
15
 73
11
 74
0
 42
0.0000001
 43
0.0000001
 44
0.0000000001
 40
0.0
 40
0.0
 40
0.0
 40
0.0
 40
0.1288165481
 40
0.2705614397
 40
0.4178769395
 40
0.5623815329
 40
0.6961996216
 40
0.8135941965
 40
0.9130669694
 40
1.0
 40
1.0
 40
1.0
 40
1.0
 10
61.3394241026
 20
-90.362285861
 30
0.0
 10
61.3394241026
 20
-90.3099369072
 30
0.0
 10
61.3247763706
 20
-90.1998597942
 30
0.0
 10
61.2701202072
 20
-90.0382323105
 30
0.0
 10
61.1858693614
 20
-89.8825218784
 30
0.0
 10
61.0788690039
 20
-89.7455374203
 30
0.0
 10
60.9576638258
 20
-89.6382056142
 30
0.0
 10
60.8312636009
 20
-89.5691547937
 30
0.0
 10
60.7075373654
 20
-89.5443662011
 30
0.0
 10
60.6306696636
 20
-89.5641159919
 30
0.0
 10
60.6000726625
 20
-89.5817767755
 30
0.0
  0
SPLINE
  5
328
100
AcDbEntity
  8
ASSI
100
AcDbSpline
 62
7
  6
CONTINUOUS
 70
0
 71
3
 72
15
 73
11
 74
0
 42
0.0000001
 43
0.0000001
 44
0.0000000001
 40
0.0
 40
0.0
 40
0.0
 40
0.0
 40
0.1288165481
 40
0.2705614397
 40
0.4178769395
 40
0.5623815329
 40
0.6961996216
 40
0.8135941965
 40
0.9130669694
 40
1.0
 40
1.0
 40
1.0
 40
1.0
 10
8.1296388183
 20
-59.6396227131
 30
0.0
 10
8.1296388183
 20
-59.5872737593
 30
0.0
 10
8.1149910863
 20
-59.4771966463
 30
0.0
 10
8.0603349229
 20
-59.3155691626
 30
0.0
 10
7.9760840771
 20
-59.1598587305
 30
0.0
 10
7.8690837196
 20
-59.0228742724
 30
0.0
 10
7.7478785415
 20
-58.9155424663
 30
0.0
 10
7.6214783166
 20
-58.8464916458
 30
0.0
 10
7.4977520811
 20
-58.8217030532
 30
0.0
 10
7.4208843793
 20
-58.841452844
 30
0.0
 10
7.3902873782
 20
-58.8591136276
 30
0.0
  0
SPLINE
  5
329
100
AcDbEntity
  8
ASSI
100
AcDbSpline
 62
7
  6
CONTINUOUS
 70
0
 71
3
 72
15
 73
11
 74
0
 42
0.0000001
 43
0.0000001
 44
0.0000000001
 40
0.0
 40
0.0
 40
0.0
 40
0.0
 40
0.1288165481
 40
0.2705614397
 40
0.4178769395
 40
0.5623815329
 40
0.6961996216
 40
0.8135941965
 40
0.9130669694
 40
1.0
 40
1.0
 40
1.0
 40
1.0
 10
25.9840850432
 20
-69.9485561946
 30
0.0
 10
25.9840850432
 20
-69.8962072408
 30
0.0
 10
25.9694373112
 20
-69.7861301278
 30
0.0
 10
25.9147811479
 20
-69.6245026442
 30
0.0
 10
25.8305303021
 20
-69.468792212
 30
0.0
 10
25.7235299446
 20
-69.3318077539
 30
0.0
 10
25.6023247665
 20
-69.2244759478
 30
0.0
 10
25.4759245416
 20
-69.1554251273
 30
0.0
 10
25.3521983061
 20
-69.1306365347
 30
0.0
 10
25.2753306043
 20
-69.1503863255
 30
0.0
 10
25.2447336031
 20
-69.1680471091
 30
0.0
  0
SPLINE
  5
32A
100
AcDbEntity
  8
ASSI
100
AcDbSpline
 62
7
  6
CONTINUOUS
 70
0
 71
3
 72
15
 73
11
 74
0
 42
0.0000001
 43
0.0000001
 44
0.0000000001
 40
0.0
 40
0.0
 40
0.0
 40
0.0
 40
0.1288165481
 40
0.2705614397
 40
0.4178769395
 40
0.5623815329
 40
0.6961996216
 40
0.8135941965
 40
0.9130669694
 40
1.0
 40
1.0
 40
1.0
 40
1.0
 10
-27.2257002411
 20
-39.2258930467
 30
0.0
 10
-27.2257002411
 20
-39.1735440929
 30
0.0
 10
-27.240347973
 20
-39.0634669799
 30
0.0
 10
-27.2950041364
 20
-38.9018394962
 30
0.0
 10
-27.3792549822
 20
-38.7461290641
 30
0.0
 10
-27.4862553397
 20
-38.609144606
 30
0.0
 10
-27.6074605178
 20
-38.5018127999
 30
0.0
 10
-27.7338607427
 20
-38.4327619794
 30
0.0
 10
-27.8575869782
 20
-38.4079733868
 30
0.0
 10
-27.93445468
 20
-38.4277231776
 30
0.0
 10
-27.9650516812
 20
-38.4453839612
 30
0.0
  0
SPLINE
  5
32B
100
AcDbEntity
  8
ASSI
100
AcDbSpline
 62
7
  6
CONTINUOUS
 70
0
 71
3
 72
15
 73
11
 74
0
 42
0.0000001
 43
0.0000001
 44
0.0000000001
 40
0.0
 40
0.0
 40
0.0
 40
0.0
 40
0.1288165481
 40
0.2705614397
 40
0.4178769395
 40
0.5623815329
 40
0.6961996216
 40
0.8135941965
 40
0.9130669694
 40
1.0
 40
1.0
 40
1.0
 40
1.0
 10
-9.3712540161
 20
-49.5348265282
 30
0.0
 10
-9.3712540161
 20
-49.4824775745
 30
0.0
 10
-9.3859017481
 20
-49.3724004615
 30
0.0
 10
-9.4405579115
 20
-49.2107729778
 30
0.0
 10
-9.5248087573
 20
-49.0550625457
 30
0.0
 10
-9.6318091148
 20
-48.9180780875
 30
0.0
 10
-9.7530142929
 20
-48.8107462814
 30
0.0
 10
-9.8794145178
 20
-48.7416954609
 30
0.0
 10
-10.0031407533
 20
-48.7169068684
 30
0.0
 10
-10.080008455
 20
-48.7366566592
 30
0.0
 10
-10.1106054562
 20
-48.7543174427
 30
0.0
  0
SPLINE
  5
32C
100
AcDbEntity
  8
ASSI
100
AcDbSpline
 62
7
  6
CONTINUOUS
 70
0
 71
3
 72
15
 73
11
 74
0
 42
0.0000001
 43
0.0000001
 44
0.0000000001
 40
0.0
 40
0.0
 40
0.0
 40
0.0
 40
0.1288165481
 40
0.2705614397
 40
0.4178769395
 40
0.5623815329
 40
0.6961996216
 40
0.8135941965
 40
0.9130669694
 40
1.0
 40
1.0
 40
1.0
 40
1.0
 10
-62.5810393004
 20
-18.8121633803
 30
0.0
 10
-62.5810393004
 20
-18.7598144266
 30
0.0
 10
-62.5956870324
 20
-18.6497373135
 30
0.0
 10
-62.6503431957
 20
-18.4881098299
 30
0.0
 10
-62.7345940416
 20
-18.3323993977
 30
0.0
 10
-62.8415943991
 20
-18.1954149396
 30
0.0
 10
-62.9627995772
 20
-18.0880831335
 30
0.0
 10
-63.089199802
 20
-18.019032313
 30
0.0
 10
-63.2129260376
 20
-17.9942437204
 30
0.0
 10
-63.2897937393
 20
-18.0139935112
 30
0.0
 10
-63.3203907405
 20
-18.0316542948
 30
0.0
  0
SPLINE
  5
32D
100
AcDbEntity
  8
ASSI
100
AcDbSpline
 62
7
  6
CONTINUOUS
 70
0
 71
3
 72
15
 73
11
 74
0
 42
0.0000001
 43
0.0000001
 44
0.0000000001
 40
0.0
 40
0.0
 40
0.0
 40
0.0
 40
0.1288165481
 40
0.2705614397
 40
0.4178769395
 40
0.5623815329
 40
0.6961996216
 40
0.8135941965
 40
0.9130669694
 40
1.0
 40
1.0
 40
1.0
 40
1.0
 10
-44.7265930754
 20
-29.1210968618
 30
0.0
 10
-44.7265930754
 20
-29.0687479081
 30
0.0
 10
-44.7412408074
 20
-28.9586707951
 30
0.0
 10
-44.7958969708
 20
-28.7970433114
 30
0.0
 10
-44.8801478166
 20
-28.6413328793
 30
0.0
 10
-44.9871481741
 20
-28.5043484212
 30
0.0
 10
-45.1083533522
 20
-28.397016615
 30
0.0
 10
-45.2347535771
 20
-28.3279657945
 30
0.0
 10
-45.3584798126
 20
-28.303177202
 30
0.0
 10
-45.4353475144
 20
-28.3229269928
 30
0.0
 10
-45.4659445155
 20
-28.3405877763
 30
0.0
  0
SPLINE
  5
32E
100
AcDbEntity
  8
0
100
AcDbSpline
 62
7
  6
CONTINUOUS
 70
0
 71
3
 72
11
 73
7
 74
0
 42
0.0000001
 43
0.0000001
 44
0.0000000001
 40
0.0
 40
0.0
 40
0.0
 40
0.0
 40
0.2488260016
 40
0.5114555231
 40
0.767985066
 40
1.0
 40
1.0
 40
1.0
 40
1.0
 10
-4.8704316729
 20
44.609491648
 30
0.0
 10
-4.8290460623
 20
44.5755740984
 30
0.0
 10
-4.7526696184
 20
44.4949767621
 30
0.0
 10
-4.6643343753
 20
44.3543048321
 30
0.0
 10
-4.6056751285
 20
44.2027649113
 30
0.0
 10
-4.5894444083
 20
44.0976026609
 30
0.0
 10
-4.5894444083
 20
44.0477091959
 30
0.0
  0
SPLINE
  5
32F
100
AcDbEntity
  8
0
100
AcDbSpline
 62
7
  6
CONTINUOUS
 70
0
 71
3
 72
11
 73
7
 74
0
 42
0.0000001
 43
0.0000001
 44
0.0000000001
 40
0.0
 40
0.0
 40
0.0
 40
0.0
 40
0.2898089725
 40
0.5490451958
 40
0.7822275044
 40
1.0
 40
1.0
 40
1.0
 40
1.0
 10
-4.5894444083
 20
-49.0299023584
 30
0.0
 10
-4.5894444083
 20
-49.0552431654
 30
0.0
 10
-4.5932703732
 20
-49.1034175816
 30
0.0
 10
-4.6128032391
 20
-49.169600431
 30
0.0
 10
-4.6456306707
 20
-49.2233127362
 30
0.0
 10
-4.6764951189
 20
-49.2492493118
 30
0.0
 10
-4.6929856691
 20
-49.2587707603
 30
0.0
  0
SPLINE
  5
330
100
AcDbEntity
  8
0
100
AcDbSpline
 62
7
  6
CONTINUOUS
 70
0
 71
3
 72
11
 73
7
 74
0
 42
0.0000001
 43
0.0000001
 44
0.0000000001
 40
0.0
 40
0.0
 40
0.0
 40
0.0
 40
0.2898089725
 40
0.5490451958
 40
0.7822275044
 40
1.0
 40
1.0
 40
1.0
 40
1.0
 10
-39.9447834677
 20
-28.6161726921
 30
0.0
 10
-39.9447834677
 20
-28.641513499
 30
0.0
 10
-39.9486094325
 20
-28.6896879152
 30
0.0
 10
-39.9681422984
 20
-28.7558707646
 30
0.0
 10
-40.00096973
 20
-28.8095830698
 30
0.0
 10
-40.0318341782
 20
-28.8355196454
 30
0.0
 10
-40.0483247284
 20
-28.8450410939
 30
0.0
  0
SPLINE
  5
331
100
AcDbEntity
  8
0
100
AcDbSpline
 62
7
  6
CONTINUOUS
 70
0
 71
3
 72
11
 73
7
 74
0
 42
0.0000001
 43
0.0000001
 44
0.0000000001
 40
0.0
 40
0.0
 40
0.0
 40
0.0
 40
0.2488260016
 40
0.5114555231
 40
0.767985066
 40
1.0
 40
1.0
 40
1.0
 40
1.0
 10
-40.2257707322
 20
65.0232213144
 30
0.0
 10
-40.1843851217
 20
64.9893037648
 30
0.0
 10
-40.1080086777
 20
64.9087064285
 30
0.0
 10
-40.0196734346
 20
64.7680344985
 30
0.0
 10
-39.9610141878
 20
64.6164945777
 30
0.0
 10
-39.9447834677
 20
64.5113323273
 30
0.0
 10
-39.9447834677
 20
64.4614388623
 30
0.0
  0
SPLINE
  5
332
100
AcDbEntity
  8
0
100
AcDbSpline
 62
7
  6
CONTINUOUS
 70
0
 71
3
 72
11
 73
7
 74
0
 42
0.0000001
 43
0.0000001
 44
0.0000000001
 40
0.0
 40
0.0
 40
0.0
 40
0.0
 40
0.2372216659
 40
0.5000061068
 40
0.7627872236
 40
1.0
 40
1.0
 40
1.0
 40
1.0
 10
2.8351767941
 20
-53.7250207268
 30
0.0
 10
2.7849869948
 20
-53.6960417656
 30
0.0
 10
2.6900000484
 20
-53.6160972139
 30
0.0
 10
2.5791314014
 20
-53.464595812
 30
0.0
 10
2.5033622733
 20
-53.292832162
 30
0.0
 10
2.4816234035
 20
-53.1706012418
 30
0.0
 10
2.4816234035
 20
-53.1126482917
 30
0.0
  0
SPLINE
  5
333
100
AcDbEntity
  8
0
100
AcDbSpline
 62
7
  6
CONTINUOUS
 70
0
 71
3
 72
11
 73
7
 74
0
 42
0.0000001
 43
0.0000001
 44
0.0000000001
 40
0.0
 40
0.0
 40
0.0
 40
0.0
 40
0.2177724906
 40
0.4509525223
 40
0.7101901104
 40
1.0
 40
1.0
 40
1.0
 40
1.0
 10
42.7456264375
 20
-79.2728432939
 30
0.0
 10
42.7254227595
 20
-79.2845049853
 30
0.0
 10
42.6876091356
 20
-79.3162764457
 30
0.0
 10
42.6473899352
 20
-79.3820758209
 30
0.0
 10
42.6234597225
 20
-79.4631543665
 30
0.0
 10
42.6187720706
 20
-79.5221716272
 30
0.0
 10
42.6187720706
 20
-79.5532160027
 30
0.0
  0
SPLINE
  5
334
100
AcDbEntity
  8
ASSI
100
AcDbSpline
 62
7
  6
CONTINUOUS
 70
0
 71
3
 72
15
 73
11
 74
0
 42
0.0000001
 43
0.0000001
 44
0.0000000001
 40
0.0
 40
0.0
 40
0.0
 40
0.0
 40
0.1288179957
 40
0.2705656299
 40
0.4178830858
 40
0.5623884875
 40
0.6962058276
 40
0.8135981026
 40
0.9130679578
 40
1.0
 40
1.0
 40
1.0
 40
1.0
 10
35.3267333897
 20
-76.1185310219
 30
0.0
 10
35.3267333897
 20
-76.1869077298
 30
0.0
 10
35.3458670474
 20
-76.3306878653
 30
0.0
 10
35.4172597152
 20
-76.5418011323
 30
0.0
 10
35.5273093611
 20
-76.7451841701
 30
0.0
 10
35.6670734222
 20
-76.9241051647
 30
0.0
 10
35.825390153
 20
-77.0642911714
 30
0.0
 10
35.990491224
 20
-77.1544732532
 30
0.0
 10
36.1520965536
 20
-77.1868339075
 30
0.0
 10
36.2524953603
 20
-77.1610273511
 30
0.0
 10
36.2924538715
 20
-77.1379503112
 30
0.0
  0
SPLINE
  5
335
100
AcDbEntity
  8
0
100
AcDbSpline
 62
7
  6
CONTINUOUS
 70
0
 71
3
 72
11
 73
7
 74
0
 42
0.0000001
 43
0.0000001
 44
0.0000000001
 40
0.0
 40
0.0
 40
0.0
 40
0.0
 40
0.2177724906
 40
0.4509525223
 40
0.7101901104
 40
1.0
 40
1.0
 40
1.0
 40
1.0
 10
60.6000726625
 20
-89.5817767755
 30
0.0
 10
60.5798689845
 20
-89.5934384668
 30
0.0
 10
60.5420553606
 20
-89.6252099272
 30
0.0
 10
60.5018361601
 20
-89.6910093024
 30
0.0
 10
60.4779059475
 20
-89.772087848
 30
0.0
 10
60.4732182956
 20
-89.8311051087
 30
0.0
 10
60.4732182956
 20
-89.8621494842
 30
0.0
  0
SPLINE
  5
336
100
AcDbEntity
  8
ASSI
100
AcDbSpline
 62
7
  6
CONTINUOUS
 70
0
 71
3
 72
15
 73
11
 74
0
 42
0.0000001
 43
0.0000001
 44
0.0000000001
 40
0.0
 40
0.0
 40
0.0
 40
0.0
 40
0.1288179957
 40
0.2705656299
 40
0.4178830858
 40
0.5623884875
 40
0.6962058276
 40
0.8135981026
 40
0.9130679578
 40
1.0
 40
1.0
 40
1.0
 40
1.0
 10
-38.5659252443
 20
-33.4538360192
 30
0.0
 10
-38.5659252443
 20
-33.5222127271
 30
0.0
 10
-38.5467915866
 20
-33.6659928626
 30
0.0
 10
-38.4753989188
 20
-33.8771061296
 30
0.0
 10
-38.3653492729
 20
-34.0804891674
 30
0.0
 10
-38.2255852118
 20
-34.259410162
 30
0.0
 10
-38.067268481
 20
-34.3995961687
 30
0.0
 10
-37.90216741
 20
-34.4897782504
 30
0.0
 10
-37.7405620804
 20
-34.5221389048
 30
0.0
 10
-37.6401632737
 20
-34.4963323483
 30
0.0
 10
-37.6002047625
 20
-34.4732553085
 30
0.0
  0
SPLINE
  5
337
100
AcDbEntity
  8
ASSI
100
AcDbSpline
 62
7
  6
CONTINUOUS
 70
0
 71
3
 72
11
 73
7
 74
0
 42
0.0000001
 43
0.0000001
 44
0.0000000001
 40
0.0
 40
0.0
 40
0.0
 40
0.0
 40
0.2177724906
 40
0.4509525223
 40
0.7101901104
 40
1.0
 40
1.0
 40
1.0
 40
1.0
 10
-27.9650516812
 20
-38.4453839612
 30
0.0
 10
-27.9852553591
 20
-38.4570456525
 30
0.0
 10
-28.023068983
 20
-38.4888171129
 30
0.0
 10
-28.0632881835
 20
-38.5546164881
 30
0.0
 10
-28.0872183961
 20
-38.6356950337
 30
0.0
 10
-28.091906048
 20
-38.6947122944
 30
0.0
 10
-28.091906048
 20
-38.7257566699
 30
0.0
  0
SPLINE
  5
338
100
AcDbEntity
  8
0
100
AcDbSpline
 62
7
  6
CONTINUOUS
 70
0
 71
3
 72
11
 73
7
 74
0
 42
0.0000001
 43
0.0000001
 44
0.0000000001
 40
0.0
 40
0.0
 40
0.0
 40
0.0
 40
0.2177671524
 40
0.4509472058
 40
0.7101854783
 40
1.0
 40
1.0
 40
1.0
 40
1.0
 10
30.6623533902
 20
-69.6725004267
 30
0.0
 10
30.6458607719
 20
-69.6820230693
 30
0.0
 10
30.6079620289
 20
-69.6957873451
 30
0.0
 10
30.5450229965
 20
-69.697360692
 30
0.0
 10
30.4779302683
 20
-69.681181406
 30
0.0
 10
30.4342904005
 20
-69.660403025
 30
0.0
 10
30.4123412604
 20
-69.6477298666
 30
0.0
  0
SPLINE
  5
339
100
AcDbEntity
  8
ASSI
100
AcDbSpline
 62
7
  6
CONTINUOUS
 70
0
 71
3
 72
15
 73
11
 74
0
 42
0.0000001
 43
0.0000001
 44
0.0000000001
 40
0.0
 40
0.0
 40
0.0
 40
0.0
 40
0.1288179957
 40
0.2705656299
 40
0.4178830858
 40
0.5623884875
 40
0.6962058276
 40
0.8135981026
 40
0.9130679578
 40
1.0
 40
1.0
 40
1.0
 40
1.0
 10
-3.210586185
 20
-53.8675656856
 30
0.0
 10
-3.210586185
 20
-53.9359423934
 30
0.0
 10
-3.1914525272
 20
-54.079722529
 30
0.0
 10
-3.1200598595
 20
-54.2908357959
 30
0.0
 10
-3.0100102136
 20
-54.4942188338
 30
0.0
 10
-2.8702461525
 20
-54.6731398284
 30
0.0
 10
-2.7119294216
 20
-54.813325835
 30
0.0
 10
-2.5468283507
 20
-54.9035079168
 30
0.0
 10
-2.3852230211
 20
-54.9358685712
 30
0.0
 10
-2.2848242144
 20
-54.9100620147
 30
0.0
 10
-2.2448657032
 20
-54.8869849749
 30
0.0
  0
SPLINE
  5
33A
100
AcDbEntity
  8
0
100
AcDbSpline
 62
7
  6
CONTINUOUS
 70
0
 71
3
 72
11
 73
7
 74
0
 42
0.0000001
 43
0.0000001
 44
0.0000000001
 40
0.0
 40
0.0
 40
0.0
 40
0.0
 40
0.2177671524
 40
0.4509472058
 40
0.7101854783
 40
1.0
 40
1.0
 40
1.0
 40
1.0
 10
-4.6929856691
 20
-49.2587707603
 30
0.0
 10
-4.7094782874
 20
-49.2682934029
 30
0.0
 10
-4.7473770304
 20
-49.2820576787
 30
0.0
 10
-4.8103160628
 20
-49.2836310256
 30
0.0
 10
-4.877408791
 20
-49.2674517396
 30
0.0
 10
-4.9210486588
 20
-49.2466733586
 30
0.0
 10
-4.9429977989
 20
-49.2340002002
 30
0.0
  0
SPLINE
  5
33B
100
AcDbEntity
  8
ASSI
100
AcDbSpline
 62
7
  6
CONTINUOUS
 70
0
 71
3
 72
15
 73
11
 74
0
 42
0.0000001
 43
0.0000001
 44
0.0000000001
 40
0.0
 40
0.0
 40
0.0
 40
0.0
 40
0.1288179957
 40
0.2705656299
 40
0.4178830858
 40
0.5623884875
 40
0.6962058276
 40
0.8135981026
 40
0.9130679578
 40
1.0
 40
1.0
 40
1.0
 40
1.0
 10
-70.7392837883
 20
-14.8773420228
 30
0.0
 10
-70.7392837883
 20
-14.9457187306
 30
0.0
 10
-70.7201501305
 20
-15.0894988662
 30
0.0
 10
-70.6487574628
 20
-15.3006121331
 30
0.0
 10
-70.5387078169
 20
-15.503995171
 30
0.0
 10
-70.3989437558
 20
-15.6829161656
 30
0.0
 10
-70.2406270249
 20
-15.8231021722
 30
0.0
 10
-70.075525954
 20
-15.913284254
 30
0.0
 10
-69.9139206244
 20
-15.9456449084
 30
0.0
 10
-69.8135218177
 20
-15.9198383519
 30
0.0
 10
-69.7735633065
 20
-15.8967613121
 30
0.0
  0
SPLINE
  5
33C
100
AcDbEntity
  8
0
100
AcDbSpline
 62
7
  6
CONTINUOUS
 70
0
 71
3
 72
15
 73
11
 74
0
 42
0.0000001
 43
0.0000001
 44
0.0000000001
 40
0.0
 40
0.0
 40
0.0
 40
0.0
 40
0.1288165481
 40
0.2705614397
 40
0.4178769395
 40
0.5623815329
 40
0.6961996216
 40
0.8135941965
 40
0.9130669694
 40
1.0
 40
1.0
 40
1.0
 40
1.0
 10
42.6187720706
 20
-79.5532160027
 30
0.0
 10
42.6187720706
 20
-79.6055649564
 30
0.0
 10
42.6334198026
 20
-79.7156420694
 30
0.0
 10
42.688075966
 20
-79.8772695531
 30
0.0
 10
42.7723268118
 20
-80.0329799852
 30
0.0
 10
42.8793271693
 20
-80.1699644433
 30
0.0
 10
43.0005323474
 20
-80.2772962495
 30
0.0
 10
43.1269325723
 20
-80.34634707
 30
0.0
 10
43.2506588078
 20
-80.3711356625
 30
0.0
 10
43.3275265096
 20
-80.3513858717
 30
0.0
 10
43.3581235107
 20
-80.3337250882
 30
0.0
  0
SPLINE
  5
33D
100
AcDbEntity
  8
0
100
AcDbSpline
 62
7
  6
CONTINUOUS
 70
0
 71
3
 72
15
 73
11
 74
0
 42
0.0000001
 43
0.0000001
 44
0.0000000001
 40
0.0
 40
0.0
 40
0.0
 40
0.0
 40
0.1288165481
 40
0.2705614397
 40
0.4178769395
 40
0.5623815329
 40
0.6961996216
 40
0.8135941965
 40
0.9130669694
 40
1.0
 40
1.0
 40
1.0
 40
1.0
 10
60.4732182956
 20
-89.8621494842
 30
0.0
 10
60.4732182956
 20
-89.9144984379
 30
0.0
 10
60.4878660276
 20
-90.0245755509
 30
0.0
 10
60.542522191
 20
-90.1862030346
 30
0.0
 10
60.6267730368
 20
-90.3419134667
 30
0.0
 10
60.7337733943
 20
-90.4788979249
 30
0.0
 10
60.8549785724
 20
-90.586229731
 30
0.0
 10
60.9813787973
 20
-90.6552805515
 30
0.0
 10
61.1051050328
 20
-90.680069144
 30
0.0
 10
61.1819727345
 20
-90.6603193532
 30
0.0
 10
61.2125697357
 20
-90.6426585697
 30
0.0
  0
SPLINE
  5
33E
100
AcDbEntity
  8
ASSI
100
AcDbSpline
 62
7
  6
CONTINUOUS
 70
0
 71
3
 72
11
 73
7
 74
0
 42
0.0000001
 43
0.0000001
 44
0.0000000001
 40
0.0
 40
0.0
 40
0.0
 40
0.0
 40
0.2177724906
 40
0.4509525223
 40
0.7101901104
 40
1.0
 40
1.0
 40
1.0
 40
1.0
 10
-10.1106054562
 20
-48.7543174427
 30
0.0
 10
-10.1308091342
 20
-48.765979134
 30
0.0
 10
-10.1686227581
 20
-48.7977505944
 30
0.0
 10
-10.2088419585
 20
-48.8635499697
 30
0.0
 10
-10.2327721712
 20
-48.9446285153
 30
0.0
 10
-10.2374598231
 20
-49.0036457759
 30
0.0
 10
-10.2374598231
 20
-49.0346901514
 30
0.0
  0
SPLINE
  5
33F
100
AcDbEntity
  8
ASSI
100
AcDbSpline
 62
7
  6
CONTINUOUS
 70
0
 71
3
 72
15
 73
11
 74
0
 42
0.0000001
 43
0.0000001
 44
0.0000000001
 40
0.0
 40
0.0
 40
0.0
 40
0.0
 40
0.1288165481
 40
0.2705614397
 40
0.4178769395
 40
0.5623815329
 40
0.6961996216
 40
0.8135941965
 40
0.9130669694
 40
1.0
 40
1.0
 40
1.0
 40
1.0
 10
7.2634330113
 20
-59.1394863363
 30
0.0
 10
7.2634330113
 20
-59.19183529
 30
0.0
 10
7.2780807433
 20
-59.301912403
 30
0.0
 10
7.3327369067
 20
-59.4635398867
 30
0.0
 10
7.4169877525
 20
-59.6192503188
 30
0.0
 10
7.52398811
 20
-59.756234777
 30
0.0
 10
7.6451932881
 20
-59.8635665831
 30
0.0
 10
7.771593513
 20
-59.9326174036
 30
0.0
 10
7.8953197485
 20
-59.9574059961
 30
0.0
 10
7.9721874503
 20
-59.9376562053
 30
0.0
 10
8.0027844514
 20
-59.9199954218
 30
0.0
  0
SPLINE
  5
340
100
AcDbEntity
  8
ASSI
100
AcDbSpline
 62
7
  6
CONTINUOUS
 70
0
 71
3
 72
11
 73
7
 74
0
 42
0.0000001
 43
0.0000001
 44
0.0000000001
 40
0.0
 40
0.0
 40
0.0
 40
0.0
 40
0.2177724906
 40
0.4509525223
 40
0.7101901104
 40
1.0
 40
1.0
 40
1.0
 40
1.0
 10
7.3902873782
 20
-58.8591136276
 30
0.0
 10
7.3700837002
 20
-58.8707753189
 30
0.0
 10
7.3322700763
 20
-58.9025467793
 30
0.0
 10
7.2920508758
 20
-58.9683461545
 30
0.0
 10
7.2681206632
 20
-59.0494247001
 30
0.0
 10
7.2634330113
 20
-59.1084419608
 30
0.0
 10
7.2634330113
 20
-59.1394863363
 30
0.0
  0
SPLINE
  5
341
100
AcDbEntity
  8
ASSI
100
AcDbSpline
 62
7
  6
CONTINUOUS
 70
0
 71
3
 72
15
 73
11
 74
0
 42
0.0000001
 43
0.0000001
 44
0.0000000001
 40
0.0
 40
0.0
 40
0.0
 40
0.0
 40
0.1288165481
 40
0.2705614397
 40
0.4178769395
 40
0.5623815329
 40
0.6961996216
 40
0.8135941965
 40
0.9130669694
 40
1.0
 40
1.0
 40
1.0
 40
1.0
 10
25.1178792363
 20
-69.4484198178
 30
0.0
 10
25.1178792363
 20
-69.5007687716
 30
0.0
 10
25.1325269683
 20
-69.6108458846
 30
0.0
 10
25.1871831316
 20
-69.7724733683
 30
0.0
 10
25.2714339774
 20
-69.9281838004
 30
0.0
 10
25.3784343349
 20
-70.0651682585
 30
0.0
 10
25.499639513
 20
-70.1725000646
 30
0.0
 10
25.6260397379
 20
-70.2415508851
 30
0.0
 10
25.7497659734
 20
-70.2663394777
 30
0.0
 10
25.8266336752
 20
-70.2465896869
 30
0.0
 10
25.8572306764
 20
-70.2289289033
 30
0.0
  0
SPLINE
  5
342
100
AcDbEntity
  8
ASSI
100
AcDbSpline
 62
7
  6
CONTINUOUS
 70
0
 71
3
 72
11
 73
7
 74
0
 42
0.0000001
 43
0.0000001
 44
0.0000000001
 40
0.0
 40
0.0
 40
0.0
 40
0.0
 40
0.2177725752
 40
0.450952672
 40
0.7101953065
 40
1.0
 40
1.0
 40
1.0
 40
1.0
 10
35.4923837577
 20
-75.7523510819
 30
0.0
 10
35.466001552
 20
-75.7675874657
 30
0.0
 10
35.4166227916
 20
-75.8090853864
 30
0.0
 10
35.3641016349
 20
-75.8950227746
 30
0.0
 10
35.332855476
 20
-76.000912294
 30
0.0
 10
35.3267333897
 20
-76.0779880517
 30
0.0
 10
35.3267333897
 20
-76.1185310219
 30
0.0
  0
SPLINE
  5
343
100
AcDbEntity
  8
ASSI
100
AcDbSpline
 62
7
  6
CONTINUOUS
 70
0
 71
3
 72
15
 73
11
 74
0
 42
0.0000001
 43
0.0000001
 44
0.0000000001
 40
0.0
 40
0.0
 40
0.0
 40
0.0
 40
0.1288165481
 40
0.2705614397
 40
0.4178769395
 40
0.5623815329
 40
0.6961996216
 40
0.8135941965
 40
0.9130669694
 40
1.0
 40
1.0
 40
1.0
 40
1.0
 10
-28.091906048
 20
-38.7257566699
 30
0.0
 10
-28.091906048
 20
-38.7781056236
 30
0.0
 10
-28.077258316
 20
-38.8881827367
 30
0.0
 10
-28.0226021527
 20
-39.0498102203
 30
0.0
 10
-27.9383513068
 20
-39.2055206524
 30
0.0
 10
-27.8313509494
 20
-39.3425051106
 30
0.0
 10
-27.7101457712
 20
-39.4498369167
 30
0.0
 10
-27.5837455464
 20
-39.5188877372
 30
0.0
 10
-27.4600193109
 20
-39.5436763297
 30
0.0
 10
-27.3831516091
 20
-39.5239265389
 30
0.0
 10
-27.3525546079
 20
-39.5062657554
 30
0.0
  0
SPLINE
  5
344
100
AcDbEntity
  8
ASSI
100
AcDbSpline
 62
7
  6
CONTINUOUS
 70
0
 71
3
 72
11
 73
7
 74
0
 42
0.0000001
 43
0.0000001
 44
0.0000000001
 40
0.0
 40
0.0
 40
0.0
 40
0.0
 40
0.2177725752
 40
0.450952672
 40
0.7101953065
 40
1.0
 40
1.0
 40
1.0
 40
1.0
 10
-38.4002748763
 20
-33.0876560792
 30
0.0
 10
-38.426657082
 20
-33.1028924629
 30
0.0
 10
-38.4760358424
 20
-33.1443903836
 30
0.0
 10
-38.5285569991
 20
-33.2303277719
 30
0.0
 10
-38.559803158
 20
-33.3362172913
 30
0.0
 10
-38.5659252443
 20
-33.4132930489
 30
0.0
 10
-38.5659252443
 20
-33.4538360192
 30
0.0
  0
SPLINE
  5
345
100
AcDbEntity
  8
ASSI
100
AcDbSpline
 62
7
  6
CONTINUOUS
 70
0
 71
3
 72
15
 73
11
 74
0
 42
0.0000001
 43
0.0000001
 44
0.0000000001
 40
0.0
 40
0.0
 40
0.0
 40
0.0
 40
0.1288165481
 40
0.2705614397
 40
0.4178769395
 40
0.5623815329
 40
0.6961996216
 40
0.8135941965
 40
0.9130669694
 40
1.0
 40
1.0
 40
1.0
 40
1.0
 10
-10.2374598231
 20
-49.0346901514
 30
0.0
 10
-10.2374598231
 20
-49.0870391052
 30
0.0
 10
-10.2228120911
 20
-49.1971162182
 30
0.0
 10
-10.1681559277
 20
-49.3587437019
 30
0.0
 10
-10.0839050819
 20
-49.514454134
 30
0.0
 10
-9.9769047244
 20
-49.6514385921
 30
0.0
 10
-9.8556995463
 20
-49.7587703982
 30
0.0
 10
-9.7292993214
 20
-49.8278212187
 30
0.0
 10
-9.6055730859
 20
-49.8526098113
 30
0.0
 10
-9.5287053841
 20
-49.8328600205
 30
0.0
 10
-9.498108383
 20
-49.8151992369
 30
0.0
  0
SPLINE
  5
346
100
AcDbEntity
  8
ASSI
100
AcDbSpline
 62
7
  6
CONTINUOUS
 70
0
 71
3
 72
11
 73
7
 74
0
 42
0.0000001
 43
0.0000001
 44
0.0000000001
 40
0.0
 40
0.0
 40
0.0
 40
0.0
 40
0.2177724906
 40
0.4509525223
 40
0.7101901104
 40
1.0
 40
1.0
 40
1.0
 40
1.0
 10
-63.3203907405
 20
-18.0316542948
 30
0.0
 10
-63.3405944185
 20
-18.0433159861
 30
0.0
 10
-63.3784080423
 20
-18.0750874465
 30
0.0
 10
-63.4186272428
 20
-18.1408868218
 30
0.0
 10
-63.4425574554
 20
-18.2219653674
 30
0.0
 10
-63.4472451073
 20
-18.280982628
 30
0.0
 10
-63.4472451073
 20
-18.3120270035
 30
0.0
  0
SPLINE
  5
347
100
AcDbEntity
  8
ASSI
100
AcDbSpline
 62
7
  6
CONTINUOUS
 70
0
 71
3
 72
15
 73
11
 74
0
 42
0.0000001
 43
0.0000001
 44
0.0000000001
 40
0.0
 40
0.0
 40
0.0
 40
0.0
 40
0.1288165481
 40
0.2705614397
 40
0.4178769395
 40
0.5623815329
 40
0.6961996216
 40
0.8135941965
 40
0.9130669694
 40
1.0
 40
1.0
 40
1.0
 40
1.0
 10
-63.4472451073
 20
-18.3120270035
 30
0.0
 10
-63.4472451073
 20
-18.3643759573
 30
0.0
 10
-63.4325973754
 20
-18.4744530703
 30
0.0
 10
-63.377941212
 20
-18.636080554
 30
0.0
 10
-63.2936903662
 20
-18.7917909861
 30
0.0
 10
-63.1866900087
 20
-18.9287754442
 30
0.0
 10
-63.0654848306
 20
-19.0361072503
 30
0.0
 10
-62.9390846057
 20
-19.1051580708
 30
0.0
 10
-62.8153583702
 20
-19.1299466634
 30
0.0
 10
-62.7384906684
 20
-19.1101968726
 30
0.0
 10
-62.7078936672
 20
-19.092536089
 30
0.0
  0
SPLINE
  5
348
100
AcDbEntity
  8
ASSI
100
AcDbSpline
 62
7
  6
CONTINUOUS
 70
0
 71
3
 72
15
 73
11
 74
0
 42
0.0000001
 43
0.0000001
 44
0.0000000001
 40
0.0
 40
0.0
 40
0.0
 40
0.0
 40
0.1288165481
 40
0.2705614397
 40
0.4178769395
 40
0.5623815329
 40
0.6961996216
 40
0.8135941965
 40
0.9130669694
 40
1.0
 40
1.0
 40
1.0
 40
1.0
 10
-45.5927988824
 20
-28.620960485
 30
0.0
 10
-45.5927988824
 20
-28.6733094388
 30
0.0
 10
-45.5781511504
 20
-28.7833865518
 30
0.0
 10
-45.523494987
 20
-28.9450140355
 30
0.0
 10
-45.4392441412
 20
-29.1007244676
 30
0.0
 10
-45.3322437837
 20
-29.2377089257
 30
0.0
 10
-45.2110386056
 20
-29.3450407318
 30
0.0
 10
-45.0846383807
 20
-29.4140915524
 30
0.0
 10
-44.9609121452
 20
-29.4388801449
 30
0.0
 10
-44.8840444434
 20
-29.4191303541
 30
0.0
 10
-44.8534474423
 20
-29.4014695705
 30
0.0
  0
SPLINE
  5
349
100
AcDbEntity
  8
ASSI
100
AcDbSpline
 62
7
  6
CONTINUOUS
 70
0
 71
3
 72
11
 73
7
 74
0
 42
0.0000001
 43
0.0000001
 44
0.0000000001
 40
0.0
 40
0.0
 40
0.0
 40
0.0
 40
0.2177724906
 40
0.4509525223
 40
0.7101901104
 40
1.0
 40
1.0
 40
1.0
 40
1.0
 10
25.2447336031
 20
-69.1680471091
 30
0.0
 10
25.2245299252
 20
-69.1797088004
 30
0.0
 10
25.1867163013
 20
-69.2114802608
 30
0.0
 10
25.1464971008
 20
-69.2772796361
 30
0.0
 10
25.1225668882
 20
-69.3583581817
 30
0.0
 10
25.1178792363
 20
-69.4173754423
 30
0.0
 10
25.1178792363
 20
-69.4484198178
 30
0.0
  0
SPLINE
  5
34A
100
AcDbEntity
  8
ASSI
100
AcDbSpline
 62
7
  6
CONTINUOUS
 70
0
 71
3
 72
11
 73
7
 74
0
 42
0.0000001
 43
0.0000001
 44
0.0000000001
 40
0.0
 40
0.0
 40
0.0
 40
0.0
 40
0.2177725752
 40
0.450952672
 40
0.7101953065
 40
1.0
 40
1.0
 40
1.0
 40
1.0
 10
-3.044935817
 20
-53.5013857456
 30
0.0
 10
-3.0713180226
 20
-53.5166221293
 30
0.0
 10
-3.1206967831
 20
-53.55812005
 30
0.0
 10
-3.1732179398
 20
-53.6440574383
 30
0.0
 10
-3.2044640986
 20
-53.7499469577
 30
0.0
 10
-3.210586185
 20
-53.8270227153
 30
0.0
 10
-3.210586185
 20
-53.8675656856
 30
0.0
  0
SPLINE
  5
34B
100
AcDbEntity
  8
ASSI
100
AcDbSpline
 62
7
  6
CONTINUOUS
 70
0
 71
3
 72
11
 73
7
 74
0
 42
0.0000001
 43
0.0000001
 44
0.0000000001
 40
0.0
 40
0.0
 40
0.0
 40
0.0
 40
0.2177725752
 40
0.450952672
 40
0.7101953065
 40
1.0
 40
1.0
 40
1.0
 40
1.0
 10
-70.5736334203
 20
-14.5111620828
 30
0.0
 10
-70.600015626
 20
-14.5263984665
 30
0.0
 10
-70.6493943864
 20
-14.5678963872
 30
0.0
 10
-70.7019155431
 20
-14.6538337755
 30
0.0
 10
-70.733161702
 20
-14.7597232949
 30
0.0
 10
-70.7392837883
 20
-14.8367990525
 30
0.0
 10
-70.7392837883
 20
-14.8773420228
 30
0.0
  0
SPLINE
  5
34C
100
AcDbEntity
  8
0
100
AcDbSpline
 62
7
  6
CONTINUOUS
 70
0
 71
3
 72
11
 73
7
 74
0
 42
0.0000001
 43
0.0000001
 44
0.0000000001
 40
0.0
 40
0.0
 40
0.0
 40
0.0
 40
0.2372216659
 40
0.5000061068
 40
0.7627872236
 40
1.0
 40
1.0
 40
1.0
 40
1.0
 10
38.1905158535
 20
-74.1387503932
 30
0.0
 10
38.1403260541
 20
-74.109771432
 30
0.0
 10
38.0453391078
 20
-74.0298268803
 30
0.0
 10
37.9344704607
 20
-73.8783254783
 30
0.0
 10
37.8587013326
 20
-73.7065618284
 30
0.0
 10
37.8369624629
 20
-73.5843309082
 30
0.0
 10
37.8369624629
 20
-73.5263779581
 30
0.0
  0
SPLINE
  5
34D
100
AcDbEntity
  8
0
100
AcDbSpline
 62
7
  6
CONTINUOUS
 70
0
 71
3
 72
11
 73
7
 74
0
 42
0.0000001
 43
0.0000001
 44
0.0000000001
 40
0.0
 40
0.0
 40
0.0
 40
0.0
 40
0.2898089725
 40
0.5490451958
 40
0.7822275044
 40
1.0
 40
1.0
 40
1.0
 40
1.0
 10
37.8369624629
 20
19.5512335963
 30
0.0
 10
37.8369624629
 20
19.5765744032
 30
0.0
 10
37.8407884277
 20
19.6247488194
 30
0.0
 10
37.8603212936
 20
19.6909316688
 30
0.0
 10
37.8931487252
 20
19.744643974
 30
0.0
 10
37.9240131734
 20
19.7705805496
 30
0.0
 10
37.9405037236
 20
19.7801019981
 30
0.0
  0
SPLINE
  5
34E
100
AcDbEntity
  8
0
100
AcDbSpline
 62
7
  6
CONTINUOUS
 70
0
 71
3
 72
11
 73
7
 74
0
 42
0.0000001
 43
0.0000001
 44
0.0000000001
 40
0.0
 40
0.0
 40
0.0
 40
0.0
 40
0.2898089725
 40
0.5490451958
 40
0.7822275044
 40
1.0
 40
1.0
 40
1.0
 40
1.0
 10
-32.8737156558
 20
60.3786929291
 30
0.0
 10
-32.8737156558
 20
60.404033736
 30
0.0
 10
-32.8698896909
 20
60.4522081522
 30
0.0
 10
-32.850356825
 20
60.5183910016
 30
0.0
 10
-32.8175293934
 20
60.5721033068
 30
0.0
 10
-32.7866649453
 20
60.5980398824
 30
0.0
 10
-32.770174395
 20
60.6075613309
 30
0.0
  0
SPLINE
  5
34F
100
AcDbEntity
  8
0
100
AcDbSpline
 62
7
  6
CONTINUOUS
 70
0
 71
3
 72
11
 73
7
 74
0
 42
0.0000001
 43
0.0000001
 44
0.0000000001
 40
0.0
 40
0.0
 40
0.0
 40
0.0
 40
0.2372216659
 40
0.5000061068
 40
0.7627872236
 40
1.0
 40
1.0
 40
1.0
 40
1.0
 10
-32.5201622652
 20
-33.3112910604
 30
0.0
 10
-32.5703520646
 20
-33.2823120993
 30
0.0
 10
-32.6653390109
 20
-33.2023675475
 30
0.0
 10
-32.7762076579
 20
-33.0508661456
 30
0.0
 10
-32.851976786
 20
-32.8791024956
 30
0.0
 10
-32.8737156558
 20
-32.7568715754
 30
0.0
 10
-32.8737156558
 20
-32.6989186253
 30
0.0
  0
SPLINE
  5
350
100
AcDbEntity
  8
0
100
AcDbSpline
 62
7
  6
CONTINUOUS
 70
0
 71
3
 72
11
 73
7
 74
0
 42
0.0000001
 43
0.0000001
 44
0.0000000001
 40
0.0
 40
0.0
 40
0.0
 40
0.0
 40
0.2177671524
 40
0.4509472058
 40
0.7101854783
 40
1.0
 40
1.0
 40
1.0
 40
1.0
 10
-40.0483247284
 20
-28.8450410939
 30
0.0
 10
-40.0648173468
 20
-28.8545637365
 30
0.0
 10
-40.1027160898
 20
-28.8683280124
 30
0.0
 10
-40.1656551221
 20
-28.8699013593
 30
0.0
 10
-40.2327478503
 20
-28.8537220733
 30
0.0
 10
-40.2763877181
 20
-28.8329436922
 30
0.0
 10
-40.2983368582
 20
-28.8202705338
 30
0.0
  0
SPLINE
  5
351
100
AcDbEntity
  8
0
100
AcDbSpline
 62
7
  6
CONTINUOUS
 70
0
 71
3
 72
11
 73
7
 74
0
 42
0.0000001
 43
0.0000001
 44
0.0000000001
 40
0.0
 40
0.0
 40
0.0
 40
0.0
 40
0.2372216659
 40
0.5000061068
 40
0.7627872236
 40
1.0
 40
1.0
 40
1.0
 40
1.0
 10
-67.8755013245
 20
-12.897561394
 30
0.0
 10
-67.9256911239
 20
-12.8685824329
 30
0.0
 10
-68.0206780702
 20
-12.7886378812
 30
0.0
 10
-68.1315467172
 20
-12.6371364792
 30
0.0
 10
-68.2073158454
 20
-12.4653728293
 30
0.0
 10
-68.2290547151
 20
-12.343141909
 30
0.0
 10
-68.2290547151
 20
-12.2851889589
 30
0.0
  0
SPLINE
  5
352
100
AcDbEntity
  8
ASSI
100
AcDbSpline
 62
7
  6
CONTINUOUS
 70
0
 71
3
 72
11
 73
7
 74
0
 42
0.0000001
 43
0.0000001
 44
0.0000000001
 40
0.0
 40
0.0
 40
0.0
 40
0.0
 40
0.2177724906
 40
0.4509525223
 40
0.7101901104
 40
1.0
 40
1.0
 40
1.0
 40
1.0
 10
-45.4659445155
 20
-28.3405877763
 30
0.0
 10
-45.4861481935
 20
-28.3522494677
 30
0.0
 10
-45.5239618174
 20
-28.384020928
 30
0.0
 10
-45.5641810178
 20
-28.4498203033
 30
0.0
 10
-45.5881112305
 20
-28.5308988489
 30
0.0
 10
-45.5927988824
 20
-28.5899161095
 30
0.0
 10
-45.5927988824
 20
-28.620960485
 30
0.0
  0
SPLINE
  5
353
100
AcDbEntity
  8
0
100
AcDbSpline
 62
7
  6
CONTINUOUS
 70
0
 71
3
 72
11
 73
7
 74
0
 42
0.0000001
 43
0.0000001
 44
0.0000000001
 40
0.0
 40
0.0
 40
0.0
 40
0.0
 40
0.2898089725
 40
0.5490451958
 40
0.7822275044
 40
1.0
 40
1.0
 40
1.0
 40
1.0
 10
2.4816234035
 20
39.9649632627
 30
0.0
 10
2.4816234035
 20
39.9903040696
 30
0.0
 10
2.4854493684
 20
40.0384784858
 30
0.0
 10
2.5049822343
 20
40.1046613352
 30
0.0
 10
2.5378096659
 20
40.1583736404
 30
0.0
 10
2.5686741141
 20
40.184310216
 30
0.0
 10
2.5851646643
 20
40.1938316645
 30
0.0
  0
SPLINE
  5
354
100
AcDbEntity
  8
0
100
AcDbSpline
 62
7
  6
CONTINUOUS
 70
0
 71
3
 72
11
 73
7
 74
0
 42
0.0000001
 43
0.0000001
 44
0.0000000001
 40
0.0
 40
0.0
 40
0.0
 40
0.0
 40
0.2898089725
 40
0.5490451958
 40
0.7822275044
 40
1.0
 40
1.0
 40
1.0
 40
1.0
 10
-68.2290547151
 20
80.7924225954
 30
0.0
 10
-68.2290547151
 20
80.8177634024
 30
0.0
 10
-68.2252287502
 20
80.8659378186
 30
0.0
 10
-68.2056958844
 20
80.932120668
 30
0.0
 10
-68.1728684527
 20
80.9858329732
 30
0.0
 10
-68.1420040046
 20
81.0117695488
 30
0.0
 10
-68.1255134544
 20
81.0212909973
 30
0.0
  0
SPLINE
  5
355
100
AcDbEntity
  8
0
100
AcDbSpline
 62
7
  6
CONTINUOUS
 70
0
 71
3
 72
11
 73
7
 74
0
 42
0.0000001
 43
0.0000001
 44
0.0000000001
 40
0.0
 40
0.0
 40
0.0
 40
0.0
 40
0.2372134916
 40
0.4999938932
 40
0.7627776188
 40
1.0
 40
1.0
 40
1.0
 40
1.0
 10
-61.1933422423
 20
-10.3857888546
 30
0.0
 10
-61.1933422423
 20
-10.4437420071
 30
0.0
 10
-61.2150798522
 20
-10.5659733064
 30
0.0
 10
-61.2908508855
 20
-10.7377360022
 30
0.0
 10
-61.4017177537
 20
-10.889238577
 30
0.0
 10
-61.4967056582
 20
-10.9691822272
 30
0.0
 10
-61.5468956329
 20
-10.9981612896
 30
0.0
  0
SPLINE
  5
356
100
AcDbEntity
  8
0
100
AcDbSpline
 62
7
  6
CONTINUOUS
 70
0
 71
3
 72
12
 73
8
 74
0
 42
0.0000001
 43
0.0000001
 44
0.0000000001
 40
0.0
 40
0.0
 40
0.0
 40
0.0
 40
0.2300566426
 40
0.4758637883
 40
0.6047054666
 40
0.7373356487
 40
1.0
 40
1.0
 40
1.0
 40
1.0
 10
-60.3094587658
 20
-2.5069000022
 30
0.0
 10
-60.3094587658
 20
-2.4749598002
 30
0.0
 10
-60.3138152138
 20
-2.4088317611
 30
0.0
 10
-60.3299183066
 20
-2.3261956515
 30
0.0
 10
-60.3529431314
 20
-2.2592221002
 30
0.0
 10
-60.3844860395
 20
-2.1946354672
 30
0.0
 10
-60.4269789785
 20
-2.1493852948
 30
0.0
 10
-60.462332281
 20
-2.1404404382
 30
0.0
  0
SPLINE
  5
357
100
AcDbEntity
  8
0
100
AcDbSpline
 62
7
  6
CONTINUOUS
 70
0
 71
3
 72
9
 73
5
 74
0
 42
0.0000001
 43
0.0000001
 44
0.0000000001
 40
0.0
 40
0.0
 40
0.0
 40
0.0
 40
0.5185498666
 40
1.0
 40
1.0
 40
1.0
 40
1.0
 10
-60.462332281
 20
-2.1404404382
 30
0.0
 10
-60.5572982614
 20
-2.1164127797
 30
0.0
 10
-60.7494849035
 20
-2.1050017685
 30
0.0
 10
-60.9378017755
 20
-2.1552464338
 30
0.0
 10
-61.016565547
 20
-2.2007236484
 30
0.0
  0
SPLINE
  5
358
100
AcDbEntity
  8
ASSI
100
AcDbSpline
 62
7
  6
CONTINUOUS
 70
0
 71
3
 72
11
 73
7
 74
0
 42
0.0000001
 43
0.0000001
 44
0.0000000001
 40
0.0
 40
0.0
 40
0.0
 40
0.0
 40
0.2177724838
 40
0.450951557
 40
0.7102010164
 40
1.0
 40
1.0
 40
1.0
 40
1.0
 10
3.8996188254
 20
-28.4805507248
 30
0.0
 10
4.0397887313
 20
-28.3996183942
 30
0.0
 10
4.3021355388
 20
-28.1791611161
 30
0.0
 10
4.5811852869
 20
-27.7226054582
 30
0.0
 10
4.7471936509
 20
-27.1600428957
 30
0.0
 10
4.7797204424
 20
-26.7505594459
 30
0.0
 10
4.7797204424
 20
-26.5351697232
 30
0.0
  0
SPLINE
  5
359
100
AcDbEntity
  8
ASSI
100
AcDbSpline
 62
7
  6
CONTINUOUS
 70
0
 71
3
 72
11
 73
7
 74
0
 42
0.0000001
 43
0.0000001
 44
0.0000000001
 40
0.0
 40
0.0
 40
0.0
 40
0.0
 40
0.2177724838
 40
0.450951557
 40
0.7102010164
 40
1.0
 40
1.0
 40
1.0
 40
1.0
 10
-10.2425167983
 20
-20.3150588582
 30
0.0
 10
-10.1023468924
 20
-20.2341265276
 30
0.0
 10
-9.8400000849
 20
-20.0136692495
 30
0.0
 10
-9.5609503368
 20
-19.5571135916
 30
0.0
 10
-9.3949419729
 20
-18.9945510291
 30
0.0
 10
-9.3624151813
 20
-18.5850675793
 30
0.0
 10
-9.3624151813
 20
-18.3696778567
 30
0.0
  0
SPLINE
  5
35A
100
AcDbEntity
  8
ASSI
100
AcDbSpline
 62
7
  6
CONTINUOUS
 70
0
 71
3
 72
11
 73
7
 74
0
 42
0.0000001
 43
0.0000001
 44
0.0000000001
 40
0.0
 40
0.0
 40
0.0
 40
0.0
 40
0.2177724838
 40
0.450951557
 40
0.7102010164
 40
1.0
 40
1.0
 40
1.0
 40
1.0
 10
-45.5978558576
 20
0.0986708082
 30
0.0
 10
-45.4576859517
 20
0.1796031388
 30
0.0
 10
-45.1953391443
 20
0.4000604169
 30
0.0
 10
-44.9162893962
 20
0.8566160748
 30
0.0
 10
-44.7502810322
 20
1.4191786373
 30
0.0
 10
-44.7177542407
 20
1.8286620871
 30
0.0
 10
-44.7177542407
 20
2.0440518097
 30
0.0
  0
SPLINE
  5
35B
100
AcDbEntity
  8
ASSI
100
AcDbSpline
 62
7
  6
CONTINUOUS
 70
0
 71
3
 72
11
 73
7
 74
0
 42
0.0000001
 43
0.0000001
 44
0.0000000001
 40
0.0
 40
0.0
 40
0.0
 40
0.0
 40
0.2177724838
 40
0.450951557
 40
0.7102010164
 40
1.0
 40
1.0
 40
1.0
 40
1.0
 10
-31.4557202339
 20
-8.0668210584
 30
0.0
 10
-31.315550328
 20
-7.9858887278
 30
0.0
 10
-31.0532035205
 20
-7.7654314497
 30
0.0
 10
-30.7741537724
 20
-7.3088757918
 30
0.0
 10
-30.6081454085
 20
-6.7463132293
 30
0.0
 10
-30.5756186169
 20
-6.3368297795
 30
0.0
 10
-30.5756186169
 20
-6.1214400569
 30
0.0
  0
SPLINE
  5
35C
100
AcDbEntity
  8
ASSI
100
AcDbSpline
 62
7
  6
CONTINUOUS
 70
0
 71
3
 72
9
 73
5
 74
0
 42
0.0000001
 43
0.0000001
 44
0.0000000001
 40
0.0
 40
0.0
 40
0.0
 40
0.0
 40
0.4888855946
 40
1.0
 40
1.0
 40
1.0
 40
1.0
 10
30.6212973814
 20
-32.0422628803
 30
0.0
 10
30.6504938616
 20
-32.0254083449
 30
0.0
 10
30.705706842
 20
-31.9825441077
 30
0.0
 10
30.7478928914
 20
-31.9270407791
 30
0.0
 10
30.766037782
 20
-31.8968253401
 30
0.0
  0
SPLINE
  5
35D
100
AcDbEntity
  8
ASSI
100
AcDbSpline
 62
7
  6
CONTINUOUS
 70
0
 71
3
 72
9
 73
5
 74
0
 42
0.0000001
 43
0.0000001
 44
0.0000000001
 40
0.0
 40
0.0
 40
0.0
 40
0.0
 40
0.4888855946
 40
1.0
 40
1.0
 40
1.0
 40
1.0
 10
-4.7340416779
 20
-11.6285332139
 30
0.0
 10
-4.7048451977
 20
-11.6116786785
 30
0.0
 10
-4.6496322173
 20
-11.5688144413
 30
0.0
 10
-4.6074461679
 20
-11.5133111127
 30
0.0
 10
-4.5893012773
 20
-11.4830956737
 30
0.0
  0
SPLINE
  5
35E
100
AcDbEntity
  8
ASSI
100
AcDbSpline
 62
7
  6
CONTINUOUS
 70
0
 71
3
 72
9
 73
5
 74
0
 42
0.0000001
 43
0.0000001
 44
0.0000000001
 40
0.0
 40
0.0
 40
0.0
 40
0.0
 40
0.4888855946
 40
1.0
 40
1.0
 40
1.0
 40
1.0
 10
-40.0893807372
 20
8.7851964525
 30
0.0
 10
-40.0601842571
 20
8.8020509879
 30
0.0
 10
-40.0049712767
 20
8.844915225
 30
0.0
 10
-39.9627852273
 20
8.9004185537
 30
0.0
 10
-39.9446403367
 20
8.9306339927
 30
0.0
  0
SPLINE
  5
35F
100
AcDbEntity
  8
ASSI
100
AcDbSpline
 62
7
  6
CONTINUOUS
 70
0
 71
3
 72
11
 73
7
 74
0
 42
0.0000001
 43
0.0000001
 44
0.0000000001
 40
0.0
 40
0.0
 40
0.0
 40
0.0
 40
0.2177725752
 40
0.450952672
 40
0.7101953065
 40
1.0
 40
1.0
 40
1.0
 40
1.0
 10
-57.2224179404
 20
-1.9139088596
 30
0.0
 10
-57.1960357347
 20
-1.8986724759
 30
0.0
 10
-57.1466569743
 20
-1.8571745552
 30
0.0
 10
-57.0941358176
 20
-1.7712371669
 30
0.0
 10
-57.0628896587
 20
-1.6653476475
 30
0.0
 10
-57.0567675724
 20
-1.5882718899
 30
0.0
 10
-57.0567675724
 20
-1.5477289196
 30
0.0
  0
SPLINE
  5
360
100
AcDbEntity
  8
0
100
AcDbSpline
 62
7
  6
CONTINUOUS
 70
0
 71
3
 72
10
 73
6
 74
0
 42
0.0000001
 43
0.0000001
 44
0.0000000001
 40
0.0
 40
0.0
 40
0.0
 40
0.0
 40
0.2184362973
 40
0.452329354
 40
1.0
 40
1.0
 40
1.0
 40
1.0
 10
-60.3871147661
 20
-2.6785513351
 30
0.0
 10
-60.3747468429
 20
-2.6714102554
 30
0.0
 10
-60.3515913952
 20
-2.651951287
 30
0.0
 10
-60.3170784683
 20
-2.5954459477
 30
0.0
 10
-60.3094587658
 20
-2.5427069859
 30
0.0
 10
-60.3094587658
 20
-2.5069000022
 30
0.0
  0
SPLINE
  5
361
100
AcDbEntity
  8
ASSI
100
AcDbSpline
 62
7
  6
CONTINUOUS
 70
0
 71
3
 72
15
 73
11
 74
0
 42
0.0000001
 43
0.0000001
 44
0.0000000001
 40
0.0
 40
0.0
 40
0.0
 40
0.0
 40
0.1288179957
 40
0.2705656299
 40
0.4178830858
 40
0.5623884875
 40
0.6962058276
 40
0.8135981026
 40
0.9130679578
 40
1.0
 40
1.0
 40
1.0
 40
1.0
 10
-57.0567675724
 20
-1.5477289196
 30
0.0
 10
-57.0567675724
 20
-1.4793522117
 30
0.0
 10
-57.0759012302
 20
-1.3355720762
 30
0.0
 10
-57.1472938979
 20
-1.1244588092
 30
0.0
 10
-57.2573435438
 20
-0.9210757714
 30
0.0
 10
-57.3971076049
 20
-0.7421547768
 30
0.0
 10
-57.5554243358
 20
-0.6019687701
 30
0.0
 10
-57.7205254067
 20
-0.5117866884
 30
0.0
 10
-57.8821307363
 20
-0.479426034
 30
0.0
 10
-57.982529543
 20
-0.5052325905
 30
0.0
 10
-58.0224880542
 20
-0.5283096303
 30
0.0
  0
SPLINE
  5
362
100
AcDbEntity
  8
ASSI
100
AcDbSpline
 62
7
  6
CONTINUOUS
 70
0
 71
3
 72
11
 73
7
 74
0
 42
0.0000001
 43
0.0000001
 44
0.0000000001
 40
0.0
 40
0.0
 40
0.0
 40
0.0
 40
0.2898103824
 40
0.5490571703
 40
0.7822327604
 40
1.0
 40
1.0
 40
1.0
 40
1.0
 10
28.4677976121
 20
19.7573732307
 30
0.0
 10
28.4184110537
 20
19.7858884106
 30
0.0
 10
28.3202166819
 20
19.8326397511
 30
0.0
 10
28.1692531458
 20
19.8690484189
 30
0.0
 10
28.0276346758
 20
19.865499275
 30
0.0
 10
27.9423611622
 20
19.8345262907
 30
0.0
 10
27.9052531986
 20
19.8130966225
 30
0.0
  0
SPLINE
  5
363
100
AcDbEntity
  8
ASSI
100
AcDbSpline
 62
7
  6
CONTINUOUS
 70
0
 71
3
 72
11
 73
7
 74
0
 42
0.0000001
 43
0.0000001
 44
0.0000000001
 40
0.0
 40
0.0
 40
0.0
 40
0.0
 40
0.2898103824
 40
0.5490571703
 40
0.7822327604
 40
1.0
 40
1.0
 40
1.0
 40
1.0
 10
-6.8875414472
 20
40.1711028971
 30
0.0
 10
-6.9369280056
 20
40.199618077
 30
0.0
 10
-7.0351223774
 20
40.2463694175
 30
0.0
 10
-7.1860859135
 20
40.2827780853
 30
0.0
 10
-7.3277043835
 20
40.2792289414
 30
0.0
 10
-7.4129778972
 20
40.2482559571
 30
0.0
 10
-7.4500858607
 20
40.2268262889
 30
0.0
  0
SPLINE
  5
364
100
AcDbEntity
  8
ASSI
100
AcDbSpline
 62
7
  6
CONTINUOUS
 70
0
 71
3
 72
14
 73
10
 74
0
 42
0.0000001
 43
0.0000001
 44
0.0000000001
 40
0.0
 40
0.0
 40
0.0
 40
0.0
 40
0.2973851107
 40
0.4435826973
 40
0.5810235593
 40
0.7057721527
 40
0.8158294244
 40
0.9122131771
 40
1.0
 40
1.0
 40
1.0
 40
1.0
 10
30.766037782
 20
-31.0558696771
 30
0.0
 10
30.7077595994
 20
-30.8915248415
 30
0.0
 10
30.5849618635
 20
-30.6573423431
 30
0.0
 10
30.3693367273
 20
-30.3926469684
 30
0.0
 10
30.1915790779
 20
-30.2306035875
 30
0.0
 10
30.0062995354
 20
-30.1127738262
 30
0.0
 10
29.8220396793
 20
-30.0454910858
 30
0.0
 10
29.6469132533
 20
-30.033887127
 30
0.0
 10
29.5408573865
 20
-30.0679830979
 30
0.0
 10
29.4962783582
 20
-30.0937176662
 30
0.0
  0
SPLINE
  5
365
100
AcDbEntity
  8
ASSI
100
AcDbSpline
 62
7
  6
CONTINUOUS
 70
0
 71
3
 72
14
 73
10
 74
0
 42
0.0000001
 43
0.0000001
 44
0.0000000001
 40
0.0
 40
0.0
 40
0.0
 40
0.0
 40
0.2973851107
 40
0.4435826973
 40
0.5810235593
 40
0.7057721527
 40
0.8158294244
 40
0.9122131771
 40
1.0
 40
1.0
 40
1.0
 40
1.0
 10
-4.5893012773
 20
-10.6421400107
 30
0.0
 10
-4.6475794599
 20
-10.4777951751
 30
0.0
 10
-4.7703771958
 20
-10.2436126767
 30
0.0
 10
-4.986002332
 20
-9.978917302
 30
0.0
 10
-5.1637599815
 20
-9.8168739211
 30
0.0
 10
-5.3490395239
 20
-9.6990441599
 30
0.0
 10
-5.5332993801
 20
-9.6317614194
 30
0.0
 10
-5.7084258061
 20
-9.6201574606
 30
0.0
 10
-5.8144816728
 20
-9.6542534315
 30
0.0
 10
-5.8590607011
 20
-9.6799879998
 30
0.0
  0
SPLINE
  5
366
100
AcDbEntity
  8
ASSI
100
AcDbSpline
 62
7
  6
CONTINUOUS
 70
0
 71
3
 72
9
 73
5
 74
0
 42
0.0000001
 43
0.0000001
 44
0.0000000001
 40
0.0
 40
0.0
 40
0.0
 40
0.0
 40
0.5311883213
 40
1.0
 40
1.0
 40
1.0
 40
1.0
 10
65.2373299649
 20
-50.4840831279
 30
0.0
 10
65.1705969198
 20
-50.4631178966
 30
0.0
 10
65.0375661895
 20
-50.4404363641
 30
0.0
 10
64.9050830025
 20
-50.4765827355
 30
0.0
 10
64.8516174175
 20
-50.5074473326
 30
0.0
  0
SPLINE
  5
367
100
AcDbEntity
  8
ASSI
100
AcDbSpline
 62
7
  6
CONTINUOUS
 70
0
 71
3
 72
11
 73
7
 74
0
 42
0.0000001
 43
0.0000001
 44
0.0000000001
 40
0.0
 40
0.0
 40
0.0
 40
0.0
 40
0.2898103824
 40
0.5490571703
 40
0.7822327604
 40
1.0
 40
1.0
 40
1.0
 40
1.0
 10
-42.2428805065
 20
60.5848325635
 30
0.0
 10
-42.2922670649
 20
60.6133477434
 30
0.0
 10
-42.3904614367
 20
60.6600990839
 30
0.0
 10
-42.5414249728
 20
60.6965077516
 30
0.0
 10
-42.6830434429
 20
60.6929586077
 30
0.0
 10
-42.7683169565
 20
60.6619856235
 30
0.0
 10
-42.80542492
 20
60.6405559553
 30
0.0
  0
SPLINE
  5
368
100
AcDbEntity
  8
ASSI
100
AcDbSpline
 62
7
  6
CONTINUOUS
 70
0
 71
3
 72
14
 73
10
 74
0
 42
0.0000001
 43
0.0000001
 44
0.0000000001
 40
0.0
 40
0.0
 40
0.0
 40
0.0
 40
0.2973851107
 40
0.4435826973
 40
0.5810235593
 40
0.7057721527
 40
0.8158294244
 40
0.9122131771
 40
1.0
 40
1.0
 40
1.0
 40
1.0
 10
-39.9446403367
 20
9.7715896557
 30
0.0
 10
-40.0029185192
 20
9.9359344912
 30
0.0
 10
-40.1257162551
 20
10.1701169897
 30
0.0
 10
-40.3413413913
 20
10.4348123644
 30
0.0
 10
-40.5190990408
 20
10.5968557452
 30
0.0
 10
-40.7043785832
 20
10.7146855065
 30
0.0
 10
-40.8886384394
 20
10.781968247
 30
0.0
 10
-41.0637648654
 20
10.7935722058
 30
0.0
 10
-41.1698207321
 20
10.7594762349
 30
0.0
 10
-41.2143997605
 20
10.7337416666
 30
0.0
  0
SPLINE
  5
369
100
AcDbEntity
  8
ASSI
100
AcDbSpline
 62
7
  6
CONTINUOUS
 70
0
 71
3
 72
11
 73
7
 74
0
 42
0.0000001
 43
0.0000001
 44
0.0000000001
 40
0.0
 40
0.0
 40
0.0
 40
0.0
 40
0.22871576
 40
0.480107866
 40
0.7418996691
 40
1.0
 40
1.0
 40
1.0
 40
1.0
 10
4.7797204424
 20
-26.5351697232
 30
0.0
 10
4.7797204424
 20
-26.1822334261
 30
0.0
 10
4.6837327142
 20
-25.4405352822
 30
0.0
 10
4.3235047945
 20
-24.3482849042
 30
0.0
 10
3.7665599526
 20
-23.2906864872
 30
0.0
 10
3.2800791143
 20
-22.6470231768
 30
0.0
 10
3.0120558082
 20
-22.3524205932
 30
0.0
  0
SPLINE
  5
36A
100
AcDbEntity
  8
ASSI
100
AcDbSpline
 62
7
  6
CONTINUOUS
 70
0
 71
3
 72
17
 73
13
 74
0
 42
0.0000001
 43
0.0000001
 44
0.0000000001
 40
0.0
 40
0.0
 40
0.0
 40
0.0
 40
0.1286778722
 40
0.2702704708
 40
0.4174273774
 40
0.5617758037
 40
0.6954484143
 40
0.812714398
 40
0.8646789927
 40
0.91251237
 40
0.9571410381
 40
1.0
 40
1.0
 40
1.0
 40
1.0
 10
-9.3624151813
 20
-18.3696778567
 30
0.0
 10
-9.3624151813
 20
-18.0064319913
 30
0.0
 10
-9.4640541269
 20
-17.2426161139
 30
0.0
 10
-9.8433338604
 20
-16.1210824379
 30
0.0
 10
-10.4278877142
 20
-15.0406733739
 30
0.0
 10
-11.1706042264
 20
-14.0899840346
 30
0.0
 10
-12.0108509774
 20
-13.3458263436
 30
0.0
 10
-12.7713705116
 20
-12.9299844109
 30
0.0
 10
-13.3662802583
 20
-12.7716983578
 30
0.0
 10
-13.7757223355
 20
-12.7415909515
 30
0.0
 10
-14.1569799441
 20
-12.7974609948
 30
0.0
 10
-14.3879451319
 20
-12.893466433
 30
0.0
 10
-14.4927212044
 20
-12.9539628119
 30
0.0
  0
SPLINE
  5
36B
100
AcDbEntity
  8
ASSI
100
AcDbSpline
 62
7
  6
CONTINUOUS
 70
0
 71
3
 72
17
 73
13
 74
0
 42
0.0000001
 43
0.0000001
 44
0.0000000001
 40
0.0
 40
0.0
 40
0.0
 40
0.0
 40
0.1286778722
 40
0.2702704708
 40
0.4174273774
 40
0.5617758037
 40
0.6954484143
 40
0.812714398
 40
0.8646789927
 40
0.91251237
 40
0.9571410381
 40
1.0
 40
1.0
 40
1.0
 40
1.0
 10
-44.7177542407
 20
2.0440518097
 30
0.0
 10
-44.7177542407
 20
2.4072976751
 30
0.0
 10
-44.8193931862
 20
3.1711135525
 30
0.0
 10
-45.1986729197
 20
4.2926472285
 30
0.0
 10
-45.7832267735
 20
5.3730562925
 30
0.0
 10
-46.5259432858
 20
6.3237456318
 30
0.0
 10
-47.3661900367
 20
7.0679033227
 30
0.0
 10
-48.1267095709
 20
7.4837452555
 30
0.0
 10
-48.7216193176
 20
7.6420313086
 30
0.0
 10
-49.1310613949
 20
7.6721387148
 30
0.0
 10
-49.5123190034
 20
7.6162686716
 30
0.0
 10
-49.7432841913
 20
7.5202632334
 30
0.0
 10
-49.8480602638
 20
7.4597668545
 30
0.0
  0
SPLINE
  5
36C
100
AcDbEntity
  8
ASSI
100
AcDbSpline
 62
7
  6
CONTINUOUS
 70
0
 71
3
 72
11
 73
7
 74
0
 42
0.0000001
 43
0.0000001
 44
0.0000000001
 40
0.0
 40
0.0
 40
0.0
 40
0.0
 40
0.22871576
 40
0.480107866
 40
0.7418996691
 40
1.0
 40
1.0
 40
1.0
 40
1.0
 10
-30.5756186169
 20
-6.1214400569
 30
0.0
 10
-30.5756186169
 20
-5.7685037597
 30
0.0
 10
-30.6716063452
 20
-5.0268056158
 30
0.0
 10
-31.0318342648
 20
-3.9345552378
 30
0.0
 10
-31.5887791067
 20
-2.8769568208
 30
0.0
 10
-32.075259945
 20
-2.2332935104
 30
0.0
 10
-32.3432832511
 20
-1.9386909268
 30
0.0
  0
SPLINE
  5
36D
100
AcDbEntity
  8
ASSI
100
AcDbSpline
 62
7
  6
CONTINUOUS
 70
0
 71
3
 72
11
 73
7
 74
0
 42
0.0000001
 43
0.0000001
 44
0.0000000001
 40
0.0
 40
0.0
 40
0.0
 40
0.0
 40
0.2177725848
 40
0.450950417
 40
0.7101951499
 40
1.0
 40
1.0
 40
1.0
 40
1.0
 10
64.8516174175
 20
-50.5074473326
 30
0.0
 10
64.814510628
 20
-50.528868329
 30
0.0
 10
64.7450619776
 20
-50.5872251092
 30
0.0
 10
64.671189454
 20
-50.7080781487
 30
0.0
 10
64.6272425804
 20
-50.8569965054
 30
0.0
 10
64.6186318003
 20
-50.9653930296
 30
0.0
 10
64.6186318003
 20
-51.0224110221
 30
0.0
  0
SPLINE
  5
36E
100
AcDbEntity
  8
ASSI
100
AcDbSpline
 62
7
  6
CONTINUOUS
 70
0
 71
3
 72
16
 73
12
 74
0
 42
0.0000001
 43
0.0000001
 44
0.0000000001
 40
0.0
 40
0.0
 40
0.0
 40
0.0
 40
0.0428775347
 40
0.0875256572
 40
0.1869319122
 40
0.3042477726
 40
0.4379765866
 40
0.5823859754
 40
0.7296063478
 40
0.8712624785
 40
1.0
 40
1.0
 40
1.0
 40
1.0
 10
-42.80542492
 20
60.6405559553
 30
0.0
 10
-42.8331570819
 20
60.6245407669
 30
0.0
 10
-42.8857271979
 20
60.5842971954
 30
0.0
 10
-42.9730787597
 20
60.4738262275
 30
0.0
 10
-43.0381629602
 20
60.2842540895
 30
0.0
 10
-43.0439292624
 20
60.0200089857
 30
0.0
 10
-42.984663071
 20
59.7285885056
 30
0.0
 10
-42.8649867079
 20
59.4326204443
 30
0.0
 10
-42.6946907995
 20
59.155611267
 30
0.0
 10
-42.4877883902
 20
58.9202451776
 30
0.0
 10
-42.3261487322
 20
58.7958524706
 30
0.0
 10
-42.2428805065
 20
58.7477744407
 30
0.0
  0
SPLINE
  5
36F
100
AcDbEntity
  8
ASSI
100
AcDbSpline
 62
7
  6
CONTINUOUS
 70
0
 71
3
 72
11
 73
7
 74
0
 42
0.0000001
 43
0.0000001
 44
0.0000000001
 40
0.0
 40
0.0
 40
0.0
 40
0.0
 40
0.2177725848
 40
0.450950417
 40
0.7101951499
 40
1.0
 40
1.0
 40
1.0
 40
1.0
 10
-41.2143997605
 20
10.7337416666
 30
0.0
 10
-41.25150655
 20
10.7123206701
 30
0.0
 10
-41.3209552003
 20
10.65396389
 30
0.0
 10
-41.394827724
 20
10.5331108505
 30
0.0
 10
-41.4387745976
 20
10.3841924937
 30
0.0
 10
-41.4473853777
 20
10.2757959696
 30
0.0
 10
-41.4473853777
 20
10.218777977
 30
0.0
  0
SPLINE
  5
370
100
AcDbEntity
  8
ASSI
100
AcDbSpline
 62
7
  6
CONTINUOUS
 70
0
 71
3
 72
11
 73
7
 74
0
 42
0.0000001
 43
0.0000001
 44
0.0000000001
 40
0.0
 40
0.0
 40
0.0
 40
0.0
 40
0.2177725752
 40
0.450952672
 40
0.7101953065
 40
1.0
 40
1.0
 40
1.0
 40
1.0
 10
-58.0224880542
 20
-0.5283096303
 30
0.0
 10
-58.0488702599
 20
-0.5435460141
 30
0.0
 10
-58.0982490203
 20
-0.5850439348
 30
0.0
 10
-58.1507701771
 20
-0.670981323
 30
0.0
 10
-58.1820163359
 20
-0.7768708424
 30
0.0
 10
-58.1881384223
 20
-0.8539466001
 30
0.0
 10
-58.1881384223
 20
-0.8944895703
 30
0.0
  0
SPLINE
  5
371
100
AcDbEntity
  8
ASSI
100
AcDbSpline
 62
7
  6
CONTINUOUS
 70
0
 71
3
 72
15
 73
11
 74
0
 42
0.0000001
 43
0.0000001
 44
0.0000000001
 40
0.0
 40
0.0
 40
0.0
 40
0.0
 40
0.1288179957
 40
0.2705656299
 40
0.4178830858
 40
0.5623884875
 40
0.6962058276
 40
0.8135981026
 40
0.9130679578
 40
1.0
 40
1.0
 40
1.0
 40
1.0
 10
-58.1881384223
 20
-0.8944895703
 30
0.0
 10
-58.1881384223
 20
-0.9628662782
 30
0.0
 10
-58.1690047645
 20
-1.1066464137
 30
0.0
 10
-58.0976120968
 20
-1.3177596807
 30
0.0
 10
-57.9875624508
 20
-1.5211427185
 30
0.0
 10
-57.8477983897
 20
-1.7000637131
 30
0.0
 10
-57.6894816589
 20
-1.8402497198
 30
0.0
 10
-57.5243805879
 20
-1.9304318016
 30
0.0
 10
-57.3627752584
 20
-1.9627924559
 30
0.0
 10
-57.2623764517
 20
-1.9369858995
 30
0.0
 10
-57.2224179404
 20
-1.9139088596
 30
0.0
  0
SPLINE
  5
372
100
AcDbEntity
  8
ASSI
100
AcDbSpline
 62
7
  6
CONTINUOUS
 70
0
 71
3
 72
16
 73
12
 74
0
 42
0.0000001
 43
0.0000001
 44
0.0000000001
 40
0.0
 40
0.0
 40
0.0
 40
0.0
 40
0.1287328232
 40
0.2703866019
 40
0.4176068547
 40
0.5620177246
 40
0.6957487396
 40
0.8130666148
 40
0.9124740265
 40
0.9571223782
 40
1.0
 40
1.0
 40
1.0
 40
1.0
 10
29.263292741
 20
-30.6086813557
 30
0.0
 10
29.263292741
 20
-30.7048330434
 30
0.0
 10
29.2901987662
 20
-30.9070168438
 30
0.0
 10
29.3905854985
 20
-31.2038884933
 30
0.0
 10
29.545345622
 20
-31.4898815301
 30
0.0
 10
29.7418387006
 20
-31.7415157184
 30
0.0
 10
29.9646003668
 20
-31.9385567163
 30
0.0
 10
30.1963426899
 20
-32.0656860172
 30
0.0
 10
30.3930707751
 20
-32.1041035274
 30
0.0
 10
30.5324230604
 20
-32.0836837113
 30
0.0
 10
30.5935614849
 20
-32.0582742504
 30
0.0
 10
30.6212973814
 20
-32.0422628803
 30
0.0
  0
SPLINE
  5
373
100
AcDbEntity
  8
ASSI
100
AcDbSpline
 62
7
  6
CONTINUOUS
 70
0
 71
3
 72
16
 73
12
 74
0
 42
0.0000001
 43
0.0000001
 44
0.0000000001
 40
0.0
 40
0.0
 40
0.0
 40
0.0
 40
0.1287328232
 40
0.2703866019
 40
0.4176068547
 40
0.5620177246
 40
0.6957487396
 40
0.8130666148
 40
0.9124740265
 40
0.9571223782
 40
1.0
 40
1.0
 40
1.0
 40
1.0
 10
-6.0920463183
 20
-10.1949516894
 30
0.0
 10
-6.0920463183
 20
-10.291103377
 30
0.0
 10
-6.0651402932
 20
-10.4932871775
 30
0.0
 10
-5.9647535608
 20
-10.7901588269
 30
0.0
 10
-5.8099934373
 20
-11.0761518637
 30
0.0
 10
-5.6135003588
 20
-11.327786052
 30
0.0
 10
-5.3907386925
 20
-11.5248270499
 30
0.0
 10
-5.1589963694
 20
-11.6519563508
 30
0.0
 10
-4.9622682842
 20
-11.690373861
 30
0.0
 10
-4.8229159989
 20
-11.669954045
 30
0.0
 10
-4.7617775744
 20
-11.644544584
 30
0.0
 10
-4.7340416779
 20
-11.6285332139
 30
0.0
  0
SPLINE
  5
374
100
AcDbEntity
  8
ASSI
100
AcDbSpline
 62
7
  6
CONTINUOUS
 70
0
 71
3
 72
11
 73
7
 74
0
 42
0.0000001
 43
0.0000001
 44
0.0000000001
 40
0.0
 40
0.0
 40
0.0
 40
0.0
 40
0.2316675796
 40
0.4877286611
 40
0.7503131626
 40
1.0
 40
1.0
 40
1.0
 40
1.0
 10
64.6186318003
 20
-51.0224110221
 30
0.0
 10
64.6186318003
 20
-51.1331549949
 30
0.0
 10
64.6541880097
 20
-51.3665381861
 30
0.0
 10
64.7830823589
 20
-51.7034924815
 30
0.0
 10
64.9776222291
 20
-52.0174758828
 30
0.0
 10
65.1459646051
 20
-52.1983934801
 30
0.0
 10
65.2373299649
 20
-52.2751960486
 30
0.0
  0
SPLINE
  5
375
100
AcDbEntity
  8
ASSI
100
AcDbSpline
 62
7
  6
CONTINUOUS
 70
0
 71
3
 72
16
 73
12
 74
0
 42
0.0000001
 43
0.0000001
 44
0.0000000001
 40
0.0
 40
0.0
 40
0.0
 40
0.0
 40
0.1287328232
 40
0.2703866019
 40
0.4176068547
 40
0.5620177246
 40
0.6957487396
 40
0.8130666148
 40
0.9124740265
 40
0.9571223782
 40
1.0
 40
1.0
 40
1.0
 40
1.0
 10
-41.4473853777
 20
10.218777977
 30
0.0
 10
-41.4473853777
 20
10.1226262894
 30
0.0
 10
-41.4204793525
 20
9.9204424889
 30
0.0
 10
-41.3200926201
 20
9.6235708394
 30
0.0
 10
-41.1653324967
 20
9.3375778027
 30
0.0
 10
-40.9688394181
 20
9.0859436144
 30
0.0
 10
-40.7460777518
 20
8.8889026165
 30
0.0
 10
-40.5143354287
 20
8.7617733156
 30
0.0
 10
-40.3176073436
 20
8.7233558054
 30
0.0
 10
-40.1782550582
 20
8.7437756214
 30
0.0
 10
-40.1171166337
 20
8.7691850824
 30
0.0
 10
-40.0893807372
 20
8.7851964525
 30
0.0
  0
SPLINE
  5
376
100
AcDbEntity
  8
ASSI
100
AcDbSpline
 62
7
  6
CONTINUOUS
 70
0
 71
3
 72
9
 73
5
 74
0
 42
0.0000001
 43
0.0000001
 44
0.0000000001
 40
0.0
 40
0.0
 40
0.0
 40
0.0
 40
0.5146980677
 40
1.0
 40
1.0
 40
1.0
 40
1.0
 10
3.0120558082
 20
-28.6766640418
 30
0.0
 10
3.1694446126
 20
-28.6854159846
 30
0.0
 10
3.4793649654
 20
-28.6657643909
 30
0.0
 10
3.7709043491
 20
-28.5548688353
 30
0.0
 10
3.8996188254
 20
-28.4805507248
 30
0.0
  0
SPLINE
  5
377
100
AcDbEntity
  8
ASSI
100
AcDbSpline
 62
7
  6
CONTINUOUS
 70
0
 71
3
 72
17
 73
13
 74
0
 42
0.0000001
 43
0.0000001
 44
0.0000000001
 40
0.0
 40
0.0
 40
0.0
 40
0.0
 40
0.1286778722
 40
0.2702704708
 40
0.4174273774
 40
0.5617758037
 40
0.6954484143
 40
0.812714398
 40
0.8646789927
 40
0.91251237
 40
0.9571410381
 40
1.0
 40
1.0
 40
1.0
 40
1.0
 10
-15.3728228214
 20
-14.8993438134
 30
0.0
 10
-15.3728228214
 20
-15.2625896788
 30
0.0
 10
-15.2711838758
 20
-16.0264055562
 30
0.0
 10
-14.8919041424
 20
-17.1479392322
 30
0.0
 10
-14.3073502886
 20
-18.2283482962
 30
0.0
 10
-13.5646337763
 20
-19.1790376355
 30
0.0
 10
-12.7243870253
 20
-19.9231953264
 30
0.0
 10
-11.9638674912
 20
-20.3390372592
 30
0.0
 10
-11.3689577444
 20
-20.4973233123
 30
0.0
 10
-10.9595156672
 20
-20.5274307186
 30
0.0
 10
-10.5782580587
 20
-20.4715606753
 30
0.0
 10
-10.3472928708
 20
-20.3755552371
 30
0.0
 10
-10.2425167983
 20
-20.3150588582
 30
0.0
  0
SPLINE
  5
378
100
AcDbEntity
  8
ASSI
100
AcDbSpline
 62
7
  6
CONTINUOUS
 70
0
 71
3
 72
17
 73
13
 74
0
 42
0.0000001
 43
0.0000001
 44
0.0000000001
 40
0.0
 40
0.0
 40
0.0
 40
0.0
 40
0.1286778722
 40
0.2702704708
 40
0.4174273774
 40
0.5617758037
 40
0.6954484143
 40
0.812714398
 40
0.8646789927
 40
0.91251237
 40
0.9571410381
 40
1.0
 40
1.0
 40
1.0
 40
1.0
 10
-50.7281618807
 20
5.514385853
 30
0.0
 10
-50.7281618807
 20
5.1511399876
 30
0.0
 10
-50.6265229352
 20
4.3873241102
 30
0.0
 10
-50.2472432017
 20
3.2657904342
 30
0.0
 10
-49.6626893479
 20
2.1853813702
 30
0.0
 10
-48.9199728356
 20
1.2346920309
 30
0.0
 10
-48.0797260847
 20
0.4905343399
 30
0.0
 10
-47.3192065505
 20
0.0746924071
 30
0.0
 10
-46.7242968038
 20
-0.0835936459
 30
0.0
 10
-46.3148547265
 20
-0.1137010522
 30
0.0
 10
-45.933597118
 20
-0.0578310089
 30
0.0
 10
-45.7026319302
 20
0.0381744293
 30
0.0
 10
-45.5978558576
 20
0.0986708082
 30
0.0
  0
SPLINE
  5
379
100
AcDbEntity
  8
ASSI
100
AcDbSpline
 62
7
  6
CONTINUOUS
 70
0
 71
3
 72
9
 73
5
 74
0
 42
0.0000001
 43
0.0000001
 44
0.0000000001
 40
0.0
 40
0.0
 40
0.0
 40
0.0
 40
0.5146980677
 40
1.0
 40
1.0
 40
1.0
 40
1.0
 10
-32.3432832511
 20
-8.2629343754
 30
0.0
 10
-32.1858944467
 20
-8.2716863182
 30
0.0
 10
-31.875974094
 20
-8.2520347245
 30
0.0
 10
-31.5844347103
 20
-8.1411391689
 30
0.0
 10
-31.4557202339
 20
-8.0668210584
 30
0.0
  0
SPLINE
  5
37A
100
AcDbEntity
  8
0
100
AcDbSpline
 62
7
  6
CONTINUOUS
 70
0
 71
3
 72
10
 73
6
 74
0
 42
0.0000001
 43
0.0000001
 44
0.0000000001
 40
0.0
 40
0.0
 40
0.0
 40
0.0
 40
0.5476782054
 40
0.7815690618
 40
1.0
 40
1.0
 40
1.0
 40
1.0
 10
-60.5746238088
 20
-2.6599733835
 30
0.0
 10
-60.5436095016
 20
-2.6778806558
 30
0.0
 10
-60.4941190284
 20
-2.6976558515
 30
0.0
 10
-60.427917484
 20
-2.6960193801
 30
0.0
 10
-60.3994842289
 20
-2.6856933038
 30
0.0
 10
-60.3871147661
 20
-2.6785513351
 30
0.0
  0
SPLINE
  5
37B
100
AcDbEntity
  8
ASSI
100
AcDbSpline
 62
7
  6
CONTINUOUS
 70
0
 71
3
 72
11
 73
7
 74
0
 42
0.0000001
 43
0.0000001
 44
0.0000000001
 40
0.0
 40
0.0
 40
0.0
 40
0.0
 40
0.2177724838
 40
0.450951557
 40
0.7102010164
 40
1.0
 40
1.0
 40
1.0
 40
1.0
 10
-14.4927212044
 20
-12.9539628119
 30
0.0
 10
-14.6328911104
 20
-13.0348951425
 30
0.0
 10
-14.8952379178
 20
-13.2553524206
 30
0.0
 10
-15.1742876659
 20
-13.7119080785
 30
0.0
 10
-15.3402960299
 20
-14.274470641
 30
0.0
 10
-15.3728228214
 20
-14.6839540908
 30
0.0
 10
-15.3728228214
 20
-14.8993438134
 30
0.0
  0
SPLINE
  5
37C
100
AcDbEntity
  8
ASSI
100
AcDbSpline
 62
7
  6
CONTINUOUS
 70
0
 71
3
 72
11
 73
7
 74
0
 42
0.0000001
 43
0.0000001
 44
0.0000000001
 40
0.0
 40
0.0
 40
0.0
 40
0.0
 40
0.2177724838
 40
0.450951557
 40
0.7102010164
 40
1.0
 40
1.0
 40
1.0
 40
1.0
 10
-49.8480602638
 20
7.4597668545
 30
0.0
 10
-49.9882301697
 20
7.3788345239
 30
0.0
 10
-50.2505769771
 20
7.1583772458
 30
0.0
 10
-50.5296267252
 20
6.7018215879
 30
0.0
 10
-50.6956350892
 20
6.1392590254
 30
0.0
 10
-50.7281618807
 20
5.7297755756
 30
0.0
 10
-50.7281618807
 20
5.514385853
 30
0.0
  0
SPLINE
  5
37D
100
AcDbEntity
  8
ASSI
100
AcDbSpline
 62
7
  6
CONTINUOUS
 70
0
 71
3
 72
16
 73
12
 74
0
 42
0.0000001
 43
0.0000001
 44
0.0000000001
 40
0.0
 40
0.0
 40
0.0
 40
0.0
 40
0.0428775347
 40
0.0875256572
 40
0.1869319122
 40
0.3042477726
 40
0.4379765866
 40
0.5823859754
 40
0.7296063478
 40
0.8712624785
 40
1.0
 40
1.0
 40
1.0
 40
1.0
 10
27.9052531986
 20
19.8130966225
 30
0.0
 10
27.8775210368
 20
19.7970814341
 30
0.0
 10
27.8249509207
 20
19.7568378626
 30
0.0
 10
27.737599359
 20
19.6463668947
 30
0.0
 10
27.6725151585
 20
19.4567947567
 30
0.0
 10
27.6667488563
 20
19.1925496529
 30
0.0
 10
27.7260150477
 20
18.9011291729
 30
0.0
 10
27.8456914108
 20
18.6051611116
 30
0.0
 10
28.0159873191
 20
18.3281519342
 30
0.0
 10
28.2228897285
 20
18.0927858449
 30
0.0
 10
28.3845293864
 20
17.9683931379
 30
0.0
 10
28.4677976121
 20
17.9203151079
 30
0.0
  0
SPLINE
  5
37E
100
AcDbEntity
  8
ASSI
100
AcDbSpline
 62
7
  6
CONTINUOUS
 70
0
 71
3
 72
16
 73
12
 74
0
 42
0.0000001
 43
0.0000001
 44
0.0000000001
 40
0.0
 40
0.0
 40
0.0
 40
0.0
 40
0.0428775347
 40
0.0875256572
 40
0.1869319122
 40
0.3042477726
 40
0.4379765866
 40
0.5823859754
 40
0.7296063478
 40
0.8712624785
 40
1.0
 40
1.0
 40
1.0
 40
1.0
 10
-7.4500858607
 20
40.2268262889
 30
0.0
 10
-7.4778180226
 20
40.2108111005
 30
0.0
 10
-7.5303881386
 20
40.170567529
 30
0.0
 10
-7.6177397004
 20
40.0600965611
 30
0.0
 10
-7.6828239009
 20
39.8705244231
 30
0.0
 10
-7.6885902031
 20
39.6062793193
 30
0.0
 10
-7.6293240116
 20
39.3148588392
 30
0.0
 10
-7.5096476485
 20
39.0188907779
 30
0.0
 10
-7.3393517402
 20
38.7418816006
 30
0.0
 10
-7.1324493308
 20
38.5065155112
 30
0.0
 10
-6.9708096729
 20
38.3821228042
 30
0.0
 10
-6.8875414472
 20
38.3340447743
 30
0.0
  0
SPLINE
  5
37F
100
AcDbEntity
  8
ASSI
100
AcDbSpline
 62
7
  6
CONTINUOUS
 70
0
 71
3
 72
11
 73
7
 74
0
 42
0.0000001
 43
0.0000001
 44
0.0000000001
 40
0.0
 40
0.0
 40
0.0
 40
0.0
 40
0.2177725848
 40
0.450950417
 40
0.7101951499
 40
1.0
 40
1.0
 40
1.0
 40
1.0
 10
29.4962783582
 20
-30.0937176662
 30
0.0
 10
29.4591715687
 20
-30.1151386627
 30
0.0
 10
29.3897229183
 20
-30.1734954428
 30
0.0
 10
29.3158503947
 20
-30.2943484823
 30
0.0
 10
29.271903521
 20
-30.443266839
 30
0.0
 10
29.263292741
 20
-30.5516633632
 30
0.0
 10
29.263292741
 20
-30.6086813557
 30
0.0
  0
SPLINE
  5
380
100
AcDbEntity
  8
ASSI
100
AcDbSpline
 62
7
  6
CONTINUOUS
 70
0
 71
3
 72
11
 73
7
 74
0
 42
0.0000001
 43
0.0000001
 44
0.0000000001
 40
0.0
 40
0.0
 40
0.0
 40
0.0
 40
0.2177725848
 40
0.450950417
 40
0.7101951499
 40
1.0
 40
1.0
 40
1.0
 40
1.0
 10
-5.8590607011
 20
-9.6799879998
 30
0.0
 10
-5.8961674906
 20
-9.7014089963
 30
0.0
 10
-5.965616141
 20
-9.7597657764
 30
0.0
 10
-6.0394886646
 20
-9.8806188159
 30
0.0
 10
-6.0834355383
 20
-10.0295371726
 30
0.0
 10
-6.0920463183
 20
-10.1379336968
 30
0.0
 10
-6.0920463183
 20
-10.1949516894
 30
0.0
  0
SPLINE
  5
381
100
AcDbEntity
  8
0
100
AcDbSpline
 62
7
  6
CONTINUOUS
 70
0
 71
3
 72
8
 73
4
 74
0
 42
0.0000001
 43
0.0000001
 44
0.0000000001
 40
0.0
 40
0.0
 40
0.0
 40
0.0
 40
1.0
 40
1.0
 40
1.0
 40
1.0
 10
-58.4738362245
 20
105.3166240021
 30
0.0
 10
-58.4340862911
 20
105.3097071188
 30
0.0
 10
-58.3948377595
 20
105.2959781349
 30
0.0
 10
-58.3598670379
 20
105.2758547872
 30
0.0
  0
SPLINE
  5
382
100
AcDbEntity
  8
ASSI
100
AcDbSpline
 62
7
  6
CONTINUOUS
 70
0
 71
3
 72
10
 73
6
 74
0
 42
0.0000001
 43
0.0000001
 44
0.0000000001
 40
0.0
 40
0.0
 40
0.0
 40
0.0
 40
0.5138521975
 40
0.7589433872
 40
1.0
 40
1.0
 40
1.0
 40
1.0
 10
-87.2724065089
 20
82.7662312664
 30
0.0
 10
-87.2724065089
 20
82.5698693893
 30
0.0
 10
-87.2255451232
 20
82.2750721923
 30
0.0
 10
-87.0561832446
 20
81.9302545922
 30
0.0
 10
-86.9406460063
 20
81.78259081
 30
0.0
 10
-86.8763708788
 20
81.7166045982
 30
0.0
  0
SPLINE
  5
383
100
AcDbEntity
  8
ASSI
100
AcDbSpline
 62
7
  6
CONTINUOUS
 70
0
 71
3
 72
9
 73
5
 74
0
 42
0.0000001
 43
0.0000001
 44
0.0000000001
 40
0.0
 40
0.0
 40
0.0
 40
0.0
 40
0.2574737
 40
1.0
 40
1.0
 40
1.0
 40
1.0
 10
62.7371103351
 20
-4.6600210329
 30
0.0
 10
62.7248900345
 20
-4.6595108953
 30
0.0
 10
62.6775137242
 20
-4.6559585538
 30
0.0
 10
62.6305902952
 20
-4.6456050641
 30
0.0
 10
62.5972974755
 20
-4.6339537614
 30
0.0
  0
SPLINE
  5
384
100
AcDbEntity
  8
0
100
AcDbSpline
 62
7
  6
CONTINUOUS
 70
0
 71
3
 72
13
 73
9
 74
0
 42
0.0000001
 43
0.0000001
 44
0.0000000001
 40
0.0
 40
0.0
 40
0.0
 40
0.0
 40
0.2931364533
 40
0.5470386235
 40
0.6630994412
 40
0.7750259734
 40
0.8861696761
 40
1.0
 40
1.0
 40
1.0
 40
1.0
 10
-87.2724065089
 20
89.3575319204
 30
0.0
 10
-87.2724065089
 20
89.6399322116
 30
0.0
 10
-87.2202724718
 20
90.1698983202
 30
0.0
 10
-86.9762079768
 20
90.7745360753
 30
0.0
 10
-86.6835623548
 20
91.138868514
 30
0.0
 10
-86.428181383
 20
91.3467984419
 30
0.0
 10
-86.135403444
 20
91.492667576
 30
0.0
 10
-85.9233494584
 20
91.5456995326
 30
0.0
 10
-85.8148770814
 20
91.5618035138
 30
0.0
  0
SPLINE
  5
385
100
AcDbEntity
  8
0
100
AcDbSpline
 62
7
  6
CONTINUOUS
 70
0
 71
3
 72
14
 73
10
 74
0
 42
0.0000001
 43
0.0000001
 44
0.0000000001
 40
0.0
 40
0.0
 40
0.0
 40
0.0
 40
0.108044687
 40
0.2181267512
 40
0.3320995382
 40
0.4514953845
 40
0.5774560923
 40
0.7107233593
 40
1.0
 40
1.0
 40
1.0
 40
1.0
 10
67.8385063252
 20
-105.2129466641
 30
0.0
 10
68.0024608003
 20
-105.3076119464
 30
0.0
 10
68.3505701291
 20
-105.4706332188
 30
0.0
 10
68.9138330886
 20
-105.6263904897
 30
0.0
 10
69.5142944877
 20
-105.693356446
 30
0.0
 10
70.1455388692
 20
-105.6713859485
 30
0.0
 10
70.8015787509
 20
-105.5613092372
 30
0.0
 10
71.7258393717
 20
-105.2917797397
 30
0.0
 10
72.3997797382
 20
-104.9709898544
 30
0.0
 10
72.8387481316
 20
-104.7175350056
 30
0.0
  0
SPLINE
  5
386
100
AcDbEntity
  8
ASSI
100
AcDbSpline
 62
7
  6
CONTINUOUS
 70
0
 71
3
 72
11
 73
7
 74
0
 42
0.0000001
 43
0.0000001
 44
0.0000000001
 40
0.0
 40
0.0
 40
0.0
 40
0.0
 40
0.2221769249
 40
0.4613137288
 40
0.7202822541
 40
1.0
 40
1.0
 40
1.0
 40
1.0
 10
-83.7854039012
 20
79.8271344682
 30
0.0
 10
-83.607944682
 20
79.5989678685
 30
0.0
 10
-83.2922747124
 20
79.0826174226
 30
0.0
 10
-82.962604951
 20
78.2006169246
 30
0.0
 10
-82.7650983558
 20
77.2043228062
 30
0.0
 10
-82.7247437294
 20
76.5024364048
 30
0.0
 10
-82.7247437294
 20
76.1385222903
 30
0.0
  0
SPLINE
  5
387
100
AcDbEntity
  8
0
100
AcDbSpline
 62
7
  6
CONTINUOUS
 70
0
 71
3
 72
9
 73
5
 74
0
 42
0.0000001
 43
0.0000001
 44
0.0000000001
 40
0.0
 40
0.0
 40
0.0
 40
0.0
 40
0.5124239619
 40
1.0
 40
1.0
 40
1.0
 40
1.0
 10
-83.0088440723
 20
92.5514413194
 30
0.0
 10
-83.4509071011
 20
92.2961996669
 30
0.0
 10
-84.3617680765
 20
91.877072932
 30
0.0
 10
-85.3344378928
 20
91.6331362499
 30
0.0
 10
-85.8148773423
 20
91.5618041437
 30
0.0
  0
SPLINE
  5
388
100
AcDbEntity
  8
0
100
AcDbSpline
 62
7
  6
CONTINUOUS
 70
0
 71
3
 72
11
 73
7
 74
0
 42
0.0000001
 43
0.0000001
 44
0.0000000001
 40
0.0
 40
0.0
 40
0.0
 40
0.0
 40
0.2898015478
 40
0.5490405396
 40
0.7822230423
 40
1.0
 40
1.0
 40
1.0
 40
1.0
 10
86.9808837553
 20
-96.5520431391
 30
0.0
 10
87.0247794733
 20
-96.5266983016
 30
0.0
 10
87.1044017904
 20
-96.4718867276
 30
0.0
 10
87.1995113207
 20
-96.3718568242
 30
0.0
 10
87.2597195562
 20
-96.2612660109
 30
0.0
 10
87.2737759232
 20
-96.1818584382
 30
0.0
 10
87.2737759232
 20
-96.1437685457
 30
0.0
  0
SPLINE
  5
389
100
AcDbEntity
  8
0
100
AcDbSpline
 62
7
  6
CONTINUOUS
 70
0
 71
3
 72
14
 73
10
 74
0
 42
0.0000001
 43
0.0000001
 44
0.0000000001
 40
0.0
 40
0.0
 40
0.0
 40
0.0
 40
0.1080475262
 40
0.2181319937
 40
0.3321063934
 40
0.451502839
 40
0.577463056
 40
0.7107287958
 40
1.0
 40
1.0
 40
1.0
 40
1.0
 10
-80.6539177239
 20
-19.4752820652
 30
0.0
 10
-80.8178519295
 20
-19.3806284862
 30
0.0
 10
-81.1330370977
 20
-19.1606813503
 30
0.0
 10
-81.5494938422
 20
-18.7508029267
 30
0.0
 10
-81.9076656502
 20
-18.2643349386
 30
0.0
 10
-82.2042203046
 20
-17.7067586333
 30
0.0
 10
-82.4368838154
 20
-17.0836722402
 30
0.0
 10
-82.6655760047
 20
-16.1486319407
 30
0.0
 10
-82.7247437294
 20
-15.404713269
 30
0.0
 10
-82.7247437294
 20
-14.8979135721
 30
0.0
  0
SPLINE
  5
38A
100
AcDbEntity
  8
ASSI
100
AcDbSpline
 62
7
  6
CONTINUOUS
 70
0
 71
3
 72
9
 73
5
 74
0
 42
0.0000001
 43
0.0000001
 44
0.0000000001
 40
0.0
 40
0.0
 40
0.0
 40
0.0
 40
0.5158537999
 40
1.0
 40
1.0
 40
1.0
 40
1.0
 10
63.4451230793
 20
-4.8308907274
 30
0.0
 10
63.3299716722
 20
-4.7802731449
 30
0.0
 10
63.0981079184
 20
-4.7002864485
 30
0.0
 10
62.855061521
 20
-4.6649449161
 30
0.0
 10
62.7371103351
 20
-4.6600210329
 30
0.0
  0
SPLINE
  5
38B
100
AcDbEntity
  8
ASSI
100
AcDbSpline
 62
7
  6
CONTINUOUS
 70
0
 71
3
 72
9
 73
5
 74
0
 42
0.0000001
 43
0.0000001
 44
0.0000000001
 40
0.0
 40
0.0
 40
0.0
 40
0.0
 40
0.2477218943
 40
1.0
 40
1.0
 40
1.0
 40
1.0
 10
-84.396594393
 20
80.4843455542
 30
0.0
 10
-84.339651202
 20
80.4367462152
 30
0.0
 10
-84.115757814
 20
80.2375371152
 30
0.0
 10
-83.9174141743
 20
80.0098103403
 30
0.0
 10
-83.7854039012
 20
79.8271344682
 30
0.0
  0
SPLINE
  5
38C
100
AcDbEntity
  8
0
100
AcDbSpline
 62
7
  6
CONTINUOUS
 70
0
 71
3
 72
11
 73
7
 74
0
 42
0.0000001
 43
0.0000001
 44
0.0000000001
 40
0.0
 40
0.0
 40
0.0
 40
0.0
 40
0.2219390631
 40
0.460921442
 40
0.7199475041
 40
1.0
 40
1.0
 40
1.0
 40
1.0
 10
-85.8148770814
 20
91.5618035138
 30
0.0
 10
-85.6877747679
 20
91.5806733249
 30
0.0
 10
-85.4187534996
 20
91.5896092262
 30
0.0
 10
-85.0052786343
 20
91.5224320221
 30
0.0
 10
-84.5768414935
 20
91.3778367746
 30
0.0
 10
-84.2970510647
 20
91.2372661547
 30
0.0
 10
-84.1566349613
 20
91.1561916564
 30
0.0
  0
SPLINE
  5
38D
100
AcDbEntity
  8
0
100
AcDbSpline
 62
250
  6
CONTINUOUS
 70
0
 71
3
 72
11
 73
7
 74
0
 42
0.0000001
 43
0.0000001
 44
0.0000000001
 40
0.0
 40
0.0
 40
0.0
 40
0.0
 40
0.2177671046
 40
0.4509437792
 40
0.7101943256
 40
1.0
 40
1.0
 40
1.0
 40
1.0
 10
-83.0088434854
 20
92.551440303
 30
0.0
 10
-82.8851487368
 20
92.6228600943
 30
0.0
 10
-82.6009116443
 20
92.726092833
 30
0.0
 10
-82.1288618438
 20
92.7379051438
 30
0.0
 10
-81.6256692621
 20
92.6165418844
 30
0.0
 10
-81.2983671278
 20
92.460707765
 30
0.0
 10
-81.1337534718
 20
92.3656619031
 30
0.0
  0
SPLINE
  5
38E
100
AcDbEntity
  8
0
100
AcDbSpline
 62
250
  6
CONTINUOUS
 70
0
 71
3
 72
9
 73
5
 74
0
 42
0.0000001
 43
0.0000001
 44
0.0000000001
 40
0.0
 40
0.0
 40
0.0
 40
0.0
 40
0.5212851487
 40
1.0
 40
1.0
 40
1.0
 40
1.0
 10
-81.1337534718
 20
92.3656619031
 30
0.0
 10
-81.6251757648
 20
92.0819208301
 30
0.0
 10
-82.6035472947
 20
91.5959854621
 30
0.0
 10
-83.647085996
 20
91.2653689661
 30
0.0
 10
-84.1566349613
 20
91.1561916564
 30
0.0
  0
SPLINE
  5
38F
100
AcDbEntity
  8
0
100
AcDbSpline
 62
7
  6
CONTINUOUS
 70
0
 71
3
 72
15
 73
11
 74
0
 42
0.0000001
 43
0.0000001
 44
0.0000000001
 40
0.0
 40
0.0
 40
0.0
 40
0.0
 40
0.1141563501
 40
0.2373296531
 40
0.3669809065
 40
0.5000060513
 40
0.6330303547
 40
0.7626791494
 40
0.8858485793
 40
1.0
 40
1.0
 40
1.0
 40
1.0
 10
59.0324882289
 20
8.4805865076
 30
0.0
 10
59.2457865277
 20
8.3574307431
 30
0.0
 10
59.6670896046
 20
8.0620872732
 30
0.0
 10
60.2467825996
 20
7.5197262189
 30
0.0
 10
60.781003361
 20
6.8786219617
 30
0.0
 10
61.2496280566
 20
6.1628238035
 30
0.0
 10
61.6352129995
 20
5.3990886831
 30
0.0
 10
61.9233079377
 20
4.6159015001
 30
0.0
 10
62.1031477687
 20
3.8427140607
 30
0.0
 10
62.1482597765
 20
3.33020088
 30
0.0
 10
62.1482597765
 20
3.083911888
 30
0.0
  0
SPLINE
  5
390
100
AcDbEntity
  8
ASSI
100
AcDbSpline
 62
7
  6
CONTINUOUS
 70
0
 71
3
 72
9
 73
5
 74
0
 42
0.0000001
 43
0.0000001
 44
0.0000000001
 40
0.0
 40
0.0
 40
0.0
 40
0.0
 40
0.5368056195
 40
1.0
 40
1.0
 40
1.0
 40
1.0
 10
64.707020148
 20
-5.9105301307
 30
0.0
 10
64.5314524967
 20
-5.6675795401
 30
0.0
 10
64.1561100143
 20
-5.2465295357
 30
0.0
 10
63.6819012034
 20
-4.9349722713
 30
0.0
 10
63.4451230793
 20
-4.8308907274
 30
0.0
  0
SPLINE
  5
391
100
AcDbEntity
  8
0
100
AcDbSpline
 62
7
  6
CONTINUOUS
 70
0
 71
3
 72
11
 73
7
 74
0
 42
0.0000001
 43
0.0000001
 44
0.0000000001
 40
0.0
 40
0.0
 40
0.0
 40
0.0
 40
0.2857819281
 40
0.5454417214
 40
0.7814035509
 40
1.0
 40
1.0
 40
1.0
 40
1.0
 10
65.7676803197
 20
-100.635578171
 30
0.0
 10
65.7676803197
 20
-101.0782415985
 30
0.0
 10
65.8266738263
 20
-101.925171662
 30
0.0
 10
66.1218663999
 20
-103.1066469763
 30
0.0
 10
66.6156706384
 20
-104.1074392795
 30
0.0
 10
67.0860644255
 20
-104.6456404446
 30
0.0
 10
67.344312618
 20
-104.8646272178
 30
0.0
  0
SPLINE
  5
392
100
AcDbEntity
  8
ASSI
100
AcDbSpline
 62
7
  6
CONTINUOUS
 70
0
 71
3
 72
11
 73
7
 74
0
 42
0.0000001
 43
0.0000001
 44
0.0000000001
 40
0.0
 40
0.0
 40
0.0
 40
0.0
 40
0.2221769249
 40
0.4613137288
 40
0.7202822541
 40
1.0
 40
1.0
 40
1.0
 40
1.0
 10
64.707020148
 20
-5.9105301307
 30
0.0
 10
64.8844793672
 20
-6.1386967303
 30
0.0
 10
65.2001493368
 20
-6.6550471763
 30
0.0
 10
65.5298190981
 20
-7.5370476743
 30
0.0
 10
65.7273256934
 20
-8.5333417927
 30
0.0
 10
65.7676803197
 20
-9.2352281941
 30
0.0
 10
65.7676803197
 20
-9.5991423086
 30
0.0
  0
SPLINE
  5
393
100
AcDbEntity
  8
0
100
AcDbSpline
 62
7
  6
CONTINUOUS
 70
0
 71
3
 72
9
 73
5
 74
0
 42
0.0000001
 43
0.0000001
 44
0.0000000001
 40
0.0
 40
0.0
 40
0.0
 40
0.0
 40
0.5472908963
 40
1.0
 40
1.0
 40
1.0
 40
1.0
 10
84.3292339455
 20
22.5507060863
 30
0.0
 10
84.3928394945
 20
22.587431135
 30
0.0
 10
84.5176233775
 20
22.6420031615
 30
0.0
 10
84.6556440101
 20
22.6512536873
 30
0.0
 10
84.7155055055
 20
22.6408802875
 30
0.0
  0
SPLINE
  5
394
100
AcDbEntity
  8
0
100
AcDbSpline
 62
7
  6
CONTINUOUS
 70
0
 71
3
 72
9
 73
5
 74
0
 42
0.0000001
 43
0.0000001
 44
0.0000000001
 40
0.0
 40
0.0
 40
0.0
 40
0.0
 40
0.5471192161
 40
1.0
 40
1.0
 40
1.0
 40
1.0
 10
-58.859890484
 20
105.2263119507
 30
0.0
 10
-58.7963283022
 20
105.263011956
 30
0.0
 10
-58.6717070754
 20
105.3178154011
 30
0.0
 10
-58.5336911039
 20
105.3270393458
 30
0.0
 10
-58.4738362245
 20
105.3166240021
 30
0.0
  0
SPLINE
  5
395
100
AcDbEntity
  8
0
100
AcDbSpline
 62
7
  6
CONTINUOUS
 70
0
 71
3
 72
9
 73
5
 74
0
 42
0.0000001
 43
0.0000001
 44
0.0000000001
 40
0.0
 40
0.0
 40
0.0
 40
0.0
 40
0.5472806951
 40
1.0
 40
1.0
 40
1.0
 40
1.0
 10
86.9808837553
 20
17.9579138966
 30
0.0
 10
87.0444865443
 20
17.994637348
 30
0.0
 10
87.1541315173
 20
18.0754225312
 30
0.0
 10
87.2311439407
 20
18.1903278178
 30
0.0
 10
87.2520894922
 20
18.2473565241
 30
0.0
  0
SPLINE
  5
396
100
AcDbEntity
  8
0
100
AcDbSpline
 62
250
  6
CONTINUOUS
 70
0
 71
3
 72
9
 73
5
 74
0
 42
0.0000001
 43
0.0000001
 44
0.0000000001
 40
0.0
 40
0.0
 40
0.0
 40
0.0
 40
0.5212851487
 40
1.0
 40
1.0
 40
1.0
 40
1.0
 10
62.0553697185
 20
9.6900567543
 30
0.0
 10
61.5639474255
 20
9.4063156812
 30
0.0
 10
60.5855758956
 20
8.9203803132
 30
0.0
 10
59.5420371943
 20
8.5897638173
 30
0.0
 10
59.0324882289
 20
8.4805865076
 30
0.0
  0
SPLINE
  5
397
100
AcDbEntity
  8
0
100
AcDbSpline
 62
250
  6
CONTINUOUS
 70
0
 71
3
 72
15
 73
11
 74
0
 42
0.0000001
 43
0.0000001
 44
0.0000000001
 40
0.0
 40
0.0
 40
0.0
 40
0.0
 40
0.1141563501
 40
0.2373296531
 40
0.3669809065
 40
0.5000060513
 40
0.6330303547
 40
0.7626791494
 40
0.8858485793
 40
1.0
 40
1.0
 40
1.0
 40
1.0
 10
62.0553697185
 20
9.6900567543
 30
0.0
 10
62.236895391
 20
9.585246106
 30
0.0
 10
62.5954417311
 20
9.3338966001
 30
0.0
 10
63.0887844411
 20
8.8723249154
 30
0.0
 10
63.5434284
 20
8.3267186818
 30
0.0
 10
63.9422473944
 20
7.7175448496
 30
0.0
 10
64.2703961254
 20
7.0675746804
 30
0.0
 10
64.515576831
 20
6.4010500016
 30
0.0
 10
64.6686279639
 20
5.743035518
 30
0.0
 10
64.707020148
 20
5.306865608
 30
0.0
 10
64.707020148
 20
5.0972634913
 30
0.0
  0
SPLINE
  5
398
100
AcDbEntity
  8
ASSI
100
AcDbSpline
 62
7
  6
CONTINUOUS
 70
0
 71
3
 72
13
 73
9
 74
0
 42
0.0000001
 43
0.0000001
 44
0.0000000001
 40
0.0
 40
0.0
 40
0.0
 40
0.0
 40
0.0921718648
 40
0.1873160794
 40
0.2910069051
 40
0.4065833396
 40
0.676771858
 40
1.0
 40
1.0
 40
1.0
 40
1.0
 10
62.5972974755
 20
-4.6339537614
 30
0.0
 10
62.5601031115
 20
-4.6209370571
 30
0.0
 10
62.487732071
 20
-4.5840471034
 30
0.0
 10
62.3946156571
 20
-4.4997493816
 30
0.0
 10
62.3169858931
 20
-4.388889626
 30
0.0
 10
62.2290180956
 20
-4.1980965506
 30
0.0
 10
62.1622607679
 20
-3.8995459405
 30
0.0
 10
62.1482597765
 20
-3.645578661
 30
0.0
 10
62.1482597765
 20
-3.5073887661
 30
0.0
  0
SPLINE
  5
399
100
AcDbEntity
  8
0
100
AcDbSpline
 62
250
  6
CONTINUOUS
 70
0
 71
3
 72
9
 73
5
 74
0
 42
0.0000001
 43
0.0000001
 44
0.0000000001
 40
0.0
 40
0.0
 40
0.0
 40
0.0
 40
0.5212820066
 40
1.0
 40
1.0
 40
1.0
 40
1.0
 10
64.707020148
 20
5.0972634913
 30
0.0
 10
64.2155957564
 20
4.8135212066
 30
0.0
 10
63.3056052481
 20
4.2091309747
 30
0.0
 10
62.4975600007
 20
3.4706396273
 30
0.0
 10
62.1482597765
 20
3.083911888
 30
0.0
  0
SPLINE
  5
39A
100
AcDbEntity
  8
0
100
AcDbSpline
 62
250
  6
CONTINUOUS
 70
0
 71
3
 72
11
 73
7
 74
0
 42
0.0000001
 43
0.0000001
 44
0.0000000001
 40
0.0
 40
0.0
 40
0.0
 40
0.0
 40
0.2177475239
 40
0.4513950794
 40
0.7107871573
 40
1.0
 40
1.0
 40
1.0
 40
1.0
 10
-60.7019565679
 20
105.4304978286
 30
0.0
 10
-60.5785608007
 20
105.4968549537
 30
0.0
 10
-60.2972138662
 20
105.590700866
 30
0.0
 10
-59.8340555521
 20
105.5950881945
 30
0.0
 10
-59.3415207937
 20
105.4725754494
 30
0.0
 10
-59.0210455897
 20
105.319360889
 30
0.0
 10
-58.8598898644
 20
105.2263115929
 30
0.0
  0
SPLINE
  5
39B
100
AcDbEntity
  8
0
100
AcDbSpline
 62
250
  6
CONTINUOUS
 70
0
 71
3
 72
15
 73
11
 74
0
 42
0.0000001
 43
0.0000001
 44
0.0000000001
 40
0.0
 40
0.0
 40
0.0
 40
0.0
 40
0.1141562395
 40
0.2373296631
 40
0.3669809226
 40
0.5000060513
 40
0.6330303385
 40
0.7626791395
 40
0.88584869
 40
1.0
 40
1.0
 40
1.0
 40
1.0
 10
84.3292333259
 20
22.5507064441
 30
0.0
 10
84.510758814
 20
22.4458959023
 30
0.0
 10
84.8693050109
 20
22.1945461976
 30
0.0
 10
85.3626477707
 20
21.7329745808
 30
0.0
 10
85.8172917154
 20
21.1873681036
 30
0.0
 10
86.2161106332
 20
20.5781943267
 30
0.0
 10
86.5442593548
 20
19.9282242514
 30
0.0
 10
86.7894402783
 20
19.2616994631
 30
0.0
 10
86.9424913275
 20
18.6036849703
 30
0.0
 10
86.9808837553
 20
18.1675150848
 30
0.0
 10
86.9808837553
 20
17.9579131811
 30
0.0
  0
SPLINE
  5
39C
100
AcDbEntity
  8
ASSI
100
AcDbSpline
 62
7
  6
CONTINUOUS
 70
0
 71
3
 72
11
 73
7
 74
0
 42
0.0000001
 43
0.0000001
 44
0.0000000001
 40
0.0
 40
0.0
 40
0.0
 40
0.0
 40
0.2365435589
 40
0.4985727236
 40
0.7613763997
 40
1.0
 40
1.0
 40
1.0
 40
1.0
 10
-70.2089537024
 20
-14.5711360778
 30
0.0
 10
-70.2089537024
 20
-14.6624311469
 30
0.0
 10
-70.1752056228
 20
-14.8549908565
 30
0.0
 10
-70.0570997388
 20
-15.1263886217
 30
0.0
 10
-69.883705052
 20
-15.3672569651
 30
0.0
 10
-69.735007309
 20
-15.495718522
 30
0.0
 10
-69.6561628979
 20
-15.5433165955
 30
0.0
  0
SPLINE
  5
39D
100
AcDbEntity
  8
ASSI
100
AcDbSpline
 62
7
  6
CONTINUOUS
 70
0
 71
3
 72
11
 73
7
 74
0
 42
0.0000001
 43
0.0000001
 44
0.0000000001
 40
0.0
 40
0.0
 40
0.0
 40
0.0
 40
0.2365435589
 40
0.4985727236
 40
0.7613763997
 40
1.0
 40
1.0
 40
1.0
 40
1.0
 10
-2.6802560991
 20
-53.5613597406
 30
0.0
 10
-2.6802560991
 20
-53.6526548097
 30
0.0
 10
-2.6465080195
 20
-53.8452145193
 30
0.0
 10
-2.5284021355
 20
-54.1166122844
 30
0.0
 10
-2.3550074487
 20
-54.3574806279
 30
0.0
 10
-2.2063097057
 20
-54.4859421848
 30
0.0
 10
-2.1274652946
 20
-54.5335402583
 30
0.0
  0
SPLINE
  5
39E
100
AcDbEntity
  8
ASSI
100
AcDbSpline
 62
7
  6
CONTINUOUS
 70
0
 71
3
 72
11
 73
7
 74
0
 42
0.0000001
 43
0.0000001
 44
0.0000000001
 40
0.0
 40
0.0
 40
0.0
 40
0.0
 40
0.2365435589
 40
0.4985727236
 40
0.7613763997
 40
1.0
 40
1.0
 40
1.0
 40
1.0
 10
-38.0355951585
 20
-33.1476300742
 30
0.0
 10
-38.0355951585
 20
-33.2389251433
 30
0.0
 10
-38.0018470788
 20
-33.4314848529
 30
0.0
 10
-37.8837411948
 20
-33.7028826181
 30
0.0
 10
-37.7103465081
 20
-33.9437509615
 30
0.0
 10
-37.561648765
 20
-34.0722125184
 30
0.0
 10
-37.4828043539
 20
-34.1198105919
 30
0.0
  0
SPLINE
  5
39F
100
AcDbEntity
  8
ASSI
100
AcDbSpline
 62
7
  6
CONTINUOUS
 70
0
 71
3
 72
11
 73
7
 74
0
 42
0.0000001
 43
0.0000001
 44
0.0000000001
 40
0.0
 40
0.0
 40
0.0
 40
0.0
 40
0.2365435589
 40
0.4985727236
 40
0.7613763997
 40
1.0
 40
1.0
 40
1.0
 40
1.0
 10
35.8570634755
 20
-75.8123250769
 30
0.0
 10
35.8570634755
 20
-75.903620146
 30
0.0
 10
35.8908115552
 20
-76.0961798556
 30
0.0
 10
36.0089174392
 20
-76.3675776208
 30
0.0
 10
36.1823121259
 20
-76.6084459643
 30
0.0
 10
36.331009869
 20
-76.7369075212
 30
0.0
 10
36.4098542801
 20
-76.7845055946
 30
0.0
  0
SPLINE
  5
3A0
100
AcDbEntity
  8
0
100
AcDbSpline
 62
7
  6
CONTINUOUS
 70
0
 71
3
 72
9
 73
5
 74
0
 42
0.0000001
 43
0.0000001
 44
0.0000000001
 40
0.0
 40
0.0
 40
0.0
 40
0.0
 40
0.4999985058
 40
1.0
 40
1.0
 40
1.0
 40
1.0
 10
61.018326808
 20
-89.6939984922
 30
0.0
 10
61.0390437918
 20
-89.7951709554
 30
0.0
 10
61.117681807
 20
-89.9901800005
 30
0.0
 10
61.2472558702
 20
-90.1557775576
 30
0.0
 10
61.3245179619
 20
-90.2243031543
 30
0.0
  0
SPLINE
  5
3A1
100
AcDbEntity
  8
0
100
AcDbSpline
 62
7
  6
CONTINUOUS
 70
0
 71
3
 72
9
 73
5
 74
0
 42
0.0000001
 43
0.0000001
 44
0.0000000001
 40
0.0
 40
0.0
 40
0.0
 40
0.0
 40
0.4999985058
 40
1.0
 40
1.0
 40
1.0
 40
1.0
 10
43.163880583
 20
-79.3850650107
 30
0.0
 10
43.1845975668
 20
-79.4862374739
 30
0.0
 10
43.2632355821
 20
-79.6812465189
 30
0.0
 10
43.3928096452
 20
-79.8468440761
 30
0.0
 10
43.470071737
 20
-79.9153696728
 30
0.0
  0
SPLINE
  5
3A2
100
AcDbEntity
  8
0
100
AcDbSpline
 62
7
  6
CONTINUOUS
 70
0
 71
3
 72
11
 73
7
 74
0
 42
0.0000001
 43
0.0000001
 44
0.0000000001
 40
0.0
 40
0.0
 40
0.0
 40
0.0
 40
0.2372127764
 40
0.4999938932
 40
0.7627783341
 40
1.0
 40
1.0
 40
1.0
 40
1.0
 10
3.0119534894
 20
-52.8064423467
 30
0.0
 10
3.0119534894
 20
-52.8643952968
 30
0.0
 10
3.0336923592
 20
-52.986626217
 30
0.0
 10
3.1094614873
 20
-53.158389867
 30
0.0
 10
3.2203301343
 20
-53.3098912689
 30
0.0
 10
3.3153170807
 20
-53.3898358207
 30
0.0
 10
3.36550688
 20
-53.4188147818
 30
0.0
  0
SPLINE
  5
3A3
100
AcDbEntity
  8
0
100
AcDbSpline
 62
7
  6
CONTINUOUS
 70
0
 71
3
 72
11
 73
7
 74
0
 42
0.0000001
 43
0.0000001
 44
0.0000000001
 40
0.0
 40
0.0
 40
0.0
 40
0.0
 40
0.2372127764
 40
0.4999938932
 40
0.7627783341
 40
1.0
 40
1.0
 40
1.0
 40
1.0
 10
38.3672925488
 20
-73.2201720131
 30
0.0
 10
38.3672925488
 20
-73.2781249632
 30
0.0
 10
38.3890314185
 20
-73.4003558834
 30
0.0
 10
38.4648005466
 20
-73.5721195333
 30
0.0
 10
38.5756691937
 20
-73.7236209353
 30
0.0
 10
38.67065614
 20
-73.803565487
 30
0.0
 10
38.7208459393
 20
-73.8325444482
 30
0.0
  0
SPLINE
  5
3A4
100
AcDbEntity
  8
0
100
AcDbSpline
 62
7
  6
CONTINUOUS
 70
0
 71
3
 72
11
 73
7
 74
0
 42
0.0000001
 43
0.0000001
 44
0.0000000001
 40
0.0
 40
0.0
 40
0.0
 40
0.0
 40
0.2372127764
 40
0.4999938932
 40
0.7627783341
 40
1.0
 40
1.0
 40
1.0
 40
1.0
 10
-32.3433855699
 20
-32.3927126803
 30
0.0
 10
-32.3433855699
 20
-32.4506656304
 30
0.0
 10
-32.3216467001
 20
-32.5728965506
 30
0.0
 10
-32.245877572
 20
-32.7446602006
 30
0.0
 10
-32.135008925
 20
-32.8961616025
 30
0.0
 10
-32.0400219787
 20
-32.9761061543
 30
0.0
 10
-31.9898321793
 20
-33.0050851154
 30
0.0
  0
SPLINE
  5
3A5
100
AcDbEntity
  8
0
100
AcDbSpline
 62
7
  6
CONTINUOUS
 70
0
 71
3
 72
11
 73
7
 74
0
 42
0.0000001
 43
0.0000001
 44
0.0000000001
 40
0.0
 40
0.0
 40
0.0
 40
0.0
 40
0.2372127764
 40
0.4999938932
 40
0.7627783341
 40
1.0
 40
1.0
 40
1.0
 40
1.0
 10
-67.6987246292
 20
-11.9789830139
 30
0.0
 10
-67.6987246292
 20
-12.036935964
 30
0.0
 10
-67.6769857595
 20
-12.1591668843
 30
0.0
 10
-67.6012166314
 20
-12.3309305342
 30
0.0
 10
-67.4903479843
 20
-12.4824319362
 30
0.0
 10
-67.395361038
 20
-12.5623764879
 30
0.0
 10
-67.3451712386
 20
-12.591355449
 30
0.0
  0
SPLINE
  5
3A6
100
AcDbEntity
  8
ASSI
100
AcDbSpline
 62
7
  6
CONTINUOUS
 70
0
 71
3
 72
11
 73
7
 74
0
 42
0.0000001
 43
0.0000001
 44
0.0000000001
 40
0.0
 40
0.0
 40
0.0
 40
0.0
 40
0.2450121475
 40
0.5158973115
 40
0.7778596682
 40
1.0
 40
1.0
 40
1.0
 40
1.0
 10
-40.9170552918
 20
10.524983922
 30
0.0
 10
-40.9170552918
 20
10.3746904704
 30
0.0
 10
-40.8528093887
 20
10.058218139
 30
0.0
 10
-40.6374110028
 20
9.6274748657
 30
0.0
 10
-40.3334460877
 20
9.2725066121
 30
0.0
 10
-40.0747622799
 20
9.1088794403
 30
0.0
 10
-39.9447631987
 20
9.0680381928
 30
0.0
  0
SPLINE
  5
3A7
100
AcDbEntity
  8
ASSI
100
AcDbSpline
 62
7
  6
CONTINUOUS
 70
0
 71
3
 72
9
 73
5
 74
0
 42
0.0000001
 43
0.0000001
 44
0.0000000001
 40
0.0
 40
0.0
 40
0.0
 40
0.0
 40
0.2335192447
 40
1.0
 40
1.0
 40
1.0
 40
1.0
 10
65.1489618862
 20
-50.7162050771
 30
0.0
 10
65.1489618862
 20
-50.753642125
 30
0.0
 10
65.1574574741
 20
-50.9139406299
 30
0.0
 10
65.1961385324
 20
-51.0718209678
 30
0.0
 10
65.2372071029
 20
-51.1876345908
 30
0.0
  0
SPLINE
  5
3A8
100
AcDbEntity
  8
ASSI
100
AcDbSpline
 62
7
  6
CONTINUOUS
 70
0
 71
3
 72
11
 73
7
 74
0
 42
0.0000001
 43
0.0000001
 44
0.0000000001
 40
0.0
 40
0.0
 40
0.0
 40
0.0
 40
0.2450121475
 40
0.5158973115
 40
0.7778596682
 40
1.0
 40
1.0
 40
1.0
 40
1.0
 10
-5.5617162325
 20
-9.8887457444
 30
0.0
 10
-5.5617162325
 20
-10.0390391959
 30
0.0
 10
-5.4974703294
 20
-10.3555115274
 30
0.0
 10
-5.2820719435
 20
-10.7862548007
 30
0.0
 10
-4.9781070284
 20
-11.1412230543
 30
0.0
 10
-4.7194232205
 20
-11.3048502261
 30
0.0
 10
-4.5894241393
 20
-11.3456914736
 30
0.0
  0
SPLINE
  5
3A9
100
AcDbEntity
  8
ASSI
100
AcDbSpline
 62
7
  6
CONTINUOUS
 70
0
 71
3
 72
11
 73
7
 74
0
 42
0.0000001
 43
0.0000001
 44
0.0000000001
 40
0.0
 40
0.0
 40
0.0
 40
0.0
 40
0.2450121475
 40
0.5158973115
 40
0.7778596682
 40
1.0
 40
1.0
 40
1.0
 40
1.0
 10
29.7936228269
 20
-30.3024754108
 30
0.0
 10
29.7936228269
 20
-30.4527688623
 30
0.0
 10
29.8578687299
 20
-30.7692411938
 30
0.0
 10
30.0732671159
 20
-31.1999844671
 30
0.0
 10
30.377232031
 20
-31.5549527207
 30
0.0
 10
30.6359158388
 20
-31.7185798925
 30
0.0
 10
30.76591492
 20
-31.75942114
 30
0.0
  0
SPLINE
  5
3AA
100
AcDbEntity
  8
ASSI
100
AcDbSpline
 62
7
  6
CONTINUOUS
 70
0
 71
3
 72
9
 73
5
 74
0
 42
0.0000001
 43
0.0000001
 44
0.0000000001
 40
0.0
 40
0.0
 40
0.0
 40
0.0
 40
0.5265424247
 40
1.0
 40
1.0
 40
1.0
 40
1.0
 10
-32.3433159328
 20
-7.8609375089
 30
0.0
 10
-32.1499953624
 20
-7.9185136812
 30
0.0
 10
-31.7683505927
 20
-7.9882854511
 30
0.0
 10
-31.3799790172
 20
-7.9401362138
 30
0.0
 10
-31.2071994165
 20
-7.8849591537
 30
0.0
  0
SPLINE
  5
3AB
100
AcDbEntity
  8
ASSI
100
AcDbSpline
 62
7
  6
CONTINUOUS
 70
0
 71
3
 72
17
 73
13
 74
0
 42
0.0000001
 43
0.0000001
 44
0.0000000001
 40
0.0
 40
0.0
 40
0.0
 40
0.0
 40
0.126037806
 40
0.2644118059
 40
0.4087653877
 40
0.5517507936
 40
0.6862392522
 40
0.8065704891
 40
0.8605681348
 40
0.9104090133
 40
0.9565782222
 40
1.0
 40
1.0
 40
1.0
 40
1.0
 10
-50.1978317949
 20
5.820591798
 30
0.0
 10
-50.1978317949
 20
5.4776366179
 30
0.0
 10
-50.1071525085
 20
4.7573367987
 30
0.0
 10
-49.7651189045
 20
3.6938504677
 30
0.0
 10
-49.2342803221
 20
2.6586326871
 30
0.0
 10
-48.5533426359
 20
1.7282594635
 30
0.0
 10
-47.7725525362
 20
0.9708416433
 30
0.0
 10
-47.0580427955
 20
0.5123865102
 30
0.0
 10
-46.4866225728
 20
0.2933046763
 30
0.0
 10
-46.0853828903
 20
0.2080770231
 30
0.0
 10
-45.7037625566
 20
0.1983810817
 30
0.0
 10
-45.4618878865
 20
0.24458903
 30
0.0
 10
-45.3493350402
 20
0.2805327128
 30
0.0
  0
SPLINE
  5
3AC
100
AcDbEntity
  8
ASSI
100
AcDbSpline
 62
7
  6
CONTINUOUS
 70
0
 71
3
 72
17
 73
13
 74
0
 42
0.0000001
 43
0.0000001
 44
0.0000000001
 40
0.0
 40
0.0
 40
0.0
 40
0.0
 40
0.126037806
 40
0.2644118059
 40
0.4087653877
 40
0.5517507936
 40
0.6862392522
 40
0.8065704891
 40
0.8605681348
 40
0.9104090133
 40
0.9565782222
 40
1.0
 40
1.0
 40
1.0
 40
1.0
 10
-14.8424927355
 20
-14.5931378684
 30
0.0
 10
-14.8424927355
 20
-14.9360930485
 30
0.0
 10
-14.7518134492
 20
-15.6563928677
 30
0.0
 10
-14.4097798452
 20
-16.7198791987
 30
0.0
 10
-13.8789412627
 20
-17.7550969793
 30
0.0
 10
-13.1980035766
 20
-18.6854702029
 30
0.0
 10
-12.4172134769
 20
-19.4428880231
 30
0.0
 10
-11.7027037362
 20
-19.9013431562
 30
0.0
 10
-11.1312835135
 20
-20.1204249901
 30
0.0
 10
-10.7300438309
 20
-20.2056526433
 30
0.0
 10
-10.3484234973
 20
-20.2153485846
 30
0.0
 10
-10.1065488271
 20
-20.1691406364
 30
0.0
 10
-9.9939959809
 20
-20.1331969536
 30
0.0
  0
SPLINE
  5
3AD
100
AcDbEntity
  8
ASSI
100
AcDbSpline
 62
7
  6
CONTINUOUS
 70
0
 71
3
 72
9
 73
5
 74
0
 42
0.0000001
 43
0.0000001
 44
0.0000000001
 40
0.0
 40
0.0
 40
0.0
 40
0.0
 40
0.5265424247
 40
1.0
 40
1.0
 40
1.0
 40
1.0
 10
3.0120231265
 20
-28.2746671753
 30
0.0
 10
3.2053436969
 20
-28.3322433476
 30
0.0
 10
3.5869884666
 20
-28.4020151174
 30
0.0
 10
3.9753600421
 20
-28.3538658802
 30
0.0
 10
4.1481396429
 20
-28.2986888201
 30
0.0
  0
SPLINE
  5
3AE
100
AcDbEntity
  8
ASSI
100
AcDbSpline
 62
7
  6
CONTINUOUS
 70
0
 71
3
 72
11
 73
7
 74
0
 42
0.0000001
 43
0.0000001
 44
0.0000000001
 40
0.0
 40
0.0
 40
0.0
 40
0.0
 40
0.2190091739
 40
0.4555070974
 40
0.7151321666
 40
1.0
 40
1.0
 40
1.0
 40
1.0
 10
-14.2109736834
 20
-12.8296553615
 30
0.0
 10
-14.3148731941
 20
-12.9241717739
 30
0.0
 10
-14.503244033
 20
-13.1527562008
 30
0.0
 10
-14.7006961586
 20
-13.5707670306
 30
0.0
 10
-14.8188017798
 20
-14.0604478951
 30
0.0
 10
-14.8424927355
 20
-14.41044243
 30
0.0
 10
-14.8424927355
 20
-14.5931378684
 30
0.0
  0
SPLINE
  5
3AF
100
AcDbEntity
  8
ASSI
100
AcDbSpline
 62
7
  6
CONTINUOUS
 70
0
 71
3
 72
11
 73
7
 74
0
 42
0.0000001
 43
0.0000001
 44
0.0000000001
 40
0.0
 40
0.0
 40
0.0
 40
0.0
 40
0.2190091739
 40
0.4555070974
 40
0.7151321666
 40
1.0
 40
1.0
 40
1.0
 40
1.0
 10
-49.5663127427
 20
7.5840743048
 30
0.0
 10
-49.6702122534
 20
7.4895578925
 30
0.0
 10
-49.8585830923
 20
7.2609734655
 30
0.0
 10
-50.056035218
 20
6.8429626358
 30
0.0
 10
-50.1741408391
 20
6.3532817713
 30
0.0
 10
-50.1978317949
 20
6.0032872364
 30
0.0
 10
-50.1978317949
 20
5.820591798
 30
0.0
  0
SPLINE
  5
3B0
100
AcDbEntity
  8
ASSI
100
AcDbSpline
 62
7
  6
CONTINUOUS
 70
0
 71
3
 72
12
 73
8
 74
0
 42
0.0000001
 43
0.0000001
 44
0.0000000001
 40
0.0
 40
0.0
 40
0.0
 40
0.0
 40
0.2168628045
 40
0.3439772851
 40
0.4788156563
 40
0.7522794991
 40
1.0
 40
1.0
 40
1.0
 40
1.0
 10
28.2368937679
 20
19.8512397245
 30
0.0
 10
28.196335745
 20
19.7202859864
 30
0.0
 10
28.1947653362
 20
19.4938155175
 30
0.0
 10
28.2625701898
 20
19.1990928314
 30
0.0
 10
28.3860858399
 20
18.8824407642
 30
0.0
 10
28.6120687616
 20
18.5297283888
 30
0.0
 10
28.8625125451
 20
18.3048235425
 30
0.0
 10
28.998127698
 20
18.2265210529
 30
0.0
  0
SPLINE
  5
3B1
100
AcDbEntity
  8
ASSI
100
AcDbSpline
 62
7
  6
CONTINUOUS
 70
0
 71
3
 72
12
 73
8
 74
0
 42
0.0000001
 43
0.0000001
 44
0.0000000001
 40
0.0
 40
0.0
 40
0.0
 40
0.0
 40
0.2168628045
 40
0.3439772851
 40
0.4788156563
 40
0.7522794991
 40
1.0
 40
1.0
 40
1.0
 40
1.0
 10
-7.1184452914
 20
40.2649693909
 30
0.0
 10
-7.1590033143
 20
40.1340156528
 30
0.0
 10
-7.1605737231
 20
39.9075451839
 30
0.0
 10
-7.0927688695
 20
39.6128224977
 30
0.0
 10
-6.9692532194
 20
39.2961704306
 30
0.0
 10
-6.7432702977
 20
38.9434580552
 30
0.0
 10
-6.4928265142
 20
38.7185532089
 30
0.0
 10
-6.3572113613
 20
38.6402507193
 30
0.0
  0
SPLINE
  5
3B2
100
AcDbEntity
  8
ASSI
100
AcDbSpline
 62
7
  6
CONTINUOUS
 70
0
 71
3
 72
9
 73
5
 74
0
 42
0.0000001
 43
0.0000001
 44
0.0000000001
 40
0.0
 40
0.0
 40
0.0
 40
0.0
 40
0.2350102041
 40
1.0
 40
1.0
 40
1.0
 40
1.0
 10
29.8278008115
 20
-30.0558656021
 30
0.0
 10
29.8220257107
 20
-30.0745386857
 30
0.0
 10
29.8010328877
 20
-30.1550997643
 30
0.0
 10
29.7936228269
 20
-30.2388514098
 30
0.0
 10
29.7936228269
 20
-30.3024754108
 30
0.0
  0
SPLINE
  5
3B3
100
AcDbEntity
  8
ASSI
100
AcDbSpline
 62
7
  6
CONTINUOUS
 70
0
 71
3
 72
9
 73
5
 74
0
 42
0.0000001
 43
0.0000001
 44
0.0000000001
 40
0.0
 40
0.0
 40
0.0
 40
0.0
 40
0.2350102041
 40
1.0
 40
1.0
 40
1.0
 40
1.0
 10
-5.5275382479
 20
-9.6421359358
 30
0.0
 10
-5.5333133487
 20
-9.6608090194
 30
0.0
 10
-5.5543061716
 20
-9.7413700979
 30
0.0
 10
-5.5617162325
 20
-9.8251217434
 30
0.0
 10
-5.5617162325
 20
-9.8887457444
 30
0.0
  0
SPLINE
  5
3B4
100
AcDbEntity
  8
ASSI
100
AcDbSpline
 62
7
  6
CONTINUOUS
 70
0
 71
3
 72
9
 73
5
 74
0
 42
0.0000001
 43
0.0000001
 44
0.0000000001
 40
0.0
 40
0.0
 40
0.0
 40
0.0
 40
0.2350102041
 40
1.0
 40
1.0
 40
1.0
 40
1.0
 10
65.1831398708
 20
-50.4695952685
 30
0.0
 10
65.17736477
 20
-50.4882683521
 30
0.0
 10
65.1563719471
 20
-50.5688294306
 30
0.0
 10
65.1489618862
 20
-50.6525810761
 30
0.0
 10
65.1489618862
 20
-50.7162050771
 30
0.0
  0
SPLINE
  5
3B5
100
AcDbEntity
  8
ASSI
100
AcDbSpline
 62
7
  6
CONTINUOUS
 70
0
 71
3
 72
12
 73
8
 74
0
 42
0.0000001
 43
0.0000001
 44
0.0000000001
 40
0.0
 40
0.0
 40
0.0
 40
0.0
 40
0.2168628045
 40
0.3439772851
 40
0.4788156563
 40
0.7522794991
 40
1.0
 40
1.0
 40
1.0
 40
1.0
 10
-42.4737843508
 20
60.6786990572
 30
0.0
 10
-42.5143423736
 20
60.5477453191
 30
0.0
 10
-42.5159127824
 20
60.3212748503
 30
0.0
 10
-42.4481079289
 20
60.0265521641
 30
0.0
 10
-42.3245922787
 20
59.709900097
 30
0.0
 10
-42.098609357
 20
59.3571877216
 30
0.0
 10
-41.8481655735
 20
59.1322828753
 30
0.0
 10
-41.7125504206
 20
59.0539803857
 30
0.0
  0
SPLINE
  5
3B6
100
AcDbEntity
  8
ASSI
100
AcDbSpline
 62
7
  6
CONTINUOUS
 70
0
 71
3
 72
9
 73
5
 74
0
 42
0.0000001
 43
0.0000001
 44
0.0000000001
 40
0.0
 40
0.0
 40
0.0
 40
0.0
 40
0.2350102041
 40
1.0
 40
1.0
 40
1.0
 40
1.0
 10
-40.8828773072
 20
10.7715937306
 30
0.0
 10
-40.888652408
 20
10.752920647
 30
0.0
 10
-40.9096452309
 20
10.6723595685
 30
0.0
 10
-40.9170552918
 20
10.588607923
 30
0.0
 10
-40.9170552918
 20
10.524983922
 30
0.0
  0
SPLINE
  5
3B7
100
AcDbEntity
  8
ASSI
100
AcDbSpline
 62
7
  6
CONTINUOUS
 70
0
 71
3
 72
9
 73
5
 74
0
 42
0.0000001
 43
0.0000001
 44
0.0000000001
 40
0.0
 40
0.0
 40
0.0
 40
0.0
 40
0.4999985058
 40
1.0
 40
1.0
 40
1.0
 40
1.0
 10
61.018326808
 20
-89.6939984922
 30
0.0
 10
61.0390437918
 20
-89.7951709554
 30
0.0
 10
61.117681807
 20
-89.9901800005
 30
0.0
 10
61.2472558702
 20
-90.1557775576
 30
0.0
 10
61.3245179619
 20
-90.2243031543
 30
0.0
  0
SPLINE
  5
3B8
100
AcDbEntity
  8
ASSI
100
AcDbSpline
 62
7
  6
CONTINUOUS
 70
0
 71
3
 72
9
 73
5
 74
0
 42
0.0000001
 43
0.0000001
 44
0.0000000001
 40
0.0
 40
0.0
 40
0.0
 40
0.0
 40
0.4999985058
 40
1.0
 40
1.0
 40
1.0
 40
1.0
 10
43.163880583
 20
-79.3850650107
 30
0.0
 10
43.1845975668
 20
-79.4862374739
 30
0.0
 10
43.2632355821
 20
-79.6812465189
 30
0.0
 10
43.3928096452
 20
-79.8468440761
 30
0.0
 10
43.470071737
 20
-79.9153696728
 30
0.0
  0
SPLINE
  5
3B9
100
AcDbEntity
  8
ASSI
100
AcDbSpline
 62
7
  6
CONTINUOUS
 70
0
 71
3
 72
11
 73
7
 74
0
 42
0.0000001
 43
0.0000001
 44
0.0000000001
 40
0.0
 40
0.0
 40
0.0
 40
0.0
 40
0.239268013
 40
0.5042876766
 40
0.7669542426
 40
1.0
 40
1.0
 40
1.0
 40
1.0
 10
35.9719683275
 20
-75.8786696983
 30
0.0
 10
35.9719683275
 20
-75.9558419027
 30
0.0
 10
36.002112289
 20
-76.1185722502
 30
0.0
 10
36.1059872102
 20
-76.3452331471
 30
0.0
 10
36.2564661043
 20
-76.5414896563
 30
0.0
 10
36.3850685237
 20
-76.6416606692
 30
0.0
 10
36.4522542378
 20
-76.6753638429
 30
0.0
  0
SPLINE
  5
3BA
100
AcDbEntity
  8
ASSI
100
AcDbSpline
 62
7
  6
CONTINUOUS
 70
0
 71
3
 72
11
 73
7
 74
0
 42
0.0000001
 43
0.0000001
 44
0.0000000001
 40
0.0
 40
0.0
 40
0.0
 40
0.0
 40
0.239268013
 40
0.5042876766
 40
0.7669542426
 40
1.0
 40
1.0
 40
1.0
 40
1.0
 10
-37.9206903065
 20
-33.2139746956
 30
0.0
 10
-37.9206903065
 20
-33.2911468999
 30
0.0
 10
-37.890546345
 20
-33.4538772474
 30
0.0
 10
-37.7866714238
 20
-33.6805381444
 30
0.0
 10
-37.6361925297
 20
-33.8767946536
 30
0.0
 10
-37.5075901103
 20
-33.9769656664
 30
0.0
 10
-37.4404043962
 20
-34.0106688402
 30
0.0
  0
SPLINE
  5
3BB
100
AcDbEntity
  8
ASSI
100
AcDbSpline
 62
7
  6
CONTINUOUS
 70
0
 71
3
 72
11
 73
7
 74
0
 42
0.0000001
 43
0.0000001
 44
0.0000000001
 40
0.0
 40
0.0
 40
0.0
 40
0.0
 40
0.239268013
 40
0.5042876766
 40
0.7669542426
 40
1.0
 40
1.0
 40
1.0
 40
1.0
 10
-2.5653512472
 20
-53.627704362
 30
0.0
 10
-2.5653512472
 20
-53.7048765663
 30
0.0
 10
-2.5352072857
 20
-53.8676069138
 30
0.0
 10
-2.4313323645
 20
-54.0942678108
 30
0.0
 10
-2.2808534704
 20
-54.29052432
 30
0.0
 10
-2.152251051
 20
-54.3906953328
 30
0.0
 10
-2.0850653368
 20
-54.4243985066
 30
0.0
  0
SPLINE
  5
3BC
100
AcDbEntity
  8
ASSI
100
AcDbSpline
 62
7
  6
CONTINUOUS
 70
0
 71
3
 72
9
 73
5
 74
0
 42
0.0000001
 43
0.0000001
 44
0.0000000001
 40
0.0
 40
0.0
 40
0.0
 40
0.0
 40
0.4999985058
 40
1.0
 40
1.0
 40
1.0
 40
1.0
 10
-62.9021365949
 20
-18.1438760115
 30
0.0
 10
-62.8814196112
 20
-18.2450484747
 30
0.0
 10
-62.8027815959
 20
-18.4400575198
 30
0.0
 10
-62.6732075328
 20
-18.605655077
 30
0.0
 10
-62.595945441
 20
-18.6741806736
 30
0.0
  0
SPLINE
  5
3BD
100
AcDbEntity
  8
ASSI
100
AcDbSpline
 62
7
  6
CONTINUOUS
 70
0
 71
3
 72
9
 73
5
 74
0
 42
0.0000001
 43
0.0000001
 44
0.0000000001
 40
0.0
 40
0.0
 40
0.0
 40
0.0
 40
0.4999985058
 40
1.0
 40
1.0
 40
1.0
 40
1.0
 10
-45.04769037
 20
-28.452809493
 30
0.0
 10
-45.0269733862
 20
-28.5539819562
 30
0.0
 10
-44.948335371
 20
-28.7489910013
 30
0.0
 10
-44.8187613078
 20
-28.9145885585
 30
0.0
 10
-44.7414992161
 20
-28.9831141551
 30
0.0
  0
SPLINE
  5
3BE
100
AcDbEntity
  8
ASSI
100
AcDbSpline
 62
7
  6
CONTINUOUS
 70
0
 71
3
 72
9
 73
5
 74
0
 42
0.0000001
 43
0.0000001
 44
0.0000000001
 40
0.0
 40
0.0
 40
0.0
 40
0.0
 40
0.4999985058
 40
1.0
 40
1.0
 40
1.0
 40
1.0
 10
-27.5467975356
 20
-38.5576056779
 30
0.0
 10
-27.5260805519
 20
-38.6587781411
 30
0.0
 10
-27.4474425366
 20
-38.8537871862
 30
0.0
 10
-27.3178684734
 20
-39.0193847434
 30
0.0
 10
-27.2406063817
 20
-39.08791034
 30
0.0
  0
SPLINE
  5
3BF
100
AcDbEntity
  8
ASSI
100
AcDbSpline
 62
7
  6
CONTINUOUS
 70
0
 71
3
 72
9
 73
5
 74
0
 42
0.0000001
 43
0.0000001
 44
0.0000000001
 40
0.0
 40
0.0
 40
0.0
 40
0.0
 40
0.4999985058
 40
1.0
 40
1.0
 40
1.0
 40
1.0
 10
-9.6923513107
 20
-48.8665391594
 30
0.0
 10
-9.6716343269
 20
-48.9677116226
 30
0.0
 10
-9.5929963116
 20
-49.1627206677
 30
0.0
 10
-9.4634222485
 20
-49.3283182249
 30
0.0
 10
-9.3861601567
 20
-49.3968438215
 30
0.0
  0
SPLINE
  5
3C0
100
AcDbEntity
  8
ASSI
100
AcDbSpline
 62
7
  6
CONTINUOUS
 70
0
 71
3
 72
11
 73
7
 74
0
 42
0.0000001
 43
0.0000001
 44
0.0000000001
 40
0.0
 40
0.0
 40
0.0
 40
0.0
 40
0.239268013
 40
0.5042876766
 40
0.7669542426
 40
1.0
 40
1.0
 40
1.0
 40
1.0
 10
-70.0940488505
 20
-14.6374806992
 30
0.0
 10
-70.0940488505
 20
-14.7146529035
 30
0.0
 10
-70.063904889
 20
-14.877383251
 30
0.0
 10
-69.9600299678
 20
-15.104044148
 30
0.0
 10
-69.8095510737
 20
-15.3003006572
 30
0.0
 10
-69.6809486543
 20
-15.40047167
 30
0.0
 10
-69.6137629401
 20
-15.4341748438
 30
0.0
  0
SPLINE
  5
3C1
100
AcDbEntity
  8
ASSI
100
AcDbSpline
 62
7
  6
CONTINUOUS
 70
0
 71
3
 72
9
 73
5
 74
0
 42
0.0000001
 43
0.0000001
 44
0.0000000001
 40
0.0
 40
0.0
 40
0.0
 40
0.0
 40
0.4999985058
 40
1.0
 40
1.0
 40
1.0
 40
1.0
 10
25.6629877487
 20
-69.2802688258
 30
0.0
 10
25.6837047324
 20
-69.381441289
 30
0.0
 10
25.7623427477
 20
-69.5764503341
 30
0.0
 10
25.8919168109
 20
-69.7420478913
 30
0.0
 10
25.9691789026
 20
-69.8105734879
 30
0.0
  0
SPLINE
  5
3C2
100
AcDbEntity
  8
ASSI
100
AcDbSpline
 62
7
  6
CONTINUOUS
 70
0
 71
3
 72
9
 73
5
 74
0
 42
0.0000001
 43
0.0000001
 44
0.0000000001
 40
0.0
 40
0.0
 40
0.0
 40
0.0
 40
0.4999985058
 40
1.0
 40
1.0
 40
1.0
 40
1.0
 10
7.8085415237
 20
-58.9713353443
 30
0.0
 10
7.8292585075
 20
-59.0725078075
 30
0.0
 10
7.9078965227
 20
-59.2675168526
 30
0.0
 10
8.0374705859
 20
-59.4331144097
 30
0.0
 10
8.1147326776
 20
-59.5016400064
 30
0.0
  0
SPLINE
  5
3C3
100
AcDbEntity
  8
ASSI
100
AcDbSpline
 62
7
  6
CONTINUOUS
 70
0
 71
3
 72
11
 73
7
 74
0
 42
0.0000001
 43
0.0000001
 44
0.0000000001
 40
0.0
 40
0.0
 40
0.0
 40
0.0
 40
0.2221769249
 40
0.4613137288
 40
0.7202822541
 40
1.0
 40
1.0
 40
1.0
 40
1.0
 10
64.1766900621
 20
-5.6043241857
 30
0.0
 10
64.3541492813
 20
-5.8324907853
 30
0.0
 10
64.6698192509
 20
-6.3488412313
 30
0.0
 10
64.9994890122
 20
-7.2308417293
 30
0.0
 10
65.1969956075
 20
-8.2271358477
 30
0.0
 10
65.2373502338
 20
-8.9290222491
 30
0.0
 10
65.2373502338
 20
-9.2929363636
 30
0.0
  0
SPLINE
  5
3C4
100
AcDbEntity
  8
ASSI
100
AcDbSpline
 62
7
  6
CONTINUOUS
 70
0
 71
3
 72
9
 73
5
 74
0
 42
0.0000001
 43
0.0000001
 44
0.0000000001
 40
0.0
 40
0.0
 40
0.0
 40
0.0
 40
0.5169851367
 40
1.0
 40
1.0
 40
1.0
 40
1.0
 10
-85.8483892945
 20
80.9966536237
 30
0.0
 10
-85.5274454098
 20
80.9296732198
 30
0.0
 10
-84.9138897935
 20
80.757573681
 30
0.0
 10
-84.3428284379
 20
80.4682681767
 30
0.0
 10
-84.0886189184
 20
80.2973681956
 30
0.0
  0
SPLINE
  5
3C5
100
AcDbEntity
  8
ASSI
100
AcDbSpline
 62
7
  6
CONTINUOUS
 70
0
 71
3
 72
9
 73
5
 74
0
 42
0.0000001
 43
0.0000001
 44
0.0000000001
 40
0.0
 40
0.0
 40
0.0
 40
0.0
 40
0.2650732773
 40
1.0
 40
1.0
 40
1.0
 40
1.0
 10
64.1766900621
 20
-5.6043241857
 30
0.0
 10
64.1193590664
 20
-5.5306113721
 30
0.0
 10
63.893797889
 20
-5.2600175583
 30
0.0
 10
63.6299338494
 20
-5.0202131608
 30
0.0
 10
63.4174293463
 20
-4.8723090976
 30
0.0
  0
SPLINE
  5
3C6
100
AcDbEntity
  8
0
100
AcDbSpline
 62
7
  6
CONTINUOUS
 70
0
 71
3
 72
14
 73
10
 74
0
 42
0.0000001
 43
0.0000001
 44
0.0000000001
 40
0.0
 40
0.0
 40
0.0
 40
0.0
 40
0.1080475262
 40
0.2181319937
 40
0.3321063934
 40
0.451502839
 40
0.577463056
 40
0.7107287958
 40
1.0
 40
1.0
 40
1.0
 40
1.0
 10
67.3081762393
 20
-104.9067407191
 30
0.0
 10
67.1442420338
 20
-104.8120871401
 30
0.0
 10
66.8290568656
 20
-104.5921400041
 30
0.0
 10
66.4126001211
 20
-104.1822615805
 30
0.0
 10
66.054428313
 20
-103.6957935924
 30
0.0
 10
65.7578736587
 20
-103.1382172871
 30
0.0
 10
65.5252101479
 20
-102.515130894
 30
0.0
 10
65.2965179585
 20
-101.5800905945
 30
0.0
 10
65.2373502338
 20
-100.8361719228
 30
0.0
 10
65.2373502338
 20
-100.329372226
 30
0.0
  0
SPLINE
  5
3C7
100
AcDbEntity
  8
0
100
AcDbSpline
 62
7
  6
CONTINUOUS
 70
0
 71
3
 72
14
 73
10
 74
0
 42
0.0000001
 43
0.0000001
 44
0.0000000001
 40
0.0
 40
0.0
 40
0.0
 40
0.0
 40
0.108044687
 40
0.2181267512
 40
0.3320995382
 40
0.4514953845
 40
0.5774560923
 40
0.7107233593
 40
1.0
 40
1.0
 40
1.0
 40
1.0
 10
-80.1235876381
 20
-19.7814880102
 30
0.0
 10
-79.959633163
 20
-19.8761532926
 30
0.0
 10
-79.6115238341
 20
-20.039174565
 30
0.0
 10
-79.0482608747
 20
-20.1949318359
 30
0.0
 10
-78.4477994756
 20
-20.2618977922
 30
0.0
 10
-77.8165550941
 20
-20.2399272946
 30
0.0
 10
-77.1605152124
 20
-20.1298505833
 30
0.0
 10
-76.2362545916
 20
-19.8603210858
 30
0.0
 10
-75.5623142251
 20
-19.5395312006
 30
0.0
 10
-75.1233458317
 20
-19.2860763518
 30
0.0
  0
SPLINE
  5
3C8
100
AcDbEntity
  8
0
100
AcDbSpline
 62
7
  6
CONTINUOUS
 70
0
 71
3
 72
15
 73
11
 74
0
 42
0.0000001
 43
0.0000001
 44
0.0000000001
 40
0.0
 40
0.0
 40
0.0
 40
0.0
 40
0.1141563501
 40
0.2373296531
 40
0.3669809065
 40
0.5000060513
 40
0.6330303547
 40
0.7626791494
 40
0.8858485793
 40
1.0
 40
1.0
 40
1.0
 40
1.0
 10
58.8733892032
 20
7.8045774712
 30
0.0
 10
59.052054611
 20
7.701418304
 30
0.0
 10
59.404951406
 20
7.4540292634
 30
0.0
 10
59.8905206108
 20
6.999730474
 30
0.0
 10
60.3380008332
 20
6.4627212518
 30
0.0
 10
60.7305357142
 20
5.8631460533
 30
0.0
 10
61.0535138694
 20
5.2234173378
 30
0.0
 10
61.2948313102
 20
4.5673949588
 30
0.0
 10
61.4454708462
 20
3.9197486815
 30
0.0
 10
61.4832580921
 20
3.490451416
 30
0.0
 10
61.4832580921
 20
3.2841519592
 30
0.0
  0
SPLINE
  5
3C9
100
AcDbEntity
  8
ASSI
100
AcDbSpline
 62
7
  6
CONTINUOUS
 70
0
 71
3
 72
13
 73
9
 74
0
 42
0.0000001
 43
0.0000001
 44
0.0000000001
 40
0.0
 40
0.0
 40
0.0
 40
0.0
 40
0.0938078661
 40
0.1899409295
 40
0.2940983152
 40
0.4094882257
 40
0.6783196243
 40
1.0
 40
1.0
 40
1.0
 40
1.0
 10
61.9306395235
 20
-4.4014956891
 30
0.0
 10
61.8936565663
 20
-4.3886499775
 30
0.0
 10
61.821818156
 20
-4.3526654935
 30
0.0
 10
61.7289483718
 20
-4.2706651705
 30
0.0
 10
61.651467952
 20
-4.1629826423
 30
0.0
 10
61.5638237804
 20
-3.9780277988
 30
0.0
 10
61.4971478329
 20
-3.688132648
 30
0.0
 10
61.4832580921
 20
-3.4414008221
 30
0.0
 10
61.4832580921
 20
-3.3071486949
 30
0.0
  0
SPLINE
  5
3CA
100
AcDbEntity
  8
ASSI
100
AcDbSpline
 62
7
  6
CONTINUOUS
 70
0
 71
3
 72
9
 73
5
 74
0
 42
0.0000001
 43
0.0000001
 44
0.0000000001
 40
0.0
 40
0.0
 40
0.0
 40
0.0
 40
0.4907595646
 40
1.0
 40
1.0
 40
1.0
 40
1.0
 10
-86.5424811298
 20
81.3727584279
 30
0.0
 10
-86.4516322505
 20
81.278929749
 30
0.0
 10
-86.2356948266
 20
81.1154606684
 30
0.0
 10
-85.9810529936
 20
81.024340296
 30
0.0
 10
-85.8483892945
 20
80.9966536237
 30
0.0
  0
SPLINE
  5
3CB
100
AcDbEntity
  8
0
100
AcDbSpline
 62
7
  6
CONTINUOUS
 70
0
 71
3
 72
10
 73
6
 74
0
 42
0.0000001
 43
0.0000001
 44
0.0000000001
 40
0.0
 40
0.0
 40
0.0
 40
0.0
 40
0.4597556838
 40
0.7193418902
 40
1.0
 40
1.0
 40
1.0
 40
1.0
 10
-85.7047300844
 20
90.8199359529
 30
0.0
 10
-85.4846596254
 20
90.8526079624
 30
0.0
 10
-85.1266414844
 20
90.82119788
 30
0.0
 10
-84.668019904
 20
90.6658329701
 30
0.0
 10
-84.4333509607
 20
90.5480931865
 30
0.0
 10
-84.3157339871
 20
90.4801826201
 30
0.0
  0
SPLINE
  5
3CC
100
AcDbEntity
  8
0
100
AcDbSpline
 62
250
  6
CONTINUOUS
 70
0
 71
3
 72
9
 73
5
 74
0
 42
0.0000001
 43
0.0000001
 44
0.0000000001
 40
0.0
 40
0.0
 40
0.0
 40
0.0
 40
0.2405748944
 40
1.0
 40
1.0
 40
1.0
 40
1.0
 10
-83.8429150821
 20
90.2071594839
 30
0.0
 10
-84.0795189038
 20
90.084554909
 30
0.0
 10
-85.0762766602
 20
89.6006651603
 30
0.0
 10
-86.1201169546
 20
89.2161098608
 30
0.0
 10
-86.925602876
 20
88.9735682823
 30
0.0
  0
SPLINE
  5
3CD
100
AcDbEntity
  8
0
100
AcDbSpline
 62
7
  6
CONTINUOUS
 70
0
 71
3
 72
13
 73
9
 74
0
 42
0.0000001
 43
0.0000001
 44
0.0000000001
 40
0.0
 40
0.0
 40
0.0
 40
0.0
 40
0.2931364533
 40
0.5470386235
 40
0.6630994412
 40
0.7750259734
 40
0.8861696761
 40
1.0
 40
1.0
 40
1.0
 40
1.0
 10
-86.925602876
 20
88.9735682823
 30
0.0
 10
-86.925602876
 20
89.2101157066
 30
0.0
 10
-86.8819337561
 20
89.654032097
 30
0.0
 10
-86.6774976084
 20
90.1604958227
 30
0.0
 10
-86.4323683707
 20
90.4656722075
 30
0.0
 10
-86.2184531836
 20
90.6398408979
 30
0.0
 10
-85.9732131131
 20
90.7620255027
 30
0.0
 10
-85.7955899814
 20
90.8064467484
 30
0.0
 10
-85.7047300844
 20
90.8199359529
 30
0.0
  0
SPLINE
  5
3CE
100
AcDbEntity
  8
0
100
AcDbSpline
 62
7
  6
CONTINUOUS
 70
0
 71
3
 72
11
 73
7
 74
0
 42
0.0000001
 43
0.0000001
 44
0.0000000001
 40
0.0
 40
0.0
 40
0.0
 40
0.0
 40
0.2857819281
 40
0.5454417214
 40
0.7814035509
 40
1.0
 40
1.0
 40
1.0
 40
1.0
 10
-82.1944136436
 20
-15.2041195171
 30
0.0
 10
-82.1944136436
 20
-15.6467829447
 30
0.0
 10
-82.135420137
 20
-16.4937130082
 30
0.0
 10
-81.8402275634
 20
-17.6751883225
 30
0.0
 10
-81.3464233249
 20
-18.6759806257
 30
0.0
 10
-80.8760295377
 20
-19.2141817908
 30
0.0
 10
-80.6177813453
 20
-19.4331685639
 30
0.0
  0
SPLINE
  5
3CF
100
AcDbEntity
  8
ASSI
100
AcDbSpline
 62
7
  6
CONTINUOUS
 70
0
 71
3
 72
11
 73
7
 74
0
 42
0.0000001
 43
0.0000001
 44
0.0000000001
 40
0.0
 40
0.0
 40
0.0
 40
0.0
 40
0.2365435589
 40
0.4985727236
 40
0.7613763997
 40
1.0
 40
1.0
 40
1.0
 40
1.0
 10
-57.6578083364
 20
-0.5882836253
 30
0.0
 10
-57.6578083364
 20
-0.6795786944
 30
0.0
 10
-57.6240602567
 20
-0.8721384041
 30
0.0
 10
-57.5059543727
 20
-1.1435361692
 30
0.0
 10
-57.332559686
 20
-1.3844045127
 30
0.0
 10
-57.183861943
 20
-1.5128660696
 30
0.0
 10
-57.1050175318
 20
-1.560464143
 30
0.0
  0
SPLINE
  5
3D0
100
AcDbEntity
  8
ASSI
100
AcDbSpline
 62
7
  6
CONTINUOUS
 70
0
 71
3
 72
11
 73
7
 74
0
 42
0.0000001
 43
0.0000001
 44
0.0000000001
 40
0.0
 40
0.0
 40
0.0
 40
0.0
 40
0.2221769249
 40
0.4613137288
 40
0.7202822541
 40
1.0
 40
1.0
 40
1.0
 40
1.0
 10
-83.2550738153
 20
79.5209285232
 30
0.0
 10
-83.0776145961
 20
79.2927619235
 30
0.0
 10
-82.7619446265
 20
78.7764114776
 30
0.0
 10
-82.4322748651
 20
77.8944109796
 30
0.0
 10
-82.2347682699
 20
76.8981168612
 30
0.0
 10
-82.1944136436
 20
76.1962304598
 30
0.0
 10
-82.1944136436
 20
75.8323163453
 30
0.0
  0
SPLINE
  5
3D1
100
AcDbEntity
  8
ASSI
100
AcDbSpline
 62
7
  6
CONTINUOUS
 70
0
 71
3
 72
9
 73
5
 74
0
 42
0.0000001
 43
0.0000001
 44
0.0000000001
 40
0.0
 40
0.0
 40
0.0
 40
0.0
 40
0.4984378733
 40
1.0
 40
1.0
 40
1.0
 40
1.0
 10
-84.0886189184
 20
80.2973681956
 30
0.0
 10
-83.9310445927
 20
80.1914341247
 30
0.0
 10
-83.6305652464
 20
79.9544000838
 30
0.0
 10
-83.3723736184
 20
79.6717456929
 30
0.0
 10
-83.2550738153
 20
79.5209285232
 30
0.0
  0
SPLINE
  5
3D2
100
AcDbEntity
  8
ASSI
100
AcDbSpline
 62
7
  6
CONTINUOUS
 70
0
 71
3
 72
10
 73
6
 74
0
 42
0.0000001
 43
0.0000001
 44
0.0000000001
 40
0.0
 40
0.0
 40
0.0
 40
0.0
 40
0.5117007413
 40
0.7569667119
 40
1.0
 40
1.0
 40
1.0
 40
1.0
 10
-86.925602876
 20
82.3822676282
 30
0.0
 10
-86.925602876
 20
82.1940810351
 30
0.0
 10
-86.8800576271
 20
81.9111159817
 30
0.0
 10
-86.7162959287
 20
81.5796719462
 30
0.0
 10
-86.6046542009
 20
81.4369707457
 30
0.0
 10
-86.5424811298
 20
81.3727584279
 30
0.0
  0
SPLINE
  5
3D3
100
AcDbEntity
  8
SUPERFICI
100
AcDbSpline
 62
250
  6
CONTINUOUS
 70
0
 71
3
 72
19
 73
15
 74
0
 42
0.0000001
 43
0.0000001
 44
0.0000000001
 40
0.0
 40
0.0
 40
0.0
 40
0.0
 40
0.142500602
 40
0.209218491
 40
0.2726282922
 40
0.3901046116
 40
0.4456139326
 40
0.4999888311
 40
0.5543642829
 40
0.6098751834
 40
0.7273570575
 40
0.7907703573
 40
0.857491958
 40
1.0
 40
1.0
 40
1.0
 40
1.0
 10
-60.6276568174
 20
103.389371835
 30
0.0
 10
-60.6276568174
 20
103.5279125243
 30
0.0
 10
-60.6129324014
 20
103.7321168725
 30
0.0
 10
-60.555109918
 20
103.9912813688
 30
0.0
 10
-60.4765276375
 20
104.2191505006
 30
0.0
 10
-60.3587109361
 20
104.4211678549
 30
0.0
 10
-60.2031038874
 20
104.5795022725
 30
0.0
 10
-60.0721397359
 20
104.6724829391
 30
0.0
 10
-59.9261251502
 20
104.7393950949
 30
0.0
 10
-59.7111869818
 20
104.7949667783
 30
0.0
 10
-59.4773166037
 20
104.7959701125
 30
0.0
 10
-59.2406758298
 20
104.750072426
 30
0.0
 10
-58.9873120935
 20
104.6705487286
 30
0.0
 10
-58.8030972571
 20
104.5811872731
 30
0.0
 10
-58.6831131691
 20
104.5119099645
 30
0.0
  0
SPLINE
  5
3D4
100
AcDbEntity
  8
SUPERFICI
100
AcDbSpline
 62
7
  6
CONTINUOUS
 70
0
 71
3
 72
11
 73
7
 74
0
 42
0.0000001
 43
0.0000001
 44
0.0000000001
 40
0.0
 40
0.0
 40
0.0
 40
0.0
 40
0.2372504025
 40
0.5000654713
 40
0.7625988039
 40
1.0
 40
1.0
 40
1.0
 40
1.0
 10
-60.6276568174
 20
103.389371835
 30
0.0
 10
-60.6527516487
 20
103.4038612761
 30
0.0
 10
-60.7111095785
 20
103.4249834744
 30
0.0
 10
-60.8044175
 20
103.4352346516
 30
0.0
 10
-60.8976367835
 20
103.424670385
 30
0.0
 10
-60.9560994266
 20
103.4038704854
 30
0.0
 10
-60.981210208
 20
103.389371835
 30
0.0
  0
SPLINE
  5
3D5
100
AcDbEntity
  8
SUPERFICI
100
AcDbSpline
 62
7
  6
CONTINUOUS
 70
0
 71
3
 72
15
 73
11
 74
0
 42
0.0000001
 43
0.0000001
 44
0.0000000001
 40
0.0
 40
0.0
 40
0.0
 40
0.0
 40
0.1449332302
 40
0.274672991
 40
0.3914075532
 40
0.5003017565
 40
0.6092090421
 40
0.7259481374
 40
0.8553819363
 40
1.0
 40
1.0
 40
1.0
 40
1.0
 10
-58.6831131691
 20
104.5119099645
 30
0.0
 10
-58.6831131691
 20
104.524576138
 30
0.0
 10
-58.6850550824
 20
104.5486604145
 30
0.0
 10
-58.6947868824
 20
104.5817649776
 30
0.0
 10
-58.7112160133
 20
104.6086364453
 30
0.0
 10
-58.7340225972
 20
104.6278711485
 30
0.0
 10
-58.7621640604
 20
104.6377494089
 30
0.0
 10
-58.7935991228
 20
104.6384493507
 30
0.0
 10
-58.8271200904
 20
104.6305494828
 30
0.0
 10
-58.8489446659
 20
104.6202785058
 30
0.0
 10
-58.8598898644
 20
104.6139588854
 30
0.0
  0
SPLINE
  5
3D6
100
AcDbEntity
  8
SUPERFICI
100
AcDbSpline
 62
7
  6
CONTINUOUS
 70
0
 71
3
 72
21
 73
17
 74
0
 42
0.0000001
 43
0.0000001
 44
0.0000000001
 40
0.0
 40
0.0
 40
0.0
 40
0.0
 40
0.1446180899
 40
0.2112633095
 40
0.2742492573
 40
0.3339309561
 40
0.3909147871
 40
0.4459655074
 40
0.4999889713
 40
0.5540129482
 40
0.6090651519
 40
0.6660513032
 40
0.7257359829
 40
0.7887253772
 40
0.8553743131
 40
1.0
 40
1.0
 40
1.0
 40
1.0
 10
-60.981210208
 20
103.389371835
 30
0.0
 10
-60.981210208
 20
103.5413955617
 30
0.0
 10
-60.9632582485
 20
103.7645500429
 30
0.0
 10
-60.8947512199
 20
104.0450775798
 30
0.0
 10
-60.8250917999
 20
104.2320685347
 30
0.0
 10
-60.7359810201
 20
104.3992643328
 30
0.0
 10
-60.6284521264
 20
104.5451125192
 30
0.0
 10
-60.5035507552
 20
104.668160364
 30
0.0
 10
-60.362362476
 20
104.7669085997
 30
0.0
 10
-60.2062402738
 20
104.8397902199
 30
0.0
 10
-60.0372177843
 20
104.8864173596
 30
0.0
 10
-59.8571361948
 20
104.9065997728
 30
0.0
 10
-59.6677764216
 20
104.9001584582
 30
0.0
 10
-59.4709995732
 20
104.8669749717
 30
0.0
 10
-59.1937915894
 20
104.7860209326
 30
0.0
 10
-58.9915510691
 20
104.6899784148
 30
0.0
 10
-58.8598898644
 20
104.6139588854
 30
0.0
  0
SPLINE
  5
3D7
100
AcDbEntity
  8
SUPERFICI
100
AcDbSpline
 62
250
  6
CONTINUOUS
 70
0
 71
3
 72
15
 73
11
 74
0
 42
0.0000001
 43
0.0000001
 44
0.0000000001
 40
0.0
 40
0.0
 40
0.0
 40
0.0
 40
0.1123336622
 40
0.2348340218
 40
0.3653234455
 40
0.5000062022
 40
0.6346880478
 40
0.7651748735
 40
0.8876712411
 40
1.0
 40
1.0
 40
1.0
 40
1.0
 10
84.5060100212
 20
21.8363048156
 30
0.0
 10
84.6372307803
 20
21.7605395939
 30
0.0
 10
84.8991824934
 20
21.5801721041
 30
0.0
 10
85.2647707674
 20
21.2477576772
 30
0.0
 10
85.6037886319
 20
20.8478308261
 30
0.0
 10
85.9021646888
 20
20.3969801004
 30
0.0
 10
86.1434234773
 20
19.9131567059
 30
0.0
 10
86.3202566135
 20
19.4196041523
 30
0.0
 10
86.4253339493
 20
18.9368022352
 30
0.0
 10
86.4505536694
 20
18.6197729309
 30
0.0
 10
86.4505536694
 20
18.4682564228
 30
0.0
  0
SPLINE
  5
3D8
100
AcDbEntity
  8
SUPERFICI
100
AcDbSpline
 62
7
  6
CONTINUOUS
 70
0
 71
3
 72
15
 73
11
 74
0
 42
0.0000001
 43
0.0000001
 44
0.0000000001
 40
0.0
 40
0.0
 40
0.0
 40
0.0
 40
0.1449332302
 40
0.274672991
 40
0.3914075532
 40
0.5003017565
 40
0.6092090421
 40
0.7259481374
 40
0.8553819363
 40
1.0
 40
1.0
 40
1.0
 40
1.0
 10
84.5060100212
 20
21.8363048156
 30
0.0
 10
84.5060100212
 20
21.8489709891
 30
0.0
 10
84.5040681079
 20
21.8730552657
 30
0.0
 10
84.4943363078
 20
21.9061598288
 30
0.0
 10
84.477907177
 20
21.9330312964
 30
0.0
 10
84.4551005931
 20
21.9522659996
 30
0.0
 10
84.4269591299
 20
21.96214426
 30
0.0
 10
84.3955240675
 20
21.9628442018
 30
0.0
 10
84.3620030999
 20
21.9549443339
 30
0.0
 10
84.3401785243
 20
21.9446733569
 30
0.0
 10
84.3292333259
 20
21.9383537365
 30
0.0
  0
SPLINE
  5
3D9
100
AcDbEntity
  8
SUPERFICI
100
AcDbSpline
 62
7
  6
CONTINUOUS
 70
0
 71
3
 72
15
 73
11
 74
0
 42
0.0000001
 43
0.0000001
 44
0.0000000001
 40
0.0
 40
0.0
 40
0.0
 40
0.0
 40
0.1141756139
 40
0.2373290017
 40
0.3669847838
 40
0.5000060516
 40
0.6330264752
 40
0.7626798014
 40
0.8858293144
 40
1.0
 40
1.0
 40
1.0
 40
1.0
 10
84.3292333259
 20
21.9383537365
 30
0.0
 10
84.4744763423
 20
21.8544922392
 30
0.0
 10
84.7611614149
 20
21.6532204804
 30
0.0
 10
85.1560740923
 20
21.2842241204
 30
0.0
 10
85.5194988567
 20
20.8475395362
 30
0.0
 10
85.8388355868
 20
20.3604020215
 30
0.0
 10
86.1010392548
 20
19.8402828427
 30
0.0
 10
86.2975018836
 20
19.3072147992
 30
0.0
 10
86.4195975026
 20
18.7807271502
 30
0.0
 10
86.4505536694
 20
18.4318267775
 30
0.0
 10
86.4505536694
 20
18.2641191261
 30
0.0
  0
SPLINE
  5
3DA
100
AcDbEntity
  8
SUPERFICI
100
AcDbSpline
 62
7
  6
CONTINUOUS
 70
0
 71
3
 72
15
 73
11
 74
0
 42
0.0000001
 43
0.0000001
 44
0.0000000001
 40
0.0
 40
0.0
 40
0.0
 40
0.0
 40
0.1449328566
 40
0.274675074
 40
0.3914140503
 40
0.5003128564
 40
0.6092226658
 40
0.7259607751
 40
0.8553898776
 40
1.0
 40
1.0
 40
1.0
 40
1.0
 10
86.4505536694
 20
18.4682564228
 30
0.0
 10
86.4615233603
 20
18.4619226608
 30
0.0
 10
86.4814109579
 20
18.4481972603
 30
0.0
 10
86.5052157305
 20
18.4232145669
 30
0.0
 10
86.5202738976
 20
18.3955482929
 30
0.0
 10
86.5255299585
 20
18.3661774006
 30
0.0
 10
86.5200158791
 20
18.3368643907
 30
0.0
 10
86.5049061638
 20
18.309288086
 30
0.0
 10
86.481305574
 20
18.2842054363
 30
0.0
 10
86.4614989331
 20
18.2704387842
 30
0.0
 10
86.4505536694
 20
18.2641191261
 30
0.0
  0
ENDSEC
  0
SECTION
  2
OBJECTS
  0
DICTIONARY
  5
C
100
AcDbDictionary
280
0
281
1
  3
ACAD_GROUP
350
D
  3
ACAD_MLINESTYLE
350
17
  3
ACAD_LAYOUT
350
1A
  3
ACAD_PLOTSETTINGS
350
19
  3
ACAD_PLOTSTYLENAME
350
E
  0
DICTIONARY
  5
D
102
{ACAD_REACTORS
330
C
102
}
100
AcDbDictionary
280
0
281
1
  0
ACDBDICTIONARYWDFLT
  5
E
102
{ACAD_REACTORS
330
C
102
}
100
AcDbDictionary
281
1
  3
Normal
350
F
100
AcDbDictionaryWithDefault
340
F
  0
DICTIONARY
  5
17
102
{ACAD_REACTORS
330
C
102
}
100
AcDbDictionary
280
0
281
1
  3
Standard
350
18
  0
DICTIONARY
  5
19
102
{ACAD_REACTORS
330
C
102
}
100
AcDbDictionary
281
1
  0
DICTIONARY
  5
1A
102
{ACAD_REACTORS
330
C
102
}
100
AcDbDictionary
281
1
  3
Model
350
3DB
  3
Layout1
350
3DC
  0
ACDBPLACEHOLDER
  5
F
102
{ACAD_REACTORS
330
E
102
}
  0
MLINESTYLE
  5
18
102
{ACAD_REACTORS
330
17
102
}
100
AcDbMlineStyle
  2
STANDARD
 70
0
  3

 62
256
 51
90.0
 52
90.0
 71
2
 49
0.5
 62
256
  6
BYLAYER
 49
-0.5
 62
256
  6
BYLAYER
  0
LAYOUT
  5
3DB
102
{ACAD_REACTORS
330
1A
102
}
100
AcDbPlotSettings
  1

  2
none_device
  4
ANSI_C_(22.00_x_17.00_Inches)
  6

 40
0.0
 41
0.0
 42
0.0
 43
0.0
 44
558.8
 45
431.8
 46
0.0
 47
0.0
 48
0.0
 49
0.0
140
0.0
141
0.0
142
1.0
143
1.0
 70
1024
 72
1
 73
0
 74
0
  7

 75
0
147
1.0
148
0.0
149
0.0
100
AcDbLayout
  1
Model
 70
0
 71
0
 10
0.0
 20
0.0
 11
558.8
 21
431.8
 12
0.0
 22
0.0
 32
0.0
 14
0.0
 24
0.0
 34
0.0
 15
0.0
 25
0.0
 35
0.0
146
0.0
 13
0.0
 23
0.0
 33
0.0
 16
1.0
 26
0.0
 36
0.0
 17
0.0
 27
1.0
 37
0.0
 76
0
330
20E
345
0
346
0
  0
LAYOUT
  5
3DC
102
{ACAD_REACTORS
330
1A
102
}
100
AcDbPlotSettings
  1

  2
none_device
  4
ANSI_C_(22.00_x_17.00_Inches)
  6

 40
0.0
 41
0.0
 42
0.0
 43
0.0
 44
558.8
 45
431.8
 46
0.0
 47
0.0
 48
0.0
 49
0.0
140
0.0
141
0.0
142
1.0
143
1.0
 70
0
 72
1
 73
0
 74
0
  7

 75
0
147
1.0
148
0.0
149
0.0
100
AcDbLayout
  1
Layout1
 70
0
 71
1
 10
0.0
 20
0.0
 11
558.8
 21
431.8
 12
0.0
 22
0.0
 32
0.0
 14
0.0
 24
0.0
 34
0.0
 15
0.0
 25
0.0
 35
0.0
146
0.0
 13
0.0
 23
0.0
 33
0.0
 16
1.0
 26
0.0
 36
0.0
 17
0.0
 27
1.0
 37
0.0
 76
0
330
20F
345
0
346
0
  0
ENDSEC
  0
EOF
