  0
SECTION
  2
HEADER
  9
$ACADVER
  1
AC1024
  9
$DWGCODEPAGE
  3
ANSI_1252
  9
$EXTMAX
 10
558.8
 20
431.8
 30
0.0
  9
$EXTMIN
 10
0.0
 20
0.0
 30
0.0
  9
$LIMMIN
 10
0.0
 20
0.0
  9
$LIMMAX
 10
558.8
 20
431.8
  9
$VIEWCTR
 10
279.4
 20
215.9
  9
$VIEWSIZE
 40
431.8
  9
$CLAYER
  8
0
  9
$LTSCALE
 40
30.734
  9
$CELTYPE
  6
BYLAYER
  9
$DIMSCALE
 40
1.0
  9
$DIMASZ
 40
3.0
  9
$DIMEXO
 40
0.5
  9
$DIMDLI
 40
21.2344
  9
$DIMEXE
 40
1.5
  9
$DIMCEN
 40
5.0292
  9
$DIMLFAC
 40
1.0
  9
$DIMBLK
  1
_FILLED
  9
$DIMALT
 70
0
  9
$DIMALTF
 40
0.0393700787
  9
$DIMTXT
 40
3.0
  9
$DIMTOL
 70
1
  9
$DIMLIM
 70
0
  9
$DIMTFAC
 40
1.0
  9
$DIMTP
 40
0.01
  9
$DIMTM
 40
0.01
  9
$DIMGAP
 40
0.625
  9
$DIMDSEP
 70
44
  9
$AUNITS
 70
0
  9
$PDMODE
 70
3
  9
$PDSIZE
 40
3.0
  9
$HANDSEED
  5
399
  9
$TILEMODE
 70
1
  9
$MEASUREMENT
 70
1
  9
$INSUNITS
 70
4
  0
ENDSEC
  0
SECTION
  2
CLASSES
  0
CLASS
  1
ACDBDICTIONARYWDFLT
  2
AcDbDictionaryWithDefault
  3
AutoCAD 2000
 90
0
 91
1
280
0
281
0
  0
CLASS
  1
ACDBPLACEHOLDER
  2
AcDbPlaceHolder
  3
AutoCAD 2000
 90
0
 91
1
280
0
281
0
  0
CLASS
  1
LAYOUT
  2
AcDbLayout
  3
AutoCAD 2000
 90
0
 91
0
280
0
281
0
  0
ENDSEC
  0
SECTION
  2
TABLES
  0
TABLE
  2
VPORT
  5
8
100
AcDbSymbolTable
 70
2
  0
VPORT
  5
1F4
100
AcDbSymbolTableRecord
100
AcDbViewportTableRecord
  2
*ACTIVE
 70
0
 10
0.0
 20
0.0
 11
1.0
 21
1.0
 12
279.4
 22
215.9
 13
0.0
 23
0.0
 14
1.0
 24
1.0
 15
0.0
 25
0.0
 16
0.0
 26
0.0
 36
1.0
 17
0.0
 27
0.0
 37
0.0
 40
431.8
 41
1.2941176471
 42
50.0
 43
0.0
 44
0.0
 50
0.0
 51
0.0
 71
0
 72
100
 73
1
 74
1
 75
0
 76
0
 77
0
 78
0
  0
ENDTAB
  0
TABLE
  2
LTYPE
  5
5
100
AcDbSymbolTable
 70
6
  0
LTYPE
  5
14
100
AcDbSymbolTableRecord
100
AcDbLinetypeTableRecord
  2
BYBLOCK
 70
0
  3

 72
65
 73
0
 40
0.0
  0
LTYPE
  5
15
100
AcDbSymbolTableRecord
100
AcDbLinetypeTableRecord
  2
BYLAYER
 70
0
  3

 72
65
 73
0
 40
0.0
  0
LTYPE
  5
16
100
AcDbSymbolTableRecord
100
AcDbLinetypeTableRecord
  2
CONTINUOUS
 70
64
  3
Solid line
 72
65
 73
0
 40
0.0
  0
LTYPE
  5
1F5
100
AcDbSymbolTableRecord
100
AcDbLinetypeTableRecord
  2
CENTER
 70
64
  3
____ _ ____ _ ____ _ ____ _ ____ _ ____ _ ____
 72
65
 73
4
 40
0.6
 49
0.375
 74
0
 49
-0.075
 74
0
 49
0.075
 74
0
 49
-0.075
 74
0
  0
LTYPE
  5
1F6
100
AcDbSymbolTableRecord
100
AcDbLinetypeTableRecord
  2
HIDDEN
 70
64
  3
- - - - - - - - - - - - - - - - - - - -
 72
65
 73
2
 40
0.2
 49
0.1
 74
0
 49
-0.1
 74
0
  0
LTYPE
  5
1F7
100
AcDbSymbolTableRecord
100
AcDbLinetypeTableRecord
  2
PHANTOM
 70
64
  3
_____ _ _ _____ _ _ _____ _ _ _____
 72
65
 73
6
 40
0.8
 49
0.45
 74
0
 49
-0.05
 74
0
 49
0.1
 74
0
 49
-0.05
 74
0
 49
0.1
 74
0
 49
-0.05
 74
0
  0
LTYPE
  5
1F8
100
AcDbSymbolTableRecord
100
AcDbLinetypeTableRecord
  2
DOT
 70
64
  3
. . . . . . . . . . . . . . . . . . . .
 72
65
 73
2
 40
0.2
 49
0.1
 74
0
 49
-0.1
 74
0
  0
LTYPE
  5
1F9
100
AcDbSymbolTableRecord
100
AcDbLinetypeTableRecord
  2
DASHED
 70
64
  3
- - - - - - - - - - - - - - - - - - - -
 72
65
 73
2
 40
0.2
 49
0.1
 74
0
 49
-0.1
 74
0
  0
ENDTAB
  0
TABLE
  2
LAYER
  5
2
100
AcDbSymbolTable
 70
36
  0
LAYER
  5
10
100
AcDbSymbolTableRecord
100
AcDbLayerTableRecord
  2
0
 70
0
 62
7
  6
CONTINUOUS
370
-3
390
F
  0
LAYER
  5
1FA
100
AcDbSymbolTableRecord
100
AcDbLayerTableRecord
  2
DEFAULT_1
 70
0
 62
7
  6
CENTER
370
-3
390
F
  0
LAYER
  5
1FB
100
AcDbSymbolTableRecord
100
AcDbLayerTableRecord
  2
DEFAULT_2
 70
0
 62
7
  6
HIDDEN
370
-3
390
F
  0
LAYER
  5
1FC
100
AcDbSymbolTableRecord
100
AcDbLayerTableRecord
  2
DEFAULT_3
 70
0
 62
7
  6
PHANTOM
370
-3
390
F
  0
LAYER
  5
1FD
100
AcDbSymbolTableRecord
100
AcDbLayerTableRecord
  2
ASSI
 70
0
 62
7
  6
CONTINUOUS
370
-3
390
F
  0
LAYER
  5
1FE
100
AcDbSymbolTableRecord
100
AcDbLayerTableRecord
  2
COORDINATE
 70
0
 62
7
  6
CONTINUOUS
370
-3
390
F
  0
LAYER
  5
1FF
100
AcDbSymbolTableRecord
100
AcDbLayerTableRecord
  2
COPY_PUBLISH
 70
0
 62
7
  6
CONTINUOUS
370
-3
390
F
  0
LAYER
  5
200
100
AcDbSymbolTableRecord
100
AcDbLayerTableRecord
  2
COSMETICI
 70
0
 62
7
  6
CONTINUOUS
370
-3
390
F
  0
LAYER
  5
201
100
AcDbSymbolTableRecord
100
AcDbLayerTableRecord
  2
CURVE
 70
0
 62
7
  6
CONTINUOUS
370
-3
390
F
  0
LAYER
  5
202
100
AcDbSymbolTableRecord
100
AcDbLayerTableRecord
  2
IMPORT_IGES
 70
0
 62
7
  6
CONTINUOUS
370
-3
390
F
  0
LAYER
  5
203
100
AcDbSymbolTableRecord
100
AcDbLayerTableRecord
  2
INTF_1
 70
0
 62
7
  6
CONTINUOUS
370
-3
390
F
  0
LAYER
  5
204
100
AcDbSymbolTableRecord
100
AcDbLayerTableRecord
  2
NOTE
 70
0
 62
7
  6
CONTINUOUS
370
-3
390
F
  0
LAYER
  5
205
100
AcDbSymbolTableRecord
100
AcDbLayerTableRecord
  2
PIANI
 70
0
 62
7
  6
CONTINUOUS
370
-3
390
F
  0
LAYER
  5
206
100
AcDbSymbolTableRecord
100
AcDbLayerTableRecord
  2
PUNTI
 70
0
 62
7
  6
CONTINUOUS
370
-3
390
F
  0
LAYER
  5
207
100
AcDbSymbolTableRecord
100
AcDbLayerTableRecord
  2
RACCORDO
 70
0
 62
7
  6
CONTINUOUS
370
-3
390
F
  0
LAYER
  5
208
100
AcDbSymbolTableRecord
100
AcDbLayerTableRecord
  2
SIMBOLI
 70
0
 62
7
  6
CONTINUOUS
370
-3
390
F
  0
LAYER
  5
209
100
AcDbSymbolTableRecord
100
AcDbLayerTableRecord
  2
SMUSSO
 70
0
 62
7
  6
CONTINUOUS
370
-3
390
F
  0
LAYER
  5
20A
100
AcDbSymbolTableRecord
100
AcDbLayerTableRecord
  2
SUPERFICI
 70
0
 62
7
  6
CONTINUOUS
370
-3
390
F
  0
LAYER
  5
20B
100
AcDbSymbolTableRecord
100
AcDbLayerTableRecord
  2
TRASH
 70
0
 62
7
  6
CONTINUOUS
370
-3
390
F
  0
ENDTAB
  0
TABLE
  2
STYLE
  5
3
100
AcDbSymbolTable
 70
1
  0
STYLE
  5
11
100
AcDbSymbolTableRecord
100
AcDbTextStyleTableRecord
  2
STANDARD
 70
0
 40
0.0
 41
0.8
 50
0.0
 71
0
 42
0.2
  3
txt
  4

  0
STYLE
  5
20C
100
AcDbSymbolTableRecord
100
AcDbTextStyleTableRecord
  2
TEXTSTYLE_1
 70
0
 40
0.0
 41
0.8
 50
0.0
 71
0
 42
0.2
  3
gdt
  4

  0
ENDTAB
  0
TABLE
  2
VIEW
  5
6
100
AcDbSymbolTable
 70
0
  0
ENDTAB
  0
TABLE
  2
UCS
  5
7
100
AcDbSymbolTable
 70
0
  0
ENDTAB
  0
TABLE
  2
APPID
  5
9
100
AcDbSymbolTable
 70
1
  0
APPID
  5
20D
100
AcDbSymbolTableRecord
100
AcDbRegAppTableRecord
  2
ACAD
 70
0
  0
ENDTAB
  0
TABLE
  2
BLOCK_RECORD
  5
1
100
AcDbSymbolTable
 70
0
  0
BLOCK_RECORD
  5
20E
100
AcDbSymbolTableRecord
100
AcDbBlockTableRecord
  2
*Model_Space
  0
BLOCK_RECORD
  5
20F
100
AcDbSymbolTableRecord
100
AcDbBlockTableRecord
  2
*Paper_Space
  0
BLOCK_RECORD
  5
210
100
AcDbSymbolTableRecord
100
AcDbBlockTableRecord
  2
_FILLED
  0
ENDTAB
  0
TABLE
  2
DIMSTYLE
  5
A
100
AcDbSymbolTable
 70
1
100
AcDbDimStyleTable
 71
0
  0
DIMSTYLE
105
211
100
AcDbSymbolTableRecord
100
AcDbDimStyleTableRecord
  2
STANDARD
 70
0
  3

  4

 40
1.0
 41
3.0
 42
0.5
 43
0.38
 44
1.5
 45
0.0
 46
0.0
 47
0.01
 48
0.01
140
3.0
141
0.09
142
0.0
143
25.4
144
1.0
145
0.0
146
1.0
147
0.625
 71
1
 72
0
 73
0
 74
0
 75
0
 76
0
 77
1
 78
8
 79
2
170
0
171
1
172
0
173
0
174
0
175
0
176
0
177
0
178
0
270
2
179
2
271
2
272
2
273
2
274
2
275
0
280
0
281
0
282
0
283
1
284
8
285
0
286
0
287
3
288
0
340
11
278
44
341
210
342
210
343
210
344
210
  0
ENDTAB
  0
ENDSEC
  0
SECTION
  2
BLOCKS
  0
BLOCK
  5
20
100
AcDbEntity
  8
0
100
AcDbBlockBegin
  2
*Model_Space
 70
0
 10
0.0
 20
0.0
 30
0.0
  3
*Model_Space
  1

  0
ENDBLK
  5
21
100
AcDbEntity
  8
0
100
AcDbBlockEnd
  0
BLOCK
  5
1C
100
AcDbEntity
  8
0
100
AcDbBlockBegin
  2
*Paper_Space
 70
0
 10
0.0
 20
0.0
 30
0.0
  3
*Paper_Space
  1

  0
ENDBLK
  5
1D
100
AcDbEntity
  8
0
100
AcDbBlockEnd
  0
BLOCK
  5
212
100
AcDbEntity
  8
0
100
AcDbBlockBegin
  2
_FILLED
 70
64
 10
0.0
 20
0.0
  3
_FILLED
  1

  0
SOLID
  5
213
100
AcDbEntity
  8
0
  6
BYBLOCK
 62
0
100
AcDbTrace
 10
0.0
 20
0.0
 11
-1.0
 21
0.1333333333
 12
-1.0
 22
-0.1333333333
 13
-1.0
 23
-0.1333333333
  0
ENDBLK
  5
214
100
AcDbEntity
  8
0
  6
BYBLOCK
 62
0
100
AcDbBlockEnd
  0
ENDSEC
  0
SECTION
  2
ENTITIES
  0
LINE
  5
215
100
AcDbEntity
  8
0
100
AcDbLine
 62
7
  6
CONTINUOUS
 10
-65.3311745426
 20
82.3469121141
 11
-43.0573109353
 21
95.2075618039
  0
LINE
  5
216
100
AcDbEntity
  8
0
100
AcDbLine
 62
250
  6
CONTINUOUS
 10
-63.4560839421
 20
82.1611326978
 11
-41.1822203347
 21
95.0217823876
  0
LINE
  5
217
100
AcDbEntity
  8
0
100
AcDbLine
 62
250
  6
CONTINUOUS
 10
-50.2054190455
 20
70.7876499033
 11
-50.5513851855
 21
70.5878933901
  0
LINE
  5
218
100
AcDbEntity
  8
0
100
AcDbLine
 62
7
  6
CONTINUOUS
 10
-49.4636470941
 20
70.3593600752
 11
-50.0210550996
 21
70.0375196787
  0
LINE
  5
219
100
AcDbEntity
  8
0
100
AcDbLine
 62
250
  6
CONTINUOUS
 10
-66.6380644574
 20
80.2756534148
 11
-66.4789654317
 21
80.9516624511
  0
LINE
  5
21A
100
AcDbEntity
  8
0
100
AcDbLine
 62
7
  6
CONTINUOUS
 10
-48.9333170082
 20
70.0531541302
 11
-50.0210550996
 21
69.4251077888
  0
LINE
  5
21B
100
AcDbEntity
  8
ASSI
100
AcDbLine
 62
7
  6
CONTINUOUS
 10
-69.5947369792
 20
72.561702061
 11
-69.5947369792
 21
79.1530027151
  0
LINE
  5
21C
100
AcDbEntity
  8
ASSI
100
AcDbLine
 62
7
  6
CONTINUOUS
 10
-69.2479333464
 20
72.1777384229
 11
-69.2479333464
 21
78.769039077
  0
LINE
  5
21D
100
AcDbEntity
  8
ASSI
100
AcDbLine
 62
250
  6
CONTINUOUS
 10
-65.5774042857
 20
69.3163993178
 11
-65.5774042857
 21
79.6632415248
  0
LINE
  5
21E
100
AcDbEntity
  8
0
100
AcDbLine
 62
7
  6
CONTINUOUS
 10
-65.0470741998
 20
-25.1024427775
 11
-65.0470741998
 21
65.9339930849
  0
LINE
  5
21F
100
AcDbEntity
  8
0
100
AcDbLine
 62
7
  6
CONTINUOUS
 10
-64.5167441139
 20
-25.4086487225
 11
-64.5167441139
 21
65.6277871399
  0
LINE
  5
220
100
AcDbEntity
  8
0
100
AcDbLine
 62
7
  6
CONTINUOUS
 10
-57.0921229114
 20
74.7639464048
 11
-57.0921229114
 21
-29.2864682604
  0
LINE
  5
221
100
AcDbEntity
  8
ASSI
100
AcDbLine
 62
250
  6
CONTINUOUS
 10
-24.034880891
 20
48.8494511804
 11
-24.5652109768
 21
48.5432452354
  0
LINE
  5
222
100
AcDbEntity
  8
0
100
AcDbLine
 62
7
  6
CONTINUOUS
 10
50.1608370005
 20
-95.0037463213
 11
49.6305069147
 21
-94.6975403763
  0
LINE
  5
223
100
AcDbEntity
  8
0
100
AcDbLine
 62
7
  6
CONTINUOUS
 10
-62.9762479893
 20
-29.6798113889
 11
-62.4459179034
 21
-29.9860173339
  0
LINE
  5
224
100
AcDbEntity
  8
0
100
AcDbLine
 62
250
  6
CONTINUOUS
 10
48.0900107901
 20
-90.4263777099
 11
47.5596807042
 21
-90.1201717649
  0
LINE
  5
225
100
AcDbEntity
  8
0
100
AcDbLine
 62
250
  6
CONTINUOUS
 10
-65.0470741998
 20
-25.1024427775
 11
-64.5167441139
 21
-25.4086487225
  0
LINE
  5
226
100
AcDbEntity
  8
0
100
AcDbLine
 62
7
  6
CONTINUOUS
 10
-50.5513851855
 20
-22.4897181643
 11
-50.5513851855
 21
70.5878933901
  0
LINE
  5
227
100
AcDbEntity
  8
0
100
AcDbLine
 62
7
  6
CONTINUOUS
 10
-50.0210550996
 20
-22.1835122193
 11
-50.0210550996
 21
70.6812004716
  0
LINE
  5
228
100
AcDbEntity
  8
0
100
AcDbLine
 62
250
  6
CONTINUOUS
 10
-14.8500799862
 20
50.373920237
 11
-15.1960461261
 21
50.1741637237
  0
LINE
  5
229
100
AcDbEntity
  8
0
100
AcDbLine
 62
7
  6
CONTINUOUS
 10
-57.0921229114
 20
-29.2864682604
 11
47.5596807042
 21
-89.7111080729
  0
LINE
  5
22A
100
AcDbEntity
  8
IMPORT_IGES
100
AcDbLine
 62
7
  6
CONTINUOUS
 10
-5.36658552
 20
-56.9102240381
 11
-3.4634482771
 21
-58.0090716302
  0
LINE
  5
22B
100
AcDbEntity
  8
CURVE
100
AcDbLine
 62
250
  6
CONTINUOUS
 10
-5.36658552
 20
-56.9102240381
 11
-3.4634482771
 21
-58.0090716302
  0
LINE
  5
22C
100
AcDbEntity
  8
IMPORT_IGES
100
AcDbLine
 62
7
  6
CONTINUOUS
 10
-3.2760282105
 20
-58.1172856277
 11
-1.7465138164
 21
-59.0004080696
  0
LINE
  5
22D
100
AcDbEntity
  8
CURVE
100
AcDbLine
 62
250
  6
CONTINUOUS
 10
-3.2760282105
 20
-58.1172856277
 11
-1.7465138164
 21
-59.0004080696
  0
LINE
  5
22E
100
AcDbEntity
  8
IMPORT_IGES
100
AcDbLine
 62
7
  6
CONTINUOUS
 10
-0.4892051274
 20
-59.7263623488
 11
1.2676200552
 21
-60.7407311911
  0
LINE
  5
22F
100
AcDbEntity
  8
CURVE
100
AcDbLine
 62
250
  6
CONTINUOUS
 10
-0.4892051274
 20
-59.7263623488
 11
1.2676200552
 21
-60.7407311911
  0
LINE
  5
230
100
AcDbEntity
  8
IMPORT_IGES
100
AcDbLine
 62
7
  6
CONTINUOUS
 10
1.4328631318
 20
-60.8309877286
 11
2.0251428428
 21
-61.1729626107
  0
LINE
  5
231
100
AcDbEntity
  8
CURVE
100
AcDbLine
 62
250
  6
CONTINUOUS
 10
1.4328631318
 20
-60.8309877286
 11
2.0251428428
 21
-61.1729626107
  0
LINE
  5
232
100
AcDbEntity
  8
IMPORT_IGES
100
AcDbLine
 62
7
  6
CONTINUOUS
 10
2.7169467726
 20
-61.5724015294
 11
3.3090910726
 21
-61.914298227
  0
LINE
  5
233
100
AcDbEntity
  8
CURVE
100
AcDbLine
 62
250
  6
CONTINUOUS
 10
2.7169467726
 20
-61.5724015294
 11
3.3090910726
 21
-61.914298227
  0
LINE
  5
234
100
AcDbEntity
  8
IMPORT_IGES
100
AcDbLine
 62
7
  6
CONTINUOUS
 10
0.7041885331
 20
-60.0088045703
 11
0.0742263946
 21
-59.6450723268
  0
LINE
  5
235
100
AcDbEntity
  8
CURVE
100
AcDbLine
 62
250
  6
CONTINUOUS
 10
0.7041885331
 20
-60.0088045703
 11
0.0742263946
 21
-59.6450723268
  0
LINE
  5
236
100
AcDbEntity
  8
IMPORT_IGES
100
AcDbLine
 62
7
  6
CONTINUOUS
 10
-1.7465138164
 20
-58.4904623712
 11
-2.7428414132
 21
-57.9151953037
  0
LINE
  5
237
100
AcDbEntity
  8
CURVE
100
AcDbLine
 62
250
  6
CONTINUOUS
 10
-1.7465138164
 20
-58.4904623712
 11
-2.7428414132
 21
-57.9151953037
  0
LINE
  5
238
100
AcDbEntity
  8
IMPORT_IGES
100
AcDbLine
 62
7
  6
CONTINUOUS
 10
-3.4634482771
 20
-57.4991259318
 11
-4.821904702
 21
-56.7147702175
  0
LINE
  5
239
100
AcDbEntity
  8
CURVE
100
AcDbLine
 62
250
  6
CONTINUOUS
 10
-3.4634482771
 20
-57.4991259318
 11
-4.821904702
 21
-56.7147702175
  0
LINE
  5
23A
100
AcDbEntity
  8
IMPORT_IGES
100
AcDbLine
 62
7
  6
CONTINUOUS
 10
-4.821904702
 20
-56.4597975724
 11
-4.1595793468
 21
-56.8422159316
  0
LINE
  5
23B
100
AcDbEntity
  8
CURVE
100
AcDbLine
 62
250
  6
CONTINUOUS
 10
-4.821904702
 20
-56.4597975724
 11
-4.1595793468
 21
-56.8422159316
  0
LINE
  5
23C
100
AcDbEntity
  8
IMPORT_IGES
100
AcDbLine
 62
7
  6
CONTINUOUS
 10
0.0742263946
 20
-59.1834249276
 11
0.7041885331
 21
-59.5471571711
  0
LINE
  5
23D
100
AcDbEntity
  8
CURVE
100
AcDbLine
 62
250
  6
CONTINUOUS
 10
0.0742263946
 20
-59.1834249276
 11
0.7041885331
 21
-59.5471571711
  0
LINE
  5
23E
100
AcDbEntity
  8
IMPORT_IGES
100
AcDbLine
 62
7
  6
CONTINUOUS
 10
1.2676200552
 20
-59.4658667409
 11
-0.4892051274
 21
-58.4514978986
  0
LINE
  5
23F
100
AcDbEntity
  8
CURVE
100
AcDbLine
 62
250
  6
CONTINUOUS
 10
1.2676200552
 20
-59.4658667409
 11
-0.4892051274
 21
-58.4514978986
  0
LINE
  5
240
100
AcDbEntity
  8
IMPORT_IGES
100
AcDbLine
 62
7
  6
CONTINUOUS
 10
-2.7428414132
 20
-57.1502765519
 11
-3.2760282105
 21
-56.8424211776
  0
LINE
  5
241
100
AcDbEntity
  8
CURVE
100
AcDbLine
 62
250
  6
CONTINUOUS
 10
-2.7428414132
 20
-57.1502765519
 11
-3.2760282105
 21
-56.8424211776
  0
LINE
  5
242
100
AcDbEntity
  8
IMPORT_IGES
100
AcDbLine
 62
7
  6
CONTINUOUS
 10
-4.1595793468
 20
-56.332269825
 11
-4.821904702
 21
-55.9498514658
  0
LINE
  5
243
100
AcDbEntity
  8
CURVE
100
AcDbLine
 62
250
  6
CONTINUOUS
 10
-4.1595793468
 20
-56.332269825
 11
-4.821904702
 21
-55.9498514658
  0
LINE
  5
244
100
AcDbEntity
  8
IMPORT_IGES
100
AcDbLine
 62
7
  6
CONTINUOUS
 10
-4.821904702
 20
-55.6948784124
 11
-3.6624974218
 21
-56.3643056453
  0
LINE
  5
245
100
AcDbEntity
  8
CURVE
100
AcDbLine
 62
250
  6
CONTINUOUS
 10
-4.821904702
 20
-55.6948784124
 11
-3.6624974218
 21
-56.3643056453
  0
LINE
  5
246
100
AcDbEntity
  8
IMPORT_IGES
100
AcDbLine
 62
7
  6
CONTINUOUS
 10
-3.4765651079
 20
-56.471660633
 11
-2.0582043642
 21
-57.2906043502
  0
LINE
  5
247
100
AcDbEntity
  8
CURVE
100
AcDbLine
 62
250
  6
CONTINUOUS
 10
-3.4765651079
 20
-56.471660633
 11
-2.0582043642
 21
-57.2906043502
  0
LINE
  5
248
100
AcDbEntity
  8
IMPORT_IGES
100
AcDbLine
 62
7
  6
CONTINUOUS
 10
-0.5346402737
 20
-58.1702911613
 11
1.5112932946
 21
-59.3515875621
  0
LINE
  5
249
100
AcDbEntity
  8
CURVE
100
AcDbLine
 62
250
  6
CONTINUOUS
 10
-0.5346402737
 20
-58.1702911613
 11
1.5112932946
 21
-59.3515875621
  0
LINE
  5
24A
100
AcDbEntity
  8
IMPORT_IGES
100
AcDbLine
 62
7
  6
CONTINUOUS
 10
1.1902721193
 20
-58.6562886686
 11
-0.810631475
 21
-57.5009920105
  0
LINE
  5
24B
100
AcDbEntity
  8
CURVE
100
AcDbLine
 62
250
  6
CONTINUOUS
 10
1.1902721193
 20
-58.6562886686
 11
-0.810631475
 21
-57.5009920105
  0
LINE
  5
24C
100
AcDbEntity
  8
IMPORT_IGES
100
AcDbLine
 62
7
  6
CONTINUOUS
 10
-1.7822135165
 20
-56.9400127165
 11
-3.4765651079
 21
-55.9617153428
  0
LINE
  5
24D
100
AcDbEntity
  8
CURVE
100
AcDbLine
 62
250
  6
CONTINUOUS
 10
-1.7822135165
 20
-56.9400127165
 11
-3.4765651079
 21
-55.9617153428
  0
LINE
  5
24E
100
AcDbEntity
  8
IMPORT_IGES
100
AcDbLine
 62
7
  6
CONTINUOUS
 10
-3.6624974218
 20
-55.8543603551
 11
-5.36658552
 21
-54.8704412444
  0
LINE
  5
24F
100
AcDbEntity
  8
CURVE
100
AcDbLine
 62
250
  6
CONTINUOUS
 10
-3.6624974218
 20
-55.8543603551
 11
-5.36658552
 21
-54.8704412444
  0
LINE
  5
250
100
AcDbEntity
  8
IMPORT_IGES
100
AcDbLine
 62
7
  6
CONTINUOUS
 10
3.3090910726
 20
-59.8776376156
 11
2.7169467726
 21
-59.5357409181
  0
LINE
  5
251
100
AcDbEntity
  8
CURVE
100
AcDbLine
 62
250
  6
CONTINUOUS
 10
3.3090910726
 20
-59.8776376156
 11
2.7169467726
 21
-59.5357409181
  0
LINE
  5
252
100
AcDbEntity
  8
IMPORT_IGES
100
AcDbLine
 62
7
  6
CONTINUOUS
 10
2.0251428428
 20
-59.1363019994
 11
1.4328631318
 21
-58.7943271172
  0
LINE
  5
253
100
AcDbEntity
  8
CURVE
100
AcDbLine
 62
250
  6
CONTINUOUS
 10
2.0251428428
 20
-59.1363019994
 11
1.4328631318
 21
-58.7943271172
  0
LINE
  5
254
100
AcDbEntity
  8
0
100
AcDbLine
 62
7
  6
CONTINUOUS
 10
-43.5156727126
 20
-12.5072623196
 11
-43.5156727126
 21
-20.5903180599
  0
LINE
  5
255
100
AcDbEntity
  8
0
100
AcDbLine
 62
250
  6
CONTINUOUS
 10
-43.3388960174
 20
66.8230055646
 11
-43.3388960174
 21
-12.4052528537
  0
LINE
  5
256
100
AcDbEntity
  8
0
100
AcDbLine
 62
250
  6
CONTINUOUS
 10
-42.6317892362
 20
66.4147309713
 11
-42.6317892362
 21
-12.7114292075
  0
LINE
  5
257
100
AcDbEntity
  8
0
100
AcDbLine
 62
7
  6
CONTINUOUS
 10
47.5596807042
 20
-79.5460531269
 11
20.5128463238
 21
-63.9295499321
  0
LINE
  5
258
100
AcDbEntity
  8
0
100
AcDbLine
 62
7
  6
CONTINUOUS
 10
12.7346717307
 20
-59.4385294055
 11
-14.8424927355
 21
-43.5158202657
  0
LINE
  5
259
100
AcDbEntity
  8
0
100
AcDbLine
 62
7
  6
CONTINUOUS
 10
-22.6206673286
 20
-39.0247997391
 11
-50.1978317949
 21
-23.1020905993
  0
LINE
  5
25A
100
AcDbEntity
  8
0
100
AcDbLine
 62
7
  6
CONTINUOUS
 10
47.5596807042
 20
-78.9336412369
 11
21.0431764097
 21
-63.6233439871
  0
LINE
  5
25B
100
AcDbEntity
  8
0
100
AcDbLine
 62
7
  6
CONTINUOUS
 10
13.0882251213
 20
-59.0302548122
 11
-14.3121626496
 21
-43.2096143207
  0
LINE
  5
25C
100
AcDbEntity
  8
0
100
AcDbLine
 62
7
  6
CONTINUOUS
 10
-22.267113938
 20
-38.6165251458
 11
-49.667501709
 21
-22.7958846543
  0
LINE
  5
25D
100
AcDbEntity
  8
0
100
AcDbLine
 62
250
  6
CONTINUOUS
 10
-43.8692261032
 20
-21.202690495
 11
-22.267113938
 21
-33.6754793211
  0
LINE
  5
25E
100
AcDbEntity
  8
0
100
AcDbLine
 62
250
  6
CONTINUOUS
 10
-14.6657160402
 20
-38.0644311994
 11
13.0882251213
 21
-54.0892089875
  0
LINE
  5
25F
100
AcDbEntity
  8
0
100
AcDbLine
 62
250
  6
CONTINUOUS
 10
20.6896230191
 20
-58.4781608658
 11
47.5596807042
 21
-73.9925954122
  0
LINE
  5
260
100
AcDbEntity
  8
0
100
AcDbLine
 62
250
  6
CONTINUOUS
 10
-43.5156727126
 20
-20.5903180599
 11
-22.267113938
 21
-32.8589695894
  0
LINE
  5
261
100
AcDbEntity
  8
0
100
AcDbLine
 62
250
  6
CONTINUOUS
 10
-14.6657160402
 20
-37.2479214677
 11
13.0882251213
 21
-53.2726992558
  0
LINE
  5
262
100
AcDbEntity
  8
0
100
AcDbLine
 62
250
  6
CONTINUOUS
 10
20.6896230191
 20
-57.661651134
 11
47.5596807042
 21
-73.1760856805
  0
LINE
  5
263
100
AcDbEntity
  8
0
100
AcDbLine
 62
7
  6
CONTINUOUS
 10
-43.5156727126
 20
-12.5072623196
 11
-42.8969542791
 21
-12.8645025888
  0
LINE
  5
264
100
AcDbEntity
  8
IMPORT_IGES
100
AcDbLine
 62
7
  6
CONTINUOUS
 10
1.4328631318
 20
-58.7943271172
 11
2.0749051289
 21
-60.1833644254
  0
LINE
  5
265
100
AcDbEntity
  8
CURVE
100
AcDbLine
 62
250
  6
CONTINUOUS
 10
1.4328631318
 20
-58.7943271172
 11
2.0749051289
 21
-60.1833644254
  0
LINE
  5
266
100
AcDbEntity
  8
IMPORT_IGES
100
AcDbLine
 62
7
  6
CONTINUOUS
 10
2.3710449844
 20
-59.8845340492
 11
2.0251428428
 21
-59.1363019994
  0
LINE
  5
267
100
AcDbEntity
  8
CURVE
100
AcDbLine
 62
250
  6
CONTINUOUS
 10
2.3710449844
 20
-59.8845340492
 11
2.0251428428
 21
-59.1363019994
  0
LINE
  5
268
100
AcDbEntity
  8
IMPORT_IGES
100
AcDbLine
 62
7
  6
CONTINUOUS
 10
2.3710449844
 20
-60.8240141461
 11
2.7169467726
 21
-61.5724015294
  0
LINE
  5
269
100
AcDbEntity
  8
CURVE
100
AcDbLine
 62
250
  6
CONTINUOUS
 10
2.3710449844
 20
-60.8240141461
 11
2.7169467726
 21
-61.5724015294
  0
LINE
  5
26A
100
AcDbEntity
  8
IMPORT_IGES
100
AcDbLine
 62
7
  6
CONTINUOUS
 10
3.3090910726
 20
-61.914298227
 11
2.6671848399
 21
-60.5253393075
  0
LINE
  5
26B
100
AcDbEntity
  8
CURVE
100
AcDbLine
 62
250
  6
CONTINUOUS
 10
3.3090910726
 20
-61.914298227
 11
2.6671848399
 21
-60.5253393075
  0
LINE
  5
26C
100
AcDbEntity
  8
IMPORT_IGES
100
AcDbLine
 62
7
  6
CONTINUOUS
 10
1.5112932946
 20
-59.3515875621
 11
1.1902721193
 21
-58.6562886686
  0
LINE
  5
26D
100
AcDbEntity
  8
CURVE
100
AcDbLine
 62
250
  6
CONTINUOUS
 10
1.5112932946
 20
-59.3515875621
 11
1.1902721193
 21
-58.6562886686
  0
LINE
  5
26E
100
AcDbEntity
  8
IMPORT_IGES
100
AcDbLine
 62
7
  6
CONTINUOUS
 10
-2.0582043642
 20
-57.2906043502
 11
-1.2963544367
 21
-59.2603244536
  0
LINE
  5
26F
100
AcDbEntity
  8
CURVE
100
AcDbLine
 62
250
  6
CONTINUOUS
 10
-2.0582043642
 20
-57.2906043502
 11
-1.2963544367
 21
-59.2603244536
  0
LINE
  5
270
100
AcDbEntity
  8
0
100
AcDbLine
 62
7
  6
CONTINUOUS
 10
-22.267113938
 20
54.256909657
 11
-22.267113938
 21
-38.8207018974
  0
LINE
  5
271
100
AcDbEntity
  8
0
100
AcDbLine
 62
7
  6
CONTINUOUS
 10
-15.1960461261
 20
-42.9034478306
 11
-15.1960461261
 21
50.1741637237
  0
LINE
  5
272
100
AcDbEntity
  8
ASSI
100
AcDbLine
 62
250
  6
CONTINUOUS
 10
11.3204581684
 20
28.435721514
 11
10.7901280825
 21
28.129515569
  0
LINE
  5
273
100
AcDbEntity
  8
0
100
AcDbLine
 62
250
  6
CONTINUOUS
 10
20.5052590731
 20
29.9601905706
 11
20.1592929332
 21
29.7604340574
  0
LINE
  5
274
100
AcDbEntity
  8
IMPORT_IGES
100
AcDbLine
 62
7
  6
CONTINUOUS
 10
-1.2963544367
 20
-58.1960901478
 11
-1.7822135165
 21
-56.9400127165
  0
LINE
  5
275
100
AcDbEntity
  8
CURVE
100
AcDbLine
 62
250
  6
CONTINUOUS
 10
-1.2963544367
 20
-58.1960901478
 11
-1.7822135165
 21
-56.9400127165
  0
LINE
  5
276
100
AcDbEntity
  8
0
100
AcDbLine
 62
7
  6
CONTINUOUS
 10
-14.6657160402
 20
-42.5972418856
 11
-14.6657160402
 21
50.2674708052
  0
LINE
  5
277
100
AcDbEntity
  8
ASSI
100
AcDbLine
 62
250
  6
CONTINUOUS
 10
-32.5201622652
 20
-4.3839374073
 11
-33.0504923511
 21
-4.6901433523
  0
LINE
  5
278
100
AcDbEntity
  8
ASSI
100
AcDbLine
 62
250
  6
CONTINUOUS
 10
-23.2393857621
 20
0.3204547167
 11
-23.769715848
 21
0.0142487717
  0
LINE
  5
279
100
AcDbEntity
  8
0
100
AcDbLine
 62
7
  6
CONTINUOUS
 10
-43.3388960174
 20
-12.4052528537
 11
-50.0210550996
 21
-16.2634477607
  0
LINE
  5
27A
100
AcDbEntity
  8
ASSI
100
AcDbLine
 62
250
  6
CONTINUOUS
 10
-39.9448394756
 20
-10.7724314393
 11
-40.5104688926
 21
-11.0990187756
  0
LINE
  5
27B
100
AcDbEntity
  8
0
100
AcDbLine
 62
250
  6
CONTINUOUS
 10
-42.6318020499
 20
-12.7114070148
 11
-42.8969542791
 21
-12.8645025888
  0
LINE
  5
27C
100
AcDbEntity
  8
IMPORT_IGES
100
AcDbLine
 62
7
  6
CONTINUOUS
 10
-5.36658552
 20
-54.8704412444
 11
-5.36658552
 21
-56.9102240381
  0
LINE
  5
27D
100
AcDbEntity
  8
CURVE
100
AcDbLine
 62
250
  6
CONTINUOUS
 10
-5.36658552
 20
-54.8704412444
 11
-5.36658552
 21
-56.9102240381
  0
LINE
  5
27E
100
AcDbEntity
  8
IMPORT_IGES
100
AcDbLine
 62
7
  6
CONTINUOUS
 10
-4.821904702
 20
-56.7147702175
 11
-4.821904702
 21
-56.4597975724
  0
LINE
  5
27F
100
AcDbEntity
  8
CURVE
100
AcDbLine
 62
250
  6
CONTINUOUS
 10
-4.821904702
 20
-56.7147702175
 11
-4.821904702
 21
-56.4597975724
  0
LINE
  5
280
100
AcDbEntity
  8
IMPORT_IGES
100
AcDbLine
 62
7
  6
CONTINUOUS
 10
-4.821904702
 20
-55.9498514658
 11
-4.821904702
 21
-55.6948784124
  0
LINE
  5
281
100
AcDbEntity
  8
CURVE
100
AcDbLine
 62
250
  6
CONTINUOUS
 10
-4.821904702
 20
-55.9498514658
 11
-4.821904702
 21
-55.6948784124
  0
LINE
  5
282
100
AcDbEntity
  8
IMPORT_IGES
100
AcDbLine
 62
7
  6
CONTINUOUS
 10
-4.1595793468
 20
-56.8422159316
 11
-4.1595793468
 21
-56.332269825
  0
LINE
  5
283
100
AcDbEntity
  8
CURVE
100
AcDbLine
 62
250
  6
CONTINUOUS
 10
-4.1595793468
 20
-56.8422159316
 11
-4.1595793468
 21
-56.332269825
  0
LINE
  5
284
100
AcDbEntity
  8
IMPORT_IGES
100
AcDbLine
 62
7
  6
CONTINUOUS
 10
-3.6624974218
 20
-56.3643056453
 11
-3.6624974218
 21
-55.8543603551
  0
LINE
  5
285
100
AcDbEntity
  8
CURVE
100
AcDbLine
 62
250
  6
CONTINUOUS
 10
-3.6624974218
 20
-56.3643056453
 11
-3.6624974218
 21
-55.8543603551
  0
LINE
  5
286
100
AcDbEntity
  8
IMPORT_IGES
100
AcDbLine
 62
7
  6
CONTINUOUS
 10
-3.4765651079
 20
-55.9617153428
 11
-3.4765651079
 21
-56.471660633
  0
LINE
  5
287
100
AcDbEntity
  8
CURVE
100
AcDbLine
 62
250
  6
CONTINUOUS
 10
-3.4765651079
 20
-55.9617153428
 11
-3.4765651079
 21
-56.471660633
  0
LINE
  5
288
100
AcDbEntity
  8
IMPORT_IGES
100
AcDbLine
 62
7
  6
CONTINUOUS
 10
-3.4634482771
 20
-58.0090716302
 11
-3.4634482771
 21
-57.4991259318
  0
LINE
  5
289
100
AcDbEntity
  8
CURVE
100
AcDbLine
 62
250
  6
CONTINUOUS
 10
-3.4634482771
 20
-58.0090716302
 11
-3.4634482771
 21
-57.4991259318
  0
LINE
  5
28A
100
AcDbEntity
  8
IMPORT_IGES
100
AcDbLine
 62
7
  6
CONTINUOUS
 10
-3.2760282105
 20
-56.8424211776
 11
-3.2760282105
 21
-58.1172856277
  0
LINE
  5
28B
100
AcDbEntity
  8
CURVE
100
AcDbLine
 62
250
  6
CONTINUOUS
 10
-3.2760282105
 20
-56.8424211776
 11
-3.2760282105
 21
-58.1172856277
  0
LINE
  5
28C
100
AcDbEntity
  8
IMPORT_IGES
100
AcDbLine
 62
7
  6
CONTINUOUS
 10
-2.7428414132
 20
-57.9151953037
 11
-2.7428414132
 21
-57.1502765519
  0
LINE
  5
28D
100
AcDbEntity
  8
CURVE
100
AcDbLine
 62
250
  6
CONTINUOUS
 10
-2.7428414132
 20
-57.9151953037
 11
-2.7428414132
 21
-57.1502765519
  0
LINE
  5
28E
100
AcDbEntity
  8
IMPORT_IGES
100
AcDbLine
 62
7
  6
CONTINUOUS
 10
-1.7465138164
 20
-59.0004080696
 11
-1.7465138164
 21
-58.4904623712
  0
LINE
  5
28F
100
AcDbEntity
  8
CURVE
100
AcDbLine
 62
250
  6
CONTINUOUS
 10
-1.7465138164
 20
-59.0004080696
 11
-1.7465138164
 21
-58.4904623712
  0
LINE
  5
290
100
AcDbEntity
  8
IMPORT_IGES
100
AcDbLine
 62
7
  6
CONTINUOUS
 10
-0.4892051274
 20
-58.4514978986
 11
-0.4892051274
 21
-59.7263623488
  0
LINE
  5
291
100
AcDbEntity
  8
CURVE
100
AcDbLine
 62
250
  6
CONTINUOUS
 10
-0.4892051274
 20
-58.4514978986
 11
-0.4892051274
 21
-59.7263623488
  0
LINE
  5
292
100
AcDbEntity
  8
IMPORT_IGES
100
AcDbLine
 62
7
  6
CONTINUOUS
 10
0.0742263946
 20
-59.6450723268
 11
0.0742263946
 21
-59.1834249276
  0
LINE
  5
293
100
AcDbEntity
  8
CURVE
100
AcDbLine
 62
250
  6
CONTINUOUS
 10
0.0742263946
 20
-59.6450723268
 11
0.0742263946
 21
-59.1834249276
  0
LINE
  5
294
100
AcDbEntity
  8
IMPORT_IGES
100
AcDbLine
 62
7
  6
CONTINUOUS
 10
0.7041885331
 20
-59.5471571711
 11
0.7041885331
 21
-60.0088045703
  0
LINE
  5
295
100
AcDbEntity
  8
CURVE
100
AcDbLine
 62
250
  6
CONTINUOUS
 10
0.7041885331
 20
-59.5471571711
 11
0.7041885331
 21
-60.0088045703
  0
LINE
  5
296
100
AcDbEntity
  8
0
100
AcDbLine
 62
250
  6
CONTINUOUS
 10
-50.0210550996
 20
-22.1835122193
 11
-50.5513851855
 21
-22.4897181643
  0
LINE
  5
297
100
AcDbEntity
  8
0
100
AcDbLine
 62
250
  6
CONTINUOUS
 10
-49.667501709
 20
-22.7958846543
 11
-50.1978317949
 21
-23.1020905993
  0
LINE
  5
298
100
AcDbEntity
  8
ASSI
100
AcDbLine
 62
250
  6
CONTINUOUS
 10
-52.5312841728
 20
-24.7756652831
 11
-53.0616142587
 21
-25.0818712281
  0
LINE
  5
299
100
AcDbEntity
  8
ASSI
100
AcDbLine
 62
250
  6
CONTINUOUS
 10
-52.4163793208
 20
-24.8420099045
 11
-52.3909539151
 21
-24.8273295939
  0
LINE
  5
29A
100
AcDbEntity
  8
0
100
AcDbLine
 62
7
  6
CONTINUOUS
 10
-43.8692261032
 20
-21.202690495
 11
-48.1480216319
 21
-23.6732134073
  0
LINE
  5
29B
100
AcDbEntity
  8
0
100
AcDbLine
 62
7
  6
CONTINUOUS
 10
-57.445676302
 20
-29.4906055571
 11
-57.0921229114
 21
-29.2864682604
  0
LINE
  5
29C
100
AcDbEntity
  8
ASSI
100
AcDbLine
 62
7
  6
CONTINUOUS
 10
-68.8646811058
 20
71.1680960081
 11
-69.1985839093
 21
71.5119452465
  0
LINE
  5
29D
100
AcDbEntity
  8
ASSI
100
AcDbLine
 62
250
  6
CONTINUOUS
 10
-69.2479333464
 20
72.1777384229
 11
-69.5947369792
 21
72.561702061
  0
LINE
  5
29E
100
AcDbEntity
  8
IMPORT_IGES
100
AcDbLine
 62
7
  6
CONTINUOUS
 10
1.2676200552
 20
-60.7407311911
 11
1.2676200552
 21
-59.4658667409
  0
LINE
  5
29F
100
AcDbEntity
  8
CURVE
100
AcDbLine
 62
250
  6
CONTINUOUS
 10
1.2676200552
 20
-60.7407311911
 11
1.2676200552
 21
-59.4658667409
  0
LINE
  5
2A0
100
AcDbEntity
  8
0
100
AcDbLine
 62
250
  6
CONTINUOUS
 10
-45.3365156623
 20
-28.2665128412
 11
-45.7695755777
 21
-28.5165562088
  0
LINE
  5
2A1
100
AcDbEntity
  8
0
100
AcDbLine
 62
250
  6
CONTINUOUS
 10
66.6515637962
 20
32.7599069052
 11
44.3777001888
 21
19.8992572153
  0
LINE
  5
2A2
100
AcDbEntity
  8
0
100
AcDbLine
 62
250
  6
CONTINUOUS
 10
-69.2479333464
 20
78.769039077
 11
-69.5947369792
 21
79.1530027151
  0
LINE
  5
2A3
100
AcDbEntity
  8
0
100
AcDbLine
 62
7
  6
CONTINUOUS
 10
13.0882251213
 20
33.8431799906
 11
13.0882251213
 21
-59.2344315638
  0
LINE
  5
2A4
100
AcDbEntity
  8
0
100
AcDbLine
 62
250
  6
CONTINUOUS
 10
69.3032142257
 20
28.1671136422
 11
47.0293506183
 21
15.3064639524
  0
LINE
  5
2A5
100
AcDbEntity
  8
0
100
AcDbLine
 62
7
  6
CONTINUOUS
 10
20.1592929332
 20
-63.317177497
 11
20.1592929332
 21
29.7604340574
  0
LINE
  5
2A6
100
AcDbEntity
  8
0
100
AcDbLine
 62
7
  6
CONTINUOUS
 10
20.6896230191
 20
-63.010971552
 11
20.6896230191
 21
29.8537411388
  0
LINE
  5
2A7
100
AcDbEntity
  8
0
100
AcDbLine
 62
250
  6
CONTINUOUS
 10
-27.4820694373
 20
-38.5754463227
 11
-27.9151293527
 21
-38.8254896903
  0
LINE
  5
2A8
100
AcDbEntity
  8
0
100
AcDbLine
 62
250
  6
CONTINUOUS
 10
-22.267131023
 20
-38.8206723071
 11
-22.6206673286
 21
-39.0247997391
  0
LINE
  5
2A9
100
AcDbEntity
  8
ASSI
100
AcDbLine
 62
250
  6
CONTINUOUS
 10
2.8351767941
 20
-24.7976670737
 11
2.3048467082
 21
-25.1038730187
  0
LINE
  5
2AA
100
AcDbEntity
  8
ASSI
100
AcDbLine
 62
250
  6
CONTINUOUS
 10
12.1159532972
 20
-20.0932749497
 11
11.5856232113
 21
-20.3994808947
  0
LINE
  5
2AB
100
AcDbEntity
  8
ASSI
100
AcDbLine
 62
250
  6
CONTINUOUS
 10
43.8055885624
 20
6.9020517662
 11
44.4705902468
 21
6.701811695
  0
LINE
  5
2AC
100
AcDbEntity
  8
ASSI
100
AcDbLine
 62
7
  6
CONTINUOUS
 10
44.9196980171
 20
5.5752257403
 11
44.25297588
 21
5.8077105804
  0
LINE
  5
2AD
100
AcDbEntity
  8
ASSI
100
AcDbLine
 62
250
  6
CONTINUOUS
 10
47.5596807042
 20
0.9162640975
 11
48.0900107901
 21
0.6100581525
  0
LINE
  5
2AE
100
AcDbEntity
  8
ASSI
100
AcDbLine
 62
250
  6
CONTINUOUS
 10
-64.5167441139
 20
65.6277871399
 11
-65.0470741998
 21
65.9339930849
  0
LINE
  5
2AF
100
AcDbEntity
  8
IMPORT_IGES
100
AcDbLine
 62
7
  6
CONTINUOUS
 10
-0.810631475
 20
-57.5009920105
 11
-1.2963544367
 21
-58.1960901478
  0
LINE
  5
2B0
100
AcDbEntity
  8
CURVE
100
AcDbLine
 62
250
  6
CONTINUOUS
 10
-0.810631475
 20
-57.5009920105
 11
-1.2963544367
 21
-58.1960901478
  0
LINE
  5
2B1
100
AcDbEntity
  8
0
100
AcDbLine
 62
250
  6
CONTINUOUS
 10
-14.6657160402
 20
-42.5972418856
 11
-15.1960461261
 21
-42.9034478306
  0
LINE
  5
2B2
100
AcDbEntity
  8
0
100
AcDbLine
 62
250
  6
CONTINUOUS
 10
-14.3121626496
 20
-43.2096143207
 11
-14.8424927355
 21
-43.5158202657
  0
LINE
  5
2B3
100
AcDbEntity
  8
ASSI
100
AcDbLine
 62
250
  6
CONTINUOUS
 10
-17.1759451134
 20
-45.1893949495
 11
-17.7062751993
 21
-45.4956008945
  0
LINE
  5
2B4
100
AcDbEntity
  8
ASSI
100
AcDbLine
 62
250
  6
CONTINUOUS
 10
-17.0610402615
 20
-45.2557395709
 11
-17.0356148558
 21
-45.2410592603
  0
LINE
  5
2B5
100
AcDbEntity
  8
0
100
AcDbLine
 62
250
  6
CONTINUOUS
 10
43.8055885624
 20
13.4933524202
 11
44.4705902468
 21
13.2931123491
  0
LINE
  5
2B6
100
AcDbEntity
  8
ASSI
100
AcDbLine
 62
250
  6
CONTINUOUS
 10
46.4990205324
 20
4.6048762754
 11
47.0293506183
 21
4.2986703304
  0
LINE
  5
2B7
100
AcDbEntity
  8
ASSI
100
AcDbLine
 62
250
  6
CONTINUOUS
 10
-65.5774042857
 20
69.3163993178
 11
-66.1077343716
 21
69.6226052628
  0
LINE
  5
2B8
100
AcDbEntity
  8
ASSI
100
AcDbLine
 62
7
  6
CONTINUOUS
 10
13.0882251213
 20
26.8026231407
 11
10.7901280825
 21
28.129515569
  0
LINE
  5
2B9
100
AcDbEntity
  8
ASSI
100
AcDbLine
 62
7
  6
CONTINUOUS
 10
-22.267113938
 20
47.2163528071
 11
-24.5652109768
 21
48.5432452354
  0
LINE
  5
2BA
100
AcDbEntity
  8
ASSI
100
AcDbLine
 62
7
  6
CONTINUOUS
 10
13.0882251213
 20
27.4150350307
 11
11.3204581684
 21
28.435721514
  0
LINE
  5
2BB
100
AcDbEntity
  8
ASSI
100
AcDbLine
 62
7
  6
CONTINUOUS
 10
-22.267113938
 20
47.8287646971
 11
-24.034880891
 21
48.8494511804
  0
LINE
  5
2BC
100
AcDbEntity
  8
ASSI
100
AcDbLine
 62
7
  6
CONTINUOUS
 10
-24.5652109768
 20
50.3803033582
 11
-22.267113938
 21
49.0534109299
  0
LINE
  5
2BD
100
AcDbEntity
  8
ASSI
100
AcDbLine
 62
7
  6
CONTINUOUS
 10
10.7901280825
 20
29.9665736918
 11
13.0882251213
 21
28.6396812635
  0
LINE
  5
2BE
100
AcDbEntity
  8
0
100
AcDbLine
 62
250
  6
CONTINUOUS
 10
41.1957196735
 20
18.0137779323
 11
41.3548186993
 21
18.6897869687
  0
LINE
  5
2BF
100
AcDbEntity
  8
IMPORT_IGES
100
AcDbLine
 62
7
  6
CONTINUOUS
 10
-1.2963544367
 20
-59.2603244536
 11
-0.5346402737
 21
-58.1702911613
  0
LINE
  5
2C0
100
AcDbEntity
  8
CURVE
100
AcDbLine
 62
250
  6
CONTINUOUS
 10
-1.2963544367
 20
-59.2603244536
 11
-0.5346402737
 21
-58.1702911613
  0
LINE
  5
2C1
100
AcDbEntity
  8
0
100
AcDbLine
 62
250
  6
CONTINUOUS
 10
-9.981176603
 20
-48.6802425076
 11
-10.4142365184
 21
-48.9302858752
  0
LINE
  5
2C2
100
AcDbEntity
  8
0
100
AcDbLine
 62
7
  6
CONTINUOUS
 10
-66.6380644574
 20
80.2756534148
 11
41.1957196735
 21
18.0137779323
  0
LINE
  5
2C3
100
AcDbEntity
  8
0
100
AcDbLine
 62
7
  6
CONTINUOUS
 10
-66.4789654317
 20
80.9516624511
 11
41.3548186993
 21
18.6897869687
  0
LINE
  5
2C4
100
AcDbEntity
  8
0
100
AcDbLine
 62
250
  6
CONTINUOUS
 10
-63.4560839421
 20
82.1611326978
 11
44.3777001888
 21
19.8992572153
  0
LINE
  5
2C5
100
AcDbEntity
  8
ASSI
100
AcDbLine
 62
7
  6
CONTINUOUS
 10
43.8055885624
 20
13.4933524202
 11
43.8055885624
 21
6.9020517662
  0
LINE
  5
2C6
100
AcDbEntity
  8
ASSI
100
AcDbLine
 62
7
  6
CONTINUOUS
 10
44.4705902468
 20
13.2931123491
 11
44.4705902468
 21
6.701811695
  0
LINE
  5
2C7
100
AcDbEntity
  8
ASSI
100
AcDbLine
 62
250
  6
CONTINUOUS
 10
47.0293506183
 20
15.3064639524
 11
47.0293506183
 21
4.2986703304
  0
LINE
  5
2C8
100
AcDbEntity
  8
0
100
AcDbLine
 62
7
  6
CONTINUOUS
 10
47.5596807042
 20
-90.1201717649
 11
47.5596807042
 21
0.9162640975
  0
LINE
  5
2C9
100
AcDbEntity
  8
0
100
AcDbLine
 62
7
  6
CONTINUOUS
 10
48.0900107901
 20
-90.4263777099
 11
48.0900107901
 21
0.6100581525
  0
LINE
  5
2CA
100
AcDbEntity
  8
IMPORT_IGES
100
AcDbLine
 62
7
  6
CONTINUOUS
 10
2.6671848399
 20
-60.5253393075
 11
3.3090910726
 21
-59.8776376156
  0
LINE
  5
2CB
100
AcDbEntity
  8
CURVE
100
AcDbLine
 62
250
  6
CONTINUOUS
 10
2.6671848399
 20
-60.5253393075
 11
3.3090910726
 21
-59.8776376156
  0
LINE
  5
2CC
100
AcDbEntity
  8
IMPORT_IGES
100
AcDbLine
 62
7
  6
CONTINUOUS
 10
2.0749051289
 20
-60.1833644254
 11
1.4328631318
 21
-60.8309877286
  0
LINE
  5
2CD
100
AcDbEntity
  8
CURVE
100
AcDbLine
 62
250
  6
CONTINUOUS
 10
2.0749051289
 20
-60.1833644254
 11
1.4328631318
 21
-60.8309877286
  0
LINE
  5
2CE
100
AcDbEntity
  8
IMPORT_IGES
100
AcDbLine
 62
7
  6
CONTINUOUS
 10
2.0251428428
 20
-61.1729626107
 11
2.3710449844
 21
-60.8240141461
  0
LINE
  5
2CF
100
AcDbEntity
  8
CURVE
100
AcDbLine
 62
250
  6
CONTINUOUS
 10
2.0251428428
 20
-61.1729626107
 11
2.3710449844
 21
-60.8240141461
  0
LINE
  5
2D0
100
AcDbEntity
  8
IMPORT_IGES
100
AcDbLine
 62
7
  6
CONTINUOUS
 10
2.7169467726
 20
-59.5357409181
 11
2.3710449844
 21
-59.8845340492
  0
LINE
  5
2D1
100
AcDbEntity
  8
CURVE
100
AcDbLine
 62
250
  6
CONTINUOUS
 10
2.7169467726
 20
-59.5357409181
 11
2.3710449844
 21
-59.8845340492
  0
LINE
  5
2D2
100
AcDbEntity
  8
0
100
AcDbLine
 62
250
  6
CONTINUOUS
 10
7.873269622
 20
-58.9891759891
 11
7.4402097066
 21
-59.2392193567
  0
LINE
  5
2D3
100
AcDbEntity
  8
0
100
AcDbLine
 62
250
  6
CONTINUOUS
 10
13.0882080363
 20
-59.2344019735
 11
12.7346717307
 21
-59.4385294055
  0
LINE
  5
2D4
100
AcDbEntity
  8
ASSI
100
AcDbLine
 62
250
  6
CONTINUOUS
 10
47.4712923565
 20
-40.5070046161
 11
46.9409622706
 21
-40.8132105611
  0
LINE
  5
2D5
100
AcDbEntity
  8
ASSI
100
AcDbLine
 62
250
  6
CONTINUOUS
 10
14.9974134305
 20
-63.7658889459
 11
14.4670833447
 21
-64.0720948909
  0
LINE
  5
2D6
100
AcDbEntity
  8
ASSI
100
AcDbLine
 62
250
  6
CONTINUOUS
 10
15.1123182825
 20
-63.8322335673
 11
15.1377436882
 21
-63.8175532567
  0
LWPOLYLINE
  5
2D7
100
AcDbEntity
  8
0
100
AcDbPolyline
 62
7
  6
CONTINUOUS
 90
30
 70
0
 10
-40.6817416941
 20
95.0710628048
 10
-40.7470796007
 20
95.1078896469
 10
-40.8402002161
 20
95.1572848408
 10
-40.9334517211
 20
95.2031358482
 10
-41.0267575412
 20
95.2454173408
 10
-41.1199883136
 20
95.2840876392
 10
-41.2129739048
 20
95.3191028051
 10
-41.3055380146
 20
95.3504352053
 10
-41.3975973156
 20
95.3781001718
 10
-41.4891479343
 20
95.4021337754
 10
-41.5801562198
 20
95.4225577533
 10
-41.6704222879
 20
95.4393640293
 10
-41.759715927
 20
95.4525585979
 10
-41.8478840241
 20
95.462180658
 10
-41.9348845483
 20
95.4683081334
 10
-42.0206679954
 20
95.4710389363
 10
-42.1052587311
 20
95.47047201
 10
-42.1885343262
 20
95.4667078478
 10
-42.2702174562
 20
95.4598706269
 10
-42.3501551751
 20
95.4500757799
 10
-42.4284191208
 20
95.43740964
 10
-42.5050528936
 20
95.4219483776
 10
-42.5799599662
 20
95.4037946773
 10
-42.6531719864
 20
95.3830249
 10
-42.7249126081
 20
95.3596407375
 10
-42.7951576883
 20
95.3336998524
 10
-42.8638848359
 20
95.3052609222
 10
-42.9313090782
 20
95.2742701725
 10
-42.9974835136
 20
95.240717147
 10
-43.0573763205
 20
95.2075240483
  0
LINE
  5
2D8
100
AcDbEntity
  8
0
100
AcDbLine
 62
250
  6
CONTINUOUS
 10
-41.1822203347
 20
95.0217823876
 11
66.6515637962
 21
32.7599069052
  0
LINE
  5
2D9
100
AcDbEntity
  8
0
100
AcDbLine
 62
7
  6
CONTINUOUS
 10
-40.6821961746
 20
95.0713235653
 11
67.1515879564
 21
32.8094480828
  0
LWPOLYLINE
  5
2DA
100
AcDbEntity
  8
0
100
AcDbPolyline
 62
7
  6
CONTINUOUS
 90
46
 70
0
 10
67.1520065735
 20
32.8092080326
 10
67.2382362503
 20
32.7578450207
 10
67.3278416337
 20
32.7011038923
 10
67.417042455
 20
32.6411565515
 10
67.5059661185
 20
32.5778935433
 10
67.5944574383
 20
32.5113935635
 10
67.6820970631
 20
32.4419646572
 10
67.7688355466
 20
32.3696538669
 10
67.8546228074
 20
32.2944947376
 10
67.939063872
 20
32.2168310025
 10
68.0221064897
 20
32.1367160579
 10
68.1036872756
 20
32.0542034702
 10
68.1834412462
 20
31.9696735616
 10
68.2612963763
 20
31.8832827729
 10
68.3372634314
 20
31.7951103561
 10
68.4111377191
 20
31.7054850239
 10
68.4827936183
 20
31.6146625632
 10
68.5523166281
 20
31.5226286439
 10
68.6198148522
 20
31.4293083195
 10
68.6852259502
 20
31.3348430022
 10
68.7485242294
 20
31.2393159294
 10
68.809841894
 20
31.1425436976
 10
68.8691234667
 20
31.0445998557
 10
68.9263042784
 20
30.9455679324
 10
68.9814927097
 20
30.8452600575
 10
69.0346487967
 20
30.7437738125
 10
69.0857364843
 20
30.6411941403
 10
69.1348483001
 20
30.537315281
 10
69.181925009
 20
30.4322011109
 10
69.2268753126
 20
30.3259763191
 10
69.2697098906
 20
30.2185102646
 10
69.3103983977
 20
30.1097218751
 10
69.3487822065
 20
29.9998476915
 10
69.3846790136
 20
29.8892293129
 10
69.4180148353
 20
29.7778970545
 10
69.4486901035
 20
29.6659915375
 10
69.476557903
 20
29.5540189024
 10
69.5016035772
 20
29.4420607817
 10
69.5238070484
 20
29.3301890852
 10
69.5430681463
 20
29.2189175978
 10
69.5593828816
 20
29.1083065204
 10
69.5727352471
 20
28.9984223368
 10
69.5830681418
 20
28.8897820604
 10
69.5903910022
 20
28.7825593648
 10
69.5947349259
 20
28.6765892339
 10
69.5961088367
 20
28.5758713418
  0
LINE
  5
2DB
100
AcDbEntity
  8
0
100
AcDbLine
 62
250
  6
CONTINUOUS
 10
69.3032142257
 20
28.1671136422
 11
69.3032142257
 21
-86.342842678
  0
LINE
  5
2DC
100
AcDbEntity
  8
0
100
AcDbLine
 62
7
  6
CONTINUOUS
 10
69.5961074445
 20
28.5753882355
 11
69.5961074445
 21
-85.9345680847
  0
LINE
  5
2DD
100
AcDbEntity
  8
0
100
AcDbLine
 62
250
  6
CONTINUOUS
 10
20.6896230191
 20
-63.010971552
 11
20.1592929332
 21
-63.317177497
  0
LINE
  5
2DE
100
AcDbEntity
  8
0
100
AcDbLine
 62
250
  6
CONTINUOUS
 10
21.0431764097
 20
-63.6233439871
 11
20.5128463238
 21
-63.9295499321
  0
LINE
  5
2DF
100
AcDbEntity
  8
0
100
AcDbLine
 62
250
  6
CONTINUOUS
 10
25.3741624564
 20
-69.0939721739
 11
24.941102541
 21
-69.3440155416
  0
LINE
  5
2E0
100
AcDbEntity
  8
0
100
AcDbLine
 62
250
  6
CONTINUOUS
 10
43.2286086813
 20
-79.4029056555
 11
42.7955487659
 21
-79.6529490231
  0
LINE
  5
2E1
100
AcDbEntity
  8
0
100
AcDbLine
 62
7
  6
CONTINUOUS
 10
69.3032142257
 20
-86.342842678
 11
55.1610786019
 21
-94.5083345445
  0
ARC
  5
2E2
100
AcDbEntity
  8
0
100
AcDbCircle
 62
7
  6
CONTINUOUS
 10
51.8504904187
 20
-92.0817200668
 40
3.3753756226
100
AcDbArc
 50
229.6726732248
 51
239.9614756092
  0
ARC
  5
2E3
100
AcDbEntity
  8
0
100
AcDbCircle
 62
7
  6
CONTINUOUS
 10
-60.7562644853
 20
-27.0639910794
 40
3.3753756226
100
AcDbArc
 50
229.6726732248
 51
239.9614756092
  0
ARC
  5
2E4
100
AcDbEntity
  8
ASSI
100
AcDbCircle
 62
7
  6
CONTINUOUS
 10
44.0996610177
 20
2.9818600042
 40
2.8698600616
100
AcDbArc
 50
55.145746378
 51
59.8345096695
  0
ARC
  5
2E5
100
AcDbEntity
  8
ASSI
100
AcDbCircle
 62
7
  6
CONTINUOUS
 10
-51.6052613441
 20
-25.1319612161
 40
0.7201355765
100
AcDbArc
 50
239.9752271042
 51
243.0712777286
  0
ARC
  5
2E6
100
AcDbEntity
  8
ASSI
100
AcDbCircle
 62
7
  6
CONTINUOUS
 10
15.9234362592
 20
-64.1221848789
 40
0.7201355765
100
AcDbArc
 50
239.9752271042
 51
243.0712777285
  0
ARC
  5
2E7
100
AcDbEntity
  8
ASSI
100
AcDbCircle
 62
7
  6
CONTINUOUS
 10
-16.2499222848
 20
-45.5456908825
 40
0.7201355765
100
AcDbArc
 50
239.9752271042
 51
243.0712777286
  0
ARC
  5
2E8
100
AcDbEntity
  8
ASSI
100
AcDbCircle
 62
7
  6
CONTINUOUS
 10
-39.0541159781
 20
-11.1491087636
 40
0.7201355765
100
AcDbArc
 50
239.9752271042
 51
243.0712777286
  0
ARC
  5
2E9
100
AcDbEntity
  8
ASSI
100
AcDbCircle
 62
7
  6
CONTINUOUS
 10
-16.4560755817
 20
-45.1891122857
 40
0.7198695872
100
AcDbArc
 50
176.9304223386
 51
180.0224977398
  0
ARC
  5
2EA
100
AcDbEntity
  8
ASSI
100
AcDbCircle
 62
7
  6
CONTINUOUS
 10
15.7172829623
 20
-63.7656062821
 40
0.7198695872
100
AcDbArc
 50
176.9304223386
 51
180.0224977398
  0
ARC
  5
2EB
100
AcDbEntity
  8
ASSI
100
AcDbCircle
 62
7
  6
CONTINUOUS
 10
-51.8114146411
 20
-24.7753826194
 40
0.7198695872
100
AcDbArc
 50
176.9304223385
 51
180.0224977399
  0
ARC
  5
2EC
100
AcDbEntity
  8
ASSI
100
AcDbCircle
 62
7
  6
CONTINUOUS
 10
-39.260269275
 20
-10.7925301669
 40
0.7198695872
100
AcDbArc
 50
176.9304223385
 51
180.0224977399
  0
ARC
  5
2ED
100
AcDbEntity
  8
ASSI
100
AcDbCircle
 62
7
  6
CONTINUOUS
 10
-16.4896743697
 20
-45.2554745479
 40
0.5713659532
100
AcDbArc
 50
176.6614690855
 51
180.026576137
  0
ARC
  5
2EE
100
AcDbEntity
  8
ASSI
100
AcDbCircle
 62
7
  6
CONTINUOUS
 10
15.6836841743
 20
-63.8319685443
 40
0.5713659532
100
AcDbArc
 50
176.6614690855
 51
180.026576137
  0
ARC
  5
2EF
100
AcDbEntity
  8
ASSI
100
AcDbCircle
 62
7
  6
CONTINUOUS
 10
-51.845013429
 20
-24.8417448815
 40
0.5713659532
100
AcDbArc
 50
176.6614690855
 51
180.026576137
  0
SPLINE
  5
2F0
100
AcDbEntity
  8
0
100
AcDbSpline
 62
7
  6
CONTINUOUS
 70
0
 71
3
 72
9
 73
5
 74
0
 42
0.0000001
 43
0.0000001
 44
0.0000000001
 40
0.0
 40
0.0
 40
0.0
 40
0.0
 40
0.4672846859
 40
1.0
 40
1.0
 40
1.0
 40
1.0
 10
20.262834194
 20
29.9893024592
 30
0.0
 10
20.2873574534
 20
30.0034618989
 30
0.0
 10
20.3486126246
 20
30.0195988112
 30
0.0
 10
20.4096716675
 20
30.0080002224
 30
0.0
 10
20.4402801978
 20
29.9977394595
 30
0.0
  0
SPLINE
  5
2F1
100
AcDbEntity
  8
0
100
AcDbSpline
 62
7
  6
CONTINUOUS
 70
0
 71
3
 72
9
 73
5
 74
0
 42
0.0000001
 43
0.0000001
 44
0.0000000001
 40
0.0
 40
0.0
 40
0.0
 40
0.0
 40
0.4672846859
 40
1.0
 40
1.0
 40
1.0
 40
1.0
 10
-15.0925048654
 20
50.4030321256
 30
0.0
 10
-15.0679816059
 20
50.4171915653
 30
0.0
 10
-15.0067264347
 20
50.4333284776
 30
0.0
 10
-14.9456673918
 20
50.4217298888
 30
0.0
 10
-14.9150588616
 20
50.4114691259
 30
0.0
  0
SPLINE
  5
2F2
100
AcDbEntity
  8
0
100
AcDbSpline
 62
7
  6
CONTINUOUS
 70
0
 71
3
 72
9
 73
5
 74
0
 42
0.0000001
 43
0.0000001
 44
0.0000000001
 40
0.0
 40
0.0
 40
0.0
 40
0.0
 40
0.4672846859
 40
1.0
 40
1.0
 40
1.0
 40
1.0
 10
-50.4478439247
 20
70.816761792
 30
0.0
 10
-50.4233206652
 20
70.8309212317
 30
0.0
 10
-50.362065494
 20
70.847058144
 30
0.0
 10
-50.3010064512
 20
70.8354595552
 30
0.0
 10
-50.2703979209
 20
70.8251987922
 30
0.0
  0
SPLINE
  5
2F3
100
AcDbEntity
  8
0
100
AcDbSpline
 62
7
  6
CONTINUOUS
 70
0
 71
3
 72
11
 73
7
 74
0
 42
0.0000001
 43
0.0000001
 44
0.0000000001
 40
0.0
 40
0.0
 40
0.0
 40
0.0
 40
0.2177724998
 40
0.4509548069
 40
0.7101910283
 40
1.0
 40
1.0
 40
1.0
 40
1.0
 10
8.1795774691
 20
-60.0197195258
 30
0.0
 10
8.1997783734
 20
-60.0080557161
 30
0.0
 10
8.237587359
 20
-59.9762834692
 30
0.0
 10
8.2778009387
 20
-59.9104858645
 30
0.0
 10
8.3017287093
 20
-59.8294118844
 30
0.0
 10
8.3064155136
 20
-59.7703982221
 30
0.0
 10
8.3064155136
 20
-59.7393557335
 30
0.0
  0
SPLINE
  5
2F4
100
AcDbEntity
  8
0
100
AcDbSpline
 62
7
  6
CONTINUOUS
 70
0
 71
3
 72
11
 73
7
 74
0
 42
0.0000001
 43
0.0000001
 44
0.0000000001
 40
0.0
 40
0.0
 40
0.0
 40
0.0
 40
0.2177724998
 40
0.4509548069
 40
0.7101910283
 40
1.0
 40
1.0
 40
1.0
 40
1.0
 10
-9.6748687558
 20
-49.7107860442
 30
0.0
 10
-9.6546678515
 20
-49.6991222346
 30
0.0
 10
-9.6168588659
 20
-49.6673499877
 30
0.0
 10
-9.5766452862
 20
-49.6015523829
 30
0.0
 10
-9.5527175157
 20
-49.5204784029
 30
0.0
 10
-9.5480307114
 20
-49.4614647405
 30
0.0
 10
-9.5480307114
 20
-49.430422252
 30
0.0
  0
SPLINE
  5
2F5
100
AcDbEntity
  8
0
100
AcDbSpline
 62
7
  6
CONTINUOUS
 70
0
 71
3
 72
11
 73
7
 74
0
 42
0.0000001
 43
0.0000001
 44
0.0000000001
 40
0.0
 40
0.0
 40
0.0
 40
0.0
 40
0.2177724998
 40
0.4509548069
 40
0.7101910283
 40
1.0
 40
1.0
 40
1.0
 40
1.0
 10
25.6804703035
 20
-70.1245157106
 30
0.0
 10
25.7006712078
 20
-70.112851901
 30
0.0
 10
25.7384801934
 20
-70.0810796541
 30
0.0
 10
25.7786937731
 20
-70.0152820493
 30
0.0
 10
25.8026215437
 20
-69.9342080693
 30
0.0
 10
25.8073083479
 20
-69.8751944069
 30
0.0
 10
25.8073083479
 20
-69.8441519184
 30
0.0
  0
SPLINE
  5
2F6
100
AcDbEntity
  8
0
100
AcDbSpline
 62
7
  6
CONTINUOUS
 70
0
 71
3
 72
11
 73
7
 74
0
 42
0.0000001
 43
0.0000001
 44
0.0000000001
 40
0.0
 40
0.0
 40
0.0
 40
0.0
 40
0.2177724998
 40
0.4509548069
 40
0.7101910283
 40
1.0
 40
1.0
 40
1.0
 40
1.0
 10
43.5349165285
 20
-80.4334491922
 30
0.0
 10
43.5551174327
 20
-80.4217853825
 30
0.0
 10
43.5929264183
 20
-80.3900131356
 30
0.0
 10
43.633139998
 20
-80.3242155308
 30
0.0
 10
43.6570677686
 20
-80.2431415508
 30
0.0
 10
43.6617545729
 20
-80.1841278885
 30
0.0
 10
43.6617545729
 20
-80.1530853999
 30
0.0
  0
SPLINE
  5
2F7
100
AcDbEntity
  8
0
100
AcDbSpline
 62
7
  6
CONTINUOUS
 70
0
 71
3
 72
11
 73
7
 74
0
 42
0.0000001
 43
0.0000001
 44
0.0000000001
 40
0.0
 40
0.0
 40
0.0
 40
0.0
 40
0.2177724998
 40
0.4509548069
 40
0.7101910283
 40
1.0
 40
1.0
 40
1.0
 40
1.0
 10
-27.1757615902
 20
-39.6059898594
 30
0.0
 10
-27.1555606859
 20
-39.5943260497
 30
0.0
 10
-27.1177517003
 20
-39.5625538028
 30
0.0
 10
-27.0775381206
 20
-39.4967561981
 30
0.0
 10
-27.05361035
 20
-39.4156822181
 30
0.0
 10
-27.0489235458
 20
-39.3566685557
 30
0.0
 10
-27.0489235458
 20
-39.3256260672
 30
0.0
  0
SPLINE
  5
2F8
100
AcDbEntity
  8
0
100
AcDbSpline
 62
7
  6
CONTINUOUS
 70
0
 71
3
 72
11
 73
7
 74
0
 42
0.0000001
 43
0.0000001
 44
0.0000000001
 40
0.0
 40
0.0
 40
0.0
 40
0.0
 40
0.2177724998
 40
0.4509548069
 40
0.7101910283
 40
1.0
 40
1.0
 40
1.0
 40
1.0
 10
-45.0302078152
 20
-29.2970563779
 30
0.0
 10
-45.0100069109
 20
-29.2853925682
 30
0.0
 10
-44.9721979253
 20
-29.2536203213
 30
0.0
 10
-44.9319843456
 20
-29.1878227166
 30
0.0
 10
-44.908056575
 20
-29.1067487365
 30
0.0
 10
-44.9033697707
 20
-29.0477350742
 30
0.0
 10
-44.9033697707
 20
-29.0166925856
 30
0.0
  0
SPLINE
  5
2F9
100
AcDbEntity
  8
ASSI
100
AcDbSpline
 62
7
  6
CONTINUOUS
 70
0
 71
3
 72
11
 73
7
 74
0
 42
0.0000001
 43
0.0000001
 44
0.0000000001
 40
0.0
 40
0.0
 40
0.0
 40
0.0
 40
0.2177724475
 40
0.4509526031
 40
0.7101928525
 40
1.0
 40
1.0
 40
1.0
 40
1.0
 10
-16.740570907
 20
-46.5150290106
 30
0.0
 10
-16.7141859969
 20
-46.4997947097
 30
0.0
 10
-16.6648021757
 20
-46.458297626
 30
0.0
 10
-16.6122771429
 20
-46.3723578459
 30
0.0
 10
-16.5810266494
 20
-46.2664645671
 30
0.0
 10
-16.5749043494
 20
-46.1893853117
 30
0.0
 10
-16.5749043494
 20
-46.1488402438
 30
0.0
  0
SPLINE
  5
2FA
100
AcDbEntity
  8
ASSI
100
AcDbSpline
 62
7
  6
CONTINUOUS
 70
0
 71
3
 72
11
 73
7
 74
0
 42
0.0000001
 43
0.0000001
 44
0.0000000001
 40
0.0
 40
0.0
 40
0.0
 40
0.0
 40
0.2177724475
 40
0.4509526031
 40
0.7101928525
 40
1.0
 40
1.0
 40
1.0
 40
1.0
 10
15.432787637
 20
-65.091523007
 30
0.0
 10
15.4591725471
 20
-65.0762887061
 30
0.0
 10
15.5085563683
 20
-65.0347916224
 30
0.0
 10
15.5610814011
 20
-64.9488518423
 30
0.0
 10
15.5923318945
 20
-64.8429585635
 30
0.0
 10
15.5984541945
 20
-64.7658793081
 30
0.0
 10
15.5984541945
 20
-64.7253342402
 30
0.0
  0
SPLINE
  5
2FB
100
AcDbEntity
  8
ASSI
100
AcDbSpline
 62
7
  6
CONTINUOUS
 70
0
 71
3
 72
11
 73
7
 74
0
 42
0.0000001
 43
0.0000001
 44
0.0000000001
 40
0.0
 40
0.0
 40
0.0
 40
0.0
 40
0.2177724475
 40
0.4509526031
 40
0.7101928525
 40
1.0
 40
1.0
 40
1.0
 40
1.0
 10
-52.0959099663
 20
-26.1012993442
 30
0.0
 10
-52.0695250562
 20
-26.0860650433
 30
0.0
 10
-52.020141235
 20
-26.0445679596
 30
0.0
 10
-51.9676162022
 20
-25.9586281795
 30
0.0
 10
-51.9363657088
 20
-25.8527349007
 30
0.0
 10
-51.9302434088
 20
-25.7756556453
 30
0.0
 10
-51.9302434088
 20
-25.7351105774
 30
0.0
  0
SPLINE
  5
2FC
100
AcDbEntity
  8
ASSI
100
AcDbSpline
 62
7
  6
CONTINUOUS
 70
0
 71
3
 72
15
 73
11
 74
0
 42
0.0000001
 43
0.0000001
 44
0.0000000001
 40
0.0
 40
0.0
 40
0.0
 40
0.0
 40
0.1288173452
 40
0.2705638712
 40
0.4178805497
 40
0.5623856283
 40
0.6962032483
 40
0.8135964378
 40
0.9130675275
 40
1.0
 40
1.0
 40
1.0
 40
1.0
 10
-16.5749043494
 20
-46.1488402438
 30
0.0
 10
-16.5749043494
 20
-46.0804646796
 30
0.0
 10
-16.5940371394
 20
-45.9366871347
 30
0.0
 10
-16.6654275419
 20
-45.7255772922
 30
0.0
 10
-16.7754738577
 20
-45.5221968909
 30
0.0
 10
-16.9152342913
 20
-45.3432770706
 30
0.0
 10
-17.073547612
 20
-45.2030901921
 30
0.0
 10
-17.2386456839
 20
-45.1129054284
 30
0.0
 10
-17.4002492421
 20
-45.0805378371
 30
0.0
 10
-17.5006480089
 20
-45.1063393827
 30
0.0
 10
-17.5406086418
 20
-45.1294121276
 30
0.0
  0
SPLINE
  5
2FD
100
AcDbEntity
  8
ASSI
100
AcDbSpline
 62
7
  6
CONTINUOUS
 70
0
 71
3
 72
15
 73
11
 74
0
 42
0.0000001
 43
0.0000001
 44
0.0000000001
 40
0.0
 40
0.0
 40
0.0
 40
0.0
 40
0.1288173452
 40
0.2705638712
 40
0.4178805497
 40
0.5623856283
 40
0.6962032483
 40
0.8135964378
 40
0.9130675275
 40
1.0
 40
1.0
 40
1.0
 40
1.0
 10
15.5984541945
 20
-64.7253342402
 30
0.0
 10
15.5984541945
 20
-64.6569586761
 30
0.0
 10
15.5793214046
 20
-64.5131811312
 30
0.0
 10
15.5079310021
 20
-64.3020712886
 30
0.0
 10
15.3978846863
 20
-64.0986908873
 30
0.0
 10
15.2581242526
 20
-63.919771067
 30
0.0
 10
15.099810932
 20
-63.7795841885
 30
0.0
 10
14.9347128601
 20
-63.6893994248
 30
0.0
 10
14.7731093019
 20
-63.6570318335
 30
0.0
 10
14.6727105351
 20
-63.6828333791
 30
0.0
 10
14.6327499022
 20
-63.7059061241
 30
0.0
  0
SPLINE
  5
2FE
100
AcDbEntity
  8
ASSI
100
AcDbSpline
 62
7
  6
CONTINUOUS
 70
0
 71
3
 72
15
 73
11
 74
0
 42
0.0000001
 43
0.0000001
 44
0.0000000001
 40
0.0
 40
0.0
 40
0.0
 40
0.0
 40
0.1288173452
 40
0.2705638712
 40
0.4178805497
 40
0.5623856283
 40
0.6962032483
 40
0.8135964378
 40
0.9130675275
 40
1.0
 40
1.0
 40
1.0
 40
1.0
 10
-51.9302434088
 20
-25.7351105774
 30
0.0
 10
-51.9302434088
 20
-25.6667350133
 30
0.0
 10
-51.9493761987
 20
-25.5229574684
 30
0.0
 10
-52.0207666012
 20
-25.3118476258
 30
0.0
 10
-52.130812917
 20
-25.1084672245
 30
0.0
 10
-52.2705733507
 20
-24.9295474042
 30
0.0
 10
-52.4288866714
 20
-24.7893605257
 30
0.0
 10
-52.5939847432
 20
-24.699175762
 30
0.0
 10
-52.7555883014
 20
-24.6668081707
 30
0.0
 10
-52.8559870682
 20
-24.6926097163
 30
0.0
 10
-52.8959477011
 20
-24.7156824613
 30
0.0
  0
SPLINE
  5
2FF
100
AcDbEntity
  8
0
100
AcDbSpline
 62
7
  6
CONTINUOUS
 70
0
 71
3
 72
15
 73
11
 74
0
 42
0.0000001
 43
0.0000001
 44
0.0000000001
 40
0.0
 40
0.0
 40
0.0
 40
0.0
 40
0.1288182852
 40
0.2705640777
 40
0.4178805106
 40
0.5623853931
 40
0.6962029203
 40
0.8135961782
 40
0.9130674202
 40
1.0
 40
1.0
 40
1.0
 40
1.0
 10
8.3064155136
 20
-59.7393557335
 30
0.0
 10
8.3064155136
 20
-59.6870052989
 30
0.0
 10
8.2917671733
 20
-59.5769254496
 30
0.0
 10
8.2371081971
 20
-59.4152946724
 30
0.0
 10
8.1528541217
 20
-59.2595820214
 30
0.0
 10
8.0458501126
 20
-59.1225967027
 30
0.0
 10
7.9246416081
 20
-59.0152660858
 30
0.0
 10
7.7982384487
 20
-58.9462181088
 30
0.0
 10
7.6745106819
 20
-58.9214363034
 30
0.0
 10
7.5976426073
 20
-58.941190386
 30
0.0
 10
7.567047751
 20
-58.9588555645
 30
0.0
  0
SPLINE
  5
300
100
AcDbEntity
  8
0
100
AcDbSpline
 62
7
  6
CONTINUOUS
 70
0
 71
3
 72
15
 73
11
 74
0
 42
0.0000001
 43
0.0000001
 44
0.0000000001
 40
0.0
 40
0.0
 40
0.0
 40
0.0
 40
0.1288182852
 40
0.2705640777
 40
0.4178805106
 40
0.5623853931
 40
0.6962029203
 40
0.8135961782
 40
0.9130674202
 40
1.0
 40
1.0
 40
1.0
 40
1.0
 10
-9.5480307114
 20
-49.430422252
 30
0.0
 10
-9.5480307114
 20
-49.3780718174
 30
0.0
 10
-9.5626790516
 20
-49.2679919681
 30
0.0
 10
-9.6173380279
 20
-49.1063611909
 30
0.0
 10
-9.7015921033
 20
-48.9506485398
 30
0.0
 10
-9.8085961124
 20
-48.8136632212
 30
0.0
 10
-9.9298046169
 20
-48.7063326043
 30
0.0
 10
-10.0562077762
 20
-48.6372846273
 30
0.0
 10
-10.179935543
 20
-48.6125028219
 30
0.0
 10
-10.2568036177
 20
-48.6322569045
 30
0.0
 10
-10.2873984739
 20
-48.649922083
 30
0.0
  0
SPLINE
  5
301
100
AcDbEntity
  8
0
100
AcDbSpline
 62
7
  6
CONTINUOUS
 70
0
 71
3
 72
15
 73
11
 74
0
 42
0.0000001
 43
0.0000001
 44
0.0000000001
 40
0.0
 40
0.0
 40
0.0
 40
0.0
 40
0.1288182852
 40
0.2705640777
 40
0.4178805106
 40
0.5623853931
 40
0.6962029203
 40
0.8135961782
 40
0.9130674202
 40
1.0
 40
1.0
 40
1.0
 40
1.0
 10
25.8073083479
 20
-69.8441519184
 30
0.0
 10
25.8073083479
 20
-69.7918014838
 30
0.0
 10
25.7926600077
 20
-69.6817216345
 30
0.0
 10
25.7380010315
 20
-69.5200908573
 30
0.0
 10
25.6537469561
 20
-69.3643782062
 30
0.0
 10
25.546742947
 20
-69.2273928876
 30
0.0
 10
25.4255344425
 20
-69.1200622707
 30
0.0
 10
25.2991312831
 20
-69.0510142937
 30
0.0
 10
25.1754035163
 20
-69.0262324882
 30
0.0
 10
25.0985354417
 20
-69.0459865709
 30
0.0
 10
25.0679405854
 20
-69.0636517494
 30
0.0
  0
SPLINE
  5
302
100
AcDbEntity
  8
0
100
AcDbSpline
 62
7
  6
CONTINUOUS
 70
0
 71
3
 72
15
 73
11
 74
0
 42
0.0000001
 43
0.0000001
 44
0.0000000001
 40
0.0
 40
0.0
 40
0.0
 40
0.0
 40
0.1288182852
 40
0.2705640777
 40
0.4178805106
 40
0.5623853931
 40
0.6962029203
 40
0.8135961782
 40
0.9130674202
 40
1.0
 40
1.0
 40
1.0
 40
1.0
 10
43.6617545729
 20
-80.1530853999
 30
0.0
 10
43.6617545729
 20
-80.1007349653
 30
0.0
 10
43.6471062326
 20
-79.990655116
 30
0.0
 10
43.5924472564
 20
-79.8290243388
 30
0.0
 10
43.508193181
 20
-79.6733116878
 30
0.0
 10
43.4011891719
 20
-79.5363263691
 30
0.0
 10
43.2799806674
 20
-79.4289957522
 30
0.0
 10
43.1535775081
 20
-79.3599477752
 30
0.0
 10
43.0298497413
 20
-79.3351659698
 30
0.0
 10
42.9529816666
 20
-79.3549200524
 30
0.0
 10
42.9223868104
 20
-79.3725852309
 30
0.0
  0
SPLINE
  5
303
100
AcDbEntity
  8
0
100
AcDbSpline
 62
7
  6
CONTINUOUS
 70
0
 71
3
 72
15
 73
11
 74
0
 42
0.0000001
 43
0.0000001
 44
0.0000000001
 40
0.0
 40
0.0
 40
0.0
 40
0.0
 40
0.1288182852
 40
0.2705640777
 40
0.4178805106
 40
0.5623853931
 40
0.6962029203
 40
0.8135961782
 40
0.9130674202
 40
1.0
 40
1.0
 40
1.0
 40
1.0
 10
-27.0489235458
 20
-39.3256260672
 30
0.0
 10
-27.0489235458
 20
-39.2732756326
 30
0.0
 10
-27.063571886
 20
-39.1631957832
 30
0.0
 10
-27.1182308622
 20
-39.0015650061
 30
0.0
 10
-27.2024849376
 20
-38.845852355
 30
0.0
 10
-27.3094889467
 20
-38.7088670363
 30
0.0
 10
-27.4306974512
 20
-38.6015364194
 30
0.0
 10
-27.5571006106
 20
-38.5324884424
 30
0.0
 10
-27.6808283774
 20
-38.507706637
 30
0.0
 10
-27.757696452
 20
-38.5274607197
 30
0.0
 10
-27.7882913083
 20
-38.5451258981
 30
0.0
  0
SPLINE
  5
304
100
AcDbEntity
  8
0
100
AcDbSpline
 62
7
  6
CONTINUOUS
 70
0
 71
3
 72
15
 73
11
 74
0
 42
0.0000001
 43
0.0000001
 44
0.0000000001
 40
0.0
 40
0.0
 40
0.0
 40
0.0
 40
0.1288182852
 40
0.2705640777
 40
0.4178805106
 40
0.5623853931
 40
0.6962029203
 40
0.8135961782
 40
0.9130674202
 40
1.0
 40
1.0
 40
1.0
 40
1.0
 10
-44.9033697707
 20
-29.0166925856
 30
0.0
 10
-44.9033697707
 20
-28.964342151
 30
0.0
 10
-44.918018111
 20
-28.8542623017
 30
0.0
 10
-44.9726770872
 20
-28.6926315245
 30
0.0
 10
-45.0569311626
 20
-28.5369188735
 30
0.0
 10
-45.1639351717
 20
-28.3999335548
 30
0.0
 10
-45.2851436762
 20
-28.2926029379
 30
0.0
 10
-45.4115468356
 20
-28.2235549609
 30
0.0
 10
-45.5352746024
 20
-28.1987731555
 30
0.0
 10
-45.612142677
 20
-28.2185272381
 30
0.0
 10
-45.6427375332
 20
-28.2361924166
 30
0.0
  0
SPLINE
  5
305
100
AcDbEntity
  8
0
100
AcDbSpline
 62
7
  6
CONTINUOUS
 70
0
 71
3
 72
11
 73
7
 74
0
 42
0.0000001
 43
0.0000001
 44
0.0000000001
 40
0.0
 40
0.0
 40
0.0
 40
0.0
 40
0.2488260016
 40
0.5114555231
 40
0.767985066
 40
1.0
 40
1.0
 40
1.0
 40
1.0
 10
-22.5481012026
 20
54.8186921091
 30
0.0
 10
-22.506715592
 20
54.7847745595
 30
0.0
 10
-22.4303391481
 20
54.7041772232
 30
0.0
 10
-22.3420039049
 20
54.5635052932
 30
0.0
 10
-22.2833446581
 20
54.4119653724
 30
0.0
 10
-22.267113938
 20
54.3068031219
 30
0.0
 10
-22.267113938
 20
54.256909657
 30
0.0
  0
SPLINE
  5
306
100
AcDbEntity
  8
0
100
AcDbSpline
 62
7
  6
CONTINUOUS
 70
0
 71
3
 72
11
 73
7
 74
0
 42
0.0000001
 43
0.0000001
 44
0.0000000001
 40
0.0
 40
0.0
 40
0.0
 40
0.0
 40
0.2898089725
 40
0.5490451958
 40
0.7822275044
 40
1.0
 40
1.0
 40
1.0
 40
1.0
 10
13.0882251213
 20
-59.2344315638
 30
0.0
 10
13.0882251213
 20
-59.2597723707
 30
0.0
 10
13.0843991565
 20
-59.3079467869
 30
0.0
 10
13.0648662906
 20
-59.3741296363
 30
0.0
 10
13.032038859
 20
-59.4278419415
 30
0.0
 10
13.0011744108
 20
-59.4537785171
 30
0.0
 10
12.9846838606
 20
-59.4632999656
 30
0.0
  0
SPLINE
  5
307
100
AcDbEntity
  8
0
100
AcDbSpline
 62
7
  6
CONTINUOUS
 70
0
 71
3
 72
11
 73
7
 74
0
 42
0.0000001
 43
0.0000001
 44
0.0000000001
 40
0.0
 40
0.0
 40
0.0
 40
0.0
 40
0.2898089725
 40
0.5490451958
 40
0.7822275044
 40
1.0
 40
1.0
 40
1.0
 40
1.0
 10
-22.267113938
 20
-38.8207018974
 30
0.0
 10
-22.267113938
 20
-38.8460427043
 30
0.0
 10
-22.2709399029
 20
-38.8942171205
 30
0.0
 10
-22.2904727687
 20
-38.9603999699
 30
0.0
 10
-22.3233002004
 20
-39.0141122751
 30
0.0
 10
-22.3541646485
 20
-39.0400488507
 30
0.0
 10
-22.3706551987
 20
-39.0495702992
 30
0.0
  0
SPLINE
  5
308
100
AcDbEntity
  8
0
100
AcDbSpline
 62
7
  6
CONTINUOUS
 70
0
 71
3
 72
11
 73
7
 74
0
 42
0.0000001
 43
0.0000001
 44
0.0000000001
 40
0.0
 40
0.0
 40
0.0
 40
0.0
 40
0.2488260016
 40
0.5114555231
 40
0.767985066
 40
1.0
 40
1.0
 40
1.0
 40
1.0
 10
12.8072378568
 20
34.4049624427
 30
0.0
 10
12.8486234673
 20
34.3710448931
 30
0.0
 10
12.9249999113
 20
34.2904475568
 30
0.0
 10
13.0133351544
 20
34.1497756268
 30
0.0
 10
13.0719944012
 20
33.998235706
 30
0.0
 10
13.0882251213
 20
33.8930734556
 30
0.0
 10
13.0882251213
 20
33.8431799906
 30
0.0
  0
SPLINE
  5
309
100
AcDbEntity
  8
ASSI
100
AcDbSpline
 62
7
  6
CONTINUOUS
 70
0
 71
3
 72
15
 73
11
 74
0
 42
0.0000001
 43
0.0000001
 44
0.0000000001
 40
0.0
 40
0.0
 40
0.0
 40
0.0
 40
0.1288173452
 40
0.2705638712
 40
0.4178805497
 40
0.5623856283
 40
0.6962032483
 40
0.8135964378
 40
0.9130675275
 40
1.0
 40
1.0
 40
1.0
 40
1.0
 10
-17.7062751993
 20
-45.4956008945
 30
0.0
 10
-17.7062751993
 20
-45.5639764586
 30
0.0
 10
-17.6871424094
 20
-45.7077540035
 30
0.0
 10
-17.6157520069
 20
-45.918863846
 30
0.0
 10
-17.5057056911
 20
-46.1222442474
 30
0.0
 10
-17.3659452574
 20
-46.3011640677
 30
0.0
 10
-17.2076319367
 20
-46.4413509461
 30
0.0
 10
-17.0425338649
 20
-46.5315357098
 30
0.0
 10
-16.8809303067
 20
-46.5639033011
 30
0.0
 10
-16.7805315399
 20
-46.5381017556
 30
0.0
 10
-16.740570907
 20
-46.5150290106
 30
0.0
  0
SPLINE
  5
30A
100
AcDbEntity
  8
ASSI
100
AcDbSpline
 62
7
  6
CONTINUOUS
 70
0
 71
3
 72
15
 73
11
 74
0
 42
0.0000001
 43
0.0000001
 44
0.0000000001
 40
0.0
 40
0.0
 40
0.0
 40
0.0
 40
0.1288173452
 40
0.2705638712
 40
0.4178805497
 40
0.5623856283
 40
0.6962032483
 40
0.8135964378
 40
0.9130675275
 40
1.0
 40
1.0
 40
1.0
 40
1.0
 10
14.4670833447
 20
-64.0720948909
 30
0.0
 10
14.4670833447
 20
-64.140470455
 30
0.0
 10
14.4862161346
 20
-64.2842479999
 30
0.0
 10
14.5576065371
 20
-64.4953578424
 30
0.0
 10
14.6676528529
 20
-64.6987382438
 30
0.0
 10
14.8074132866
 20
-64.8776580641
 30
0.0
 10
14.9657266072
 20
-65.0178449426
 30
0.0
 10
15.1308246791
 20
-65.1080297062
 30
0.0
 10
15.2924282373
 20
-65.1403972975
 30
0.0
 10
15.3928270041
 20
-65.114595752
 30
0.0
 10
15.432787637
 20
-65.091523007
 30
0.0
  0
SPLINE
  5
30B
100
AcDbEntity
  8
0
100
AcDbSpline
 62
7
  6
CONTINUOUS
 70
0
 71
3
 72
11
 73
7
 74
0
 42
0.0000001
 43
0.0000001
 44
0.0000000001
 40
0.0
 40
0.0
 40
0.0
 40
0.0
 40
0.2177724998
 40
0.4509548069
 40
0.7101910283
 40
1.0
 40
1.0
 40
1.0
 40
1.0
 10
42.9223868104
 20
-79.3725852309
 30
0.0
 10
42.9021859061
 20
-79.3842490405
 30
0.0
 10
42.8643769205
 20
-79.4160212875
 30
0.0
 10
42.8241633408
 20
-79.4818188922
 30
0.0
 10
42.8002355702
 20
-79.5628928722
 30
0.0
 10
42.7955487659
 20
-79.6219065346
 30
0.0
 10
42.7955487659
 20
-79.6529490231
 30
0.0
  0
SPLINE
  5
30C
100
AcDbEntity
  8
ASSI
100
AcDbSpline
 62
7
  6
CONTINUOUS
 70
0
 71
3
 72
15
 73
11
 74
0
 42
0.0000001
 43
0.0000001
 44
0.0000000001
 40
0.0
 40
0.0
 40
0.0
 40
0.0
 40
0.1288173452
 40
0.2705638712
 40
0.4178805497
 40
0.5623856283
 40
0.6962032483
 40
0.8135964378
 40
0.9130675275
 40
1.0
 40
1.0
 40
1.0
 40
1.0
 10
-53.0616142587
 20
-25.0818712281
 30
0.0
 10
-53.0616142587
 20
-25.1502467922
 30
0.0
 10
-53.0424814687
 20
-25.2940243371
 30
0.0
 10
-52.9710910662
 20
-25.5051341796
 30
0.0
 10
-52.8610447505
 20
-25.708514581
 30
0.0
 10
-52.7212843168
 20
-25.8874344013
 30
0.0
 10
-52.5629709961
 20
-26.0276212798
 30
0.0
 10
-52.3978729242
 20
-26.1178060434
 30
0.0
 10
-52.236269366
 20
-26.1501736347
 30
0.0
 10
-52.1358705992
 20
-26.1243720892
 30
0.0
 10
-52.0959099663
 20
-26.1012993442
 30
0.0
  0
SPLINE
  5
30D
100
AcDbEntity
  8
0
100
AcDbSpline
 62
7
  6
CONTINUOUS
 70
0
 71
3
 72
15
 73
11
 74
0
 42
0.0000001
 43
0.0000001
 44
0.0000000001
 40
0.0
 40
0.0
 40
0.0
 40
0.0
 40
0.1288182852
 40
0.2705640777
 40
0.4178805106
 40
0.5623853931
 40
0.6962029203
 40
0.8135961782
 40
0.9130674202
 40
1.0
 40
1.0
 40
1.0
 40
1.0
 10
7.4402097066
 20
-59.2392193567
 30
0.0
 10
7.4402097066
 20
-59.2915697913
 30
0.0
 10
7.4548580469
 20
-59.4016496407
 30
0.0
 10
7.5095170231
 20
-59.5632804178
 30
0.0
 10
7.5937710985
 20
-59.7189930689
 30
0.0
 10
7.7007751076
 20
-59.8559783876
 30
0.0
 10
7.8219836121
 20
-59.9633090044
 30
0.0
 10
7.9483867714
 20
-60.0323569814
 30
0.0
 10
8.0721145382
 20
-60.0571387869
 30
0.0
 10
8.1489826129
 20
-60.0373847042
 30
0.0
 10
8.1795774691
 20
-60.0197195258
 30
0.0
  0
SPLINE
  5
30E
100
AcDbEntity
  8
0
100
AcDbSpline
 62
7
  6
CONTINUOUS
 70
0
 71
3
 72
11
 73
7
 74
0
 42
0.0000001
 43
0.0000001
 44
0.0000000001
 40
0.0
 40
0.0
 40
0.0
 40
0.0
 40
0.2177724998
 40
0.4509548069
 40
0.7101910283
 40
1.0
 40
1.0
 40
1.0
 40
1.0
 10
-10.2873984739
 20
-48.649922083
 30
0.0
 10
-10.3075993782
 20
-48.6615858926
 30
0.0
 10
-10.3454083638
 20
-48.6933581395
 30
0.0
 10
-10.3856219435
 20
-48.7591557443
 30
0.0
 10
-10.4095497141
 20
-48.8402297243
 30
0.0
 10
-10.4142365184
 20
-48.8992433867
 30
0.0
 10
-10.4142365184
 20
-48.9302858752
 30
0.0
  0
SPLINE
  5
30F
100
AcDbEntity
  8
0
100
AcDbSpline
 62
7
  6
CONTINUOUS
 70
0
 71
3
 72
15
 73
11
 74
0
 42
0.0000001
 43
0.0000001
 44
0.0000000001
 40
0.0
 40
0.0
 40
0.0
 40
0.0
 40
0.1288182852
 40
0.2705640777
 40
0.4178805106
 40
0.5623853931
 40
0.6962029203
 40
0.8135961782
 40
0.9130674202
 40
1.0
 40
1.0
 40
1.0
 40
1.0
 10
-10.4142365184
 20
-48.9302858752
 30
0.0
 10
-10.4142365184
 20
-48.9826363098
 30
0.0
 10
-10.3995881781
 20
-49.0927161591
 30
0.0
 10
-10.3449292019
 20
-49.2543469363
 30
0.0
 10
-10.2606751265
 20
-49.4100595874
 30
0.0
 10
-10.1536711174
 20
-49.547044906
 30
0.0
 10
-10.0324626129
 20
-49.6543755229
 30
0.0
 10
-9.9060594535
 20
-49.7234234999
 30
0.0
 10
-9.7823316867
 20
-49.7482053054
 30
0.0
 10
-9.7054636121
 20
-49.7284512227
 30
0.0
 10
-9.6748687558
 20
-49.7107860442
 30
0.0
  0
SPLINE
  5
310
100
AcDbEntity
  8
0
100
AcDbSpline
 62
7
  6
CONTINUOUS
 70
0
 71
3
 72
15
 73
11
 74
0
 42
0.0000001
 43
0.0000001
 44
0.0000000001
 40
0.0
 40
0.0
 40
0.0
 40
0.0
 40
0.1288182852
 40
0.2705640777
 40
0.4178805106
 40
0.5623853931
 40
0.6962029203
 40
0.8135961782
 40
0.9130674202
 40
1.0
 40
1.0
 40
1.0
 40
1.0
 10
24.941102541
 20
-69.3440155416
 30
0.0
 10
24.941102541
 20
-69.3963659762
 30
0.0
 10
24.9557508812
 20
-69.5064458255
 30
0.0
 10
25.0104098574
 20
-69.6680766027
 30
0.0
 10
25.0946639329
 20
-69.8237892538
 30
0.0
 10
25.2016679419
 20
-69.9607745724
 30
0.0
 10
25.3228764464
 20
-70.0681051893
 30
0.0
 10
25.4492796058
 20
-70.1371531663
 30
0.0
 10
25.5730073726
 20
-70.1619349717
 30
0.0
 10
25.6498754472
 20
-70.1421808891
 30
0.0
 10
25.6804703035
 20
-70.1245157106
 30
0.0
  0
SPLINE
  5
311
100
AcDbEntity
  8
0
100
AcDbSpline
 62
7
  6
CONTINUOUS
 70
0
 71
3
 72
11
 73
7
 74
0
 42
0.0000001
 43
0.0000001
 44
0.0000000001
 40
0.0
 40
0.0
 40
0.0
 40
0.0
 40
0.2177724998
 40
0.4509548069
 40
0.7101910283
 40
1.0
 40
1.0
 40
1.0
 40
1.0
 10
7.567047751
 20
-58.9588555645
 30
0.0
 10
7.5468468468
 20
-58.9705193741
 30
0.0
 10
7.5090378612
 20
-59.0022916211
 30
0.0
 10
7.4688242814
 20
-59.0680892258
 30
0.0
 10
7.4448965109
 20
-59.1491632058
 30
0.0
 10
7.4402097066
 20
-59.2081768682
 30
0.0
 10
7.4402097066
 20
-59.2392193567
 30
0.0
  0
SPLINE
  5
312
100
AcDbEntity
  8
0
100
AcDbSpline
 62
7
  6
CONTINUOUS
 70
0
 71
3
 72
15
 73
11
 74
0
 42
0.0000001
 43
0.0000001
 44
0.0000000001
 40
0.0
 40
0.0
 40
0.0
 40
0.0
 40
0.1288182852
 40
0.2705640777
 40
0.4178805106
 40
0.5623853931
 40
0.6962029203
 40
0.8135961782
 40
0.9130674202
 40
1.0
 40
1.0
 40
1.0
 40
1.0
 10
42.7955487659
 20
-79.6529490231
 30
0.0
 10
42.7955487659
 20
-79.7052994577
 30
0.0
 10
42.8101971062
 20
-79.8153793071
 30
0.0
 10
42.8648560824
 20
-79.9770100842
 30
0.0
 10
42.9491101578
 20
-80.1327227353
 30
0.0
 10
43.0561141669
 20
-80.269708054
 30
0.0
 10
43.1773226714
 20
-80.3770386708
 30
0.0
 10
43.3037258308
 20
-80.4460866478
 30
0.0
 10
43.4274535976
 20
-80.4708684533
 30
0.0
 10
43.5043216722
 20
-80.4511143706
 30
0.0
 10
43.5349165285
 20
-80.4334491922
 30
0.0
  0
SPLINE
  5
313
100
AcDbEntity
  8
ASSI
100
AcDbSpline
 62
7
  6
CONTINUOUS
 70
0
 71
3
 72
11
 73
7
 74
0
 42
0.0000001
 43
0.0000001
 44
0.0000000001
 40
0.0
 40
0.0
 40
0.0
 40
0.0
 40
0.2177724475
 40
0.4509526031
 40
0.7101928525
 40
1.0
 40
1.0
 40
1.0
 40
1.0
 10
-17.5406086418
 20
-45.1294121276
 30
0.0
 10
-17.5669935519
 20
-45.1446464285
 30
0.0
 10
-17.6163773731
 20
-45.1861435123
 30
0.0
 10
-17.6689024059
 20
-45.2720832924
 30
0.0
 10
-17.7001528993
 20
-45.3779765712
 30
0.0
 10
-17.7062751993
 20
-45.4550558265
 30
0.0
 10
-17.7062751993
 20
-45.4956008945
 30
0.0
  0
SPLINE
  5
314
100
AcDbEntity
  8
0
100
AcDbSpline
 62
7
  6
CONTINUOUS
 70
0
 71
3
 72
15
 73
11
 74
0
 42
0.0000001
 43
0.0000001
 44
0.0000000001
 40
0.0
 40
0.0
 40
0.0
 40
0.0
 40
0.1288182852
 40
0.2705640777
 40
0.4178805106
 40
0.5623853931
 40
0.6962029203
 40
0.8135961782
 40
0.9130674202
 40
1.0
 40
1.0
 40
1.0
 40
1.0
 10
-27.9151293527
 20
-38.8254896903
 30
0.0
 10
-27.9151293527
 20
-38.8778401249
 30
0.0
 10
-27.9004810125
 20
-38.9879199743
 30
0.0
 10
-27.8458220363
 20
-39.1495507514
 30
0.0
 10
-27.7615679608
 20
-39.3052634025
 30
0.0
 10
-27.6545639518
 20
-39.4422487212
 30
0.0
 10
-27.5333554473
 20
-39.5495793381
 30
0.0
 10
-27.4069522879
 20
-39.618627315
 30
0.0
 10
-27.2832245211
 20
-39.6434091205
 30
0.0
 10
-27.2063564464
 20
-39.6236550378
 30
0.0
 10
-27.1757615902
 20
-39.6059898594
 30
0.0
  0
SPLINE
  5
315
100
AcDbEntity
  8
0
100
AcDbSpline
 62
7
  6
CONTINUOUS
 70
0
 71
3
 72
15
 73
11
 74
0
 42
0.0000001
 43
0.0000001
 44
0.0000000001
 40
0.0
 40
0.0
 40
0.0
 40
0.0
 40
0.1288182852
 40
0.2705640777
 40
0.4178805106
 40
0.5623853931
 40
0.6962029203
 40
0.8135961782
 40
0.9130674202
 40
1.0
 40
1.0
 40
1.0
 40
1.0
 10
-45.7695755777
 20
-28.5165562088
 30
0.0
 10
-45.7695755777
 20
-28.5689066434
 30
0.0
 10
-45.7549272374
 20
-28.6789864928
 30
0.0
 10
-45.7002682612
 20
-28.8406172699
 30
0.0
 10
-45.6160141858
 20
-28.996329921
 30
0.0
 10
-45.5090101767
 20
-29.1333152397
 30
0.0
 10
-45.3878016722
 20
-29.2406458565
 30
0.0
 10
-45.2613985128
 20
-29.3096938335
 30
0.0
 10
-45.137670746
 20
-29.334475639
 30
0.0
 10
-45.0608026714
 20
-29.3147215563
 30
0.0
 10
-45.0302078152
 20
-29.2970563779
 30
0.0
  0
SPLINE
  5
316
100
AcDbEntity
  8
ASSI
100
AcDbSpline
 62
7
  6
CONTINUOUS
 70
0
 71
3
 72
11
 73
7
 74
0
 42
0.0000001
 43
0.0000001
 44
0.0000000001
 40
0.0
 40
0.0
 40
0.0
 40
0.0
 40
0.2177724475
 40
0.4509526031
 40
0.7101928525
 40
1.0
 40
1.0
 40
1.0
 40
1.0
 10
14.6327499022
 20
-63.7059061241
 30
0.0
 10
14.6063649921
 20
-63.7211404249
 30
0.0
 10
14.5569811709
 20
-63.7626375087
 30
0.0
 10
14.5044561381
 20
-63.8485772888
 30
0.0
 10
14.4732056447
 20
-63.9544705676
 30
0.0
 10
14.4670833447
 20
-64.0315498229
 30
0.0
 10
14.4670833447
 20
-64.0720948909
 30
0.0
  0
SPLINE
  5
317
100
AcDbEntity
  8
0
100
AcDbSpline
 62
7
  6
CONTINUOUS
 70
0
 71
3
 72
11
 73
7
 74
0
 42
0.0000001
 43
0.0000001
 44
0.0000000001
 40
0.0
 40
0.0
 40
0.0
 40
0.0
 40
0.2177671524
 40
0.4509472058
 40
0.7101854783
 40
1.0
 40
1.0
 40
1.0
 40
1.0
 10
-22.3706551987
 20
-39.0495702992
 30
0.0
 10
-22.3871478171
 20
-39.0590929418
 30
0.0
 10
-22.4250465601
 20
-39.0728572177
 30
0.0
 10
-22.4879855925
 20
-39.0744305646
 30
0.0
 10
-22.5550783207
 20
-39.0582512786
 30
0.0
 10
-22.5987181885
 20
-39.0374728975
 30
0.0
 10
-22.6206673286
 20
-39.0247997391
 30
0.0
  0
SPLINE
  5
318
100
AcDbEntity
  8
0
100
AcDbSpline
 62
7
  6
CONTINUOUS
 70
0
 71
3
 72
11
 73
7
 74
0
 42
0.0000001
 43
0.0000001
 44
0.0000000001
 40
0.0
 40
0.0
 40
0.0
 40
0.0
 40
0.2177724998
 40
0.4509548069
 40
0.7101910283
 40
1.0
 40
1.0
 40
1.0
 40
1.0
 10
25.0679405854
 20
-69.0636517494
 30
0.0
 10
25.0477396811
 20
-69.075315559
 30
0.0
 10
25.0099306955
 20
-69.1070878059
 30
0.0
 10
24.9697171158
 20
-69.1728854107
 30
0.0
 10
24.9457893452
 20
-69.2539593907
 30
0.0
 10
24.941102541
 20
-69.3129730531
 30
0.0
 10
24.941102541
 20
-69.3440155416
 30
0.0
  0
SPLINE
  5
319
100
AcDbEntity
  8
0
100
AcDbSpline
 62
7
  6
CONTINUOUS
 70
0
 71
3
 72
11
 73
7
 74
0
 42
0.0000001
 43
0.0000001
 44
0.0000000001
 40
0.0
 40
0.0
 40
0.0
 40
0.0
 40
0.2177671524
 40
0.4509472058
 40
0.7101854783
 40
1.0
 40
1.0
 40
1.0
 40
1.0
 10
12.9846838606
 20
-59.4632999656
 30
0.0
 10
12.9681912422
 20
-59.4728226082
 30
0.0
 10
12.9302924992
 20
-59.4865868841
 30
0.0
 10
12.8673534669
 20
-59.488160231
 30
0.0
 10
12.8002607387
 20
-59.471980945
 30
0.0
 10
12.7566208709
 20
-59.4512025639
 30
0.0
 10
12.7346717307
 20
-59.4385294055
 30
0.0
  0
SPLINE
  5
31A
100
AcDbEntity
  8
0
100
AcDbSpline
 62
7
  6
CONTINUOUS
 70
0
 71
3
 72
11
 73
7
 74
0
 42
0.0000001
 43
0.0000001
 44
0.0000000001
 40
0.0
 40
0.0
 40
0.0
 40
0.0
 40
0.2177724998
 40
0.4509548069
 40
0.7101910283
 40
1.0
 40
1.0
 40
1.0
 40
1.0
 10
-27.7882913083
 20
-38.5451258981
 30
0.0
 10
-27.8084922126
 20
-38.5567897078
 30
0.0
 10
-27.8463011982
 20
-38.5885619547
 30
0.0
 10
-27.8865147779
 20
-38.6543595594
 30
0.0
 10
-27.9104425485
 20
-38.7354335394
 30
0.0
 10
-27.9151293527
 20
-38.7944472018
 30
0.0
 10
-27.9151293527
 20
-38.8254896903
 30
0.0
  0
SPLINE
  5
31B
100
AcDbEntity
  8
ASSI
100
AcDbSpline
 62
7
  6
CONTINUOUS
 70
0
 71
3
 72
11
 73
7
 74
0
 42
0.0000001
 43
0.0000001
 44
0.0000000001
 40
0.0
 40
0.0
 40
0.0
 40
0.0
 40
0.2177724475
 40
0.4509526031
 40
0.7101928525
 40
1.0
 40
1.0
 40
1.0
 40
1.0
 10
-52.8959477011
 20
-24.7156824613
 30
0.0
 10
-52.9223326112
 20
-24.7309167621
 30
0.0
 10
-52.9717164324
 20
-24.7724138459
 30
0.0
 10
-53.0242414652
 20
-24.858353626
 30
0.0
 10
-53.0554919587
 20
-24.9642469048
 30
0.0
 10
-53.0616142587
 20
-25.0413261601
 30
0.0
 10
-53.0616142587
 20
-25.0818712281
 30
0.0
  0
SPLINE
  5
31C
100
AcDbEntity
  8
0
100
AcDbSpline
 62
7
  6
CONTINUOUS
 70
0
 71
3
 72
11
 73
7
 74
0
 42
0.0000001
 43
0.0000001
 44
0.0000000001
 40
0.0
 40
0.0
 40
0.0
 40
0.0
 40
0.2372216659
 40
0.5000061068
 40
0.7627872236
 40
1.0
 40
1.0
 40
1.0
 40
1.0
 10
20.5128463238
 20
-63.9295499321
 30
0.0
 10
20.4626565244
 20
-63.900570971
 30
0.0
 10
20.3676695781
 20
-63.8206264192
 30
0.0
 10
20.2568009311
 20
-63.6691250173
 30
0.0
 10
20.181031803
 20
-63.4973613673
 30
0.0
 10
20.1592929332
 20
-63.3751304471
 30
0.0
 10
20.1592929332
 20
-63.317177497
 30
0.0
  0
SPLINE
  5
31D
100
AcDbEntity
  8
0
100
AcDbSpline
 62
7
  6
CONTINUOUS
 70
0
 71
3
 72
11
 73
7
 74
0
 42
0.0000001
 43
0.0000001
 44
0.0000000001
 40
0.0
 40
0.0
 40
0.0
 40
0.0
 40
0.2898089725
 40
0.5490451958
 40
0.7822275044
 40
1.0
 40
1.0
 40
1.0
 40
1.0
 10
20.1592929332
 20
29.7604340574
 30
0.0
 10
20.1592929332
 20
29.7857748643
 30
0.0
 10
20.1631188981
 20
29.8339492805
 30
0.0
 10
20.182651764
 20
29.9001321299
 30
0.0
 10
20.2154791956
 20
29.9538444351
 30
0.0
 10
20.2463436437
 20
29.9797810107
 30
0.0
 10
20.262834194
 20
29.9893024592
 30
0.0
  0
SPLINE
  5
31E
100
AcDbEntity
  8
0
100
AcDbSpline
 62
7
  6
CONTINUOUS
 70
0
 71
3
 72
11
 73
7
 74
0
 42
0.0000001
 43
0.0000001
 44
0.0000000001
 40
0.0
 40
0.0
 40
0.0
 40
0.0
 40
0.2898089725
 40
0.5490451958
 40
0.7822275044
 40
1.0
 40
1.0
 40
1.0
 40
1.0
 10
-50.5513851855
 20
70.5878933901
 30
0.0
 10
-50.5513851855
 20
70.6132341971
 30
0.0
 10
-50.5475592206
 20
70.6614086133
 30
0.0
 10
-50.5280263547
 20
70.7275914627
 30
0.0
 10
-50.4951989231
 20
70.7813037679
 30
0.0
 10
-50.4643344749
 20
70.8072403435
 30
0.0
 10
-50.4478439247
 20
70.816761792
 30
0.0
  0
SPLINE
  5
31F
100
AcDbEntity
  8
0
100
AcDbSpline
 62
7
  6
CONTINUOUS
 70
0
 71
3
 72
11
 73
7
 74
0
 42
0.0000001
 43
0.0000001
 44
0.0000000001
 40
0.0
 40
0.0
 40
0.0
 40
0.0
 40
0.2372216659
 40
0.5000061068
 40
0.7627872236
 40
1.0
 40
1.0
 40
1.0
 40
1.0
 10
-50.1978317949
 20
-23.1020905993
 30
0.0
 10
-50.2480215942
 20
-23.0731116382
 30
0.0
 10
-50.3430085406
 20
-22.9931670865
 30
0.0
 10
-50.4538771876
 20
-22.8416656845
 30
0.0
 10
-50.5296463157
 20
-22.6699020346
 30
0.0
 10
-50.5513851855
 20
-22.5476711143
 30
0.0
 10
-50.5513851855
 20
-22.4897181643
 30
0.0
  0
SPLINE
  5
320
100
AcDbEntity
  8
0
100
AcDbSpline
 62
7
  6
CONTINUOUS
 70
0
 71
3
 72
11
 73
7
 74
0
 42
0.0000001
 43
0.0000001
 44
0.0000000001
 40
0.0
 40
0.0
 40
0.0
 40
0.0
 40
0.2898089725
 40
0.5490451958
 40
0.7822275044
 40
1.0
 40
1.0
 40
1.0
 40
1.0
 10
-15.1960461261
 20
50.1741637237
 30
0.0
 10
-15.1960461261
 20
50.1995045307
 30
0.0
 10
-15.1922201612
 20
50.2476789469
 30
0.0
 10
-15.1726872954
 20
50.3138617963
 30
0.0
 10
-15.1398598637
 20
50.3675741015
 30
0.0
 10
-15.1089954156
 20
50.3935106771
 30
0.0
 10
-15.0925048654
 20
50.4030321256
 30
0.0
  0
SPLINE
  5
321
100
AcDbEntity
  8
0
100
AcDbSpline
 62
7
  6
CONTINUOUS
 70
0
 71
3
 72
11
 73
7
 74
0
 42
0.0000001
 43
0.0000001
 44
0.0000000001
 40
0.0
 40
0.0
 40
0.0
 40
0.0
 40
0.2372216659
 40
0.5000061068
 40
0.7627872236
 40
1.0
 40
1.0
 40
1.0
 40
1.0
 10
-14.8424927355
 20
-43.5158202657
 30
0.0
 10
-14.8926825349
 20
-43.4868413046
 30
0.0
 10
-14.9876694812
 20
-43.4068967529
 30
0.0
 10
-15.0985381283
 20
-43.2553953509
 30
0.0
 10
-15.1743072564
 20
-43.083631701
 30
0.0
 10
-15.1960461261
 20
-42.9614007807
 30
0.0
 10
-15.1960461261
 20
-42.9034478306
 30
0.0
  0
SPLINE
  5
322
100
AcDbEntity
  8
0
100
AcDbSpline
 62
7
  6
CONTINUOUS
 70
0
 71
3
 72
11
 73
7
 74
0
 42
0.0000001
 43
0.0000001
 44
0.0000000001
 40
0.0
 40
0.0
 40
0.0
 40
0.0
 40
0.2177724998
 40
0.4509548069
 40
0.7101910283
 40
1.0
 40
1.0
 40
1.0
 40
1.0
 10
-45.6427375332
 20
-28.2361924166
 30
0.0
 10
-45.6629384375
 20
-28.2478562262
 30
0.0
 10
-45.7007474231
 20
-28.2796284732
 30
0.0
 10
-45.7409610028
 20
-28.3454260779
 30
0.0
 10
-45.7648887734
 20
-28.4265000579
 30
0.0
 10
-45.7695755777
 20
-28.4855137203
 30
0.0
 10
-45.7695755777
 20
-28.5165562088
 30
0.0
  0
SPLINE
  5
323
100
AcDbEntity
  8
0
100
AcDbSpline
 62
7
  6
CONTINUOUS
 70
0
 71
3
 72
9
 73
5
 74
0
 42
0.0000001
 43
0.0000001
 44
0.0000000001
 40
0.0
 40
0.0
 40
0.0
 40
0.0
 40
0.5185497409
 40
1.0
 40
1.0
 40
1.0
 40
1.0
 10
-42.7846627513
 20
-12.3449696435
 30
0.0
 10
-42.8796286926
 20
-12.3209419949
 30
0.0
 10
-43.0718152826
 20
-12.309531496
 30
0.0
 10
-43.2601322386
 20
-12.359775635
 30
0.0
 10
-43.3388960174
 20
-12.4052528537
 30
0.0
  0
SPLINE
  5
324
100
AcDbEntity
  8
ASSI
100
AcDbSpline
 62
7
  6
CONTINUOUS
 70
0
 71
3
 72
11
 73
7
 74
0
 42
0.0000001
 43
0.0000001
 44
0.0000000001
 40
0.0
 40
0.0
 40
0.0
 40
0.0
 40
0.2177725095
 40
0.4509512106
 40
0.7102004405
 40
1.0
 40
1.0
 40
1.0
 40
1.0
 10
21.5772599004
 20
-38.685096702
 30
0.0
 10
21.7174347243
 20
-38.6041680734
 30
0.0
 10
21.9797886426
 20
-38.3837105161
 30
0.0
 10
22.2588484931
 20
-37.9271524873
 30
0.0
 10
22.4248622621
 20
-37.3645820001
 30
0.0
 10
22.4573899721
 20
-36.9550922584
 30
0.0
 10
22.4573899721
 20
-36.7396989286
 30
0.0
  0
SPLINE
  5
325
100
AcDbEntity
  8
0
100
AcDbSpline
 62
7
  6
CONTINUOUS
 70
0
 71
3
 72
11
 73
7
 74
0
 42
0.0000001
 43
0.0000001
 44
0.0000000001
 40
0.0
 40
0.0
 40
0.0
 40
0.0
 40
0.2372132543
 40
0.4999938932
 40
0.7627778561
 40
1.0
 40
1.0
 40
1.0
 40
1.0
 10
-43.5156727126
 20
-20.5903180599
 30
0.0
 10
-43.5156727126
 20
-20.6482711382
 30
0.0
 10
-43.5374106908
 20
-20.7705023384
 30
0.0
 10
-43.6131815667
 20
-20.9422650858
 30
0.0
 10
-43.7240485582
 20
-21.0937675501
 30
0.0
 10
-43.8190361928
 20
-21.1737114697
 30
0.0
 10
-43.8692261032
 20
-21.202690495
 30
0.0
  0
SPLINE
  5
326
100
AcDbEntity
  8
0
100
AcDbSpline
 62
7
  6
CONTINUOUS
 70
0
 71
3
 72
12
 73
8
 74
0
 42
0.0000001
 43
0.0000001
 44
0.0000000001
 40
0.0
 40
0.0
 40
0.0
 40
0.0
 40
0.2300520069
 40
0.4758551583
 40
0.6046950994
 40
0.7373224677
 40
1.0
 40
1.0
 40
1.0
 40
1.0
 10
-42.6317892362
 20
-12.7114292075
 30
0.0
 10
-42.6317892362
 20
-12.6794896871
 30
0.0
 10
-42.6361457521
 20
-12.6133629039
 30
0.0
 10
-42.6522485103
 20
-12.5307284357
 30
0.0
 10
-42.6752715116
 20
-12.4637555357
 30
0.0
 10
-42.7068152341
 20
-12.3991682385
 30
0.0
 10
-42.7493077169
 20
-12.3539149383
 30
0.0
 10
-42.7846627513
 20
-12.3449696435
 30
0.0
  0
SPLINE
  5
327
100
AcDbEntity
  8
ASSI
100
AcDbSpline
 62
7
  6
CONTINUOUS
 70
0
 71
3
 72
11
 73
7
 74
0
 42
0.0000001
 43
0.0000001
 44
0.0000000001
 40
0.0
 40
0.0
 40
0.0
 40
0.0
 40
0.2177725095
 40
0.4509512106
 40
0.7102004405
 40
1.0
 40
1.0
 40
1.0
 40
1.0
 10
7.4351242766
 20
-30.5196048355
 30
0.0
 10
7.5752991006
 20
-30.4386762069
 30
0.0
 10
7.8376530188
 20
-30.2182186495
 30
0.0
 10
8.1167128693
 20
-29.7616606207
 30
0.0
 10
8.2827266384
 20
-29.1990901335
 30
0.0
 10
8.3152543483
 20
-28.7896003918
 30
0.0
 10
8.3152543483
 20
-28.574207062
 30
0.0
  0
SPLINE
  5
328
100
AcDbEntity
  8
ASSI
100
AcDbSpline
 62
7
  6
CONTINUOUS
 70
0
 71
3
 72
11
 73
7
 74
0
 42
0.0000001
 43
0.0000001
 44
0.0000000001
 40
0.0
 40
0.0
 40
0.0
 40
0.0
 40
0.2177725095
 40
0.4509512106
 40
0.7102004405
 40
1.0
 40
1.0
 40
1.0
 40
1.0
 10
-27.9202147827
 20
-10.1058751691
 30
0.0
 10
-27.7800399588
 20
-10.0249465405
 30
0.0
 10
-27.5176860405
 20
-9.8044889832
 30
0.0
 10
-27.23862619
 20
-9.3479309544
 30
0.0
 10
-27.0726124209
 20
-8.7853604672
 30
0.0
 10
-27.040084711
 20
-8.3758707254
 30
0.0
 10
-27.040084711
 20
-8.1604773956
 30
0.0
  0
SPLINE
  5
329
100
AcDbEntity
  8
ASSI
100
AcDbSpline
 62
7
  6
CONTINUOUS
 70
0
 71
3
 72
11
 73
7
 74
0
 42
0.0000001
 43
0.0000001
 44
0.0000000001
 40
0.0
 40
0.0
 40
0.0
 40
0.0
 40
0.2177725095
 40
0.4509512106
 40
0.7102004405
 40
1.0
 40
1.0
 40
1.0
 40
1.0
 10
-13.778079159
 20
-18.2713670356
 30
0.0
 10
-13.637904335
 20
-18.190438407
 30
0.0
 10
-13.3755504168
 20
-17.9699808497
 30
0.0
 10
-13.0964905663
 20
-17.5134228209
 30
0.0
 10
-12.9304767972
 20
-16.9508523337
 30
0.0
 10
-12.8979490873
 20
-16.541362592
 30
0.0
 10
-12.8979490873
 20
-16.3259692622
 30
0.0
  0
SPLINE
  5
32A
100
AcDbEntity
  8
ASSI
100
AcDbSpline
 62
7
  6
CONTINUOUS
 70
0
 71
3
 72
9
 73
5
 74
0
 42
0.0000001
 43
0.0000001
 44
0.0000000001
 40
0.0
 40
0.0
 40
0.0
 40
0.0
 40
0.488900642
 40
1.0
 40
1.0
 40
1.0
 40
1.0
 10
12.943645598
 20
-21.8330526536
 30
0.0
 10
12.9728170867
 20
-21.8162094002
 30
0.0
 10
13.0279851336
 20
-21.7733857671
 30
0.0
 10
13.0701493305
 20
-21.7179406366
 30
0.0
 10
13.0882882764
 20
-21.6877573766
 30
0.0
  0
SPLINE
  5
32B
100
AcDbEntity
  8
ASSI
100
AcDbSpline
 62
7
  6
CONTINUOUS
 70
0
 71
3
 72
9
 73
5
 74
0
 42
0.0000001
 43
0.0000001
 44
0.0000000001
 40
0.0
 40
0.0
 40
0.0
 40
0.0
 40
0.488900642
 40
1.0
 40
1.0
 40
1.0
 40
1.0
 10
-22.4116934613
 20
-1.4193229872
 30
0.0
 10
-22.3825219726
 20
-1.4024797338
 30
0.0
 10
-22.3273539257
 20
-1.3596561007
 30
0.0
 10
-22.2851897288
 20
-1.3042109703
 30
0.0
 10
-22.2670507829
 20
-1.2740277102
 30
0.0
  0
SPLINE
  5
32C
100
AcDbEntity
  8
ASSI
100
AcDbSpline
 62
7
  6
CONTINUOUS
 70
0
 71
3
 72
11
 73
7
 74
0
 42
0.0000001
 43
0.0000001
 44
0.0000000001
 40
0.0
 40
0.0
 40
0.0
 40
0.0
 40
0.2177724475
 40
0.4509526031
 40
0.7101928525
 40
1.0
 40
1.0
 40
1.0
 40
1.0
 10
-39.5447646003
 20
-12.1184468918
 30
0.0
 10
-39.5183796901
 20
-12.1032125909
 30
0.0
 10
-39.4689958689
 20
-12.0617155071
 30
0.0
 10
-39.4164708362
 20
-11.975775727
 30
0.0
 10
-39.3852203427
 20
-11.8698824483
 30
0.0
 10
-39.3790980427
 20
-11.7928031929
 30
0.0
 10
-39.3790980427
 20
-11.752258125
 30
0.0
  0
SPLINE
  5
32D
100
AcDbEntity
  8
0
100
AcDbSpline
 62
7
  6
CONTINUOUS
 70
0
 71
3
 72
10
 73
6
 74
0
 42
0.0000001
 43
0.0000001
 44
0.0000000001
 40
0.0
 40
0.0
 40
0.0
 40
0.0
 40
0.2184356068
 40
0.4523294001
 40
1.0
 40
1.0
 40
1.0
 40
1.0
 10
-42.7094457464
 20
-12.8830796702
 30
0.0
 10
-42.6970778787
 20
-12.8759386238
 30
0.0
 10
-42.6739219367
 20
-12.8564803651
 30
0.0
 10
-42.6394087993
 20
-12.7999750594
 30
0.0
 10
-42.6317892362
 20
-12.7472361391
 30
0.0
 10
-42.6317892362
 20
-12.7114292075
 30
0.0
  0
SPLINE
  5
32E
100
AcDbEntity
  8
ASSI
100
AcDbSpline
 62
7
  6
CONTINUOUS
 70
0
 71
3
 72
15
 73
11
 74
0
 42
0.0000001
 43
0.0000001
 44
0.0000000001
 40
0.0
 40
0.0
 40
0.0
 40
0.0
 40
0.1288173452
 40
0.2705638712
 40
0.4178805497
 40
0.5623856283
 40
0.6962032483
 40
0.8135964378
 40
0.9130675275
 40
1.0
 40
1.0
 40
1.0
 40
1.0
 10
-39.3790980427
 20
-11.752258125
 30
0.0
 10
-39.3790980427
 20
-11.6838825608
 30
0.0
 10
-39.3982308327
 20
-11.5401050159
 30
0.0
 10
-39.4696212352
 20
-11.3289951734
 30
0.0
 10
-39.5796675509
 20
-11.125614772
 30
0.0
 10
-39.7194279846
 20
-10.9466949517
 30
0.0
 10
-39.8777413053
 20
-10.8065080733
 30
0.0
 10
-40.0428393772
 20
-10.7163233096
 30
0.0
 10
-40.2044429354
 20
-10.6839557183
 30
0.0
 10
-40.3048417022
 20
-10.7097572638
 30
0.0
 10
-40.344802335
 20
-10.7328300088
 30
0.0
  0
SPLINE
  5
32F
100
AcDbEntity
  8
ASSI
100
AcDbSpline
 62
7
  6
CONTINUOUS
 70
0
 71
3
 72
11
 73
7
 74
0
 42
0.0000001
 43
0.0000001
 44
0.0000000001
 40
0.0
 40
0.0
 40
0.0
 40
0.0
 40
0.2898103997
 40
0.549056331
 40
0.7822326195
 40
1.0
 40
1.0
 40
1.0
 40
1.0
 10
10.7901280825
 20
29.9665736918
 30
0.0
 10
10.7407431805
 20
29.9950879152
 30
0.0
 10
10.6425524104
 20
30.0418377926
 30
0.0
 10
10.4915946417
 20
30.0782472744
 30
0.0
 10
10.3499808969
 20
30.0747016786
 30
0.0
 10
10.2647092808
 20
30.043733463
 30
0.0
 10
10.2276008246
 20
30.0223074718
 30
0.0
  0
SPLINE
  5
330
100
AcDbEntity
  8
ASSI
100
AcDbSpline
 62
7
  6
CONTINUOUS
 70
0
 71
3
 72
14
 73
10
 74
0
 42
0.0000001
 43
0.0000001
 44
0.0000000001
 40
0.0
 40
0.0
 40
0.0
 40
0.0
 40
0.2973955391
 40
0.4435924679
 40
0.5810302662
 40
0.7057748882
 40
0.8158290396
 40
0.9122118354
 40
1.0
 40
1.0
 40
1.0
 40
1.0
 10
13.0882882764
 20
-20.8464443643
 30
0.0
 10
13.0299926998
 20
-20.6821220804
 30
0.0
 10
12.9071841597
 20
-20.4479768642
 30
0.0
 10
12.691557958
 20
-20.1833315271
 30
0.0
 10
12.5138102972
 20
-20.0213280328
 30
0.0
 10
12.3285473039
 20
-19.903534084
 30
0.0
 10
12.1443078911
 20
-19.8362792149
 30
0.0
 10
11.969204371
 20
-19.8246942029
 30
0.0
 10
11.8631632007
 20
-19.858791586
 30
0.0
 10
11.8185910823
 20
-19.8845269707
 30
0.0
  0
SPLINE
  5
331
100
AcDbEntity
  8
ASSI
100
AcDbSpline
 62
7
  6
CONTINUOUS
 70
0
 71
3
 72
9
 73
5
 74
0
 42
0.0000001
 43
0.0000001
 44
0.0000000001
 40
0.0
 40
0.0
 40
0.0
 40
0.0
 40
0.5311890178
 40
1.0
 40
1.0
 40
1.0
 40
1.0
 10
47.5596602288
 20
-40.2748826829
 30
0.0
 10
47.4929244567
 20
-40.2539141099
 30
0.0
 10
47.3598859499
 20
-40.2312354914
 30
0.0
 10
47.2273958352
 20
-40.2673862132
 30
0.0
 10
47.1739301416
 20
-40.2982566371
 30
0.0
  0
SPLINE
  5
332
100
AcDbEntity
  8
ASSI
100
AcDbSpline
 62
7
  6
CONTINUOUS
 70
0
 71
3
 72
11
 73
7
 74
0
 42
0.0000001
 43
0.0000001
 44
0.0000000001
 40
0.0
 40
0.0
 40
0.0
 40
0.0
 40
0.2898103997
 40
0.549056331
 40
0.7822326195
 40
1.0
 40
1.0
 40
1.0
 40
1.0
 10
-24.5652109768
 20
50.3803033582
 30
0.0
 10
-24.6145958788
 20
50.4088175816
 30
0.0
 10
-24.7127866489
 20
50.455567459
 30
0.0
 10
-24.8637444176
 20
50.4919769408
 30
0.0
 10
-25.0053581624
 20
50.488431345
 30
0.0
 10
-25.0906297785
 20
50.4574631294
 30
0.0
 10
-25.1277382347
 20
50.4360371382
 30
0.0
  0
SPLINE
  5
333
100
AcDbEntity
  8
ASSI
100
AcDbSpline
 62
7
  6
CONTINUOUS
 70
0
 71
3
 72
14
 73
10
 74
0
 42
0.0000001
 43
0.0000001
 44
0.0000000001
 40
0.0
 40
0.0
 40
0.0
 40
0.0
 40
0.2973955391
 40
0.4435924679
 40
0.5810302662
 40
0.7057748882
 40
0.8158290396
 40
0.9122118354
 40
1.0
 40
1.0
 40
1.0
 40
1.0
 10
-22.2670507829
 20
-0.4327146979
 30
0.0
 10
-22.3253463596
 20
-0.268392414
 30
0.0
 10
-22.4481548996
 20
-0.0342471978
 30
0.0
 10
-22.6637811013
 20
0.2303981393
 30
0.0
 10
-22.8415287621
 20
0.3924016336
 30
0.0
 10
-23.0267917555
 20
0.5101955824
 30
0.0
 10
-23.2110311683
 20
0.5774504515
 30
0.0
 10
-23.3861346883
 20
0.5890354634
 30
0.0
 10
-23.4921758586
 20
0.5549380804
 30
0.0
 10
-23.536747977
 20
0.5292026956
 30
0.0
  0
SPLINE
  5
334
100
AcDbEntity
  8
ASSI
100
AcDbSpline
 62
7
  6
CONTINUOUS
 70
0
 71
3
 72
11
 73
7
 74
0
 42
0.0000001
 43
0.0000001
 44
0.0000000001
 40
0.0
 40
0.0
 40
0.0
 40
0.0
 40
0.2287158306
 40
0.4801082056
 40
0.741900079
 40
1.0
 40
1.0
 40
1.0
 40
1.0
 10
22.4573899721
 20
-36.7396989286
 30
0.0
 10
22.4573899721
 20
-36.386758673
 30
0.0
 10
22.3614000927
 20
-35.6450519234
 30
0.0
 10
22.0011650072
 20
-34.5527899482
 30
0.0
 10
21.4442095793
 20
-33.4951823727
 30
0.0
 10
20.9577196743
 20
-32.8515153908
 30
0.0
 10
20.6896916328
 20
-32.5569120975
 30
0.0
  0
SPLINE
  5
335
100
AcDbEntity
  8
ASSI
100
AcDbSpline
 62
7
  6
CONTINUOUS
 70
0
 71
3
 72
17
 73
13
 74
0
 42
0.0000001
 43
0.0000001
 44
0.0000000001
 40
0.0
 40
0.0
 40
0.0
 40
0.0
 40
0.1286775804
 40
0.270269858
 40
0.4174264883
 40
0.561774782
 40
0.6954474795
 40
0.8127138097
 40
0.8646786712
 40
0.9125122374
 40
0.9571410245
 40
1.0
 40
1.0
 40
1.0
 40
1.0
 10
8.3152543483
 20
-28.574207062
 30
0.0
 10
8.3152543483
 20
-28.2109634314
 30
0.0
 10
8.2136167367
 20
-27.4471522468
 30
0.0
 10
7.834341253
 20
-26.3256246907
 30
0.0
 10
7.2497931411
 20
-25.2452203202
 30
0.0
 10
6.5070830926
 20
-24.2945332463
 30
0.0
 10
5.6668425634
 20
-23.5503736864
 30
0.0
 10
4.9063276525
 20
-23.1345277163
 30
0.0
 10
4.3114205071
 20
-22.9762322946
 30
0.0
 10
3.9019789052
 20
-22.9461197145
 30
0.0
 10
3.5207206694
 20
-23.0019817978
 30
0.0
 10
3.289754596
 20
-23.0979827493
 30
0.0
 10
3.1849767799
 20
-23.1584752452
 30
0.0
  0
SPLINE
  5
336
100
AcDbEntity
  8
ASSI
100
AcDbSpline
 62
7
  6
CONTINUOUS
 70
0
 71
3
 72
17
 73
13
 74
0
 42
0.0000001
 43
0.0000001
 44
0.0000000001
 40
0.0
 40
0.0
 40
0.0
 40
0.0
 40
0.1286775804
 40
0.270269858
 40
0.4174264883
 40
0.561774782
 40
0.6954474795
 40
0.8127138097
 40
0.8646786712
 40
0.9125122374
 40
0.9571410245
 40
1.0
 40
1.0
 40
1.0
 40
1.0
 10
-27.040084711
 20
-8.1604773956
 30
0.0
 10
-27.040084711
 20
-7.797233765
 30
0.0
 10
-27.1417223226
 20
-7.0334225805
 30
0.0
 10
-27.5209978063
 20
-5.9118950243
 30
0.0
 10
-28.1055459182
 20
-4.8314906538
 30
0.0
 10
-28.8482559668
 20
-3.8808035799
 30
0.0
 10
-29.6884964959
 20
-3.13664402
 30
0.0
 10
-30.4490114068
 20
-2.72079805
 30
0.0
 10
-31.0439185522
 20
-2.5625026282
 30
0.0
 10
-31.4533601541
 20
-2.5323900482
 30
0.0
 10
-31.8346183899
 20
-2.5882521314
 30
0.0
 10
-32.0655844633
 20
-2.6842530829
 30
0.0
 10
-32.1703622794
 20
-2.7447455789
 30
0.0
  0
SPLINE
  5
337
100
AcDbEntity
  8
ASSI
100
AcDbSpline
 62
7
  6
CONTINUOUS
 70
0
 71
3
 72
11
 73
7
 74
0
 42
0.0000001
 43
0.0000001
 44
0.0000000001
 40
0.0
 40
0.0
 40
0.0
 40
0.0
 40
0.2287158306
 40
0.4801082056
 40
0.741900079
 40
1.0
 40
1.0
 40
1.0
 40
1.0
 10
-12.8979490873
 20
-16.3259692622
 30
0.0
 10
-12.8979490873
 20
-15.9730290066
 30
0.0
 10
-12.9939389666
 20
-15.231322257
 30
0.0
 10
-13.3541740521
 20
-14.1390602818
 30
0.0
 10
-13.9111294801
 20
-13.0814527063
 30
0.0
 10
-14.397619385
 20
-12.4377857244
 30
0.0
 10
-14.6656474265
 20
-12.1431824311
 30
0.0
  0
SPLINE
  5
338
100
AcDbEntity
  8
ASSI
100
AcDbSpline
 62
7
  6
CONTINUOUS
 70
0
 71
3
 72
11
 73
7
 74
0
 42
0.0000001
 43
0.0000001
 44
0.0000000001
 40
0.0
 40
0.0
 40
0.0
 40
0.0
 40
0.2177727243
 40
0.4509512644
 40
0.7101951428
 40
1.0
 40
1.0
 40
1.0
 40
1.0
 10
-23.536747977
 20
0.5292026956
 30
0.0
 10
-23.5738517987
 20
0.5077794122
 30
0.0
 10
-23.6432953317
 20
0.449421897
 30
0.0
 10
-23.717162354
 20
0.3285711867
 30
0.0
 10
-23.7611056089
 20
0.1796574665
 30
0.0
 10
-23.769715848
 20
0.0712648304
 30
0.0
 10
-23.769715848
 20
0.0142487717
 30
0.0
  0
SPLINE
  5
339
100
AcDbEntity
  8
ASSI
100
AcDbSpline
 62
7
  6
CONTINUOUS
 70
0
 71
3
 72
11
 73
7
 74
0
 42
0.0000001
 43
0.0000001
 44
0.0000000001
 40
0.0
 40
0.0
 40
0.0
 40
0.0
 40
0.2177724475
 40
0.4509526031
 40
0.7101928525
 40
1.0
 40
1.0
 40
1.0
 40
1.0
 10
-40.344802335
 20
-10.7328300088
 30
0.0
 10
-40.3711872452
 20
-10.7480643097
 30
0.0
 10
-40.4205710664
 20
-10.7895613935
 30
0.0
 10
-40.4730960991
 20
-10.8755011736
 30
0.0
 10
-40.5043465926
 20
-10.9813944523
 30
0.0
 10
-40.5104688926
 20
-11.0584737077
 30
0.0
 10
-40.5104688926
 20
-11.0990187756
 30
0.0
  0
SPLINE
  5
33A
100
AcDbEntity
  8
ASSI
100
AcDbSpline
 62
7
  6
CONTINUOUS
 70
0
 71
3
 72
15
 73
11
 74
0
 42
0.0000001
 43
0.0000001
 44
0.0000000001
 40
0.0
 40
0.0
 40
0.0
 40
0.0
 40
0.1288173452
 40
0.2705638712
 40
0.4178805497
 40
0.5623856283
 40
0.6962032483
 40
0.8135964378
 40
0.9130675275
 40
1.0
 40
1.0
 40
1.0
 40
1.0
 10
-40.5104688926
 20
-11.0990187756
 30
0.0
 10
-40.5104688926
 20
-11.1673943398
 30
0.0
 10
-40.4913361026
 20
-11.3111718847
 30
0.0
 10
-40.4199457001
 20
-11.5222817272
 30
0.0
 10
-40.3098993844
 20
-11.7256621286
 30
0.0
 10
-40.1701389507
 20
-11.9045819489
 30
0.0
 10
-40.01182563
 20
-12.0447688273
 30
0.0
 10
-39.8467275581
 20
-12.134953591
 30
0.0
 10
-39.6851239999
 20
-12.1673211823
 30
0.0
 10
-39.5847252331
 20
-12.1415196367
 30
0.0
 10
-39.5447646003
 20
-12.1184468918
 30
0.0
  0
SPLINE
  5
33B
100
AcDbEntity
  8
ASSI
100
AcDbSpline
 62
7
  6
CONTINUOUS
 70
0
 71
3
 72
16
 73
12
 74
0
 42
0.0000001
 43
0.0000001
 44
0.0000000001
 40
0.0
 40
0.0
 40
0.0
 40
0.0
 40
0.1287334459
 40
0.2703880339
 40
0.4176089463
 40
0.5620201857
 40
0.6957508413
 40
0.81306773
 40
0.9124742898
 40
0.9571223801
 40
1.0
 40
1.0
 40
1.0
 40
1.0
 10
11.5856232113
 20
-20.3994808947
 30
0.0
 10
11.5856232113
 20
-20.495633905
 30
0.0
 10
11.6125298105
 20
-20.6978206055
 30
0.0
 10
11.7129194188
 20
-20.994695967
 30
0.0
 10
11.8676834214
 20
-21.2806917284
 30
0.0
 10
12.064179609
 20
-21.5323277784
 30
0.0
 10
12.2869455598
 20
-21.7293672899
 30
0.0
 10
12.5186913127
 20
-21.8564916107
 30
0.0
 10
12.7154210158
 20
-21.8949045446
 30
0.0
 10
12.8547727268
 20
-21.8744784009
 30
0.0
 10
12.9159107501
 20
-21.8490664085
 30
0.0
 10
12.943645598
 20
-21.8330526536
 30
0.0
  0
SPLINE
  5
33C
100
AcDbEntity
  8
ASSI
100
AcDbSpline
 62
7
  6
CONTINUOUS
 70
0
 71
3
 72
11
 73
7
 74
0
 42
0.0000001
 43
0.0000001
 44
0.0000000001
 40
0.0
 40
0.0
 40
0.0
 40
0.0
 40
0.2177725095
 40
0.4509512106
 40
0.7102004405
 40
1.0
 40
1.0
 40
1.0
 40
1.0
 10
3.1849767799
 20
-23.1584752452
 30
0.0
 10
3.044801956
 20
-23.2394038739
 30
0.0
 10
2.7824480377
 20
-23.4598614312
 30
0.0
 10
2.5033881872
 20
-23.91641946
 30
0.0
 10
2.3373744182
 20
-24.4789899472
 30
0.0
 10
2.3048467082
 20
-24.8884796889
 30
0.0
 10
2.3048467082
 20
-25.1038730187
 30
0.0
  0
SPLINE
  5
33D
100
AcDbEntity
  8
ASSI
100
AcDbSpline
 62
7
  6
CONTINUOUS
 70
0
 71
3
 72
11
 73
7
 74
0
 42
0.0000001
 43
0.0000001
 44
0.0000000001
 40
0.0
 40
0.0
 40
0.0
 40
0.0
 40
0.2316674411
 40
0.4877286574
 40
0.7503131835
 40
1.0
 40
1.0
 40
1.0
 40
1.0
 10
46.9409622706
 20
-40.8132105611
 30
0.0
 10
46.9409622706
 20
-40.9239544369
 30
0.0
 10
46.97651906
 20
-41.1573373538
 30
0.0
 10
47.1054118869
 20
-41.4942923898
 30
0.0
 10
47.2999539672
 20
-41.8082738128
 30
0.0
 10
47.4682932264
 20
-41.9891947858
 30
0.0
 10
47.5596602288
 20
-42.0659953331
 30
0.0
  0
SPLINE
  5
33E
100
AcDbEntity
  8
ASSI
100
AcDbSpline
 62
7
  6
CONTINUOUS
 70
0
 71
3
 72
16
 73
12
 74
0
 42
0.0000001
 43
0.0000001
 44
0.0000000001
 40
0.0
 40
0.0
 40
0.0
 40
0.0
 40
0.1287334459
 40
0.2703880339
 40
0.4176089463
 40
0.5620201857
 40
0.6957508413
 40
0.81306773
 40
0.9124742898
 40
0.9571223801
 40
1.0
 40
1.0
 40
1.0
 40
1.0
 10
-23.769715848
 20
0.0142487717
 30
0.0
 10
-23.769715848
 20
-0.0819042386
 30
0.0
 10
-23.7428092489
 20
-0.2840909391
 30
0.0
 10
-23.6424196405
 20
-0.5809663006
 30
0.0
 10
-23.4876556379
 20
-0.866962062
 30
0.0
 10
-23.2911594504
 20
-1.118598112
 30
0.0
 10
-23.0683934996
 20
-1.3156376236
 30
0.0
 10
-22.8366477467
 20
-1.4427619443
 30
0.0
 10
-22.6399180435
 20
-1.4811748782
 30
0.0
 10
-22.5005663325
 20
-1.4607487345
 30
0.0
 10
-22.4394283092
 20
-1.4353367421
 30
0.0
 10
-22.4116934613
 20
-1.4193229872
 30
0.0
  0
SPLINE
  5
33F
100
AcDbEntity
  8
ASSI
100
AcDbSpline
 62
7
  6
CONTINUOUS
 70
0
 71
3
 72
9
 73
5
 74
0
 42
0.0000001
 43
0.0000001
 44
0.0000000001
 40
0.0
 40
0.0
 40
0.0
 40
0.0
 40
0.5146989186
 40
1.0
 40
1.0
 40
1.0
 40
1.0
 10
20.6896916328
 20
-38.8811920265
 30
0.0
 10
20.8470807314
 20
-38.8899466252
 30
0.0
 10
21.1570021687
 20
-38.8703018207
 30
0.0
 10
21.4485429012
 20
-38.7594102623
 30
0.0
 10
21.5772599004
 20
-38.685096702
 30
0.0
  0
SPLINE
  5
340
100
AcDbEntity
  8
ASSI
100
AcDbSpline
 62
7
  6
CONTINUOUS
 70
0
 71
3
 72
17
 73
13
 74
0
 42
0.0000001
 43
0.0000001
 44
0.0000000001
 40
0.0
 40
0.0
 40
0.0
 40
0.0
 40
0.1286775804
 40
0.270269858
 40
0.4174264883
 40
0.561774782
 40
0.6954474795
 40
0.8127138097
 40
0.8646786712
 40
0.9125122374
 40
0.9571410245
 40
1.0
 40
1.0
 40
1.0
 40
1.0
 10
2.3048467082
 20
-25.1038730187
 30
0.0
 10
2.3048467082
 20
-25.4671166493
 30
0.0
 10
2.4064843199
 20
-26.2309278339
 30
0.0
 10
2.7857598035
 20
-27.35245539
 30
0.0
 10
3.3703079155
 20
-28.4328597605
 30
0.0
 10
4.113017964
 20
-29.3835468344
 30
0.0
 10
4.9532584932
 20
-30.1277063943
 30
0.0
 10
5.7137734041
 20
-30.5435523644
 30
0.0
 10
6.3086805495
 20
-30.7018477862
 30
0.0
 10
6.7181221513
 20
-30.7319603662
 30
0.0
 10
7.0993803872
 20
-30.6760982829
 30
0.0
 10
7.3303464605
 20
-30.5800973314
 30
0.0
 10
7.4351242766
 20
-30.5196048355
 30
0.0
  0
SPLINE
  5
341
100
AcDbEntity
  8
ASSI
100
AcDbSpline
 62
7
  6
CONTINUOUS
 70
0
 71
3
 72
17
 73
13
 74
0
 42
0.0000001
 43
0.0000001
 44
0.0000000001
 40
0.0
 40
0.0
 40
0.0
 40
0.0
 40
0.1286775804
 40
0.270269858
 40
0.4174264883
 40
0.561774782
 40
0.6954474795
 40
0.8127138097
 40
0.8646786712
 40
0.9125122374
 40
0.9571410245
 40
1.0
 40
1.0
 40
1.0
 40
1.0
 10
-33.0504923511
 20
-4.6901433523
 30
0.0
 10
-33.0504923511
 20
-5.053386983
 30
0.0
 10
-32.9488547395
 20
-5.8171981675
 30
0.0
 10
-32.5695792558
 20
-6.9387257236
 30
0.0
 10
-31.9850311439
 20
-8.0191300941
 30
0.0
 10
-31.2423210953
 20
-8.9698171681
 30
0.0
 10
-30.4020805662
 20
-9.7139767279
 30
0.0
 10
-29.6415656553
 20
-10.129822698
 30
0.0
 10
-29.0466585099
 20
-10.2881181198
 30
0.0
 10
-28.637216908
 20
-10.3182306998
 30
0.0
 10
-28.2559586722
 20
-10.2623686165
 30
0.0
 10
-28.0249925988
 20
-10.166367665
 30
0.0
 10
-27.9202147827
 20
-10.1058751691
 30
0.0
  0
SPLINE
  5
342
100
AcDbEntity
  8
ASSI
100
AcDbSpline
 62
7
  6
CONTINUOUS
 70
0
 71
3
 72
9
 73
5
 74
0
 42
0.0000001
 43
0.0000001
 44
0.0000000001
 40
0.0
 40
0.0
 40
0.0
 40
0.0
 40
0.5146989186
 40
1.0
 40
1.0
 40
1.0
 40
1.0
 10
-14.6656474265
 20
-18.4674623601
 30
0.0
 10
-14.5082583279
 20
-18.4762169588
 30
0.0
 10
-14.1983368906
 20
-18.4565721543
 30
0.0
 10
-13.9067961581
 20
-18.3456805959
 30
0.0
 10
-13.778079159
 20
-18.2713670356
 30
0.0
  0
SPLINE
  5
343
100
AcDbEntity
  8
0
100
AcDbSpline
 62
7
  6
CONTINUOUS
 70
0
 71
3
 72
10
 73
6
 74
0
 42
0.0000001
 43
0.0000001
 44
0.0000000001
 40
0.0
 40
0.0
 40
0.0
 40
0.0
 40
0.5476780716
 40
0.7815696902
 40
1.0
 40
1.0
 40
1.0
 40
1.0
 10
-42.8969542791
 20
-12.8645025888
 30
0.0
 10
-42.865940024
 20
-12.882409831
 30
0.0
 10
-42.8164496657
 20
-12.9021851245
 30
0.0
 10
-42.750248049
 20
-12.9005484645
 30
0.0
 10
-42.7218151564
 20
-12.8902216072
 30
0.0
 10
-42.7094457464
 20
-12.8830796702
 30
0.0
  0
SPLINE
  5
344
100
AcDbEntity
  8
ASSI
100
AcDbSpline
 62
7
  6
CONTINUOUS
 70
0
 71
3
 72
11
 73
7
 74
0
 42
0.0000001
 43
0.0000001
 44
0.0000000001
 40
0.0
 40
0.0
 40
0.0
 40
0.0
 40
0.2177725095
 40
0.4509512106
 40
0.7102004405
 40
1.0
 40
1.0
 40
1.0
 40
1.0
 10
-32.1703622794
 20
-2.7447455789
 30
0.0
 10
-32.3105371033
 20
-2.8256742075
 30
0.0
 10
-32.5728910216
 20
-3.0461317648
 30
0.0
 10
-32.8519508721
 20
-3.5026897936
 30
0.0
 10
-33.0179646412
 20
-4.0652602808
 30
0.0
 10
-33.0504923511
 20
-4.4747500225
 30
0.0
 10
-33.0504923511
 20
-4.6901433523
 30
0.0
  0
SPLINE
  5
345
100
AcDbEntity
  8
ASSI
100
AcDbSpline
 62
7
  6
CONTINUOUS
 70
0
 71
3
 72
16
 73
12
 74
0
 42
0.0000001
 43
0.0000001
 44
0.0000000001
 40
0.0
 40
0.0
 40
0.0
 40
0.0
 40
0.042877533
 40
0.0875253972
 40
0.18693081
 40
0.3042456916
 40
0.4379741492
 40
0.5823839046
 40
0.72960493
 40
0.8712618621
 40
1.0
 40
1.0
 40
1.0
 40
1.0
 10
10.2276008246
 20
30.0223074718
 30
0.0
 10
10.1998671369
 20
30.0062943629
 30
0.0
 10
10.1472950486
 20
29.9660523874
 30
0.0
 10
10.0599383503
 20
29.8555850381
 30
0.0
 10
9.9948494339
 20
29.6660137772
 30
0.0
 10
9.9890771487
 20
29.4017682002
 30
0.0
 10
10.0483399433
 20
29.1103447813
 30
0.0
 10
10.1680163742
 20
28.8143731371
 30
0.0
 10
10.3383126949
 20
28.5373592825
 30
0.0
 10
10.5452168612
 20
28.3019888872
 30
0.0
 10
10.7068587227
 20
28.1775942537
 30
0.0
 10
10.7901280825
 20
28.129515569
 30
0.0
  0
SPLINE
  5
346
100
AcDbEntity
  8
ASSI
100
AcDbSpline
 62
7
  6
CONTINUOUS
 70
0
 71
3
 72
11
 73
7
 74
0
 42
0.0000001
 43
0.0000001
 44
0.0000000001
 40
0.0
 40
0.0
 40
0.0
 40
0.0
 40
0.2177727243
 40
0.4509512644
 40
0.7101951428
 40
1.0
 40
1.0
 40
1.0
 40
1.0
 10
11.8185910823
 20
-19.8845269707
 30
0.0
 10
11.7814872606
 20
-19.9059502542
 30
0.0
 10
11.7120437276
 20
-19.9643077694
 30
0.0
 10
11.6381767053
 20
-20.0851584797
 30
0.0
 10
11.5942334504
 20
-20.2340721999
 30
0.0
 10
11.5856232113
 20
-20.342464836
 30
0.0
 10
11.5856232113
 20
-20.3994808947
 30
0.0
  0
SPLINE
  5
347
100
AcDbEntity
  8
ASSI
100
AcDbSpline
 62
7
  6
CONTINUOUS
 70
0
 71
3
 72
11
 73
7
 74
0
 42
0.0000001
 43
0.0000001
 44
0.0000000001
 40
0.0
 40
0.0
 40
0.0
 40
0.0
 40
0.2177727243
 40
0.4509512644
 40
0.7101951428
 40
1.0
 40
1.0
 40
1.0
 40
1.0
 10
47.1739301416
 20
-40.2982566371
 30
0.0
 10
47.1368263199
 20
-40.3196799205
 30
0.0
 10
47.067382787
 20
-40.3780374357
 30
0.0
 10
46.9935157646
 20
-40.4988881461
 30
0.0
 10
46.9495725097
 20
-40.6478018663
 30
0.0
 10
46.9409622706
 20
-40.7561945023
 30
0.0
 10
46.9409622706
 20
-40.8132105611
 30
0.0
  0
SPLINE
  5
348
100
AcDbEntity
  8
ASSI
100
AcDbSpline
 62
7
  6
CONTINUOUS
 70
0
 71
3
 72
16
 73
12
 74
0
 42
0.0000001
 43
0.0000001
 44
0.0000000001
 40
0.0
 40
0.0
 40
0.0
 40
0.0
 40
0.042877533
 40
0.0875253972
 40
0.18693081
 40
0.3042456916
 40
0.4379741492
 40
0.5823839046
 40
0.72960493
 40
0.8712618621
 40
1.0
 40
1.0
 40
1.0
 40
1.0
 10
-25.1277382347
 20
50.4360371382
 30
0.0
 10
-25.1554719224
 20
50.4200240293
 30
0.0
 10
-25.2080440107
 20
50.3797820538
 30
0.0
 10
-25.295400709
 20
50.2693147045
 30
0.0
 10
-25.3604896254
 20
50.0797434436
 30
0.0
 10
-25.3662619106
 20
49.8154978666
 30
0.0
 10
-25.306999116
 20
49.5240744477
 30
0.0
 10
-25.1873226851
 20
49.2281028035
 30
0.0
 10
-25.0170263644
 20
48.9510889489
 30
0.0
 10
-24.8101221981
 20
48.7157185536
 30
0.0
 10
-24.6484803366
 20
48.5913239201
 30
0.0
 10
-24.5652109768
 20
48.5432452354
 30
0.0
  0
SPLINE
  5
349
100
AcDbEntity
  8
0
100
AcDbSpline
 62
7
  6
CONTINUOUS
 70
0
 71
3
 72
8
 73
4
 74
0
 42
0.0000001
 43
0.0000001
 44
0.0000000001
 40
0.0
 40
0.0
 40
0.0
 40
0.0
 40
1.0
 40
1.0
 40
1.0
 40
1.0
 10
-40.7961666664
 20
95.1120947919
 30
0.0
 10
-40.7564167428
 20
95.1051779071
 30
0.0
 10
-40.7171682216
 20
95.0914489248
 30
0.0
 10
-40.6821975083
 20
95.0713255819
 30
0.0
  0
SPLINE
  5
34A
100
AcDbEntity
  8
ASSI
100
AcDbSpline
 62
7
  6
CONTINUOUS
 70
0
 71
3
 72
10
 73
6
 74
0
 42
0.0000001
 43
0.0000001
 44
0.0000000001
 40
0.0
 40
0.0
 40
0.0
 40
0.0
 40
0.5138949988
 40
0.7589105215
 40
1.0
 40
1.0
 40
1.0
 40
1.0
 10
-69.5947369792
 20
72.561702061
 30
0.0
 10
-69.5947369792
 20
72.3652932411
 30
0.0
 10
-69.5478528851
 20
72.0704605451
 30
0.0
 10
-69.3784324482
 20
71.725605537
 30
0.0
 10
-69.2628724365
 20
71.577944383
 30
0.0
 10
-69.1985781174
 20
71.5119393005
 30
0.0
  0
SPLINE
  5
34B
100
AcDbEntity
  8
ASSI
100
AcDbSpline
 62
7
  6
CONTINUOUS
 70
0
 71
3
 72
9
 73
5
 74
0
 42
0.0000001
 43
0.0000001
 44
0.0000000001
 40
0.0
 40
0.0
 40
0.0
 40
0.0
 40
0.2576368112
 40
1.0
 40
1.0
 40
1.0
 40
1.0
 10
45.0594408054
 20
5.5491794281
 30
0.0
 10
45.0472187247
 20
5.54968964
 30
0.0
 10
44.9998653583
 20
5.5532365317
 30
0.0
 10
44.9529637657
 20
5.5635823549
 30
0.0
 10
44.9196949723
 20
5.575226806
 30
0.0
  0
SPLINE
  5
34C
100
AcDbEntity
  8
0
100
AcDbSpline
 62
7
  6
CONTINUOUS
 70
0
 71
3
 72
13
 73
9
 74
0
 42
0.0000001
 43
0.0000001
 44
0.0000000001
 40
0.0
 40
0.0
 40
0.0
 40
0.0
 40
0.2931361933
 40
0.5470385723
 40
0.6630995147
 40
0.7750260127
 40
0.8861697374
 40
1.0
 40
1.0
 40
1.0
 40
1.0
 10
-69.5947369792
 20
79.1530027151
 30
0.0
 10
-69.5947369792
 20
79.4354027373
 30
0.0
 10
-69.5426028174
 20
79.9653690029
 30
0.0
 10
-69.2985374668
 20
80.5700058221
 30
0.0
 10
-69.0058939861
 20
80.9343404675
 30
0.0
 10
-68.7505117865
 20
81.1422691987
 30
0.0
 10
-68.4577333067
 20
81.2881373701
 30
0.0
 10
-68.2456793614
 20
81.3411676937
 30
0.0
 10
-68.1372073813
 20
81.3572738969
 30
0.0
  0
SPLINE
  5
34D
100
AcDbEntity
  8
0
100
AcDbSpline
 62
7
  6
CONTINUOUS
 70
0
 71
3
 72
14
 73
10
 74
0
 42
0.0000001
 43
0.0000001
 44
0.0000000001
 40
0.0
 40
0.0
 40
0.0
 40
0.0
 40
0.1080446768
 40
0.2181267414
 40
0.3320995771
 40
0.4514953689
 40
0.5774560663
 40
0.7107234919
 40
1.0
 40
1.0
 40
1.0
 40
1.0
 10
50.1608375214
 20
-95.0037456794
 30
0.0
 10
50.3247919823
 20
-95.0984109174
 30
0.0
 10
50.6729005878
 20
-95.2614335365
 30
0.0
 10
51.2361638525
 20
-95.4171905076
 30
0.0
 10
51.836625264
 20
-95.4841548257
 30
0.0
 10
52.4678695715
 20
-95.4621860307
 30
0.0
 10
53.1239095838
 20
-95.3521088325
 30
0.0
 10
54.0481698237
 20
-95.082578453
 30
0.0
 10
54.722110448
 20
-94.7617892551
 30
0.0
 10
55.1610786019
 20
-94.5083345445
 30
0.0
  0
SPLINE
  5
34E
100
AcDbEntity
  8
ASSI
100
AcDbSpline
 62
7
  6
CONTINUOUS
 70
0
 71
3
 72
11
 73
7
 74
0
 42
0.0000001
 43
0.0000001
 44
0.0000000001
 40
0.0
 40
0.0
 40
0.0
 40
0.0
 40
0.222177062
 40
0.4613136838
 40
0.7202820096
 40
1.0
 40
1.0
 40
1.0
 40
1.0
 10
-66.1077343716
 20
69.6226052628
 30
0.0
 10
-65.9302750356
 20
69.3944385132
 30
0.0
 10
-65.6146047167
 20
68.8780883184
 30
0.0
 10
-65.2849352215
 20
67.9960879955
 30
0.0
 10
-65.0874284949
 20
66.9997940492
 30
0.0
 10
-65.0470741998
 20
66.2979075321
 30
0.0
 10
-65.0470741998
 20
65.9339930849
 30
0.0
  0
SPLINE
  5
34F
100
AcDbEntity
  8
0
100
AcDbSpline
 62
7
  6
CONTINUOUS
 70
0
 71
3
 72
9
 73
5
 74
0
 42
0.0000001
 43
0.0000001
 44
0.0000000001
 40
0.0
 40
0.0
 40
0.0
 40
0.0
 40
0.5124208339
 40
1.0
 40
1.0
 40
1.0
 40
1.0
 10
-65.3311745426
 20
82.3469121141
 30
0.0
 10
-65.7732349299
 20
82.0916719868
 30
0.0
 10
-66.6840941704
 20
81.6725409519
 30
0.0
 10
-67.6567652192
 20
81.4286075114
 30
0.0
 10
-68.1372078127
 20
81.3572749384
 30
0.0
  0
SPLINE
  5
350
100
AcDbEntity
  8
0
100
AcDbSpline
 62
7
  6
CONTINUOUS
 70
0
 71
3
 72
11
 73
7
 74
0
 42
0.0000001
 43
0.0000001
 44
0.0000000001
 40
0.0
 40
0.0
 40
0.0
 40
0.0
 40
0.2898015478
 40
0.5490405396
 40
0.7822230423
 40
1.0
 40
1.0
 40
1.0
 40
1.0
 10
69.3032142257
 20
-86.342842678
 30
0.0
 10
69.3471099437
 20
-86.3174978406
 30
0.0
 10
69.4267322607
 20
-86.2626862665
 30
0.0
 10
69.521841791
 20
-86.1626563632
 30
0.0
 10
69.5820500266
 20
-86.0520655498
 30
0.0
 10
69.5961063935
 20
-85.9726579771
 30
0.0
 10
69.5961063935
 20
-85.9345680847
 30
0.0
  0
SPLINE
  5
351
100
AcDbEntity
  8
0
100
AcDbSpline
 62
7
  6
CONTINUOUS
 70
0
 71
3
 72
14
 73
10
 74
0
 42
0.0000001
 43
0.0000001
 44
0.0000000001
 40
0.0
 40
0.0
 40
0.0
 40
0.0
 40
0.108047517
 40
0.2181319847
 40
0.3321064312
 40
0.4515028204
 40
0.5774630262
 40
0.7107289245
 40
1.0
 40
1.0
 40
1.0
 40
1.0
 10
-62.9762474684
 20
-29.6798107469
 30
0.0
 10
-63.1401816843
 20
-29.5851571981
 30
0.0
 10
-63.4553677389
 20
-29.3652113764
 30
0.0
 10
-63.8718244973
 20
-28.955332551
 30
0.0
 10
-64.2299950124
 20
-28.4688637237
 30
0.0
 10
-64.5265511975
 20
-27.9112882914
 30
0.0
 10
-64.7592144217
 20
-27.2882014738
 30
0.0
 10
-64.9879057353
 20
-26.3531609386
 30
0.0
 10
-65.0470741998
 20
-25.6092422752
 30
0.0
 10
-65.0470741998
 20
-25.1024427775
 30
0.0
  0
SPLINE
  5
352
100
AcDbEntity
  8
ASSI
100
AcDbSpline
 62
7
  6
CONTINUOUS
 70
0
 71
3
 72
9
 73
5
 74
0
 42
0.0000001
 43
0.0000001
 44
0.0000000001
 40
0.0
 40
0.0
 40
0.0
 40
0.0
 40
0.5158537999
 40
1.0
 40
1.0
 40
1.0
 40
1.0
 10
45.7674535497
 20
5.3783097337
 30
0.0
 10
45.6523021425
 20
5.4289273162
 30
0.0
 10
45.4204383888
 20
5.5089140126
 30
0.0
 10
45.1773919913
 20
5.544255545
 30
0.0
 10
45.0594408054
 20
5.5491794281
 30
0.0
  0
SPLINE
  5
353
100
AcDbEntity
  8
ASSI
100
AcDbSpline
 62
7
  6
CONTINUOUS
 70
0
 71
3
 72
9
 73
5
 74
0
 42
0.0000001
 43
0.0000001
 44
0.0000000001
 40
0.0
 40
0.0
 40
0.0
 40
0.0
 40
0.2477218943
 40
1.0
 40
1.0
 40
1.0
 40
1.0
 10
-66.7189248633
 20
70.2798163489
 30
0.0
 10
-66.6619816724
 20
70.2322170099
 30
0.0
 10
-66.4380882843
 20
70.0330079099
 30
0.0
 10
-66.2397446446
 20
69.805281135
 30
0.0
 10
-66.1077343716
 20
69.6226052628
 30
0.0
  0
SPLINE
  5
354
100
AcDbEntity
  8
0
100
AcDbSpline
 62
7
  6
CONTINUOUS
 70
0
 71
3
 72
11
 73
7
 74
0
 42
0.0000001
 43
0.0000001
 44
0.0000000001
 40
0.0
 40
0.0
 40
0.0
 40
0.0
 40
0.2219388207
 40
0.4609220862
 40
0.719946713
 40
1.0
 40
1.0
 40
1.0
 40
1.0
 10
-68.1372073813
 20
81.3572738969
 30
0.0
 10
-68.0101056063
 20
81.3761463007
 30
0.0
 10
-67.7410833603
 20
81.3850806047
 30
0.0
 10
-67.3276097756
 20
81.3179011943
 30
0.0
 10
-66.8991717613
 20
81.1733082662
 30
0.0
 10
-66.6193819191
 20
81.0327371711
 30
0.0
 10
-66.4789654317
 20
80.9516624511
 30
0.0
  0
SPLINE
  5
355
100
AcDbEntity
  8
0
100
AcDbSpline
 62
250
  6
CONTINUOUS
 70
0
 71
3
 72
11
 73
7
 74
0
 42
0.0000001
 43
0.0000001
 44
0.0000000001
 40
0.0
 40
0.0
 40
0.0
 40
0.0
 40
0.2177672127
 40
0.4509438741
 40
0.710193207
 40
1.0
 40
1.0
 40
1.0
 40
1.0
 10
-65.3311745426
 20
82.3469121141
 30
0.0
 10
-65.2074797371
 20
82.418331959
 30
0.0
 10
-64.9232420448
 20
82.5215636486
 30
0.0
 10
-64.4511931963
 20
82.5333748728
 30
0.0
 10
-63.9480003506
 20
82.4120132381
 30
0.0
 10
-63.6206982395
 20
82.25617893
 30
0.0
 10
-63.4560839421
 20
82.1611326978
 30
0.0
  0
SPLINE
  5
356
100
AcDbEntity
  8
0
100
AcDbSpline
 62
250
  6
CONTINUOUS
 70
0
 71
3
 72
9
 73
5
 74
0
 42
0.0000001
 43
0.0000001
 44
0.0000000001
 40
0.0
 40
0.0
 40
0.0
 40
0.0
 40
0.5212851487
 40
1.0
 40
1.0
 40
1.0
 40
1.0
 10
-63.4560839421
 20
82.1611326978
 30
0.0
 10
-63.9475062351
 20
81.8773916248
 30
0.0
 10
-64.9258777651
 20
81.3914562567
 30
0.0
 10
-65.9694164664
 20
81.0608397608
 30
0.0
 10
-66.4789654317
 20
80.9516624511
 30
0.0
  0
SPLINE
  5
357
100
AcDbEntity
  8
0
100
AcDbSpline
 62
7
  6
CONTINUOUS
 70
0
 71
3
 72
15
 73
11
 74
0
 42
0.0000001
 43
0.0000001
 44
0.0000000001
 40
0.0
 40
0.0
 40
0.0
 40
0.0
 40
0.1141566514
 40
0.237329741
 40
0.3669809462
 40
0.5000060513
 40
0.6330303149
 40
0.7626790615
 40
0.8858482781
 40
1.0
 40
1.0
 40
1.0
 40
1.0
 10
41.3548186993
 20
18.6897869687
 30
0.0
 10
41.5681175503
 20
18.5666308853
 30
0.0
 10
41.9894209043
 20
18.2712874709
 30
0.0
 10
42.5691132756
 20
17.7289256627
 30
0.0
 10
43.1033333853
 20
17.0878218036
 30
0.0
 10
43.571957794
 20
16.3720238414
 30
0.0
 10
43.9575427106
 20
15.6082890676
 30
0.0
 10
44.2456376298
 20
14.8251026479
 30
0.0
 10
44.4254784257
 20
14.0519153717
 30
0.0
 10
44.4705902468
 20
13.5394019788
 30
0.0
 10
44.4705902468
 20
13.2931123491
 30
0.0
  0
SPLINE
  5
358
100
AcDbEntity
  8
ASSI
100
AcDbSpline
 62
7
  6
CONTINUOUS
 70
0
 71
3
 72
9
 73
5
 74
0
 42
0.0000001
 43
0.0000001
 44
0.0000000001
 40
0.0
 40
0.0
 40
0.0
 40
0.0
 40
0.5368056195
 40
1.0
 40
1.0
 40
1.0
 40
1.0
 10
47.0293506183
 20
4.2986703304
 30
0.0
 10
46.8537829671
 20
4.541620921
 30
0.0
 10
46.4784404846
 20
4.9626709254
 30
0.0
 10
46.0042316738
 20
5.2742281898
 30
0.0
 10
45.7674535497
 20
5.3783097337
 30
0.0
  0
SPLINE
  5
359
100
AcDbEntity
  8
0
100
AcDbSpline
 62
7
  6
CONTINUOUS
 70
0
 71
3
 72
11
 73
7
 74
0
 42
0.0000001
 43
0.0000001
 44
0.0000000001
 40
0.0
 40
0.0
 40
0.0
 40
0.0
 40
0.2857766483
 40
0.5454363058
 40
0.781401328
 40
1.0
 40
1.0
 40
1.0
 40
1.0
 10
48.0900107901
 20
-90.4263777099
 30
0.0
 10
48.0900107901
 20
-90.8689662614
 30
0.0
 10
48.1489848155
 20
-91.7157594062
 30
0.0
 10
48.4440751288
 20
-92.8970643413
 30
0.0
 10
48.9377058075
 20
-93.8977574349
 30
0.0
 10
49.4079362808
 20
-94.4359630194
 30
0.0
 10
49.6661044238
 20
-94.6549706218
 30
0.0
  0
SPLINE
  5
35A
100
AcDbEntity
  8
ASSI
100
AcDbSpline
 62
7
  6
CONTINUOUS
 70
0
 71
3
 72
11
 73
7
 74
0
 42
0.0000001
 43
0.0000001
 44
0.0000000001
 40
0.0
 40
0.0
 40
0.0
 40
0.0
 40
0.222177062
 40
0.4613136838
 40
0.7202820096
 40
1.0
 40
1.0
 40
1.0
 40
1.0
 10
47.0293506183
 20
4.2986703304
 30
0.0
 10
47.2068099542
 20
4.0705035808
 30
0.0
 10
47.5224802732
 20
3.554153386
 30
0.0
 10
47.8521497683
 20
2.672153063
 30
0.0
 10
48.0496564949
 20
1.6758591168
 30
0.0
 10
48.0900107901
 20
0.9739725997
 30
0.0
 10
48.0900107901
 20
0.6100581525
 30
0.0
  0
SPLINE
  5
35B
100
AcDbEntity
  8
0
100
AcDbSpline
 62
7
  6
CONTINUOUS
 70
0
 71
3
 72
9
 73
5
 74
0
 42
0.0000001
 43
0.0000001
 44
0.0000000001
 40
0.0
 40
0.0
 40
0.0
 40
0.0
 40
0.5472908963
 40
1.0
 40
1.0
 40
1.0
 40
1.0
 10
66.6515644159
 20
32.7599065474
 30
0.0
 10
66.7151699648
 20
32.796631596
 30
0.0
 10
66.8399538478
 20
32.8512036225
 30
0.0
 10
66.9779744805
 20
32.8604541483
 30
0.0
 10
67.0378359758
 20
32.8500807486
 30
0.0
  0
SPLINE
  5
35C
100
AcDbEntity
  8
0
100
AcDbSpline
 62
7
  6
CONTINUOUS
 70
0
 71
3
 72
9
 73
5
 74
0
 42
0.0000001
 43
0.0000001
 44
0.0000000001
 40
0.0
 40
0.0
 40
0.0
 40
0.0
 40
0.5471192184
 40
1.0
 40
1.0
 40
1.0
 40
1.0
 10
-41.1822209544
 20
95.0217827454
 30
0.0
 10
-41.1186587678
 20
95.0584827535
 30
0.0
 10
-40.9940375315
 20
95.1132862017
 30
0.0
 10
-40.8560215488
 20
95.1225101408
 30
0.0
 10
-40.7961666664
 20
95.1120947919
 30
0.0
  0
SPLINE
  5
35D
100
AcDbEntity
  8
0
100
AcDbSpline
 62
7
  6
CONTINUOUS
 70
0
 71
3
 72
9
 73
5
 74
0
 42
0.0000001
 43
0.0000001
 44
0.0000000001
 40
0.0
 40
0.0
 40
0.0
 40
0.0
 40
0.5472806951
 40
1.0
 40
1.0
 40
1.0
 40
1.0
 10
69.3032142257
 20
28.1671143577
 30
0.0
 10
69.3668170146
 20
28.203837809
 30
0.0
 10
69.4764619876
 20
28.2846229923
 30
0.0
 10
69.5534744111
 20
28.3995282789
 30
0.0
 10
69.5744199625
 20
28.4565569852
 30
0.0
  0
SPLINE
  5
35E
100
AcDbEntity
  8
0
100
AcDbSpline
 62
250
  6
CONTINUOUS
 70
0
 71
3
 72
9
 73
5
 74
0
 42
0.0000001
 43
0.0000001
 44
0.0000000001
 40
0.0
 40
0.0
 40
0.0
 40
0.0
 40
0.5212851487
 40
1.0
 40
1.0
 40
1.0
 40
1.0
 10
44.3777001888
 20
19.8992572153
 30
0.0
 10
43.8862778958
 20
19.6155161423
 30
0.0
 10
42.9079063659
 20
19.1295807743
 30
0.0
 10
41.8643676646
 20
18.7989642783
 30
0.0
 10
41.3548186993
 20
18.6897869687
 30
0.0
  0
SPLINE
  5
35F
100
AcDbEntity
  8
0
100
AcDbSpline
 62
250
  6
CONTINUOUS
 70
0
 71
3
 72
15
 73
11
 74
0
 42
0.0000001
 43
0.0000001
 44
0.0000000001
 40
0.0
 40
0.0
 40
0.0
 40
0.0
 40
0.1141566514
 40
0.237329741
 40
0.3669809462
 40
0.5000060513
 40
0.6330303149
 40
0.7626790615
 40
0.8858482781
 40
1.0
 40
1.0
 40
1.0
 40
1.0
 10
44.3777001888
 20
19.8992572153
 30
0.0
 10
44.5592263314
 20
19.7944462957
 30
0.0
 10
44.9177729072
 20
19.5430968371
 30
0.0
 10
45.4111150864
 20
19.0815245107
 30
0.0
 10
45.8657584907
 20
18.5359186158
 30
0.0
 10
46.2645772409
 20
17.9267449506
 30
0.0
 10
46.5927259496
 20
17.2767750763
 30
0.0
 10
46.8379066391
 20
16.6102510471
 30
0.0
 10
46.9909585931
 20
15.9522367024
 30
0.0
 10
47.0293506183
 20
15.5160666117
 30
0.0
 10
47.0293506183
 20
15.3064639524
 30
0.0
  0
SPLINE
  5
360
100
AcDbEntity
  8
ASSI
100
AcDbSpline
 62
7
  6
CONTINUOUS
 70
0
 71
3
 72
13
 73
9
 74
0
 42
0.0000001
 43
0.0000001
 44
0.0000000001
 40
0.0
 40
0.0
 40
0.0
 40
0.0
 40
0.0921659363
 40
0.1873703977
 40
0.2910025264
 40
0.4066224902
 40
0.6768069804
 40
1.0
 40
1.0
 40
1.0
 40
1.0
 10
44.9196949723
 20
5.575226806
 30
0.0
 10
44.8825015254
 20
5.5882449298
 30
0.0
 10
44.8100901395
 20
5.6251133352
 30
0.0
 10
44.7169677441
 20
5.7094211021
 30
0.0
 10
44.6393294367
 20
5.8203038162
 30
0.0
 10
44.5513497596
 20
6.0110959313
 30
0.0
 10
44.48458662
 20
6.3096648633
 30
0.0
 10
44.4705902468
 20
6.563629319
 30
0.0
 10
44.4705902468
 20
6.701811695
 30
0.0
  0
SPLINE
  5
361
100
AcDbEntity
  8
0
100
AcDbSpline
 62
250
  6
CONTINUOUS
 70
0
 71
3
 72
9
 73
5
 74
0
 42
0.0000001
 43
0.0000001
 44
0.0000000001
 40
0.0
 40
0.0
 40
0.0
 40
0.0
 40
0.5212820066
 40
1.0
 40
1.0
 40
1.0
 40
1.0
 10
47.0293506183
 20
15.3064639524
 30
0.0
 10
46.5379262268
 20
15.0227216677
 30
0.0
 10
45.6279357185
 20
14.4183314357
 30
0.0
 10
44.8198904711
 20
13.6798400884
 30
0.0
 10
44.4705902468
 20
13.2931123491
 30
0.0
  0
SPLINE
  5
362
100
AcDbEntity
  8
0
100
AcDbSpline
 62
250
  6
CONTINUOUS
 70
0
 71
3
 72
11
 73
7
 74
0
 42
0.0000001
 43
0.0000001
 44
0.0000000001
 40
0.0
 40
0.0
 40
0.0
 40
0.0
 40
0.2177671198
 40
0.4509439192
 40
0.7101951249
 40
1.0
 40
1.0
 40
1.0
 40
1.0
 10
-43.0573109353
 20
95.2075618039
 30
0.0
 10
-42.9336161474
 20
95.2789816352
 30
0.0
 10
-42.6493788032
 20
95.3822143026
 30
0.0
 10
-42.1773282739
 20
95.3940261739
 30
0.0
 10
-41.6741358156
 20
95.2726618541
 30
0.0
 10
-41.3468335875
 20
95.1168280167
 30
0.0
 10
-41.1822203347
 20
95.0217823876
 30
0.0
  0
SPLINE
  5
363
100
AcDbEntity
  8
0
100
AcDbSpline
 62
250
  6
CONTINUOUS
 70
0
 71
3
 72
15
 73
11
 74
0
 42
0.0000001
 43
0.0000001
 44
0.0000000001
 40
0.0
 40
0.0
 40
0.0
 40
0.0
 40
0.1141563604
 40
0.2373296603
 40
0.3669809099
 40
0.5000060513
 40
0.6330303512
 40
0.7626791422
 40
0.8858485691
 40
1.0
 40
1.0
 40
1.0
 40
1.0
 10
66.6515637962
 20
32.7599069052
 30
0.0
 10
66.833089485
 20
32.6550962475
 30
0.0
 10
67.1916358346
 20
32.4037467315
 30
0.0
 10
67.6849785445
 20
31.9421750375
 30
0.0
 10
68.1396224888
 20
31.3965688164
 30
0.0
 10
68.5384414715
 20
30.7873950002
 30
0.0
 10
68.8665901946
 20
30.1374248491
 30
0.0
 10
69.1117708967
 20
29.4709001891
 30
0.0
 10
69.2648220376
 20
28.812885701
 30
0.0
 10
69.3032142257
 20
28.3767157776
 30
0.0
 10
69.3032142257
 20
28.1671136422
 30
0.0
  0
SPLINE
  5
364
100
AcDbEntity
  8
ASSI
100
AcDbSpline
 62
7
  6
CONTINUOUS
 70
0
 71
3
 72
11
 73
7
 74
0
 42
0.0000001
 43
0.0000001
 44
0.0000000001
 40
0.0
 40
0.0
 40
0.0
 40
0.0
 40
0.2372132477
 40
0.4999938915
 40
0.7627774584
 40
1.0
 40
1.0
 40
1.0
 40
1.0
 10
-52.5312841728
 20
-24.7756652831
 30
0.0
 10
-52.5312841728
 20
-24.8683902083
 30
0.0
 10
-52.4965034248
 20
-25.0639601465
 30
0.0
 10
-52.3752699955
 20
-25.3387803416
 30
0.0
 10
-52.1978831062
 20
-25.5811845284
 30
0.0
 10
-52.0459027413
 20
-25.7090946598
 30
0.0
 10
-51.9655987478
 20
-25.7554611792
 30
0.0
  0
SPLINE
  5
365
100
AcDbEntity
  8
ASSI
100
AcDbSpline
 62
7
  6
CONTINUOUS
 70
0
 71
3
 72
11
 73
7
 74
0
 42
0.0000001
 43
0.0000001
 44
0.0000000001
 40
0.0
 40
0.0
 40
0.0
 40
0.0
 40
0.2372132477
 40
0.4999938915
 40
0.7627774584
 40
1.0
 40
1.0
 40
1.0
 40
1.0
 10
14.9974134305
 20
-63.7658889459
 30
0.0
 10
14.9974134305
 20
-63.8586138711
 30
0.0
 10
15.0321941785
 20
-64.0541838093
 30
0.0
 10
15.1534276078
 20
-64.3290040044
 30
0.0
 10
15.3308144971
 20
-64.5714081912
 30
0.0
 10
15.482794862
 20
-64.6993183226
 30
0.0
 10
15.5630988555
 20
-64.745684842
 30
0.0
  0
SPLINE
  5
366
100
AcDbEntity
  8
ASSI
100
AcDbSpline
 62
7
  6
CONTINUOUS
 70
0
 71
3
 72
11
 73
7
 74
0
 42
0.0000001
 43
0.0000001
 44
0.0000000001
 40
0.0
 40
0.0
 40
0.0
 40
0.0
 40
0.2372132477
 40
0.4999938915
 40
0.7627774584
 40
1.0
 40
1.0
 40
1.0
 40
1.0
 10
-17.1759451134
 20
-45.1893949495
 30
0.0
 10
-17.1759451134
 20
-45.2821198747
 30
0.0
 10
-17.1411643655
 20
-45.4776898129
 30
0.0
 10
-17.0199309362
 20
-45.752510008
 30
0.0
 10
-16.8425440469
 20
-45.9949141948
 30
0.0
 10
-16.690563682
 20
-46.1228243262
 30
0.0
 10
-16.6102596885
 20
-46.1691908456
 30
0.0
  0
SPLINE
  5
367
100
AcDbEntity
  8
0
100
AcDbSpline
 62
7
  6
CONTINUOUS
 70
0
 71
3
 72
9
 73
5
 74
0
 42
0.0000001
 43
0.0000001
 44
0.0000000001
 40
0.0
 40
0.0
 40
0.0
 40
0.0
 40
0.4999980061
 40
1.0
 40
1.0
 40
1.0
 40
1.0
 10
-45.2245097512
 20
-28.3481964859
 30
0.0
 10
-45.20380535
 20
-28.4494431969
 30
0.0
 10
-45.1251278701
 20
-28.6445961129
 30
0.0
 10
-44.9954504187
 20
-28.8103032474
 30
0.0
 10
-44.9181149911
 20
-28.8788522862
 30
0.0
  0
SPLINE
  5
368
100
AcDbEntity
  8
0
100
AcDbSpline
 62
7
  6
CONTINUOUS
 70
0
 71
3
 72
9
 73
5
 74
0
 42
0.0000001
 43
0.0000001
 44
0.0000000001
 40
0.0
 40
0.0
 40
0.0
 40
0.0
 40
0.4999980061
 40
1.0
 40
1.0
 40
1.0
 40
1.0
 10
-27.3700635262
 20
-38.6571299674
 30
0.0
 10
-27.349359125
 20
-38.7583766785
 30
0.0
 10
-27.2706816451
 20
-38.9535295944
 30
0.0
 10
-27.1410041937
 20
-39.1192367289
 30
0.0
 10
-27.0636687662
 20
-39.1877857677
 30
0.0
  0
SPLINE
  5
369
100
AcDbEntity
  8
0
100
AcDbSpline
 62
7
  6
CONTINUOUS
 70
0
 71
3
 72
9
 73
5
 74
0
 42
0.0000001
 43
0.0000001
 44
0.0000000001
 40
0.0
 40
0.0
 40
0.0
 40
0.0
 40
0.4999980061
 40
1.0
 40
1.0
 40
1.0
 40
1.0
 10
43.3406145924
 20
-79.4845893002
 30
0.0
 10
43.3613189936
 20
-79.5858360112
 30
0.0
 10
43.4399964735
 20
-79.7809889272
 30
0.0
 10
43.569673925
 20
-79.9466960617
 30
0.0
 10
43.6470093525
 20
-80.0152451005
 30
0.0
  0
SPLINE
  5
36A
100
AcDbEntity
  8
0
100
AcDbSpline
 62
7
  6
CONTINUOUS
 70
0
 71
3
 72
9
 73
5
 74
0
 42
0.0000001
 43
0.0000001
 44
0.0000000001
 40
0.0
 40
0.0
 40
0.0
 40
0.0
 40
0.4999980061
 40
1.0
 40
1.0
 40
1.0
 40
1.0
 10
25.4861683675
 20
-69.1756558187
 30
0.0
 10
25.5068727687
 20
-69.2769025297
 30
0.0
 10
25.5855502486
 20
-69.4720554457
 30
0.0
 10
25.7152277
 20
-69.6377625801
 30
0.0
 10
25.7925631275
 20
-69.706311619
 30
0.0
  0
SPLINE
  5
36B
100
AcDbEntity
  8
0
100
AcDbSpline
 62
7
  6
CONTINUOUS
 70
0
 71
3
 72
9
 73
5
 74
0
 42
0.0000001
 43
0.0000001
 44
0.0000000001
 40
0.0
 40
0.0
 40
0.0
 40
0.0
 40
0.4999980061
 40
1.0
 40
1.0
 40
1.0
 40
1.0
 10
-9.8691706919
 20
-48.7619261523
 30
0.0
 10
-9.8484662907
 20
-48.8631728633
 30
0.0
 10
-9.7697888108
 20
-49.0583257793
 30
0.0
 10
-9.6401113593
 20
-49.2240329137
 30
0.0
 10
-9.5627759318
 20
-49.2925819526
 30
0.0
  0
SPLINE
  5
36C
100
AcDbEntity
  8
0
100
AcDbSpline
 62
7
  6
CONTINUOUS
 70
0
 71
3
 72
9
 73
5
 74
0
 42
0.0000001
 43
0.0000001
 44
0.0000000001
 40
0.0
 40
0.0
 40
0.0
 40
0.0
 40
0.4999980061
 40
1.0
 40
1.0
 40
1.0
 40
1.0
 10
7.9852755331
 20
-59.0708596338
 30
0.0
 10
8.0059799343
 20
-59.1721063448
 30
0.0
 10
8.0846574142
 20
-59.3672592608
 30
0.0
 10
8.2143348656
 20
-59.5329663953
 30
0.0
 10
8.2916702931
 20
-59.6015154341
 30
0.0
  0
SPLINE
  5
36D
100
AcDbEntity
  8
0
100
AcDbSpline
 62
7
  6
CONTINUOUS
 70
0
 71
3
 72
11
 73
7
 74
0
 42
0.0000001
 43
0.0000001
 44
0.0000000001
 40
0.0
 40
0.0
 40
0.0
 40
0.0
 40
0.2372127764
 40
0.4999938932
 40
0.7627783341
 40
1.0
 40
1.0
 40
1.0
 40
1.0
 10
20.6896230191
 20
-63.010971552
 30
0.0
 10
20.6896230191
 20
-63.0689245021
 30
0.0
 10
20.7113618888
 20
-63.1911554223
 30
0.0
 10
20.787131017
 20
-63.3629190723
 30
0.0
 10
20.897999664
 20
-63.5144204742
 30
0.0
 10
20.9929866103
 20
-63.594365026
 30
0.0
 10
21.0431764097
 20
-63.6233439871
 30
0.0
  0
SPLINE
  5
36E
100
AcDbEntity
  8
0
100
AcDbSpline
 62
7
  6
CONTINUOUS
 70
0
 71
3
 72
11
 73
7
 74
0
 42
0.0000001
 43
0.0000001
 44
0.0000000001
 40
0.0
 40
0.0
 40
0.0
 40
0.0
 40
0.2372127764
 40
0.4999938932
 40
0.7627783341
 40
1.0
 40
1.0
 40
1.0
 40
1.0
 10
-50.0210550996
 20
-22.1835122193
 30
0.0
 10
-50.0210550996
 20
-22.2414651693
 30
0.0
 10
-49.9993162298
 20
-22.3636960896
 30
0.0
 10
-49.9235471017
 20
-22.5354597395
 30
0.0
 10
-49.8126784547
 20
-22.6869611415
 30
0.0
 10
-49.7176915083
 20
-22.7669056932
 30
0.0
 10
-49.667501709
 20
-22.7958846543
 30
0.0
  0
SPLINE
  5
36F
100
AcDbEntity
  8
0
100
AcDbSpline
 62
7
  6
CONTINUOUS
 70
0
 71
3
 72
11
 73
7
 74
0
 42
0.0000001
 43
0.0000001
 44
0.0000000001
 40
0.0
 40
0.0
 40
0.0
 40
0.0
 40
0.2372127764
 40
0.4999938932
 40
0.7627783341
 40
1.0
 40
1.0
 40
1.0
 40
1.0
 10
-14.6657160402
 20
-42.5972418856
 30
0.0
 10
-14.6657160402
 20
-42.6551948357
 30
0.0
 10
-14.6439771705
 20
-42.777425756
 30
0.0
 10
-14.5682080424
 20
-42.9491894059
 30
0.0
 10
-14.4573393953
 20
-43.1006908079
 30
0.0
 10
-14.362352449
 20
-43.1806353596
 30
0.0
 10
-14.3121626496
 20
-43.2096143207
 30
0.0
  0
SPLINE
  5
370
100
AcDbEntity
  8
ASSI
100
AcDbSpline
 62
7
  6
CONTINUOUS
 70
0
 71
3
 72
11
 73
7
 74
0
 42
0.0000001
 43
0.0000001
 44
0.0000000001
 40
0.0
 40
0.0
 40
0.0
 40
0.0
 40
0.2450121949
 40
0.5158973595
 40
0.7778596465
 40
1.0
 40
1.0
 40
1.0
 40
1.0
 10
-23.2393857621
 20
0.3204547167
 30
0.0
 10
-23.2393857621
 20
0.1701612251
 30
0.0
 10
-23.175139803
 20
-0.1463113296
 30
0.0
 10
-22.9597411719
 20
-0.5770537173
 30
0.0
 10
-22.6557771794
 20
-0.9320251015
 30
0.0
 10
-22.3970911818
 20
-1.0956453365
 30
0.0
 10
-22.2670934626
 20
-1.1364909965
 30
0.0
  0
SPLINE
  5
371
100
AcDbEntity
  8
ASSI
100
AcDbSpline
 62
7
  6
CONTINUOUS
 70
0
 71
3
 72
9
 73
5
 74
0
 42
0.0000001
 43
0.0000001
 44
0.0000000001
 40
0.0
 40
0.0
 40
0.0
 40
0.0
 40
0.2335119321
 40
1.0
 40
1.0
 40
1.0
 40
1.0
 10
47.4712923565
 20
-40.5070046161
 30
0.0
 10
47.4712923565
 20
-40.5444589703
 30
0.0
 10
47.4797965204
 20
-40.7048365498
 30
0.0
 10
47.5185124112
 20
-40.8627927268
 30
0.0
 10
47.5596175491
 20
-40.9786589814
 30
0.0
  0
SPLINE
  5
372
100
AcDbEntity
  8
ASSI
100
AcDbSpline
 62
7
  6
CONTINUOUS
 70
0
 71
3
 72
11
 73
7
 74
0
 42
0.0000001
 43
0.0000001
 44
0.0000000001
 40
0.0
 40
0.0
 40
0.0
 40
0.0
 40
0.2450121949
 40
0.5158973595
 40
0.7778596465
 40
1.0
 40
1.0
 40
1.0
 40
1.0
 10
12.1159532972
 20
-20.0932749497
 30
0.0
 10
12.1159532972
 20
-20.2435684413
 30
0.0
 10
12.1801992563
 20
-20.5600409959
 30
0.0
 10
12.3955978874
 20
-20.9907833837
 30
0.0
 10
12.6995618799
 20
-21.3457547679
 30
0.0
 10
12.9582478775
 20
-21.5093750029
 30
0.0
 10
13.0882455967
 20
-21.5502206629
 30
0.0
  0
SPLINE
  5
373
100
AcDbEntity
  8
ASSI
100
AcDbSpline
 62
7
  6
CONTINUOUS
 70
0
 71
3
 72
9
 73
5
 74
0
 42
0.0000001
 43
0.0000001
 44
0.0000000001
 40
0.0
 40
0.0
 40
0.0
 40
0.0
 40
0.5265488962
 40
1.0
 40
1.0
 40
1.0
 40
1.0
 10
-14.6657107601
 20
-18.0654481982
 30
0.0
 10
-14.4723287163
 20
-18.123047441
 30
0.0
 10
-14.0905607378
 20
-18.1928403099
 30
0.0
 10
-13.7020678673
 20
-18.1446244988
 30
0.0
 10
-13.5292473649
 20
-18.0893974038
 30
0.0
  0
SPLINE
  5
374
100
AcDbEntity
  8
ASSI
100
AcDbSpline
 62
7
  6
CONTINUOUS
 70
0
 71
3
 72
17
 73
13
 74
0
 42
0.0000001
 43
0.0000001
 44
0.0000000001
 40
0.0
 40
0.0
 40
0.0
 40
0.0
 40
0.1260403288
 40
0.2644174734
 40
0.4087738255
 40
0.5517607055
 40
0.6862486254
 40
0.8065771495
 40
0.8605729531
 40
0.9104117555
 40
0.956579275
 40
1.0
 40
1.0
 40
1.0
 40
1.0
 10
-32.5201622652
 20
-4.3839374073
 30
0.0
 10
-32.5201622652
 20
-4.7269117991
 30
0.0
 10
-32.4294727399
 20
-5.4472529793
 30
0.0
 10
-32.0874044533
 20
-6.5107950021
 30
0.0
 10
-31.5565153004
 20
-7.5460571965
 30
0.0
 10
-30.8755188951
 20
-8.4764521116
 30
0.0
 10
-30.0946715313
 20
-9.2338619078
 30
0.0
 10
-29.3801158624
 20
-9.6922793448
 30
0.0
 10
-28.8086714259
 20
-9.9113117453
 30
0.0
 10
-28.4074207891
 20
-9.9964871306
 30
0.0
 10
-28.025797468
 20
-10.0061287036
 30
0.0
 10
-27.7839301781
 20
-9.9598714917
 30
0.0
 10
-27.6713829887
 20
-9.9239055372
 30
0.0
  0
SPLINE
  5
375
100
AcDbEntity
  8
ASSI
100
AcDbSpline
 62
7
  6
CONTINUOUS
 70
0
 71
3
 72
17
 73
13
 74
0
 42
0.0000001
 43
0.0000001
 44
0.0000000001
 40
0.0
 40
0.0
 40
0.0
 40
0.0
 40
0.1260403288
 40
0.2644174734
 40
0.4087738255
 40
0.5517607055
 40
0.6862486254
 40
0.8065771495
 40
0.8605729531
 40
0.9104117555
 40
0.956579275
 40
1.0
 40
1.0
 40
1.0
 40
1.0
 10
2.8351767941
 20
-24.7976670737
 30
0.0
 10
2.8351767941
 20
-25.1406414655
 30
0.0
 10
2.9258663194
 20
-25.8609826457
 30
0.0
 10
3.267934606
 20
-26.9245246685
 30
0.0
 10
3.7988237589
 20
-27.9597868629
 30
0.0
 10
4.4798201642
 20
-28.890181778
 30
0.0
 10
5.2606675281
 20
-29.6475915741
 30
0.0
 10
5.9752231969
 20
-30.1060090112
 30
0.0
 10
6.5466676334
 20
-30.3250414117
 30
0.0
 10
6.9479182702
 20
-30.410216797
 30
0.0
 10
7.3295415913
 20
-30.41985837
 30
0.0
 10
7.5714088812
 20
-30.3736011581
 30
0.0
 10
7.6839560706
 20
-30.3376352036
 30
0.0
  0
SPLINE
  5
376
100
AcDbEntity
  8
ASSI
100
AcDbSpline
 62
7
  6
CONTINUOUS
 70
0
 71
3
 72
9
 73
5
 74
0
 42
0.0000001
 43
0.0000001
 44
0.0000000001
 40
0.0
 40
0.0
 40
0.0
 40
0.0
 40
0.5265488962
 40
1.0
 40
1.0
 40
1.0
 40
1.0
 10
20.6896282992
 20
-38.4791778645
 30
0.0
 10
20.883010343
 20
-38.5367771073
 30
0.0
 10
21.2647783215
 20
-38.6065699763
 30
0.0
 10
21.653271192
 20
-38.5583541651
 30
0.0
 10
21.8260916944
 20
-38.5031270701
 30
0.0
  0
SPLINE
  5
377
100
AcDbEntity
  8
ASSI
100
AcDbSpline
 62
7
  6
CONTINUOUS
 70
0
 71
3
 72
11
 73
7
 74
0
 42
0.0000001
 43
0.0000001
 44
0.0000000001
 40
0.0
 40
0.0
 40
0.0
 40
0.0
 40
0.219011645
 40
0.4555125375
 40
0.7151369253
 40
1.0
 40
1.0
 40
1.0
 40
1.0
 10
3.4664864471
 20
-23.0343749064
 30
0.0
 10
3.3626204962
 20
-23.1289000965
 30
0.0
 10
3.1743097545
 20
-23.3574794116
 30
0.0
 10
2.9769266105
 20
-23.7754501675
 30
0.0
 10
2.8588601408
 20
-24.2650615986
 30
0.0
 10
2.8351767941
 20
-24.6150013508
 30
0.0
 10
2.8351767941
 20
-24.7976670737
 30
0.0
  0
SPLINE
  5
378
100
AcDbEntity
  8
ASSI
100
AcDbSpline
 62
7
  6
CONTINUOUS
 70
0
 71
3
 72
11
 73
7
 74
0
 42
0.0000001
 43
0.0000001
 44
0.0000000001
 40
0.0
 40
0.0
 40
0.0
 40
0.0
 40
0.219011645
 40
0.4555125375
 40
0.7151369253
 40
1.0
 40
1.0
 40
1.0
 40
1.0
 10
-31.8888526123
 20
-2.62064524
 30
0.0
 10
-31.9927185632
 20
-2.7151704301
 30
0.0
 10
-32.1810293048
 20
-2.9437497452
 30
0.0
 10
-32.3784124488
 20
-3.3617205011
 30
0.0
 10
-32.4964789185
 20
-3.8513319322
 30
0.0
 10
-32.5201622652
 20
-4.2012716844
 30
0.0
 10
-32.5201622652
 20
-4.3839374073
 30
0.0
  0
SPLINE
  5
379
100
AcDbEntity
  8
ASSI
100
AcDbSpline
 62
7
  6
CONTINUOUS
 70
0
 71
3
 72
12
 73
8
 74
0
 42
0.0000001
 43
0.0000001
 44
0.0000000001
 40
0.0
 40
0.0
 40
0.0
 40
0.0
 40
0.2168783336
 40
0.3439952664
 40
0.4788328193
 40
0.7522882656
 40
1.0
 40
1.0
 40
1.0
 40
1.0
 10
10.5591755291
 20
30.0602820684
 30
0.0
 10
10.5186461983
 20
29.9293214372
 30
0.0
 10
10.5171159016
 20
29.7028619446
 30
0.0
 10
10.5849426981
 20
29.4081600235
 30
0.0
 10
10.7084687562
 20
29.0915480663
 30
0.0
 10
10.9344414096
 20
28.7388864901
 30
0.0
 10
11.184859405
 20
28.5140145405
 30
0.0
 10
11.3204581684
 20
28.435721514
 30
0.0
  0
SPLINE
  5
37A
100
AcDbEntity
  8
ASSI
100
AcDbSpline
 62
7
  6
CONTINUOUS
 70
0
 71
3
 72
9
 73
5
 74
0
 42
0.0000001
 43
0.0000001
 44
0.0000000001
 40
0.0
 40
0.0
 40
0.0
 40
0.0
 40
0.2349998031
 40
1.0
 40
1.0
 40
1.0
 40
1.0
 10
12.1501660129
 20
-19.846552583
 30
0.0
 10
12.1443848798
 20
-19.8652325015
 30
0.0
 10
12.1233708819
 20
-19.9458286116
 30
0.0
 10
12.1159532972
 20
-20.029620208
 30
0.0
 10
12.1159532972
 20
-20.0932749497
 30
0.0
  0
SPLINE
  5
37B
100
AcDbEntity
  8
ASSI
100
AcDbSpline
 62
7
  6
CONTINUOUS
 70
0
 71
3
 72
9
 73
5
 74
0
 42
0.0000001
 43
0.0000001
 44
0.0000000001
 40
0.0
 40
0.0
 40
0.0
 40
0.0
 40
0.2349998031
 40
1.0
 40
1.0
 40
1.0
 40
1.0
 10
47.5055050722
 20
-40.2602822494
 30
0.0
 10
47.4997239391
 20
-40.2789621679
 30
0.0
 10
47.4787099412
 20
-40.359558278
 30
0.0
 10
47.4712923565
 20
-40.4433498744
 30
0.0
 10
47.4712923565
 20
-40.5070046161
 30
0.0
  0
SPLINE
  5
37C
100
AcDbEntity
  8
ASSI
100
AcDbSpline
 62
7
  6
CONTINUOUS
 70
0
 71
3
 72
12
 73
8
 74
0
 42
0.0000001
 43
0.0000001
 44
0.0000000001
 40
0.0
 40
0.0
 40
0.0
 40
0.0
 40
0.2168783336
 40
0.3439952664
 40
0.4788328193
 40
0.7522882656
 40
1.0
 40
1.0
 40
1.0
 40
1.0
 10
-24.7961635303
 20
50.4740117348
 30
0.0
 10
-24.836692861
 20
50.3430511036
 30
0.0
 10
-24.8382231577
 20
50.116591611
 30
0.0
 10
-24.7703963612
 20
49.8218896899
 30
0.0
 10
-24.6468703031
 20
49.5052777327
 30
0.0
 10
-24.4208976497
 20
49.1526161565
 30
0.0
 10
-24.1704796543
 20
48.9277442069
 30
0.0
 10
-24.034880891
 20
48.8494511804
 30
0.0
  0
SPLINE
  5
37D
100
AcDbEntity
  8
ASSI
100
AcDbSpline
 62
7
  6
CONTINUOUS
 70
0
 71
3
 72
9
 73
5
 74
0
 42
0.0000001
 43
0.0000001
 44
0.0000000001
 40
0.0
 40
0.0
 40
0.0
 40
0.0
 40
0.2349998031
 40
1.0
 40
1.0
 40
1.0
 40
1.0
 10
-23.2051730465
 20
0.5671770834
 30
0.0
 10
-23.2109541795
 20
0.5484971649
 30
0.0
 10
-23.2319681775
 20
0.4679010548
 30
0.0
 10
-23.2393857621
 20
0.3841094584
 30
0.0
 10
-23.2393857621
 20
0.3204547167
 30
0.0
  0
SPLINE
  5
37E
100
AcDbEntity
  8
ASSI
100
AcDbSpline
 62
7
  6
CONTINUOUS
 70
0
 71
3
 72
9
 73
5
 74
0
 42
0.0000001
 43
0.0000001
 44
0.0000000001
 40
0.0
 40
0.0
 40
0.0
 40
0.0
 40
0.4999980061
 40
1.0
 40
1.0
 40
1.0
 40
1.0
 10
-9.8691706919
 20
-48.7619261523
 30
0.0
 10
-9.8484662907
 20
-48.8631728633
 30
0.0
 10
-9.7697888108
 20
-49.0583257793
 30
0.0
 10
-9.6401113593
 20
-49.2240329137
 30
0.0
 10
-9.5627759318
 20
-49.2925819526
 30
0.0
  0
SPLINE
  5
37F
100
AcDbEntity
  8
ASSI
100
AcDbSpline
 62
7
  6
CONTINUOUS
 70
0
 71
3
 72
11
 73
7
 74
0
 42
0.0000001
 43
0.0000001
 44
0.0000000001
 40
0.0
 40
0.0
 40
0.0
 40
0.0
 40
0.2392730036
 40
0.50429828
 40
0.7669644356
 40
1.0
 40
1.0
 40
1.0
 40
1.0
 10
-52.4163793208
 20
-24.8420099045
 30
0.0
 10
-52.4163793208
 20
-24.9191900987
 30
0.0
 10
-52.3862289079
 20
-25.0819372382
 30
0.0
 10
-52.2823360846
 20
-25.3086163546
 30
0.0
 10
-52.1318355576
 20
-25.5048808716
 30
0.0
 10
-52.003213907
 20
-25.6050451297
 30
0.0
 10
-51.9360211609
 20
-25.6387408103
 30
0.0
  0
SPLINE
  5
380
100
AcDbEntity
  8
ASSI
100
AcDbSpline
 62
7
  6
CONTINUOUS
 70
0
 71
3
 72
9
 73
5
 74
0
 42
0.0000001
 43
0.0000001
 44
0.0000000001
 40
0.0
 40
0.0
 40
0.0
 40
0.0
 40
0.4999980061
 40
1.0
 40
1.0
 40
1.0
 40
1.0
 10
7.9852755331
 20
-59.0708596338
 30
0.0
 10
8.0059799343
 20
-59.1721063448
 30
0.0
 10
8.0846574142
 20
-59.3672592608
 30
0.0
 10
8.2143348656
 20
-59.5329663953
 30
0.0
 10
8.2916702931
 20
-59.6015154341
 30
0.0
  0
SPLINE
  5
381
100
AcDbEntity
  8
ASSI
100
AcDbSpline
 62
7
  6
CONTINUOUS
 70
0
 71
3
 72
11
 73
7
 74
0
 42
0.0000001
 43
0.0000001
 44
0.0000000001
 40
0.0
 40
0.0
 40
0.0
 40
0.0
 40
0.2392730036
 40
0.50429828
 40
0.7669644356
 40
1.0
 40
1.0
 40
1.0
 40
1.0
 10
15.1123182825
 20
-63.8322335673
 30
0.0
 10
15.1123182825
 20
-63.9094137615
 30
0.0
 10
15.1424686955
 20
-64.0721609009
 30
0.0
 10
15.2463615188
 20
-64.2988400174
 30
0.0
 10
15.3968620457
 20
-64.4951045344
 30
0.0
 10
15.5254836963
 20
-64.5952687925
 30
0.0
 10
15.5926764424
 20
-64.6289644731
 30
0.0
  0
SPLINE
  5
382
100
AcDbEntity
  8
ASSI
100
AcDbSpline
 62
7
  6
CONTINUOUS
 70
0
 71
3
 72
11
 73
7
 74
0
 42
0.0000001
 43
0.0000001
 44
0.0000000001
 40
0.0
 40
0.0
 40
0.0
 40
0.0
 40
0.2392730036
 40
0.50429828
 40
0.7669644356
 40
1.0
 40
1.0
 40
1.0
 40
1.0
 10
-17.0610402615
 20
-45.2557395709
 30
0.0
 10
-17.0610402615
 20
-45.3329197651
 30
0.0
 10
-17.0308898485
 20
-45.4956669045
 30
0.0
 10
-16.9269970252
 20
-45.722346021
 30
0.0
 10
-16.7764964983
 20
-45.918610538
 30
0.0
 10
-16.6478748477
 20
-46.0187747961
 30
0.0
 10
-16.5806821015
 20
-46.0524704767
 30
0.0
  0
SPLINE
  5
383
100
AcDbEntity
  8
ASSI
100
AcDbSpline
 62
7
  6
CONTINUOUS
 70
0
 71
3
 72
9
 73
5
 74
0
 42
0.0000001
 43
0.0000001
 44
0.0000000001
 40
0.0
 40
0.0
 40
0.0
 40
0.0
 40
0.4999980061
 40
1.0
 40
1.0
 40
1.0
 40
1.0
 10
-45.2245097512
 20
-28.3481964859
 30
0.0
 10
-45.20380535
 20
-28.4494431969
 30
0.0
 10
-45.1251278701
 20
-28.6445961129
 30
0.0
 10
-44.9954504187
 20
-28.8103032474
 30
0.0
 10
-44.9181149911
 20
-28.8788522862
 30
0.0
  0
SPLINE
  5
384
100
AcDbEntity
  8
ASSI
100
AcDbSpline
 62
7
  6
CONTINUOUS
 70
0
 71
3
 72
9
 73
5
 74
0
 42
0.0000001
 43
0.0000001
 44
0.0000000001
 40
0.0
 40
0.0
 40
0.0
 40
0.0
 40
0.4999980061
 40
1.0
 40
1.0
 40
1.0
 40
1.0
 10
-27.3700635262
 20
-38.6571299674
 30
0.0
 10
-27.349359125
 20
-38.7583766785
 30
0.0
 10
-27.2706816451
 20
-38.9535295944
 30
0.0
 10
-27.1410041937
 20
-39.1192367289
 30
0.0
 10
-27.0636687662
 20
-39.1877857677
 30
0.0
  0
SPLINE
  5
385
100
AcDbEntity
  8
ASSI
100
AcDbSpline
 62
7
  6
CONTINUOUS
 70
0
 71
3
 72
9
 73
5
 74
0
 42
0.0000001
 43
0.0000001
 44
0.0000000001
 40
0.0
 40
0.0
 40
0.0
 40
0.0
 40
0.4999980061
 40
1.0
 40
1.0
 40
1.0
 40
1.0
 10
43.3406145924
 20
-79.4845893002
 30
0.0
 10
43.3613189936
 20
-79.5858360112
 30
0.0
 10
43.4399964735
 20
-79.7809889272
 30
0.0
 10
43.569673925
 20
-79.9466960617
 30
0.0
 10
43.6470093525
 20
-80.0152451005
 30
0.0
  0
SPLINE
  5
386
100
AcDbEntity
  8
ASSI
100
AcDbSpline
 62
7
  6
CONTINUOUS
 70
0
 71
3
 72
9
 73
5
 74
0
 42
0.0000001
 43
0.0000001
 44
0.0000000001
 40
0.0
 40
0.0
 40
0.0
 40
0.0
 40
0.4999980061
 40
1.0
 40
1.0
 40
1.0
 40
1.0
 10
25.4861683675
 20
-69.1756558187
 30
0.0
 10
25.5068727687
 20
-69.2769025297
 30
0.0
 10
25.5855502486
 20
-69.4720554457
 30
0.0
 10
25.7152277
 20
-69.6377625801
 30
0.0
 10
25.7925631275
 20
-69.706311619
 30
0.0
  0
SPLINE
  5
387
100
AcDbEntity
  8
ASSI
100
AcDbSpline
 62
7
  6
CONTINUOUS
 70
0
 71
3
 72
11
 73
7
 74
0
 42
0.0000001
 43
0.0000001
 44
0.0000000001
 40
0.0
 40
0.0
 40
0.0
 40
0.0
 40
0.222177062
 40
0.4613136838
 40
0.7202820096
 40
1.0
 40
1.0
 40
1.0
 40
1.0
 10
46.4990205324
 20
4.6048762754
 30
0.0
 10
46.6764798683
 20
4.3767095258
 30
0.0
 10
46.9921501873
 20
3.860359331
 30
0.0
 10
47.3218196824
 20
2.978359008
 30
0.0
 10
47.519326409
 20
1.9820650618
 30
0.0
 10
47.5596807042
 20
1.2801785447
 30
0.0
 10
47.5596807042
 20
0.9162640975
 30
0.0
  0
SPLINE
  5
388
100
AcDbEntity
  8
ASSI
100
AcDbSpline
 62
7
  6
CONTINUOUS
 70
0
 71
3
 72
9
 73
5
 74
0
 42
0.0000001
 43
0.0000001
 44
0.0000000001
 40
0.0
 40
0.0
 40
0.0
 40
0.0
 40
0.5169851367
 40
1.0
 40
1.0
 40
1.0
 40
1.0
 10
-68.1707197648
 20
70.7921244184
 30
0.0
 10
-67.8497758801
 20
70.7251440144
 30
0.0
 10
-67.2362202638
 20
70.5530444757
 30
0.0
 10
-66.6651589083
 20
70.2637389713
 30
0.0
 10
-66.4109493887
 20
70.0928389903
 30
0.0
  0
SPLINE
  5
389
100
AcDbEntity
  8
ASSI
100
AcDbSpline
 62
7
  6
CONTINUOUS
 70
0
 71
3
 72
9
 73
5
 74
0
 42
0.0000001
 43
0.0000001
 44
0.0000000001
 40
0.0
 40
0.0
 40
0.0
 40
0.0
 40
0.2650732773
 40
1.0
 40
1.0
 40
1.0
 40
1.0
 10
46.4990205324
 20
4.6048762754
 30
0.0
 10
46.4416895367
 20
4.6785890889
 30
0.0
 10
46.2161283593
 20
4.9491829028
 30
0.0
 10
45.9522643197
 20
5.1889873003
 30
0.0
 10
45.7397598166
 20
5.3368913635
 30
0.0
  0
SPLINE
  5
38A
100
AcDbEntity
  8
0
100
AcDbSpline
 62
7
  6
CONTINUOUS
 70
0
 71
3
 72
14
 73
10
 74
0
 42
0.0000001
 43
0.0000001
 44
0.0000000001
 40
0.0
 40
0.0
 40
0.0
 40
0.0
 40
0.108047517
 40
0.2181319847
 40
0.3321064312
 40
0.4515028204
 40
0.5774630262
 40
0.7107289245
 40
1.0
 40
1.0
 40
1.0
 40
1.0
 10
49.6305074355
 20
-94.6975397344
 30
0.0
 10
49.4665732197
 20
-94.6028861855
 30
0.0
 10
49.1513871651
 20
-94.3829403639
 30
0.0
 10
48.7349304067
 20
-93.9730615385
 30
0.0
 10
48.3767598916
 20
-93.4865927112
 30
0.0
 10
48.0802037064
 20
-92.9290172788
 30
0.0
 10
47.8475404823
 20
-92.3059304612
 30
0.0
 10
47.6188491687
 20
-91.3708899261
 30
0.0
 10
47.5596807042
 20
-90.6269712626
 30
0.0
 10
47.5596807042
 20
-90.1201717649
 30
0.0
  0
SPLINE
  5
38B
100
AcDbEntity
  8
0
100
AcDbSpline
 62
7
  6
CONTINUOUS
 70
0
 71
3
 72
14
 73
10
 74
0
 42
0.0000001
 43
0.0000001
 44
0.0000000001
 40
0.0
 40
0.0
 40
0.0
 40
0.0
 40
0.1080446768
 40
0.2181267414
 40
0.3320995771
 40
0.4514953689
 40
0.5774560663
 40
0.7107234919
 40
1.0
 40
1.0
 40
1.0
 40
1.0
 10
-62.4459173825
 20
-29.9860166919
 30
0.0
 10
-62.2819629217
 20
-30.08068193
 30
0.0
 10
-61.9338543162
 20
-30.243704549
 30
0.0
 10
-61.3705910515
 20
-30.3994615201
 30
0.0
 10
-60.77012964
 20
-30.4664258383
 30
0.0
 10
-60.1388853324
 20
-30.4444570433
 30
0.0
 10
-59.4828453202
 20
-30.334379845
 30
0.0
 10
-58.5585850803
 20
-30.0648494656
 30
0.0
 10
-57.884644456
 20
-29.7440602676
 30
0.0
 10
-57.445676302
 20
-29.4906055571
 30
0.0
  0
SPLINE
  5
38C
100
AcDbEntity
  8
0
100
AcDbSpline
 62
7
  6
CONTINUOUS
 70
0
 71
3
 72
15
 73
11
 74
0
 42
0.0000001
 43
0.0000001
 44
0.0000000001
 40
0.0
 40
0.0
 40
0.0
 40
0.0
 40
0.1141566514
 40
0.237329741
 40
0.3669809462
 40
0.5000060513
 40
0.6330303149
 40
0.7626790615
 40
0.8858482781
 40
1.0
 40
1.0
 40
1.0
 40
1.0
 10
41.1957196735
 20
18.0137779323
 30
0.0
 10
41.3743855439
 20
17.9106184979
 30
0.0
 10
41.727282571
 20
17.6632295039
 30
0.0
 10
42.2128512534
 20
17.208930083
 30
0.0
 10
42.6603309299
 20
16.6719211942
 30
0.0
 10
43.0528655705
 20
16.07234616
 30
0.0
 10
43.3758437038
 20
15.4326177347
 30
0.0
 10
43.6171611288
 20
14.7765959951
 30
0.0
 10
43.7678014729
 20
14.1289498545
 30
0.0
 10
43.8055885624
 20
13.6996524112
 30
0.0
 10
43.8055885624
 20
13.4933524202
 30
0.0
  0
SPLINE
  5
38D
100
AcDbEntity
  8
ASSI
100
AcDbSpline
 62
7
  6
CONTINUOUS
 70
0
 71
3
 72
13
 73
9
 74
0
 42
0.0000001
 43
0.0000001
 44
0.0000000001
 40
0.0
 40
0.0
 40
0.0
 40
0.0
 40
0.0938074881
 40
0.1899921359
 40
0.2941015653
 40
0.4095331891
 40
0.6783617147
 40
1.0
 40
1.0
 40
1.0
 40
1.0
 10
44.2529985322
 20
5.8077027111
 30
0.0
 10
44.2160152227
 20
5.8205495956
 30
0.0
 10
44.1441479841
 20
5.8565251359
 30
0.0
 10
44.0512685823
 20
5.9385281503
 30
0.0
 10
43.9737955707
 20
6.0462411895
 30
0.0
 10
43.8861439805
 20
6.2311926623
 30
0.0
 10
43.8194742066
 20
6.52109635
 30
0.0
 10
43.8055885624
 20
6.7678142039
 30
0.0
 10
43.8055885624
 20
6.9020517662
 30
0.0
  0
SPLINE
  5
38E
100
AcDbEntity
  8
ASSI
100
AcDbSpline
 62
7
  6
CONTINUOUS
 70
0
 71
3
 72
9
 73
5
 74
0
 42
0.0000001
 43
0.0000001
 44
0.0000000001
 40
0.0
 40
0.0
 40
0.0
 40
0.0
 40
0.4907886642
 40
1.0
 40
1.0
 40
1.0
 40
1.0
 10
-68.8646901104
 20
71.1681053086
 30
0.0
 10
-68.7738584087
 20
71.0742880689
 30
0.0
 10
-68.5579309919
 20
70.9108947988
 30
0.0
 10
-68.3033475351
 20
70.8198035924
 30
0.0
 10
-68.1707197648
 20
70.7921244184
 30
0.0
  0
SPLINE
  5
38F
100
AcDbEntity
  8
0
100
AcDbSpline
 62
7
  6
CONTINUOUS
 70
0
 71
3
 72
10
 73
6
 74
0
 42
0.0000001
 43
0.0000001
 44
0.0000000001
 40
0.0
 40
0.0
 40
0.0
 40
0.0
 40
0.459756245
 40
0.7193410535
 40
1.0
 40
1.0
 40
1.0
 40
1.0
 10
-68.0270604119
 20
80.6154064028
 30
0.0
 10
-67.8069904108
 20
80.6480829719
 30
0.0
 10
-67.4489721384
 20
80.6166660088
 30
0.0
 10
-66.9903502929
 20
80.4613045088
 30
0.0
 10
-66.7556817527
 20
80.3435641669
 30
0.0
 10
-66.6380644574
 20
80.2756534148
 30
0.0
  0
SPLINE
  5
390
100
AcDbEntity
  8
0
100
AcDbSpline
 62
250
  6
CONTINUOUS
 70
0
 71
3
 72
9
 73
5
 74
0
 42
0.0000001
 43
0.0000001
 44
0.0000000001
 40
0.0
 40
0.0
 40
0.0
 40
0.0
 40
0.2405748944
 40
1.0
 40
1.0
 40
1.0
 40
1.0
 10
-66.1652455524
 20
80.0026302786
 30
0.0
 10
-66.4018493741
 20
79.8800257037
 30
0.0
 10
-67.3986071306
 20
79.396135955
 30
0.0
 10
-68.442447425
 20
79.0115806554
 30
0.0
 10
-69.2479333464
 20
78.769039077
 30
0.0
  0
SPLINE
  5
391
100
AcDbEntity
  8
0
100
AcDbSpline
 62
7
  6
CONTINUOUS
 70
0
 71
3
 72
13
 73
9
 74
0
 42
0.0000001
 43
0.0000001
 44
0.0000000001
 40
0.0
 40
0.0
 40
0.0
 40
0.0
 40
0.2931361933
 40
0.5470385723
 40
0.6630995147
 40
0.7750260127
 40
0.8861697374
 40
1.0
 40
1.0
 40
1.0
 40
1.0
 10
-69.2479333464
 20
78.769039077
 30
0.0
 10
-69.2479333464
 20
79.0055862759
 30
0.0
 10
-69.2042641219
 20
79.4495027979
 30
0.0
 10
-68.9998272576
 20
79.9559657396
 30
0.0
 10
-68.7546998134
 20
80.2611439728
 30
0.0
 10
-68.540783598
 20
80.4353116609
 30
0.0
 10
-68.2955430744
 20
80.5574954592
 30
0.0
 10
-68.1179199765
 20
80.6019153371
 30
0.0
 10
-68.0270604119
 20
80.6154064028
 30
0.0
  0
SPLINE
  5
392
100
AcDbEntity
  8
0
100
AcDbSpline
 62
7
  6
CONTINUOUS
 70
0
 71
3
 72
11
 73
7
 74
0
 42
0.0000001
 43
0.0000001
 44
0.0000000001
 40
0.0
 40
0.0
 40
0.0
 40
0.0
 40
0.2857766483
 40
0.5454363058
 40
0.781401328
 40
1.0
 40
1.0
 40
1.0
 40
1.0
 10
-64.5167441139
 20
-25.4086487225
 30
0.0
 10
-64.5167441139
 20
-25.8512372739
 30
0.0
 10
-64.4577700884
 20
-26.6980304188
 30
0.0
 10
-64.1626797751
 20
-27.8793353539
 30
0.0
 10
-63.6690490965
 20
-28.8800284475
 30
0.0
 10
-63.1988186231
 20
-29.4182340319
 30
0.0
 10
-62.9406504802
 20
-29.6372416344
 30
0.0
  0
SPLINE
  5
393
100
AcDbEntity
  8
ASSI
100
AcDbSpline
 62
7
  6
CONTINUOUS
 70
0
 71
3
 72
11
 73
7
 74
0
 42
0.0000001
 43
0.0000001
 44
0.0000000001
 40
0.0
 40
0.0
 40
0.0
 40
0.0
 40
0.2372132477
 40
0.4999938915
 40
0.7627774584
 40
1.0
 40
1.0
 40
1.0
 40
1.0
 10
-39.9801388067
 20
-10.7928128306
 30
0.0
 10
-39.9801388067
 20
-10.8855377558
 30
0.0
 10
-39.9453580587
 20
-11.0811076941
 30
0.0
 10
-39.8241246294
 20
-11.3559278892
 30
0.0
 10
-39.6467377402
 20
-11.598332076
 30
0.0
 10
-39.4947573753
 20
-11.7262422073
 30
0.0
 10
-39.4144533818
 20
-11.7726087267
 30
0.0
  0
SPLINE
  5
394
100
AcDbEntity
  8
ASSI
100
AcDbSpline
 62
7
  6
CONTINUOUS
 70
0
 71
3
 72
11
 73
7
 74
0
 42
0.0000001
 43
0.0000001
 44
0.0000000001
 40
0.0
 40
0.0
 40
0.0
 40
0.0
 40
0.222177062
 40
0.4613136838
 40
0.7202820096
 40
1.0
 40
1.0
 40
1.0
 40
1.0
 10
-65.5774042857
 20
69.3163993178
 30
0.0
 10
-65.3999449497
 20
69.0882325682
 30
0.0
 10
-65.0842746308
 20
68.5718823734
 30
0.0
 10
-64.7546051357
 20
67.6898820505
 30
0.0
 10
-64.557098409
 20
66.6935881042
 30
0.0
 10
-64.5167441139
 20
65.9917015871
 30
0.0
 10
-64.5167441139
 20
65.6277871399
 30
0.0
  0
SPLINE
  5
395
100
AcDbEntity
  8
ASSI
100
AcDbSpline
 62
7
  6
CONTINUOUS
 70
0
 71
3
 72
9
 73
5
 74
0
 42
0.0000001
 43
0.0000001
 44
0.0000000001
 40
0.0
 40
0.0
 40
0.0
 40
0.0
 40
0.4984378733
 40
1.0
 40
1.0
 40
1.0
 40
1.0
 10
-66.4109493887
 20
70.0928389903
 30
0.0
 10
-66.253375063
 20
69.9869049194
 30
0.0
 10
-65.9528957168
 20
69.7498708785
 30
0.0
 10
-65.6947040887
 20
69.4672164876
 30
0.0
 10
-65.5774042857
 20
69.3163993178
 30
0.0
  0
SPLINE
  5
396
100
AcDbEntity
  8
ASSI
100
AcDbSpline
 62
7
  6
CONTINUOUS
 70
0
 71
3
 72
10
 73
6
 74
0
 42
0.0000001
 43
0.0000001
 44
0.0000000001
 40
0.0
 40
0.0
 40
0.0
 40
0.0
 40
0.5117089126
 40
0.7569006911
 40
1.0
 40
1.0
 40
1.0
 40
1.0
 10
-69.2479333464
 20
72.1777384229
 30
0.0
 10
-69.2479333464
 20
71.9895200701
 30
0.0
 10
-69.202366983
 20
71.7065379768
 30
0.0
 10
-69.0385697169
 20
71.3750469497
 30
0.0
 10
-68.9268874168
 20
71.2323469719
 30
0.0
 10
-68.8646901104
 20
71.1681053086
 30
0.0
  0
ENDSEC
  0
SECTION
  2
OBJECTS
  0
DICTIONARY
  5
C
100
AcDbDictionary
280
0
281
1
  3
ACAD_GROUP
350
D
  3
ACAD_MLINESTYLE
350
17
  3
ACAD_LAYOUT
350
1A
  3
ACAD_PLOTSETTINGS
350
19
  3
ACAD_PLOTSTYLENAME
350
E
  0
DICTIONARY
  5
D
102
{ACAD_REACTORS
330
C
102
}
100
AcDbDictionary
280
0
281
1
  0
ACDBDICTIONARYWDFLT
  5
E
102
{ACAD_REACTORS
330
C
102
}
100
AcDbDictionary
281
1
  3
Normal
350
F
100
AcDbDictionaryWithDefault
340
F
  0
DICTIONARY
  5
17
102
{ACAD_REACTORS
330
C
102
}
100
AcDbDictionary
280
0
281
1
  3
Standard
350
18
  0
DICTIONARY
  5
19
102
{ACAD_REACTORS
330
C
102
}
100
AcDbDictionary
281
1
  0
DICTIONARY
  5
1A
102
{ACAD_REACTORS
330
C
102
}
100
AcDbDictionary
281
1
  3
Model
350
397
  3
Layout1
350
398
  0
ACDBPLACEHOLDER
  5
F
102
{ACAD_REACTORS
330
E
102
}
  0
MLINESTYLE
  5
18
102
{ACAD_REACTORS
330
17
102
}
100
AcDbMlineStyle
  2
STANDARD
 70
0
  3

 62
256
 51
90.0
 52
90.0
 71
2
 49
0.5
 62
256
  6
BYLAYER
 49
-0.5
 62
256
  6
BYLAYER
  0
LAYOUT
  5
397
102
{ACAD_REACTORS
330
1A
102
}
100
AcDbPlotSettings
  1

  2
none_device
  4
ANSI_C_(22.00_x_17.00_Inches)
  6

 40
0.0
 41
0.0
 42
0.0
 43
0.0
 44
558.8
 45
431.8
 46
0.0
 47
0.0
 48
0.0
 49
0.0
140
0.0
141
0.0
142
1.0
143
1.0
 70
1024
 72
1
 73
0
 74
0
  7

 75
0
147
1.0
148
0.0
149
0.0
100
AcDbLayout
  1
Model
 70
0
 71
0
 10
0.0
 20
0.0
 11
558.8
 21
431.8
 12
0.0
 22
0.0
 32
0.0
 14
0.0
 24
0.0
 34
0.0
 15
0.0
 25
0.0
 35
0.0
146
0.0
 13
0.0
 23
0.0
 33
0.0
 16
1.0
 26
0.0
 36
0.0
 17
0.0
 27
1.0
 37
0.0
 76
0
330
20E
345
0
346
0
  0
LAYOUT
  5
398
102
{ACAD_REACTORS
330
1A
102
}
100
AcDbPlotSettings
  1

  2
none_device
  4
ANSI_C_(22.00_x_17.00_Inches)
  6

 40
0.0
 41
0.0
 42
0.0
 43
0.0
 44
558.8
 45
431.8
 46
0.0
 47
0.0
 48
0.0
 49
0.0
140
0.0
141
0.0
142
1.0
143
1.0
 70
0
 72
1
 73
0
 74
0
  7

 75
0
147
1.0
148
0.0
149
0.0
100
AcDbLayout
  1
Layout1
 70
0
 71
1
 10
0.0
 20
0.0
 11
558.8
 21
431.8
 12
0.0
 22
0.0
 32
0.0
 14
0.0
 24
0.0
 34
0.0
 15
0.0
 25
0.0
 35
0.0
146
0.0
 13
0.0
 23
0.0
 33
0.0
 16
1.0
 26
0.0
 36
0.0
 17
0.0
 27
1.0
 37
0.0
 76
0
330
20F
345
0
346
0
  0
ENDSEC
  0
EOF
