  0
SECTION
  2
HEADER
  9
$ACADVER
  1
AC1024
  9
$DWGCODEPAGE
  3
ANSI_1252
  9
$EXTMAX
 10
431.8
 20
558.8
 30
0.0
  9
$EXTMIN
 10
0.0
 20
0.0
 30
0.0
  9
$LIMMIN
 10
0.0
 20
0.0
  9
$LIMMAX
 10
431.8
 20
558.8
  9
$VIEWCTR
 10
215.9
 20
279.4
  9
$VIEWSIZE
 40
558.8
  9
$CLAYER
  8
0
  9
$LTSCALE
 40
36.4254814815
  9
$CELTYPE
  6
BYLAYER
  9
$DIMSCALE
 40
1.0
  9
$DIMASZ
 40
3.0
  9
$DIMEXO
 40
0.5
  9
$DIMDLI
 40
25.1666962963
  9
$DIMEXE
 40
1.5
  9
$DIMCEN
 40
5.9605333333
  9
$DIMLFAC
 40
1.0
  9
$DIMBLK
  1
_FILLED
  9
$DIMALT
 70
0
  9
$DIMALTF
 40
0.0393700787
  9
$DIMTXT
 40
3.0
  9
$DIMTOL
 70
1
  9
$DIMLIM
 70
0
  9
$DIMTFAC
 40
1.0
  9
$DIMTP
 40
0.01
  9
$DIMTM
 40
0.01
  9
$DIMGAP
 40
0.625
  9
$DIMDSEP
 70
44
  9
$AUNITS
 70
0
  9
$PDMODE
 70
3
  9
$PDSIZE
 40
3.0
  9
$HANDSEED
  5
365
  9
$TILEMODE
 70
1
  9
$MEASUREMENT
 70
1
  9
$INSUNITS
 70
4
  0
ENDSEC
  0
SECTION
  2
CLASSES
  0
CLASS
  1
ACDBDICTIONARYWDFLT
  2
AcDbDictionaryWithDefault
  3
AutoCAD 2000
 90
0
 91
1
280
0
281
0
  0
CLASS
  1
ACDBPLACEHOLDER
  2
AcDbPlaceHolder
  3
AutoCAD 2000
 90
0
 91
1
280
0
281
0
  0
CLASS
  1
LAYOUT
  2
AcDbLayout
  3
AutoCAD 2000
 90
0
 91
0
280
0
281
0
  0
ENDSEC
  0
SECTION
  2
TABLES
  0
TABLE
  2
VPORT
  5
8
100
AcDbSymbolTable
 70
2
  0
VPORT
  5
1F4
100
AcDbSymbolTableRecord
100
AcDbViewportTableRecord
  2
*ACTIVE
 70
0
 10
0.0
 20
0.0
 11
1.0
 21
1.0
 12
215.9
 22
279.4
 13
0.0
 23
0.0
 14
1.0
 24
1.0
 15
0.0
 25
0.0
 16
0.0
 26
0.0
 36
1.0
 17
0.0
 27
0.0
 37
0.0
 40
558.8
 41
0.7727272727
 42
50.0
 43
0.0
 44
0.0
 50
0.0
 51
0.0
 71
0
 72
100
 73
1
 74
1
 75
0
 76
0
 77
0
 78
0
  0
ENDTAB
  0
TABLE
  2
LTYPE
  5
5
100
AcDbSymbolTable
 70
6
  0
LTYPE
  5
14
100
AcDbSymbolTableRecord
100
AcDbLinetypeTableRecord
  2
BYBLOCK
 70
0
  3

 72
65
 73
0
 40
0.0
  0
LTYPE
  5
15
100
AcDbSymbolTableRecord
100
AcDbLinetypeTableRecord
  2
BYLAYER
 70
0
  3

 72
65
 73
0
 40
0.0
  0
LTYPE
  5
16
100
AcDbSymbolTableRecord
100
AcDbLinetypeTableRecord
  2
CONTINUOUS
 70
64
  3
Solid line
 72
65
 73
0
 40
0.0
  0
LTYPE
  5
1F5
100
AcDbSymbolTableRecord
100
AcDbLinetypeTableRecord
  2
CENTER
 70
64
  3
____ _ ____ _ ____ _ ____ _ ____ _ ____ _ ____
 72
65
 73
4
 40
0.6
 49
0.375
 74
0
 49
-0.075
 74
0
 49
0.075
 74
0
 49
-0.075
 74
0
  0
LTYPE
  5
1F6
100
AcDbSymbolTableRecord
100
AcDbLinetypeTableRecord
  2
HIDDEN
 70
64
  3
- - - - - - - - - - - - - - - - - - - -
 72
65
 73
2
 40
0.2
 49
0.1
 74
0
 49
-0.1
 74
0
  0
LTYPE
  5
1F7
100
AcDbSymbolTableRecord
100
AcDbLinetypeTableRecord
  2
PHANTOM
 70
64
  3
_____ _ _ _____ _ _ _____ _ _ _____
 72
65
 73
6
 40
0.8
 49
0.45
 74
0
 49
-0.05
 74
0
 49
0.1
 74
0
 49
-0.05
 74
0
 49
0.1
 74
0
 49
-0.05
 74
0
  0
LTYPE
  5
1F8
100
AcDbSymbolTableRecord
100
AcDbLinetypeTableRecord
  2
DOT
 70
64
  3
. . . . . . . . . . . . . . . . . . . .
 72
65
 73
2
 40
0.2
 49
0.1
 74
0
 49
-0.1
 74
0
  0
LTYPE
  5
1F9
100
AcDbSymbolTableRecord
100
AcDbLinetypeTableRecord
  2
DASHED
 70
64
  3
- - - - - - - - - - - - - - - - - - - -
 72
65
 73
2
 40
0.2
 49
0.1
 74
0
 49
-0.1
 74
0
  0
ENDTAB
  0
TABLE
  2
LAYER
  5
2
100
AcDbSymbolTable
 70
36
  0
LAYER
  5
10
100
AcDbSymbolTableRecord
100
AcDbLayerTableRecord
  2
0
 70
0
 62
7
  6
CONTINUOUS
370
-3
390
F
  0
LAYER
  5
1FA
100
AcDbSymbolTableRecord
100
AcDbLayerTableRecord
  2
DEFAULT_1
 70
0
 62
7
  6
CENTER
370
-3
390
F
  0
LAYER
  5
1FB
100
AcDbSymbolTableRecord
100
AcDbLayerTableRecord
  2
DEFAULT_2
 70
0
 62
7
  6
HIDDEN
370
-3
390
F
  0
LAYER
  5
1FC
100
AcDbSymbolTableRecord
100
AcDbLayerTableRecord
  2
DEFAULT_3
 70
0
 62
7
  6
PHANTOM
370
-3
390
F
  0
LAYER
  5
1FD
100
AcDbSymbolTableRecord
100
AcDbLayerTableRecord
  2
ASSI
 70
0
 62
7
  6
CONTINUOUS
370
-3
390
F
  0
LAYER
  5
1FE
100
AcDbSymbolTableRecord
100
AcDbLayerTableRecord
  2
COORDINATE
 70
0
 62
7
  6
CONTINUOUS
370
-3
390
F
  0
LAYER
  5
1FF
100
AcDbSymbolTableRecord
100
AcDbLayerTableRecord
  2
COPY_PUBLISH
 70
0
 62
7
  6
CONTINUOUS
370
-3
390
F
  0
LAYER
  5
200
100
AcDbSymbolTableRecord
100
AcDbLayerTableRecord
  2
COSMETICI
 70
0
 62
7
  6
CONTINUOUS
370
-3
390
F
  0
LAYER
  5
201
100
AcDbSymbolTableRecord
100
AcDbLayerTableRecord
  2
CURVE
 70
0
 62
7
  6
CONTINUOUS
370
-3
390
F
  0
LAYER
  5
202
100
AcDbSymbolTableRecord
100
AcDbLayerTableRecord
  2
IMPORT_IGES
 70
0
 62
7
  6
CONTINUOUS
370
-3
390
F
  0
LAYER
  5
203
100
AcDbSymbolTableRecord
100
AcDbLayerTableRecord
  2
INTF_1
 70
0
 62
7
  6
CONTINUOUS
370
-3
390
F
  0
LAYER
  5
204
100
AcDbSymbolTableRecord
100
AcDbLayerTableRecord
  2
NOTE
 70
0
 62
7
  6
CONTINUOUS
370
-3
390
F
  0
LAYER
  5
205
100
AcDbSymbolTableRecord
100
AcDbLayerTableRecord
  2
PIANI
 70
0
 62
7
  6
CONTINUOUS
370
-3
390
F
  0
LAYER
  5
206
100
AcDbSymbolTableRecord
100
AcDbLayerTableRecord
  2
PUNTI
 70
0
 62
7
  6
CONTINUOUS
370
-3
390
F
  0
LAYER
  5
207
100
AcDbSymbolTableRecord
100
AcDbLayerTableRecord
  2
RACCORDO
 70
0
 62
7
  6
CONTINUOUS
370
-3
390
F
  0
LAYER
  5
208
100
AcDbSymbolTableRecord
100
AcDbLayerTableRecord
  2
SIMBOLI
 70
0
 62
7
  6
CONTINUOUS
370
-3
390
F
  0
LAYER
  5
209
100
AcDbSymbolTableRecord
100
AcDbLayerTableRecord
  2
SMUSSO
 70
0
 62
7
  6
CONTINUOUS
370
-3
390
F
  0
LAYER
  5
20A
100
AcDbSymbolTableRecord
100
AcDbLayerTableRecord
  2
SUPERFICI
 70
0
 62
7
  6
CONTINUOUS
370
-3
390
F
  0
LAYER
  5
20B
100
AcDbSymbolTableRecord
100
AcDbLayerTableRecord
  2
TRASH
 70
0
 62
7
  6
CONTINUOUS
370
-3
390
F
  0
ENDTAB
  0
TABLE
  2
STYLE
  5
3
100
AcDbSymbolTable
 70
1
  0
STYLE
  5
11
100
AcDbSymbolTableRecord
100
AcDbTextStyleTableRecord
  2
STANDARD
 70
0
 40
0.0
 41
0.8
 50
0.0
 71
0
 42
0.2
  3
txt
  4

  0
STYLE
  5
20C
100
AcDbSymbolTableRecord
100
AcDbTextStyleTableRecord
  2
TEXTSTYLE_1
 70
0
 40
0.0
 41
0.8
 50
0.0
 71
0
 42
0.2
  3
gdt
  4

  0
ENDTAB
  0
TABLE
  2
VIEW
  5
6
100
AcDbSymbolTable
 70
0
  0
ENDTAB
  0
TABLE
  2
UCS
  5
7
100
AcDbSymbolTable
 70
0
  0
ENDTAB
  0
TABLE
  2
APPID
  5
9
100
AcDbSymbolTable
 70
1
  0
APPID
  5
20D
100
AcDbSymbolTableRecord
100
AcDbRegAppTableRecord
  2
ACAD
 70
0
  0
ENDTAB
  0
TABLE
  2
BLOCK_RECORD
  5
1
100
AcDbSymbolTable
 70
0
  0
BLOCK_RECORD
  5
20E
100
AcDbSymbolTableRecord
100
AcDbBlockTableRecord
  2
*Model_Space
  0
BLOCK_RECORD
  5
20F
100
AcDbSymbolTableRecord
100
AcDbBlockTableRecord
  2
*Paper_Space
  0
BLOCK_RECORD
  5
210
100
AcDbSymbolTableRecord
100
AcDbBlockTableRecord
  2
_FILLED
  0
ENDTAB
  0
TABLE
  2
DIMSTYLE
  5
A
100
AcDbSymbolTable
 70
1
100
AcDbDimStyleTable
 71
0
  0
DIMSTYLE
105
211
100
AcDbSymbolTableRecord
100
AcDbDimStyleTableRecord
  2
STANDARD
 70
0
  3

  4

 40
1.0
 41
3.0
 42
0.5
 43
0.38
 44
1.5
 45
0.0
 46
0.0
 47
0.01
 48
0.01
140
3.0
141
0.09
142
0.0
143
25.4
144
1.0
145
0.0
146
1.0
147
0.625
 71
1
 72
0
 73
0
 74
0
 75
0
 76
0
 77
1
 78
8
 79
2
170
0
171
1
172
0
173
0
174
0
175
0
176
0
177
0
178
0
270
2
179
2
271
2
272
2
273
2
274
2
275
0
280
0
281
0
282
0
283
1
284
8
285
0
286
0
287
3
288
0
340
11
278
44
341
210
342
210
343
210
344
210
  0
ENDTAB
  0
ENDSEC
  0
SECTION
  2
BLOCKS
  0
BLOCK
  5
20
100
AcDbEntity
  8
0
100
AcDbBlockBegin
  2
*Model_Space
 70
0
 10
0.0
 20
0.0
 30
0.0
  3
*Model_Space
  1

  0
ENDBLK
  5
21
100
AcDbEntity
  8
0
100
AcDbBlockEnd
  0
BLOCK
  5
1C
100
AcDbEntity
  8
0
100
AcDbBlockBegin
  2
*Paper_Space
 70
0
 10
0.0
 20
0.0
 30
0.0
  3
*Paper_Space
  1

  0
ENDBLK
  5
1D
100
AcDbEntity
  8
0
100
AcDbBlockEnd
  0
BLOCK
  5
212
100
AcDbEntity
  8
0
100
AcDbBlockBegin
  2
_FILLED
 70
64
 10
0.0
 20
0.0
  3
_FILLED
  1

  0
SOLID
  5
213
100
AcDbEntity
  8
0
  6
BYBLOCK
 62
0
100
AcDbTrace
 10
0.0
 20
0.0
 11
-1.0
 21
0.1333333333
 12
-1.0
 22
-0.1333333333
 13
-1.0
 23
-0.1333333333
  0
ENDBLK
  5
214
100
AcDbEntity
  8
0
  6
BYBLOCK
 62
0
100
AcDbBlockEnd
  0
ENDSEC
  0
SECTION
  2
ENTITIES
  0
LINE
  5
215
100
AcDbEntity
  8
0
100
AcDbLine
 62
7
  6
CONTINUOUS
 10
-47.6541902456
 20
72.1404228908
 11
-25.3803266383
 21
85.0010725806
  0
LINE
  5
216
100
AcDbEntity
  8
0
100
AcDbLine
 62
250
  6
CONTINUOUS
 10
-45.7790996451
 20
71.9546434745
 11
-23.5052360377
 21
84.8152931644
  0
LINE
  5
217
100
AcDbEntity
  8
SUPERFICI
100
AcDbLine
 62
7
  6
CONTINUOUS
 10
-23.5159593424
 20
81.9638584248
 11
-23.3284593424
 21
82.0720976507
  0
LINE
  5
218
100
AcDbEntity
  8
0
100
AcDbLine
 62
250
  6
CONTINUOUS
 10
-32.5284347485
 20
60.5811606801
 11
-32.8744008884
 21
60.3814041669
  0
LINE
  5
219
100
AcDbEntity
  8
0
100
AcDbLine
 62
7
  6
CONTINUOUS
 10
-31.786662797
 20
60.1528708519
 11
-32.3440708025
 21
59.8310304555
  0
LINE
  5
21A
100
AcDbEntity
  8
0
100
AcDbLine
 62
7
  6
CONTINUOUS
 10
-31.2563327111
 20
59.8466649069
 11
-32.3440708025
 21
59.2186185655
  0
LINE
  5
21B
100
AcDbEntity
  8
0
100
AcDbLine
 62
250
  6
CONTINUOUS
 10
-48.9610801604
 20
70.0691641915
 11
-48.8019811346
 21
70.7451732279
  0
LINE
  5
21C
100
AcDbEntity
  8
0
100
AcDbLine
 62
7
  6
CONTINUOUS
 10
32.4824822383
 20
-84.7965058782
 11
31.9521521524
 21
-84.4902999332
  0
LINE
  5
21D
100
AcDbEntity
  8
0
100
AcDbLine
 62
7
  6
CONTINUOUS
 10
-45.2992636923
 20
-39.8863006122
 11
-44.7689336064
 21
-40.1925065572
  0
LINE
  5
21E
100
AcDbEntity
  8
0
100
AcDbLine
 62
250
  6
CONTINUOUS
 10
30.4116560278
 20
-80.2191372668
 11
29.8813259419
 21
-79.9129313218
  0
LINE
  5
21F
100
AcDbEntity
  8
0
100
AcDbLine
 62
250
  6
CONTINUOUS
 10
-47.3700899027
 20
-35.3089320007
 11
-46.8397598168
 21
-35.6151379457
  0
LINE
  5
220
100
AcDbEntity
  8
0
100
AcDbLine
 62
7
  6
CONTINUOUS
 10
-39.4151386144
 20
-39.4929574837
 11
29.8813259419
 21
-79.5038676298
  0
LINE
  5
221
100
AcDbEntity
  8
ASSI
100
AcDbLine
 62
7
  6
CONTINUOUS
 10
-51.9177526822
 20
62.3552128378
 11
-51.9177526822
 21
68.9465134919
  0
LINE
  5
222
100
AcDbEntity
  8
ASSI
100
AcDbLine
 62
7
  6
CONTINUOUS
 10
-51.5709490493
 20
61.9712491996
 11
-51.5709490493
 21
68.5625498537
  0
LINE
  5
223
100
AcDbEntity
  8
ASSI
100
AcDbLine
 62
250
  6
CONTINUOUS
 10
-47.9004199886
 20
59.1099100946
 11
-47.9004199886
 21
69.4567523015
  0
LINE
  5
224
100
AcDbEntity
  8
0
100
AcDbLine
 62
7
  6
CONTINUOUS
 10
-47.3700899027
 20
-35.3089320007
 11
-47.3700899027
 21
55.7275038617
  0
LINE
  5
225
100
AcDbEntity
  8
0
100
AcDbLine
 62
7
  6
CONTINUOUS
 10
-46.8397598168
 20
-35.6151379457
 11
-46.8397598168
 21
55.4212979167
  0
LINE
  5
226
100
AcDbEntity
  8
IMPORT_IGES
100
AcDbLine
 62
7
  6
CONTINUOUS
 10
-5.3672707526
 20
-56.9098484281
 11
-3.4641335097
 21
-58.0086960203
  0
LINE
  5
227
100
AcDbEntity
  8
CURVE
100
AcDbLine
 62
250
  6
CONTINUOUS
 10
-5.3672707526
 20
-56.9098484281
 11
-3.4641335097
 21
-58.0086960203
  0
LINE
  5
228
100
AcDbEntity
  8
IMPORT_IGES
100
AcDbLine
 62
7
  6
CONTINUOUS
 10
-3.2767134431
 20
-58.1169100178
 11
-1.747199049
 21
-59.0000324597
  0
LINE
  5
229
100
AcDbEntity
  8
CURVE
100
AcDbLine
 62
250
  6
CONTINUOUS
 10
-3.2767134431
 20
-58.1169100178
 11
-1.747199049
 21
-59.0000324597
  0
LINE
  5
22A
100
AcDbEntity
  8
IMPORT_IGES
100
AcDbLine
 62
7
  6
CONTINUOUS
 10
-0.4898903601
 20
-59.7259867389
 11
1.2669348226
 21
-60.7403555811
  0
LINE
  5
22B
100
AcDbEntity
  8
CURVE
100
AcDbLine
 62
250
  6
CONTINUOUS
 10
-0.4898903601
 20
-59.7259867389
 11
1.2669348226
 21
-60.7403555811
  0
LINE
  5
22C
100
AcDbEntity
  8
IMPORT_IGES
100
AcDbLine
 62
7
  6
CONTINUOUS
 10
1.4321778992
 20
-60.8306121187
 11
2.0244576101
 21
-61.1725870008
  0
LINE
  5
22D
100
AcDbEntity
  8
CURVE
100
AcDbLine
 62
250
  6
CONTINUOUS
 10
1.4321778992
 20
-60.8306121187
 11
2.0244576101
 21
-61.1725870008
  0
LINE
  5
22E
100
AcDbEntity
  8
IMPORT_IGES
100
AcDbLine
 62
7
  6
CONTINUOUS
 10
2.7162615399
 20
-61.5720259195
 11
3.30840584
 21
-61.913922617
  0
LINE
  5
22F
100
AcDbEntity
  8
CURVE
100
AcDbLine
 62
250
  6
CONTINUOUS
 10
2.7162615399
 20
-61.5720259195
 11
3.30840584
 21
-61.913922617
  0
LINE
  5
230
100
AcDbEntity
  8
IMPORT_IGES
100
AcDbLine
 62
7
  6
CONTINUOUS
 10
0.7035033005
 20
-60.0084289604
 11
0.073541162
 21
-59.6446967169
  0
LINE
  5
231
100
AcDbEntity
  8
CURVE
100
AcDbLine
 62
250
  6
CONTINUOUS
 10
0.7035033005
 20
-60.0084289604
 11
0.073541162
 21
-59.6446967169
  0
LINE
  5
232
100
AcDbEntity
  8
IMPORT_IGES
100
AcDbLine
 62
7
  6
CONTINUOUS
 10
-1.747199049
 20
-58.4900867612
 11
-2.7435266458
 21
-57.9148196937
  0
LINE
  5
233
100
AcDbEntity
  8
CURVE
100
AcDbLine
 62
250
  6
CONTINUOUS
 10
-1.747199049
 20
-58.4900867612
 11
-2.7435266458
 21
-57.9148196937
  0
LINE
  5
234
100
AcDbEntity
  8
IMPORT_IGES
100
AcDbLine
 62
7
  6
CONTINUOUS
 10
-3.4641335097
 20
-57.4987503219
 11
-4.8225899346
 21
-56.7143946076
  0
LINE
  5
235
100
AcDbEntity
  8
CURVE
100
AcDbLine
 62
250
  6
CONTINUOUS
 10
-3.4641335097
 20
-57.4987503219
 11
-4.8225899346
 21
-56.7143946076
  0
LINE
  5
236
100
AcDbEntity
  8
IMPORT_IGES
100
AcDbLine
 62
7
  6
CONTINUOUS
 10
-4.8225899346
 20
-56.4594219625
 11
-4.1602645794
 21
-56.8418403217
  0
LINE
  5
237
100
AcDbEntity
  8
CURVE
100
AcDbLine
 62
250
  6
CONTINUOUS
 10
-4.8225899346
 20
-56.4594219625
 11
-4.1602645794
 21
-56.8418403217
  0
LINE
  5
238
100
AcDbEntity
  8
IMPORT_IGES
100
AcDbLine
 62
7
  6
CONTINUOUS
 10
0.073541162
 20
-59.1830493177
 11
0.7035033005
 21
-59.5467815612
  0
LINE
  5
239
100
AcDbEntity
  8
CURVE
100
AcDbLine
 62
250
  6
CONTINUOUS
 10
0.073541162
 20
-59.1830493177
 11
0.7035033005
 21
-59.5467815612
  0
LINE
  5
23A
100
AcDbEntity
  8
IMPORT_IGES
100
AcDbLine
 62
7
  6
CONTINUOUS
 10
1.2669348226
 20
-59.465491131
 11
-0.4898903601
 21
-58.4511222887
  0
LINE
  5
23B
100
AcDbEntity
  8
CURVE
100
AcDbLine
 62
250
  6
CONTINUOUS
 10
1.2669348226
 20
-59.465491131
 11
-0.4898903601
 21
-58.4511222887
  0
LINE
  5
23C
100
AcDbEntity
  8
IMPORT_IGES
100
AcDbLine
 62
7
  6
CONTINUOUS
 10
-2.7435266458
 20
-57.149900942
 11
-3.2767134431
 21
-56.8420455676
  0
LINE
  5
23D
100
AcDbEntity
  8
CURVE
100
AcDbLine
 62
250
  6
CONTINUOUS
 10
-2.7435266458
 20
-57.149900942
 11
-3.2767134431
 21
-56.8420455676
  0
LINE
  5
23E
100
AcDbEntity
  8
IMPORT_IGES
100
AcDbLine
 62
7
  6
CONTINUOUS
 10
-4.1602645794
 20
-56.331894215
 11
-4.8225899346
 21
-55.9494758558
  0
LINE
  5
23F
100
AcDbEntity
  8
CURVE
100
AcDbLine
 62
250
  6
CONTINUOUS
 10
-4.1602645794
 20
-56.331894215
 11
-4.8225899346
 21
-55.9494758558
  0
LINE
  5
240
100
AcDbEntity
  8
IMPORT_IGES
100
AcDbLine
 62
7
  6
CONTINUOUS
 10
-4.8225899346
 20
-55.6945028025
 11
-3.6631826544
 21
-56.3639300353
  0
LINE
  5
241
100
AcDbEntity
  8
CURVE
100
AcDbLine
 62
250
  6
CONTINUOUS
 10
-4.8225899346
 20
-55.6945028025
 11
-3.6631826544
 21
-56.3639300353
  0
LINE
  5
242
100
AcDbEntity
  8
IMPORT_IGES
100
AcDbLine
 62
7
  6
CONTINUOUS
 10
-3.4772503405
 20
-56.4712850231
 11
-2.0588895968
 21
-57.2902287402
  0
LINE
  5
243
100
AcDbEntity
  8
CURVE
100
AcDbLine
 62
250
  6
CONTINUOUS
 10
-3.4772503405
 20
-56.4712850231
 11
-2.0588895968
 21
-57.2902287402
  0
LINE
  5
244
100
AcDbEntity
  8
IMPORT_IGES
100
AcDbLine
 62
7
  6
CONTINUOUS
 10
-0.5353255063
 20
-58.1699155514
 11
1.510608062
 21
-59.3512119521
  0
LINE
  5
245
100
AcDbEntity
  8
CURVE
100
AcDbLine
 62
250
  6
CONTINUOUS
 10
-0.5353255063
 20
-58.1699155514
 11
1.510608062
 21
-59.3512119521
  0
LINE
  5
246
100
AcDbEntity
  8
IMPORT_IGES
100
AcDbLine
 62
7
  6
CONTINUOUS
 10
1.1895868866
 20
-58.6559130586
 11
-0.8113167076
 21
-57.5006164005
  0
LINE
  5
247
100
AcDbEntity
  8
CURVE
100
AcDbLine
 62
250
  6
CONTINUOUS
 10
1.1895868866
 20
-58.6559130586
 11
-0.8113167076
 21
-57.5006164005
  0
LINE
  5
248
100
AcDbEntity
  8
IMPORT_IGES
100
AcDbLine
 62
7
  6
CONTINUOUS
 10
-1.7828987491
 20
-56.9396371066
 11
-3.4772503405
 21
-55.9613397329
  0
LINE
  5
249
100
AcDbEntity
  8
CURVE
100
AcDbLine
 62
250
  6
CONTINUOUS
 10
-1.7828987491
 20
-56.9396371066
 11
-3.4772503405
 21
-55.9613397329
  0
LINE
  5
24A
100
AcDbEntity
  8
IMPORT_IGES
100
AcDbLine
 62
7
  6
CONTINUOUS
 10
-3.6631826544
 20
-55.8539847451
 11
-5.3672707526
 21
-54.8700656345
  0
LINE
  5
24B
100
AcDbEntity
  8
CURVE
100
AcDbLine
 62
250
  6
CONTINUOUS
 10
-3.6631826544
 20
-55.8539847451
 11
-5.3672707526
 21
-54.8700656345
  0
LINE
  5
24C
100
AcDbEntity
  8
IMPORT_IGES
100
AcDbLine
 62
7
  6
CONTINUOUS
 10
3.30840584
 20
-59.8772620057
 11
2.7162615399
 21
-59.5353653081
  0
LINE
  5
24D
100
AcDbEntity
  8
CURVE
100
AcDbLine
 62
250
  6
CONTINUOUS
 10
3.30840584
 20
-59.8772620057
 11
2.7162615399
 21
-59.5353653081
  0
LINE
  5
24E
100
AcDbEntity
  8
IMPORT_IGES
100
AcDbLine
 62
7
  6
CONTINUOUS
 10
2.0244576101
 20
-59.1359263894
 11
1.4321778992
 21
-58.7939515073
  0
LINE
  5
24F
100
AcDbEntity
  8
CURVE
100
AcDbLine
 62
250
  6
CONTINUOUS
 10
2.0244576101
 20
-59.1359263894
 11
1.4321778992
 21
-58.7939515073
  0
LINE
  5
250
100
AcDbEntity
  8
0
100
AcDbLine
 62
7
  6
CONTINUOUS
 10
-39.4151386144
 20
64.5574571816
 11
-39.4151386144
 21
-39.4929574837
  0
LINE
  5
251
100
AcDbEntity
  8
0
100
AcDbLine
 62
7
  6
CONTINUOUS
 10
29.8813259419
 20
-69.3388126838
 11
2.8344915615
 21
-53.722309489
  0
LINE
  5
252
100
AcDbEntity
  8
0
100
AcDbLine
 62
7
  6
CONTINUOUS
 10
-4.9436830315
 20
-49.2312889624
 11
-32.5208474978
 21
-33.3085798226
  0
LINE
  5
253
100
AcDbEntity
  8
0
100
AcDbLine
 62
7
  6
CONTINUOUS
 10
29.8813259419
 20
-68.7264007938
 11
3.3648216474
 21
-53.416103544
  0
LINE
  5
254
100
AcDbEntity
  8
0
100
AcDbLine
 62
7
  6
CONTINUOUS
 10
-4.590129641
 20
-48.823014369
 11
-31.9905174119
 21
-33.0023738776
  0
LINE
  5
255
100
AcDbEntity
  8
0
100
AcDbLine
 62
250
  6
CONTINUOUS
 10
-26.1922418062
 20
-31.4091797182
 11
-4.590129641
 21
-43.8819685444
  0
LINE
  5
256
100
AcDbEntity
  8
0
100
AcDbLine
 62
250
  6
CONTINUOUS
 10
3.0112682568
 20
-48.2709204226
 11
29.8813259419
 21
-63.7853549691
  0
LINE
  5
257
100
AcDbEntity
  8
0
100
AcDbLine
 62
250
  6
CONTINUOUS
 10
-25.8386884156
 20
-30.7968072832
 11
-4.590129641
 21
-43.0654588127
  0
LINE
  5
258
100
AcDbEntity
  8
0
100
AcDbLine
 62
250
  6
CONTINUOUS
 10
3.0112682568
 20
-47.4544106909
 11
29.8813259419
 21
-62.9688452374
  0
LINE
  5
259
100
AcDbEntity
  8
0
100
AcDbLine
 62
7
  6
CONTINUOUS
 10
-32.8744008884
 20
-32.6962073875
 11
-32.8744008884
 21
60.3814041669
  0
LINE
  5
25A
100
AcDbEntity
  8
ASSI
100
AcDbLine
 62
250
  6
CONTINUOUS
 10
-6.3578965939
 20
38.6429619571
 11
-6.8882266798
 21
38.3367560121
  0
LINE
  5
25B
100
AcDbEntity
  8
0
100
AcDbLine
 62
250
  6
CONTINUOUS
 10
2.8269043108
 20
40.1674310137
 11
2.4809381709
 21
39.9676745005
  0
LINE
  5
25C
100
AcDbEntity
  8
0
100
AcDbLine
 62
7
  6
CONTINUOUS
 10
-25.8386884156
 20
-22.7137515429
 11
-25.2199699821
 21
-23.0709918121
  0
LINE
  5
25D
100
AcDbEntity
  8
0
100
AcDbLine
 62
7
  6
CONTINUOUS
 10
-32.3440708025
 20
-32.3900014425
 11
-32.3440708025
 21
60.4747112483
  0
LINE
  5
25E
100
AcDbEntity
  8
0
100
AcDbLine
 62
7
  6
CONTINUOUS
 10
-25.8386884156
 20
-22.7137515429
 11
-25.8386884156
 21
-30.7968072832
  0
LINE
  5
25F
100
AcDbEntity
  8
0
100
AcDbLine
 62
250
  6
CONTINUOUS
 10
-25.6619117203
 20
56.6165163414
 11
-25.6619117203
 21
-22.611742077
  0
LINE
  5
260
100
AcDbEntity
  8
0
100
AcDbLine
 62
250
  6
CONTINUOUS
 10
-24.9548049391
 20
56.208241748
 11
-24.9548049391
 21
-22.9179184308
  0
LINE
  5
261
100
AcDbEntity
  8
SUPERFICI
100
AcDbLine
 62
7
  6
CONTINUOUS
 10
-23.3284593424
 20
82.0720976507
 11
-23.3284593424
 21
84.1008915359
  0
LINE
  5
262
100
AcDbEntity
  8
IMPORT_IGES
100
AcDbLine
 62
7
  6
CONTINUOUS
 10
1.4321778992
 20
-58.7939515073
 11
2.0742198963
 21
-60.1829888155
  0
LINE
  5
263
100
AcDbEntity
  8
CURVE
100
AcDbLine
 62
250
  6
CONTINUOUS
 10
1.4321778992
 20
-58.7939515073
 11
2.0742198963
 21
-60.1829888155
  0
LINE
  5
264
100
AcDbEntity
  8
IMPORT_IGES
100
AcDbLine
 62
7
  6
CONTINUOUS
 10
2.3703597518
 20
-59.8841584393
 11
2.0244576101
 21
-59.1359263894
  0
LINE
  5
265
100
AcDbEntity
  8
CURVE
100
AcDbLine
 62
250
  6
CONTINUOUS
 10
2.3703597518
 20
-59.8841584393
 11
2.0244576101
 21
-59.1359263894
  0
LINE
  5
266
100
AcDbEntity
  8
IMPORT_IGES
100
AcDbLine
 62
7
  6
CONTINUOUS
 10
2.3703597518
 20
-60.8236385362
 11
2.7162615399
 21
-61.5720259195
  0
LINE
  5
267
100
AcDbEntity
  8
CURVE
100
AcDbLine
 62
250
  6
CONTINUOUS
 10
2.3703597518
 20
-60.8236385362
 11
2.7162615399
 21
-61.5720259195
  0
LINE
  5
268
100
AcDbEntity
  8
IMPORT_IGES
100
AcDbLine
 62
7
  6
CONTINUOUS
 10
3.30840584
 20
-61.913922617
 11
2.6664996073
 21
-60.5249636976
  0
LINE
  5
269
100
AcDbEntity
  8
CURVE
100
AcDbLine
 62
250
  6
CONTINUOUS
 10
3.30840584
 20
-61.913922617
 11
2.6664996073
 21
-60.5249636976
  0
LINE
  5
26A
100
AcDbEntity
  8
IMPORT_IGES
100
AcDbLine
 62
7
  6
CONTINUOUS
 10
1.510608062
 20
-59.3512119521
 11
1.1895868866
 21
-58.6559130586
  0
LINE
  5
26B
100
AcDbEntity
  8
CURVE
100
AcDbLine
 62
250
  6
CONTINUOUS
 10
1.510608062
 20
-59.3512119521
 11
1.1895868866
 21
-58.6559130586
  0
LINE
  5
26C
100
AcDbEntity
  8
IMPORT_IGES
100
AcDbLine
 62
7
  6
CONTINUOUS
 10
-2.0588895968
 20
-57.2902287402
 11
-1.2970396693
 21
-59.2599488437
  0
LINE
  5
26D
100
AcDbEntity
  8
CURVE
100
AcDbLine
 62
250
  6
CONTINUOUS
 10
-2.0588895968
 20
-57.2902287402
 11
-1.2970396693
 21
-59.2599488437
  0
LINE
  5
26E
100
AcDbEntity
  8
IMPORT_IGES
100
AcDbLine
 62
7
  6
CONTINUOUS
 10
-1.2970396693
 20
-58.1957145379
 11
-1.7828987491
 21
-56.9396371066
  0
LINE
  5
26F
100
AcDbEntity
  8
CURVE
100
AcDbLine
 62
250
  6
CONTINUOUS
 10
-1.2970396693
 20
-58.1957145379
 11
-1.7828987491
 21
-56.9396371066
  0
LINE
  5
270
100
AcDbEntity
  8
0
100
AcDbLine
 62
250
  6
CONTINUOUS
 10
48.9732090339
 20
42.9671473483
 11
26.6993454266
 21
30.1064976585
  0
LINE
  5
271
100
AcDbEntity
  8
0
100
AcDbLine
 62
250
  6
CONTINUOUS
 10
51.6248594634
 20
38.3743540853
 11
29.350995856
 21
25.5137043955
  0
LINE
  5
272
100
AcDbEntity
  8
IMPORT_IGES
100
AcDbLine
 62
7
  6
CONTINUOUS
 10
-5.3672707526
 20
-54.8700656345
 11
-5.3672707526
 21
-56.9098484281
  0
LINE
  5
273
100
AcDbEntity
  8
CURVE
100
AcDbLine
 62
250
  6
CONTINUOUS
 10
-5.3672707526
 20
-54.8700656345
 11
-5.3672707526
 21
-56.9098484281
  0
LINE
  5
274
100
AcDbEntity
  8
IMPORT_IGES
100
AcDbLine
 62
7
  6
CONTINUOUS
 10
-4.8225899346
 20
-56.7143946076
 11
-4.8225899346
 21
-56.4594219625
  0
LINE
  5
275
100
AcDbEntity
  8
CURVE
100
AcDbLine
 62
250
  6
CONTINUOUS
 10
-4.8225899346
 20
-56.7143946076
 11
-4.8225899346
 21
-56.4594219625
  0
LINE
  5
276
100
AcDbEntity
  8
IMPORT_IGES
100
AcDbLine
 62
7
  6
CONTINUOUS
 10
-4.8225899346
 20
-55.9494758558
 11
-4.8225899346
 21
-55.6945028025
  0
LINE
  5
277
100
AcDbEntity
  8
CURVE
100
AcDbLine
 62
250
  6
CONTINUOUS
 10
-4.8225899346
 20
-55.9494758558
 11
-4.8225899346
 21
-55.6945028025
  0
LINE
  5
278
100
AcDbEntity
  8
0
100
AcDbLine
 62
7
  6
CONTINUOUS
 10
-4.590129641
 20
44.0504204338
 11
-4.590129641
 21
-49.0271911206
  0
LINE
  5
279
100
AcDbEntity
  8
IMPORT_IGES
100
AcDbLine
 62
7
  6
CONTINUOUS
 10
-4.1602645794
 20
-56.8418403217
 11
-4.1602645794
 21
-56.331894215
  0
LINE
  5
27A
100
AcDbEntity
  8
CURVE
100
AcDbLine
 62
250
  6
CONTINUOUS
 10
-4.1602645794
 20
-56.8418403217
 11
-4.1602645794
 21
-56.331894215
  0
LINE
  5
27B
100
AcDbEntity
  8
IMPORT_IGES
100
AcDbLine
 62
7
  6
CONTINUOUS
 10
-3.6631826544
 20
-56.3639300353
 11
-3.6631826544
 21
-55.8539847451
  0
LINE
  5
27C
100
AcDbEntity
  8
CURVE
100
AcDbLine
 62
250
  6
CONTINUOUS
 10
-3.6631826544
 20
-56.3639300353
 11
-3.6631826544
 21
-55.8539847451
  0
LINE
  5
27D
100
AcDbEntity
  8
IMPORT_IGES
100
AcDbLine
 62
7
  6
CONTINUOUS
 10
-3.4772503405
 20
-55.9613397329
 11
-3.4772503405
 21
-56.4712850231
  0
LINE
  5
27E
100
AcDbEntity
  8
CURVE
100
AcDbLine
 62
250
  6
CONTINUOUS
 10
-3.4772503405
 20
-55.9613397329
 11
-3.4772503405
 21
-56.4712850231
  0
LINE
  5
27F
100
AcDbEntity
  8
IMPORT_IGES
100
AcDbLine
 62
7
  6
CONTINUOUS
 10
-3.4641335097
 20
-58.0086960203
 11
-3.4641335097
 21
-57.4987503219
  0
LINE
  5
280
100
AcDbEntity
  8
CURVE
100
AcDbLine
 62
250
  6
CONTINUOUS
 10
-3.4641335097
 20
-58.0086960203
 11
-3.4641335097
 21
-57.4987503219
  0
LINE
  5
281
100
AcDbEntity
  8
IMPORT_IGES
100
AcDbLine
 62
7
  6
CONTINUOUS
 10
-3.2767134431
 20
-56.8420455676
 11
-3.2767134431
 21
-58.1169100178
  0
LINE
  5
282
100
AcDbEntity
  8
CURVE
100
AcDbLine
 62
250
  6
CONTINUOUS
 10
-3.2767134431
 20
-56.8420455676
 11
-3.2767134431
 21
-58.1169100178
  0
LINE
  5
283
100
AcDbEntity
  8
IMPORT_IGES
100
AcDbLine
 62
7
  6
CONTINUOUS
 10
-2.7435266458
 20
-57.9148196937
 11
-2.7435266458
 21
-57.149900942
  0
LINE
  5
284
100
AcDbEntity
  8
CURVE
100
AcDbLine
 62
250
  6
CONTINUOUS
 10
-2.7435266458
 20
-57.9148196937
 11
-2.7435266458
 21
-57.149900942
  0
LINE
  5
285
100
AcDbEntity
  8
IMPORT_IGES
100
AcDbLine
 62
7
  6
CONTINUOUS
 10
-1.747199049
 20
-59.0000324597
 11
-1.747199049
 21
-58.4900867612
  0
LINE
  5
286
100
AcDbEntity
  8
CURVE
100
AcDbLine
 62
250
  6
CONTINUOUS
 10
-1.747199049
 20
-59.0000324597
 11
-1.747199049
 21
-58.4900867612
  0
LINE
  5
287
100
AcDbEntity
  8
IMPORT_IGES
100
AcDbLine
 62
7
  6
CONTINUOUS
 10
-0.4898903601
 20
-58.4511222887
 11
-0.4898903601
 21
-59.7259867389
  0
LINE
  5
288
100
AcDbEntity
  8
CURVE
100
AcDbLine
 62
250
  6
CONTINUOUS
 10
-0.4898903601
 20
-58.4511222887
 11
-0.4898903601
 21
-59.7259867389
  0
LINE
  5
289
100
AcDbEntity
  8
IMPORT_IGES
100
AcDbLine
 62
7
  6
CONTINUOUS
 10
0.073541162
 20
-59.6446967169
 11
0.073541162
 21
-59.1830493177
  0
LINE
  5
28A
100
AcDbEntity
  8
CURVE
100
AcDbLine
 62
250
  6
CONTINUOUS
 10
0.073541162
 20
-59.6446967169
 11
0.073541162
 21
-59.1830493177
  0
LINE
  5
28B
100
AcDbEntity
  8
IMPORT_IGES
100
AcDbLine
 62
7
  6
CONTINUOUS
 10
0.7035033005
 20
-59.5467815612
 11
0.7035033005
 21
-60.0084289604
  0
LINE
  5
28C
100
AcDbEntity
  8
CURVE
100
AcDbLine
 62
250
  6
CONTINUOUS
 10
0.7035033005
 20
-59.5467815612
 11
0.7035033005
 21
-60.0084289604
  0
LINE
  5
28D
100
AcDbEntity
  8
IMPORT_IGES
100
AcDbLine
 62
7
  6
CONTINUOUS
 10
1.2669348226
 20
-60.7403555811
 11
1.2669348226
 21
-59.465491131
  0
LINE
  5
28E
100
AcDbEntity
  8
CURVE
100
AcDbLine
 62
250
  6
CONTINUOUS
 10
1.2669348226
 20
-60.7403555811
 11
1.2669348226
 21
-59.465491131
  0
LINE
  5
28F
100
AcDbEntity
  8
0
100
AcDbLine
 62
7
  6
CONTINUOUS
 10
2.4809381709
 20
-53.1099370539
 11
2.4809381709
 21
39.9676745005
  0
LINE
  5
290
100
AcDbEntity
  8
0
100
AcDbLine
 62
7
  6
CONTINUOUS
 10
3.0112682568
 20
-52.8037311089
 11
3.0112682568
 21
40.0609815819
  0
LINE
  5
291
100
AcDbEntity
  8
ASSI
100
AcDbLine
 62
250
  6
CONTINUOUS
 10
-14.8431779682
 20
-14.5904266306
 11
-15.373508054
 21
-14.8966325756
  0
LINE
  5
292
100
AcDbEntity
  8
ASSI
100
AcDbLine
 62
250
  6
CONTINUOUS
 10
-5.5624014651
 20
-9.8860345066
 11
-6.092731551
 21
-10.1922404516
  0
LINE
  5
293
100
AcDbEntity
  8
0
100
AcDbLine
 62
7
  6
CONTINUOUS
 10
-25.6619117203
 20
-22.611742077
 11
-32.3440708025
 21
-26.4699369839
  0
LINE
  5
294
100
AcDbEntity
  8
ASSI
100
AcDbLine
 62
250
  6
CONTINUOUS
 10
-22.8334845956
 20
-21.3055079989
 11
-22.268035464
 21
-20.9790247571
  0
LINE
  5
295
100
AcDbEntity
  8
0
100
AcDbLine
 62
250
  6
CONTINUOUS
 10
-24.9548177529
 20
-22.9178962381
 11
-25.2199699821
 21
-23.0709918121
  0
LINE
  5
296
100
AcDbEntity
  8
ASSI
100
AcDbLine
 62
7
  6
CONTINUOUS
 10
-51.1876968087
 20
60.9616067848
 11
-51.5215996123
 21
61.3054560233
  0
LINE
  5
297
100
AcDbEntity
  8
ASSI
100
AcDbLine
 62
250
  6
CONTINUOUS
 10
-51.5709490493
 20
61.9712491996
 11
-51.9177526822
 21
62.3552128378
  0
LINE
  5
298
100
AcDbEntity
  8
0
100
AcDbLine
 62
250
  6
CONTINUOUS
 10
-32.3440708025
 20
-32.3900014425
 11
-32.8744008884
 21
-32.6962073875
  0
LINE
  5
299
100
AcDbEntity
  8
0
100
AcDbLine
 62
250
  6
CONTINUOUS
 10
-31.9905174119
 20
-33.0023738776
 11
-32.5208474978
 21
-33.3085798226
  0
LINE
  5
29A
100
AcDbEntity
  8
ASSI
100
AcDbLine
 62
250
  6
CONTINUOUS
 10
-34.8542998757
 20
-34.9821545063
 11
-35.3846299616
 21
-35.2883604513
  0
LINE
  5
29B
100
AcDbEntity
  8
ASSI
100
AcDbLine
 62
250
  6
CONTINUOUS
 10
-34.7393950238
 20
-35.0484991278
 11
-34.7140402187
 21
-35.0338595811
  0
LINE
  5
29C
100
AcDbEntity
  8
0
100
AcDbLine
 62
7
  6
CONTINUOUS
 10
-26.1922418062
 20
-31.4091797182
 11
-30.4710373348
 21
-33.8797026305
  0
LINE
  5
29D
100
AcDbEntity
  8
0
100
AcDbLine
 62
250
  6
CONTINUOUS
 10
-51.5709490493
 20
68.5625498537
 11
-51.9177526822
 21
68.9465134919
  0
LINE
  5
29E
100
AcDbEntity
  8
0
100
AcDbLine
 62
250
  6
CONTINUOUS
 10
23.5173649112
 20
28.2210183754
 11
23.676463937
 21
28.8970274118
  0
LINE
  5
29F
100
AcDbEntity
  8
0
100
AcDbLine
 62
7
  6
CONTINUOUS
 10
-39.768692005
 20
-39.6970947804
 11
-39.4151386144
 21
-39.4929574837
  0
LINE
  5
2A0
100
AcDbEntity
  8
0
100
AcDbLine
 62
250
  6
CONTINUOUS
 10
-27.6595313652
 20
-38.4730020644
 11
-28.0925912806
 21
-38.7230454321
  0
LINE
  5
2A1
100
AcDbEntity
  8
ASSI
100
AcDbLine
 62
7
  6
CONTINUOUS
 10
26.1272338001
 20
23.7005928634
 11
26.1272338001
 21
17.1092922093
  0
LINE
  5
2A2
100
AcDbEntity
  8
ASSI
100
AcDbLine
 62
7
  6
CONTINUOUS
 10
26.7922354845
 20
23.5003527922
 11
26.7922354845
 21
16.9090521381
  0
LINE
  5
2A3
100
AcDbEntity
  8
ASSI
100
AcDbLine
 62
250
  6
CONTINUOUS
 10
26.1272338001
 20
17.1092922093
 11
26.7922354845
 21
16.9090521381
  0
LINE
  5
2A4
100
AcDbEntity
  8
ASSI
100
AcDbLine
 62
7
  6
CONTINUOUS
 10
27.2413432548
 20
15.7824661834
 11
26.5746211177
 21
16.0149510236
  0
LINE
  5
2A5
100
AcDbEntity
  8
ASSI
100
AcDbLine
 62
250
  6
CONTINUOUS
 10
-46.8397598168
 20
55.4212979167
 11
-47.3700899027
 21
55.7275038617
  0
LINE
  5
2A6
100
AcDbEntity
  8
ASSI
100
AcDbLine
 62
250
  6
CONTINUOUS
 10
29.8813259419
 20
11.1235045406
 11
30.4116560278
 21
10.8172985956
  0
LINE
  5
2A7
100
AcDbEntity
  8
ASSI
100
AcDbLine
 62
250
  6
CONTINUOUS
 10
-47.9004199886
 20
59.1099100946
 11
-48.4307500745
 21
59.4161160396
  0
LINE
  5
2A8
100
AcDbEntity
  8
ASSI
100
AcDbLine
 62
250
  6
CONTINUOUS
 10
28.8206657701
 20
14.8121167185
 11
29.350995856
 21
14.5059107735
  0
LINE
  5
2A9
100
AcDbEntity
  8
ASSI
100
AcDbLine
 62
250
  6
CONTINUOUS
 10
29.350995856
 20
25.5137043955
 11
29.350995856
 21
14.5059107735
  0
LINE
  5
2AA
100
AcDbEntity
  8
0
100
AcDbLine
 62
7
  6
CONTINUOUS
 10
29.8813259419
 20
-79.9129313218
 11
29.8813259419
 21
11.1235045406
  0
LINE
  5
2AB
100
AcDbEntity
  8
0
100
AcDbLine
 62
7
  6
CONTINUOUS
 10
30.4116560278
 20
-80.2191372668
 11
30.4116560278
 21
10.8172985956
  0
LINE
  5
2AC
100
AcDbEntity
  8
IMPORT_IGES
100
AcDbLine
 62
7
  6
CONTINUOUS
 10
-0.8113167076
 20
-57.5006164005
 11
-1.2970396693
 21
-58.1957145379
  0
LINE
  5
2AD
100
AcDbEntity
  8
CURVE
100
AcDbLine
 62
250
  6
CONTINUOUS
 10
-0.8113167076
 20
-57.5006164005
 11
-1.2970396693
 21
-58.1957145379
  0
LINE
  5
2AE
100
AcDbEntity
  8
IMPORT_IGES
100
AcDbLine
 62
7
  6
CONTINUOUS
 10
-1.2970396693
 20
-59.2599488437
 11
-0.5353255063
 21
-58.1699155514
  0
LINE
  5
2AF
100
AcDbEntity
  8
CURVE
100
AcDbLine
 62
250
  6
CONTINUOUS
 10
-1.2970396693
 20
-59.2599488437
 11
-0.5353255063
 21
-58.1699155514
  0
LINE
  5
2B0
100
AcDbEntity
  8
0
100
AcDbLine
 62
250
  6
CONTINUOUS
 10
26.1272338001
 20
23.7005928634
 11
26.7922354845
 21
23.5003527922
  0
LINE
  5
2B1
100
AcDbEntity
  8
ASSI
100
AcDbLine
 62
7
  6
CONTINUOUS
 10
-4.590129641
 20
37.0098635838
 11
-6.8882266798
 21
38.3367560121
  0
LINE
  5
2B2
100
AcDbEntity
  8
ASSI
100
AcDbLine
 62
7
  6
CONTINUOUS
 10
-4.590129641
 20
37.6222754738
 11
-6.3578965939
 21
38.6429619571
  0
LINE
  5
2B3
100
AcDbEntity
  8
ASSI
100
AcDbLine
 62
7
  6
CONTINUOUS
 10
-6.8882266798
 20
40.1738141349
 11
-4.590129641
 21
38.8469217066
  0
LINE
  5
2B4
100
AcDbEntity
  8
0
100
AcDbLine
 62
250
  6
CONTINUOUS
 10
-9.8050851403
 20
-48.781935546
 11
-10.2381450557
 21
-49.0319789136
  0
LINE
  5
2B5
100
AcDbEntity
  8
0
100
AcDbLine
 62
250
  6
CONTINUOUS
 10
-4.590146726
 20
-49.0271615304
 11
-4.9436830315
 21
-49.2312889624
  0
LINE
  5
2B6
100
AcDbEntity
  8
0
100
AcDbLine
 62
7
  6
CONTINUOUS
 10
-48.9610801604
 20
70.0691641915
 11
23.5173649112
 21
28.2210183754
  0
LINE
  5
2B7
100
AcDbEntity
  8
0
100
AcDbLine
 62
7
  6
CONTINUOUS
 10
-48.8019811346
 20
70.7451732279
 11
23.676463937
 21
28.8970274118
  0
LINE
  5
2B8
100
AcDbEntity
  8
0
100
AcDbLine
 62
250
  6
CONTINUOUS
 10
-45.7790996451
 20
71.9546434745
 11
26.6993454266
 21
30.1064976585
  0
LINE
  5
2B9
100
AcDbEntity
  8
IMPORT_IGES
100
AcDbLine
 62
7
  6
CONTINUOUS
 10
2.6664996073
 20
-60.5249636976
 11
3.30840584
 21
-59.8772620057
  0
LINE
  5
2BA
100
AcDbEntity
  8
CURVE
100
AcDbLine
 62
250
  6
CONTINUOUS
 10
2.6664996073
 20
-60.5249636976
 11
3.30840584
 21
-59.8772620057
  0
LINE
  5
2BB
100
AcDbEntity
  8
IMPORT_IGES
100
AcDbLine
 62
7
  6
CONTINUOUS
 10
2.0742198963
 20
-60.1829888155
 11
1.4321778992
 21
-60.8306121187
  0
LINE
  5
2BC
100
AcDbEntity
  8
CURVE
100
AcDbLine
 62
250
  6
CONTINUOUS
 10
2.0742198963
 20
-60.1829888155
 11
1.4321778992
 21
-60.8306121187
  0
LINE
  5
2BD
100
AcDbEntity
  8
IMPORT_IGES
100
AcDbLine
 62
7
  6
CONTINUOUS
 10
2.0244576101
 20
-61.1725870008
 11
2.3703597518
 21
-60.8236385362
  0
LINE
  5
2BE
100
AcDbEntity
  8
CURVE
100
AcDbLine
 62
250
  6
CONTINUOUS
 10
2.0244576101
 20
-61.1725870008
 11
2.3703597518
 21
-60.8236385362
  0
LINE
  5
2BF
100
AcDbEntity
  8
IMPORT_IGES
100
AcDbLine
 62
7
  6
CONTINUOUS
 10
2.7162615399
 20
-59.5353653081
 11
2.3703597518
 21
-59.8841584393
  0
LINE
  5
2C0
100
AcDbEntity
  8
CURVE
100
AcDbLine
 62
250
  6
CONTINUOUS
 10
2.7162615399
 20
-59.5353653081
 11
2.3703597518
 21
-59.8841584393
  0
LINE
  5
2C1
100
AcDbEntity
  8
ASSI
100
AcDbLine
 62
250
  6
CONTINUOUS
 10
29.7929375942
 20
-30.2997641729
 11
29.2626075084
 21
-30.6059701179
  0
LINE
  5
2C2
100
AcDbEntity
  8
ASSI
100
AcDbLine
 62
250
  6
CONTINUOUS
 10
-2.6809413317
 20
-53.5586485027
 11
-3.2112714176
 21
-53.8648544477
  0
LINE
  5
2C3
100
AcDbEntity
  8
ASSI
100
AcDbLine
 62
250
  6
CONTINUOUS
 10
-2.5660364798
 20
-53.6249931242
 11
-2.5406816747
 21
-53.6103535775
  0
LINE
  5
2C4
100
AcDbEntity
  8
0
100
AcDbLine
 62
250
  6
CONTINUOUS
 10
3.0112682568
 20
-52.8037311089
 11
2.4809381709
 21
-53.1099370539
  0
LWPOLYLINE
  5
2C5
100
AcDbEntity
  8
SUPERFICI
100
AcDbPolyline
 62
7
  6
CONTINUOUS
 90
43
 70
0
 10
51.1677534472
 20
38.7829790859
 10
51.1663316469
 20
38.8743412908
 10
51.1620669107
 20
38.9673666961
 10
51.154957262
 20
39.0619401308
 10
51.1449889932
 20
39.1580184564
 10
51.1321592903
 20
39.2554060002
 10
51.1164940416
 20
39.3537734485
 10
51.0979929949
 20
39.4530207997
 10
51.076660815
 20
39.5530029063
 10
51.0525571998
 20
39.6533566583
 10
51.0256947079
 20
39.7539704667
 10
50.9960894587
 20
39.8547180624
 10
50.9638682622
 20
39.9552329123
 10
50.9291469924
 20
40.0553074565
 10
50.8919948464
 20
40.1548684536
 10
50.8525079932
 20
40.2537555457
 10
50.8108059658
 20
40.3517567448
 10
50.766941368
 20
40.4488184568
 10
50.7208948907
 20
40.5450139776
 10
50.6727301849
 20
40.6402123591
 10
50.6225087638
 20
40.7342847621
 10
50.5701786344
 20
40.8272973801
 10
50.5157921094
 20
40.9191230406
 10
50.459433965
 20
41.0096515708
 10
50.4010727895
 20
41.0989613611
 10
50.340788514
 20
41.186936098
 10
50.27866365
 20
41.2734538385
 10
50.2146441991
 20
41.3585682878
 10
50.1487494703
 20
41.4422081545
 10
50.0811034927
 20
41.5241636055
 10
50.0117970456
 20
41.6042711552
 10
49.9408592871
 20
41.682433873
 10
49.8684111245
 20
41.7584485795
 10
49.7947067071
 20
41.8320219396
 10
49.7198486356
 20
41.9030755547
 10
49.6439259703
 20
41.9715439923
 10
49.567223396
 20
42.0371938468
 10
49.4898656236
 20
42.099947371
 10
49.4119381842
 20
42.1597557792
 10
49.3337134158
 20
42.2164318722
 10
49.2553631523
 20
42.2698795624
 10
49.1769313252
 20
42.3200894042
 10
49.0985186493
 20
42.3670055718
  0
LINE
  5
2C6
100
AcDbEntity
  8
SUPERFICI
100
AcDbLine
 62
7
  6
CONTINUOUS
 10
49.1499857292
 20
40.2239518346
 11
49.1499857292
 21
42.2527457198
  0
LINE
  5
2C7
100
AcDbEntity
  8
0
100
AcDbLine
 62
250
  6
CONTINUOUS
 10
51.6248594634
 20
38.3743540853
 11
51.6248594634
 21
-76.1356022349
  0
LINE
  5
2C8
100
AcDbEntity
  8
0
100
AcDbLine
 62
7
  6
CONTINUOUS
 10
51.9177526822
 20
38.7826286787
 11
51.9177526822
 21
-75.7273276415
  0
LINE
  5
2C9
100
AcDbEntity
  8
0
100
AcDbLine
 62
250
  6
CONTINUOUS
 10
3.3648216474
 20
-53.416103544
 11
2.8344915615
 21
-53.722309489
  0
LINE
  5
2CA
100
AcDbEntity
  8
0
100
AcDbLine
 62
250
  6
CONTINUOUS
 10
7.6958076941
 20
-58.8867317308
 11
7.2627477787
 21
-59.1367750985
  0
LINE
  5
2CB
100
AcDbEntity
  8
SUPERFICI
100
AcDbLine
 62
7
  6
CONTINUOUS
 10
-23.5159593424
 20
81.9638584248
 11
-25.2730029907
 21
82.9783534064
  0
LINE
  5
2CC
100
AcDbEntity
  8
SUPERFICI
100
AcDbLine
 62
7
  6
CONTINUOUS
 10
49.3374857292
 20
39.8991923086
 11
51.0945293775
 21
38.884697327
  0
LWPOLYLINE
  5
2CD
100
AcDbEntity
  8
SUPERFICI
100
AcDbPolyline
 62
7
  6
CONTINUOUS
 90
25
 70
0
 10
-23.3799034809
 20
84.2151381368
 10
-23.4524084616
 20
84.2555961523
 10
-23.5254143968
 20
84.2934998107
 10
-23.5988451038
 20
84.3287569057
 10
-23.6727116235
 20
84.3613104062
 10
-23.7467674886
 20
84.3909895945
 10
-23.8206927837
 20
84.4176246156
 10
-23.8944814301
 20
84.4411784408
 10
-23.967994816
 20
84.4615684347
 10
-24.0409183928
 20
84.4786856247
 10
-24.1132312192
 20
84.4925139734
 10
-24.1848455848
 20
84.5030226938
 10
-24.2553980613
 20
84.5101669193
 10
-24.3246689084
 20
84.5139885887
 10
-24.3927384259
 20
84.5145758379
 10
-24.4596414707
 20
84.5119934086
 10
-24.5252982352
 20
84.5062998711
 10
-24.589611278
 20
84.4975595191
 10
-24.652755728
 20
84.4857853598
 10
-24.7147809234
 20
84.4709728877
 10
-24.7754746209
 20
84.4531733557
 10
-24.8349005016
 20
84.432362152
 10
-24.8930723666
 20
84.4085011411
 10
-24.9497867046
 20
84.3816344411
 10
-25.0050274118
 20
84.3517262358
  0
LWPOLYLINE
  5
2CE
100
AcDbEntity
  8
0
100
AcDbPolyline
 62
7
  6
CONTINUOUS
 90
30
 70
0
 10
-23.0047610538
 20
84.8645756934
 10
-23.069114843
 20
84.9008610612
 10
-23.1610551445
 20
84.9496904202
 10
-23.2529231281
 20
84.9949697342
 10
-23.3445618498
 20
85.0366611216
 10
-23.4359195695
 20
85.0747852279
 10
-23.5270662869
 20
85.1094072333
 10
-23.61785437
 20
85.1405042246
 10
-23.7081899776
 20
85.1680818396
 10
-23.7982529762
 20
85.192217339
 10
-23.8880095817
 20
85.2129072617
 10
-23.977269717
 20
85.2301192087
 10
-24.0660026219
 20
85.2438597932
 10
-24.1541243538
 20
85.2541241608
 10
-24.2415129266
 20
85.2609220632
 10
-24.3280963897
 20
85.2642997116
 10
-24.4139570446
 20
85.264308191
 10
-24.4988915549
 20
85.2609976427
 10
-24.5823981465
 20
85.2544705374
 10
-24.6643341526
 20
85.2448234273
 10
-24.7447434739
 20
85.2321250857
 10
-24.8234009922
 20
85.2164895963
 10
-24.9001999149
 20
85.1980332346
 10
-24.9751799954
 20
85.1768424489
 10
-25.0483412496
 20
85.1530079612
 10
-25.1196722614
 20
85.1266232189
 10
-25.1891597519
 20
85.0977837328
 10
-25.2568103327
 20
85.0665778916
 10
-25.322628838
 20
85.0330945874
 10
-25.3804151459
 20
85.0010214722
  0
LINE
  5
2CF
100
AcDbEntity
  8
0
100
AcDbLine
 62
250
  6
CONTINUOUS
 10
-23.5052360377
 20
84.8152931644
 11
48.9732090339
 21
42.9671473483
  0
LINE
  5
2D0
100
AcDbEntity
  8
0
100
AcDbLine
 62
7
  6
CONTINUOUS
 10
-23.0052118776
 20
84.864834342
 11
49.4732331941
 21
43.016688526
  0
LWPOLYLINE
  5
2D1
100
AcDbEntity
  8
0
100
AcDbPolyline
 62
7
  6
CONTINUOUS
 90
43
 70
0
 10
49.4736527364
 20
43.0164479415
 10
49.5663461291
 20
42.9611072873
 10
49.6623200708
 20
42.8999339333
 10
49.7577931684
 20
42.8351020499
 10
49.8529198573
 20
42.7664795321
 10
49.947512209
 20
42.6941641943
 10
50.041060322
 20
42.6185394978
 10
50.1334843478
 20
42.5396798666
 10
50.224718382
 20
42.4576311119
 10
50.314285978
 20
42.3728198004
 10
50.4021251587
 20
42.2853133556
 10
50.4881692594
 20
42.1951736038
 10
50.5719950946
 20
42.102908061
 10
50.6534804976
 20
42.008782614
 10
50.7326859009
 20
41.9128458303
 10
50.8094969653
 20
41.8153405076
 10
50.8837826885
 20
41.7165411975
 10
50.955612452
 20
41.6164578753
 10
51.0251540932
 20
41.5149234452
 10
51.0923431919
 20
41.4120643171
 10
51.1571184747
 20
41.3079931287
 10
51.2196154265
 20
41.2024724993
 10
51.2797583467
 20
41.0955920498
 10
51.3375071959
 20
40.9874623131
 10
51.3929996225
 20
40.8778476222
 10
51.4461687436
 20
40.7668572765
 10
51.4969372613
 20
40.6546103096
 10
51.5453657395
 20
40.540878393
 10
51.5914107887
 20
40.4256066296
 10
51.634900217
 20
40.3090456091
 10
51.6756808978
 20
40.1914158989
 10
51.7136805821
 20
40.0726895342
 10
51.7487301447
 20
39.9531051472
 10
51.7806015156
 20
39.8332829086
 10
51.8092744943
 20
39.7133114266
 10
51.8347217269
 20
39.5932780457
 10
51.8568120518
 20
39.4738085016
 10
51.8755387804
 20
39.3549827842
 10
51.8908774033
 20
39.2369074006
 10
51.9027507805
 20
39.1202155159
 10
51.9111681634
 20
39.0051187051
 10
51.9161667529
 20
38.8914172249
 10
51.9177540744
 20
38.7831128414
  0
LINE
  5
2D2
100
AcDbEntity
  8
SUPERFICI
100
AcDbLine
 62
7
  6
CONTINUOUS
 10
49.1499857292
 20
40.2239518346
 11
49.3374857292
 21
39.8991923086
  0
LINE
  5
2D3
100
AcDbEntity
  8
0
100
AcDbLine
 62
250
  6
CONTINUOUS
 10
25.550253919
 20
-69.1956652123
 11
25.1171940036
 21
-69.44570858
  0
LINE
  5
2D4
100
AcDbEntity
  8
0
100
AcDbLine
 62
7
  6
CONTINUOUS
 10
51.6248594634
 20
-76.1356022349
 11
37.4827238396
 21
-84.3010941014
  0
ARC
  5
2D5
100
AcDbEntity
  8
0
100
AcDbCircle
 62
7
  6
CONTINUOUS
 10
34.1719605654
 20
-81.8747412968
 40
3.3750622644
100
AcDbArc
 50
229.66647678
 51
239.9618180093
  0
ARC
  5
2D6
100
AcDbEntity
  8
0
100
AcDbCircle
 62
7
  6
CONTINUOUS
 10
-43.0794552792
 20
-37.2707419757
 40
3.3750622644
100
AcDbArc
 50
229.66647678
 51
239.9618180093
  0
ARC
  5
2D7
100
AcDbEntity
  8
ASSI
100
AcDbCircle
 62
7
  6
CONTINUOUS
 10
26.4213062554
 20
13.1891004473
 40
2.8698600616
100
AcDbArc
 50
55.145746378
 51
59.8345096696
  0
ARC
  5
2D8
100
AcDbEntity
  8
ASSI
100
AcDbCircle
 62
7
  6
CONTINUOUS
 10
-33.9215152405
 20
-35.325873951
 40
0.7344112828
100
AcDbArc
 50
238.7287706317
 51
243.0461752787
  0
ARC
  5
2D9
100
AcDbEntity
  8
ASSI
100
AcDbCircle
 62
7
  6
CONTINUOUS
 10
-1.7481566965
 20
-53.9023679474
 40
0.7344112828
100
AcDbArc
 50
238.7287706317
 51
243.0461752787
  0
ARC
  5
2DA
100
AcDbEntity
  8
ASSI
100
AcDbCircle
 62
7
  6
CONTINUOUS
 10
-21.3703698745
 20
-21.3430214986
 40
0.7344112828
100
AcDbArc
 50
238.7287706317
 51
243.0461752787
  0
ARC
  5
2DB
100
AcDbEntity
  8
ASSI
100
AcDbCircle
 62
7
  6
CONTINUOUS
 10
-1.961163955
 20
-53.5583672884
 40
0.7197774316
100
AcDbArc
 50
176.9312393563
 51
180.0223852451
  0
ARC
  5
2DC
100
AcDbEntity
  8
ASSI
100
AcDbCircle
 62
7
  6
CONTINUOUS
 10
-34.134522499
 20
-34.981873292
 40
0.7197774316
100
AcDbArc
 50
176.9312393563
 51
180.0223852451
  0
ARC
  5
2DD
100
AcDbEntity
  8
ASSI
100
AcDbCircle
 62
7
  6
CONTINUOUS
 10
-21.583377133
 20
-20.9990208396
 40
0.7197774316
100
AcDbArc
 50
176.9312393563
 51
180.0223852451
  0
ARC
  5
2DE
100
AcDbEntity
  8
ASSI
100
AcDbCircle
 62
7
  6
CONTINUOUS
 10
-1.9946070785
 20
-53.6247323569
 40
0.5714294608
100
AcDbArc
 50
176.6800462856
 51
180.0261464686
  0
ARC
  5
2DF
100
AcDbEntity
  8
ASSI
100
AcDbCircle
 62
7
  6
CONTINUOUS
 10
-34.1679656224
 20
-35.0482383605
 40
0.5714294608
100
AcDbArc
 50
176.6800462856
 51
180.0261464685
  0
SPLINE
  5
2E0
100
AcDbEntity
  8
0
100
AcDbSpline
 62
7
  6
CONTINUOUS
 70
0
 71
3
 72
9
 73
5
 74
0
 42
0.0000001
 43
0.0000001
 44
0.0000000001
 40
0.0
 40
0.0
 40
0.0
 40
0.0
 40
0.4672846859
 40
1.0
 40
1.0
 40
1.0
 40
1.0
 10
2.5844794317
 20
40.1965429023
 30
0.0
 10
2.6090026912
 20
40.210702342
 30
0.0
 10
2.6702578623
 20
40.2268392544
 30
0.0
 10
2.7313169052
 20
40.2152406655
 30
0.0
 10
2.7619254355
 20
40.2049799026
 30
0.0
  0
SPLINE
  5
2E1
100
AcDbEntity
  8
0
100
AcDbSpline
 62
7
  6
CONTINUOUS
 70
0
 71
3
 72
9
 73
5
 74
0
 42
0.0000001
 43
0.0000001
 44
0.0000000001
 40
0.0
 40
0.0
 40
0.0
 40
0.0
 40
0.4672846859
 40
1.0
 40
1.0
 40
1.0
 40
1.0
 10
-32.7708596277
 20
60.6102725687
 30
0.0
 10
-32.7463363682
 20
60.6244320084
 30
0.0
 10
-32.685081197
 20
60.6405689207
 30
0.0
 10
-32.6240221541
 20
60.6289703319
 30
0.0
 10
-32.5934136238
 20
60.618709569
 30
0.0
  0
SPLINE
  5
2E2
100
AcDbEntity
  8
0
100
AcDbSpline
 62
7
  6
CONTINUOUS
 70
0
 71
3
 72
11
 73
7
 74
0
 42
0.0000001
 43
0.0000001
 44
0.0000000001
 40
0.0
 40
0.0
 40
0.0
 40
0.0
 40
0.2177724998
 40
0.4509548069
 40
0.7101910283
 40
1.0
 40
1.0
 40
1.0
 40
1.0
 10
8.0021155412
 20
-59.9172752675
 30
0.0
 10
8.0223164455
 20
-59.9056114579
 30
0.0
 10
8.0601254311
 20
-59.8738392109
 30
0.0
 10
8.1003390108
 20
-59.8080416062
 30
0.0
 10
8.1242667814
 20
-59.7269676262
 30
0.0
 10
8.1289535856
 20
-59.6679539638
 30
0.0
 10
8.1289535856
 20
-59.6369114753
 30
0.0
  0
SPLINE
  5
2E3
100
AcDbEntity
  8
0
100
AcDbSpline
 62
7
  6
CONTINUOUS
 70
0
 71
3
 72
11
 73
7
 74
0
 42
0.0000001
 43
0.0000001
 44
0.0000000001
 40
0.0
 40
0.0
 40
0.0
 40
0.0
 40
0.2177724998
 40
0.4509548069
 40
0.7101910283
 40
1.0
 40
1.0
 40
1.0
 40
1.0
 10
25.8565617662
 20
-70.226208749
 30
0.0
 10
25.8767626705
 20
-70.2145449394
 30
0.0
 10
25.9145716561
 20
-70.1827726925
 30
0.0
 10
25.9547852358
 20
-70.1169750877
 30
0.0
 10
25.9787130063
 20
-70.0359011077
 30
0.0
 10
25.9833998106
 20
-69.9768874453
 30
0.0
 10
25.9833998106
 20
-69.9458449568
 30
0.0
  0
SPLINE
  5
2E4
100
AcDbEntity
  8
0
100
AcDbSpline
 62
7
  6
CONTINUOUS
 70
0
 71
3
 72
11
 73
7
 74
0
 42
0.0000001
 43
0.0000001
 44
0.0000000001
 40
0.0
 40
0.0
 40
0.0
 40
0.0
 40
0.2177724998
 40
0.4509548069
 40
0.7101910283
 40
1.0
 40
1.0
 40
1.0
 40
1.0
 10
-9.4987772932
 20
-49.8124790826
 30
0.0
 10
-9.4785763889
 20
-49.800815273
 30
0.0
 10
-9.4407674033
 20
-49.7690430261
 30
0.0
 10
-9.4005538236
 20
-49.7032454213
 30
0.0
 10
-9.376626053
 20
-49.6221714413
 30
0.0
 10
-9.3719392487
 20
-49.5631577789
 30
0.0
 10
-9.3719392487
 20
-49.5321152904
 30
0.0
  0
SPLINE
  5
2E5
100
AcDbEntity
  8
0
100
AcDbSpline
 62
7
  6
CONTINUOUS
 70
0
 71
3
 72
11
 73
7
 74
0
 42
0.0000001
 43
0.0000001
 44
0.0000000001
 40
0.0
 40
0.0
 40
0.0
 40
0.0
 40
0.2177724998
 40
0.4509548069
 40
0.7101910283
 40
1.0
 40
1.0
 40
1.0
 40
1.0
 10
-27.3532235181
 20
-39.5035456011
 30
0.0
 10
-27.3330226138
 20
-39.4918817915
 30
0.0
 10
-27.2952136282
 20
-39.4601095445
 30
0.0
 10
-27.2550000485
 20
-39.3943119398
 30
0.0
 10
-27.2310722779
 20
-39.3132379598
 30
0.0
 10
-27.2263854737
 20
-39.2542242974
 30
0.0
 10
-27.2263854737
 20
-39.2231818089
 30
0.0
  0
SPLINE
  5
2E6
100
AcDbEntity
  8
ASSI
100
AcDbSpline
 62
7
  6
CONTINUOUS
 70
0
 71
3
 72
11
 73
7
 74
0
 42
0.0000001
 43
0.0000001
 44
0.0000000001
 40
0.0
 40
0.0
 40
0.0
 40
0.0
 40
0.2177724906
 40
0.4509525223
 40
0.7101901104
 40
1.0
 40
1.0
 40
1.0
 40
1.0
 10
-2.245587904
 20
-54.884294886
 30
0.0
 10
-2.2191994267
 20
-54.8690632891
 30
0.0
 10
-2.1698102037
 20
-54.8275658715
 30
0.0
 10
-2.117279003
 20
-54.7416238304
 30
0.0
 10
-2.0860232151
 20
-54.6357253218
 30
0.0
 10
-2.0799005677
 20
-54.5586415528
 30
0.0
 10
-2.0799005677
 20
-54.5180937971
 30
0.0
  0
SPLINE
  5
2E7
100
AcDbEntity
  8
ASSI
100
AcDbSpline
 62
7
  6
CONTINUOUS
 70
0
 71
3
 72
11
 73
7
 74
0
 42
0.0000001
 43
0.0000001
 44
0.0000000001
 40
0.0
 40
0.0
 40
0.0
 40
0.0
 40
0.2177724906
 40
0.4509525223
 40
0.7101901104
 40
1.0
 40
1.0
 40
1.0
 40
1.0
 10
-34.418946448
 20
-36.3078008896
 30
0.0
 10
-34.3925579707
 20
-36.2925692927
 30
0.0
 10
-34.3431687476
 20
-36.2510718751
 30
0.0
 10
-34.290637547
 20
-36.1651298339
 30
0.0
 10
-34.2593817591
 20
-36.0592313254
 30
0.0
 10
-34.2532591117
 20
-35.9821475564
 30
0.0
 10
-34.2532591117
 20
-35.9415998007
 30
0.0
  0
SPLINE
  5
2E8
100
AcDbEntity
  8
ASSI
100
AcDbSpline
 62
7
  6
CONTINUOUS
 70
0
 71
3
 72
15
 73
11
 74
0
 42
0.0000001
 43
0.0000001
 44
0.0000000001
 40
0.0
 40
0.0
 40
0.0
 40
0.0
 40
0.1288165481
 40
0.2705614397
 40
0.4178769395
 40
0.5623815329
 40
0.6961996216
 40
0.8135941965
 40
0.9130669694
 40
1.0
 40
1.0
 40
1.0
 40
1.0
 10
-2.0799005677
 20
-54.5180937971
 30
0.0
 10
-2.0799005677
 20
-54.4497196534
 30
0.0
 10
-2.0990322993
 20
-54.305945465
 30
0.0
 10
-2.1704199413
 20
-54.0948401801
 30
0.0
 10
-2.2804618623
 20
-53.8914632892
 30
0.0
 10
-2.4202174313
 20
-53.7125448133
 30
0.0
 10
-2.5785262354
 20
-53.5723563318
 30
0.0
 10
-2.7436204066
 20
-53.482167505
 30
0.0
 10
-2.9052220204
 20
-53.4497905679
 30
0.0
 10
-3.0056206513
 20
-53.475586213
 30
0.0
 10
-3.0455840813
 20
-53.4986533588
 30
0.0
  0
SPLINE
  5
2E9
100
AcDbEntity
  8
ASSI
100
AcDbSpline
 62
7
  6
CONTINUOUS
 70
0
 71
3
 72
15
 73
11
 74
0
 42
0.0000001
 43
0.0000001
 44
0.0000000001
 40
0.0
 40
0.0
 40
0.0
 40
0.0
 40
0.1288165481
 40
0.2705614397
 40
0.4178769395
 40
0.5623815329
 40
0.6961996216
 40
0.8135941965
 40
0.9130669694
 40
1.0
 40
1.0
 40
1.0
 40
1.0
 10
-34.2532591117
 20
-35.9415998007
 30
0.0
 10
-34.2532591117
 20
-35.873225657
 30
0.0
 10
-34.2723908433
 20
-35.7294514685
 30
0.0
 10
-34.3437784853
 20
-35.5183461837
 30
0.0
 10
-34.4538204063
 20
-35.3149692928
 30
0.0
 10
-34.5935759753
 20
-35.1360508169
 30
0.0
 10
-34.7518847794
 20
-34.9958623354
 30
0.0
 10
-34.9169789506
 20
-34.9056735086
 30
0.0
 10
-35.0785805643
 20
-34.8732965714
 30
0.0
 10
-35.1789791952
 20
-34.8990922166
 30
0.0
 10
-35.2189426253
 20
-34.9221593624
 30
0.0
  0
SPLINE
  5
2EA
100
AcDbEntity
  8
0
100
AcDbSpline
 62
7
  6
CONTINUOUS
 70
0
 71
3
 72
15
 73
11
 74
0
 42
0.0000001
 43
0.0000001
 44
0.0000000001
 40
0.0
 40
0.0
 40
0.0
 40
0.0
 40
0.1288182852
 40
0.2705640777
 40
0.4178805106
 40
0.5623853931
 40
0.6962029203
 40
0.8135961782
 40
0.9130674202
 40
1.0
 40
1.0
 40
1.0
 40
1.0
 10
8.1289535856
 20
-59.6369114753
 30
0.0
 10
8.1289535856
 20
-59.5845610407
 30
0.0
 10
8.1143052454
 20
-59.4744811913
 30
0.0
 10
8.0596462692
 20
-59.3128504142
 30
0.0
 10
7.9753921938
 20
-59.1571377631
 30
0.0
 10
7.8683881847
 20
-59.0201524444
 30
0.0
 10
7.7471796802
 20
-58.9128218276
 30
0.0
 10
7.6207765208
 20
-58.8437738506
 30
0.0
 10
7.497048754
 20
-58.8189920451
 30
0.0
 10
7.4201806794
 20
-58.8387461278
 30
0.0
 10
7.3895858231
 20
-58.8564113062
 30
0.0
  0
SPLINE
  5
2EB
100
AcDbEntity
  8
0
100
AcDbSpline
 62
7
  6
CONTINUOUS
 70
0
 71
3
 72
15
 73
11
 74
0
 42
0.0000001
 43
0.0000001
 44
0.0000000001
 40
0.0
 40
0.0
 40
0.0
 40
0.0
 40
0.1288182852
 40
0.2705640777
 40
0.4178805106
 40
0.5623853931
 40
0.6962029203
 40
0.8135961782
 40
0.9130674202
 40
1.0
 40
1.0
 40
1.0
 40
1.0
 10
25.9833998106
 20
-69.9458449568
 30
0.0
 10
25.9833998106
 20
-69.8934945222
 30
0.0
 10
25.9687514704
 20
-69.7834146729
 30
0.0
 10
25.9140924941
 20
-69.6217838957
 30
0.0
 10
25.8298384187
 20
-69.4660712446
 30
0.0
 10
25.7228344096
 20
-69.329085926
 30
0.0
 10
25.6016259051
 20
-69.2217553091
 30
0.0
 10
25.4752227458
 20
-69.1527073321
 30
0.0
 10
25.351494979
 20
-69.1279255266
 30
0.0
 10
25.2746269043
 20
-69.1476796093
 30
0.0
 10
25.2440320481
 20
-69.1653447878
 30
0.0
  0
SPLINE
  5
2EC
100
AcDbEntity
  8
0
100
AcDbSpline
 62
7
  6
CONTINUOUS
 70
0
 71
3
 72
15
 73
11
 74
0
 42
0.0000001
 43
0.0000001
 44
0.0000000001
 40
0.0
 40
0.0
 40
0.0
 40
0.0
 40
0.1288182852
 40
0.2705640777
 40
0.4178805106
 40
0.5623853931
 40
0.6962029203
 40
0.8135961782
 40
0.9130674202
 40
1.0
 40
1.0
 40
1.0
 40
1.0
 10
-9.3719392487
 20
-49.5321152904
 30
0.0
 10
-9.3719392487
 20
-49.4797648558
 30
0.0
 10
-9.386587589
 20
-49.3696850065
 30
0.0
 10
-9.4412465652
 20
-49.2080542293
 30
0.0
 10
-9.5255006406
 20
-49.0523415782
 30
0.0
 10
-9.6325046497
 20
-48.9153562596
 30
0.0
 10
-9.7537131542
 20
-48.8080256427
 30
0.0
 10
-9.8801163136
 20
-48.7389776657
 30
0.0
 10
-10.0038440804
 20
-48.7141958603
 30
0.0
 10
-10.080712155
 20
-48.7339499429
 30
0.0
 10
-10.1113070112
 20
-48.7516151214
 30
0.0
  0
SPLINE
  5
2ED
100
AcDbEntity
  8
0
100
AcDbSpline
 62
7
  6
CONTINUOUS
 70
0
 71
3
 72
15
 73
11
 74
0
 42
0.0000001
 43
0.0000001
 44
0.0000000001
 40
0.0
 40
0.0
 40
0.0
 40
0.0
 40
0.1288182852
 40
0.2705640777
 40
0.4178805106
 40
0.5623853931
 40
0.6962029203
 40
0.8135961782
 40
0.9130674202
 40
1.0
 40
1.0
 40
1.0
 40
1.0
 10
-27.2263854737
 20
-39.2231818089
 30
0.0
 10
-27.2263854737
 20
-39.1708313743
 30
0.0
 10
-27.2410338139
 20
-39.0607515249
 30
0.0
 10
-27.2956927901
 20
-38.8991207478
 30
0.0
 10
-27.3799468656
 20
-38.7434080967
 30
0.0
 10
-27.4869508746
 20
-38.606422778
 30
0.0
 10
-27.6081593792
 20
-38.4990921612
 30
0.0
 10
-27.7345625385
 20
-38.4300441842
 30
0.0
 10
-27.8582903053
 20
-38.4052623787
 30
0.0
 10
-27.93515838
 20
-38.4250164614
 30
0.0
 10
-27.9657532362
 20
-38.4426816399
 30
0.0
  0
SPLINE
  5
2EE
100
AcDbEntity
  8
0
100
AcDbSpline
 62
7
  6
CONTINUOUS
 70
0
 71
3
 72
10
 73
6
 74
0
 42
0.0000001
 43
0.0000001
 44
0.0000000001
 40
0.0
 40
0.0
 40
0.0
 40
0.0
 40
0.5476706609
 40
0.781563722
 40
1.0
 40
1.0
 40
1.0
 40
1.0
 10
-4.590129641
 20
-49.0271911206
 30
0.0
 10
-4.590129641
 20
-49.0749337517
 30
0.0
 10
-4.6002892393
 20
-49.1452523438
 30
0.0
 10
-4.646306441
 20
-49.2205927847
 30
0.0
 10
-4.6771803515
 20
-49.246538074
 30
0.0
 10
-4.6936709017
 20
-49.2560595225
 30
0.0
  0
SPLINE
  5
2EF
100
AcDbEntity
  8
0
100
AcDbSpline
 62
7
  6
CONTINUOUS
 70
0
 71
3
 72
10
 73
6
 74
0
 42
0.0000001
 43
0.0000001
 44
0.0000000001
 40
0.0
 40
0.0
 40
0.0
 40
0.0
 40
0.5101305026
 40
0.7673557998
 40
1.0
 40
1.0
 40
1.0
 40
1.0
 10
-4.8711169055
 20
44.6122028858
 30
0.0
 10
-4.7864997138
 20
44.5428549227
 30
0.0
 10
-4.6840462061
 20
44.4060347596
 30
0.0
 10
-4.6063951063
 20
44.2055901205
 30
0.0
 10
-4.590129641
 20
44.1003138987
 30
0.0
 10
-4.590129641
 20
44.0504204338
 30
0.0
  0
SPLINE
  5
2F0
100
AcDbEntity
  8
0
100
AcDbSpline
 62
7
  6
CONTINUOUS
 70
0
 71
3
 72
11
 73
7
 74
0
 42
0.0000001
 43
0.0000001
 44
0.0000000001
 40
0.0
 40
0.0
 40
0.0
 40
0.0
 40
0.2177724998
 40
0.4509548069
 40
0.7101910283
 40
1.0
 40
1.0
 40
1.0
 40
1.0
 10
-10.1113070112
 20
-48.7516151214
 30
0.0
 10
-10.1315079155
 20
-48.763278931
 30
0.0
 10
-10.1693169011
 20
-48.7950511779
 30
0.0
 10
-10.2095304808
 20
-48.8608487827
 30
0.0
 10
-10.2334582514
 20
-48.9419227627
 30
0.0
 10
-10.2381450557
 20
-49.0009364251
 30
0.0
 10
-10.2381450557
 20
-49.0319789136
 30
0.0
  0
SPLINE
  5
2F1
100
AcDbEntity
  8
ASSI
100
AcDbSpline
 62
7
  6
CONTINUOUS
 70
0
 71
3
 72
15
 73
11
 74
0
 42
0.0000001
 43
0.0000001
 44
0.0000000001
 40
0.0
 40
0.0
 40
0.0
 40
0.0
 40
0.1288165481
 40
0.2705614397
 40
0.4178769395
 40
0.5623815329
 40
0.6961996216
 40
0.8135941965
 40
0.9130669694
 40
1.0
 40
1.0
 40
1.0
 40
1.0
 10
-3.2112714176
 20
-53.8648544477
 30
0.0
 10
-3.2112714176
 20
-53.9332285914
 30
0.0
 10
-3.1921396861
 20
-54.0770027799
 30
0.0
 10
-3.1207520441
 20
-54.2881080647
 30
0.0
 10
-3.0107101231
 20
-54.4914849556
 30
0.0
 10
-2.8709545541
 20
-54.6704034315
 30
0.0
 10
-2.71264575
 20
-54.810591913
 30
0.0
 10
-2.5475515787
 20
-54.9007807398
 30
0.0
 10
-2.385949965
 20
-54.933157677
 30
0.0
 10
-2.2855513341
 20
-54.9073620318
 30
0.0
 10
-2.245587904
 20
-54.884294886
 30
0.0
  0
SPLINE
  5
2F2
100
AcDbEntity
  8
0
100
AcDbSpline
 62
7
  6
CONTINUOUS
 70
0
 71
3
 72
11
 73
7
 74
0
 42
0.0000001
 43
0.0000001
 44
0.0000000001
 40
0.0
 40
0.0
 40
0.0
 40
0.0
 40
0.2177724998
 40
0.4509548069
 40
0.7101910283
 40
1.0
 40
1.0
 40
1.0
 40
1.0
 10
7.3895858231
 20
-58.8564113062
 30
0.0
 10
7.3693849188
 20
-58.8680751159
 30
0.0
 10
7.3315759332
 20
-58.8998473628
 30
0.0
 10
7.2913623535
 20
-58.9656449675
 30
0.0
 10
7.2674345829
 20
-59.0467189476
 30
0.0
 10
7.2627477787
 20
-59.1057326099
 30
0.0
 10
7.2627477787
 20
-59.1367750985
 30
0.0
  0
SPLINE
  5
2F3
100
AcDbEntity
  8
ASSI
100
AcDbSpline
 62
7
  6
CONTINUOUS
 70
0
 71
3
 72
15
 73
11
 74
0
 42
0.0000001
 43
0.0000001
 44
0.0000000001
 40
0.0
 40
0.0
 40
0.0
 40
0.0
 40
0.1288165481
 40
0.2705614397
 40
0.4178769395
 40
0.5623815329
 40
0.6961996216
 40
0.8135941965
 40
0.9130669694
 40
1.0
 40
1.0
 40
1.0
 40
1.0
 10
-35.3846299616
 20
-35.2883604513
 30
0.0
 10
-35.3846299616
 20
-35.356734595
 30
0.0
 10
-35.3654982301
 20
-35.5005087834
 30
0.0
 10
-35.2941105881
 20
-35.7116140683
 30
0.0
 10
-35.184068667
 20
-35.9149909592
 30
0.0
 10
-35.0443130981
 20
-36.0939094351
 30
0.0
 10
-34.886004294
 20
-36.2340979166
 30
0.0
 10
-34.7209101227
 20
-36.3242867434
 30
0.0
 10
-34.559308509
 20
-36.3566636805
 30
0.0
 10
-34.4589098781
 20
-36.3308680354
 30
0.0
 10
-34.418946448
 20
-36.3078008896
 30
0.0
  0
SPLINE
  5
2F4
100
AcDbEntity
  8
0
100
AcDbSpline
 62
7
  6
CONTINUOUS
 70
0
 71
3
 72
15
 73
11
 74
0
 42
0.0000001
 43
0.0000001
 44
0.0000000001
 40
0.0
 40
0.0
 40
0.0
 40
0.0
 40
0.1288182852
 40
0.2705640777
 40
0.4178805106
 40
0.5623853931
 40
0.6962029203
 40
0.8135961782
 40
0.9130674202
 40
1.0
 40
1.0
 40
1.0
 40
1.0
 10
7.2627477787
 20
-59.1367750985
 30
0.0
 10
7.2627477787
 20
-59.1891255331
 30
0.0
 10
7.2773961189
 20
-59.2992053824
 30
0.0
 10
7.3320550952
 20
-59.4608361596
 30
0.0
 10
7.4163091706
 20
-59.6165488106
 30
0.0
 10
7.5233131797
 20
-59.7535341293
 30
0.0
 10
7.6445216842
 20
-59.8608647462
 30
0.0
 10
7.7709248435
 20
-59.9299127232
 30
0.0
 10
7.8946526103
 20
-59.9546945286
 30
0.0
 10
7.971520685
 20
-59.934940446
 30
0.0
 10
8.0021155412
 20
-59.9172752675
 30
0.0
  0
SPLINE
  5
2F5
100
AcDbEntity
  8
0
100
AcDbSpline
 62
7
  6
CONTINUOUS
 70
0
 71
3
 72
15
 73
11
 74
0
 42
0.0000001
 43
0.0000001
 44
0.0000000001
 40
0.0
 40
0.0
 40
0.0
 40
0.0
 40
0.1288182852
 40
0.2705640777
 40
0.4178805106
 40
0.5623853931
 40
0.6962029203
 40
0.8135961782
 40
0.9130674202
 40
1.0
 40
1.0
 40
1.0
 40
1.0
 10
25.1171940036
 20
-69.44570858
 30
0.0
 10
25.1171940036
 20
-69.4980590146
 30
0.0
 10
25.1318423439
 20
-69.6081388639
 30
0.0
 10
25.1865013201
 20
-69.7697696411
 30
0.0
 10
25.2707553955
 20
-69.9254822922
 30
0.0
 10
25.3777594046
 20
-70.0624676108
 30
0.0
 10
25.4989679091
 20
-70.1697982277
 30
0.0
 10
25.6253710685
 20
-70.2388462047
 30
0.0
 10
25.7490988353
 20
-70.2636280101
 30
0.0
 10
25.8259669099
 20
-70.2438739275
 30
0.0
 10
25.8565617662
 20
-70.226208749
 30
0.0
  0
SPLINE
  5
2F6
100
AcDbEntity
  8
ASSI
100
AcDbSpline
 62
7
  6
CONTINUOUS
 70
0
 71
3
 72
11
 73
7
 74
0
 42
0.0000001
 43
0.0000001
 44
0.0000000001
 40
0.0
 40
0.0
 40
0.0
 40
0.0
 40
0.2177724906
 40
0.4509525223
 40
0.7101901104
 40
1.0
 40
1.0
 40
1.0
 40
1.0
 10
-3.0455840813
 20
-53.4986533588
 30
0.0
 10
-3.0719725587
 20
-53.5138849557
 30
0.0
 10
-3.1213617817
 20
-53.5553823733
 30
0.0
 10
-3.1738929823
 20
-53.6413244145
 30
0.0
 10
-3.2051487703
 20
-53.747222923
 30
0.0
 10
-3.2112714176
 20
-53.824306692
 30
0.0
 10
-3.2112714176
 20
-53.8648544477
 30
0.0
  0
SPLINE
  5
2F7
100
AcDbEntity
  8
0
100
AcDbSpline
 62
7
  6
CONTINUOUS
 70
0
 71
3
 72
11
 73
7
 74
0
 42
0.0000001
 43
0.0000001
 44
0.0000000001
 40
0.0
 40
0.0
 40
0.0
 40
0.0
 40
0.2177724998
 40
0.4509548069
 40
0.7101910283
 40
1.0
 40
1.0
 40
1.0
 40
1.0
 10
25.2440320481
 20
-69.1653447878
 30
0.0
 10
25.2238311438
 20
-69.1770085974
 30
0.0
 10
25.1860221582
 20
-69.2087808443
 30
0.0
 10
25.1458085785
 20
-69.2745784491
 30
0.0
 10
25.1218808079
 20
-69.3556524291
 30
0.0
 10
25.1171940036
 20
-69.4146660915
 30
0.0
 10
25.1171940036
 20
-69.44570858
 30
0.0
  0
SPLINE
  5
2F8
100
AcDbEntity
  8
0
100
AcDbSpline
 62
7
  6
CONTINUOUS
 70
0
 71
3
 72
15
 73
11
 74
0
 42
0.0000001
 43
0.0000001
 44
0.0000000001
 40
0.0
 40
0.0
 40
0.0
 40
0.0
 40
0.1288182852
 40
0.2705640777
 40
0.4178805106
 40
0.5623853931
 40
0.6962029203
 40
0.8135961782
 40
0.9130674202
 40
1.0
 40
1.0
 40
1.0
 40
1.0
 10
-10.2381450557
 20
-49.0319789136
 30
0.0
 10
-10.2381450557
 20
-49.0843293482
 30
0.0
 10
-10.2234967154
 20
-49.1944091975
 30
0.0
 10
-10.1688377392
 20
-49.3560399747
 30
0.0
 10
-10.0845836638
 20
-49.5117526258
 30
0.0
 10
-9.9775796547
 20
-49.6487379444
 30
0.0
 10
-9.8563711502
 20
-49.7560685613
 30
0.0
 10
-9.7299679908
 20
-49.8251165383
 30
0.0
 10
-9.606240224
 20
-49.8498983438
 30
0.0
 10
-9.5293721494
 20
-49.8301442611
 30
0.0
 10
-9.4987772932
 20
-49.8124790826
 30
0.0
  0
SPLINE
  5
2F9
100
AcDbEntity
  8
0
100
AcDbSpline
 62
7
  6
CONTINUOUS
 70
0
 71
3
 72
15
 73
11
 74
0
 42
0.0000001
 43
0.0000001
 44
0.0000000001
 40
0.0
 40
0.0
 40
0.0
 40
0.0
 40
0.1288182852
 40
0.2705640777
 40
0.4178805106
 40
0.5623853931
 40
0.6962029203
 40
0.8135961782
 40
0.9130674202
 40
1.0
 40
1.0
 40
1.0
 40
1.0
 10
-28.0925912806
 20
-38.7230454321
 30
0.0
 10
-28.0925912806
 20
-38.7753958667
 30
0.0
 10
-28.0779429404
 20
-38.885475716
 30
0.0
 10
-28.0232839642
 20
-39.0471064932
 30
0.0
 10
-27.9390298888
 20
-39.2028191442
 30
0.0
 10
-27.8320258797
 20
-39.3398044629
 30
0.0
 10
-27.7108173752
 20
-39.4471350798
 30
0.0
 10
-27.5844142158
 20
-39.5161830568
 30
0.0
 10
-27.460686449
 20
-39.5409648622
 30
0.0
 10
-27.3838183744
 20
-39.5212107796
 30
0.0
 10
-27.3532235181
 20
-39.5035456011
 30
0.0
  0
SPLINE
  5
2FA
100
AcDbEntity
  8
0
100
AcDbSpline
 62
7
  6
CONTINUOUS
 70
0
 71
3
 72
11
 73
7
 74
0
 42
0.0000001
 43
0.0000001
 44
0.0000000001
 40
0.0
 40
0.0
 40
0.0
 40
0.0
 40
0.2177724998
 40
0.4509548069
 40
0.7101910283
 40
1.0
 40
1.0
 40
1.0
 40
1.0
 10
-27.9657532362
 20
-38.4426816399
 30
0.0
 10
-27.9859541405
 20
-38.4543454495
 30
0.0
 10
-28.0237631261
 20
-38.4861176964
 30
0.0
 10
-28.0639767058
 20
-38.5519153012
 30
0.0
 10
-28.0879044764
 20
-38.6329892812
 30
0.0
 10
-28.0925912806
 20
-38.6920029435
 30
0.0
 10
-28.0925912806
 20
-38.7230454321
 30
0.0
  0
SPLINE
  5
2FB
100
AcDbEntity
  8
0
100
AcDbSpline
 62
7
  6
CONTINUOUS
 70
0
 71
3
 72
10
 73
6
 74
0
 42
0.0000001
 43
0.0000001
 44
0.0000000001
 40
0.0
 40
0.0
 40
0.0
 40
0.0
 40
0.2184309831
 40
0.4523218513
 40
1.0
 40
1.0
 40
1.0
 40
1.0
 10
-4.6936709017
 20
-49.2560595225
 30
0.0
 10
-4.7101635201
 20
-49.2655821651
 30
0.0
 10
-4.7480745425
 20
-49.2793502834
 30
0.0
 10
-4.8363432955
 20
-49.2815322657
 30
0.0
 10
-4.9023306131
 20
-49.2551653305
 30
0.0
 10
-4.9436830315
 20
-49.2312889624
 30
0.0
  0
SPLINE
  5
2FC
100
AcDbEntity
  8
ASSI
100
AcDbSpline
 62
7
  6
CONTINUOUS
 70
0
 71
3
 72
11
 73
7
 74
0
 42
0.0000001
 43
0.0000001
 44
0.0000000001
 40
0.0
 40
0.0
 40
0.0
 40
0.0
 40
0.2177724906
 40
0.4509525223
 40
0.7101901104
 40
1.0
 40
1.0
 40
1.0
 40
1.0
 10
-35.2189426253
 20
-34.9221593624
 30
0.0
 10
-35.2453311027
 20
-34.9373909593
 30
0.0
 10
-35.2947203257
 20
-34.9788883769
 30
0.0
 10
-35.3472515263
 20
-35.064830418
 30
0.0
 10
-35.3785073142
 20
-35.1707289266
 30
0.0
 10
-35.3846299616
 20
-35.2478126956
 30
0.0
 10
-35.3846299616
 20
-35.2883604513
 30
0.0
  0
SPLINE
  5
2FD
100
AcDbEntity
  8
0
100
AcDbSpline
 62
7
  6
CONTINUOUS
 70
0
 71
3
 72
10
 73
6
 74
0
 42
0.0000001
 43
0.0000001
 44
0.0000000001
 40
0.0
 40
0.0
 40
0.0
 40
0.0
 40
0.5476706609
 40
0.781563722
 40
1.0
 40
1.0
 40
1.0
 40
1.0
 10
2.4809381709
 20
39.9676745005
 30
0.0
 10
2.4809381709
 20
40.0154171316
 30
0.0
 10
2.4910977692
 20
40.0857357237
 30
0.0
 10
2.537114971
 20
40.1610761645
 30
0.0
 10
2.5679888814
 20
40.1870214538
 30
0.0
 10
2.5844794317
 20
40.1965429023
 30
0.0
  0
SPLINE
  5
2FE
100
AcDbEntity
  8
0
100
AcDbSpline
 62
7
  6
CONTINUOUS
 70
0
 71
3
 72
11
 73
7
 74
0
 42
0.0000001
 43
0.0000001
 44
0.0000000001
 40
0.0
 40
0.0
 40
0.0
 40
0.0
 40
0.2372216659
 40
0.5000061068
 40
0.7627872236
 40
1.0
 40
1.0
 40
1.0
 40
1.0
 10
2.8344915615
 20
-53.722309489
 30
0.0
 10
2.7843017621
 20
-53.6933305278
 30
0.0
 10
2.6893148158
 20
-53.6133859761
 30
0.0
 10
2.5784461688
 20
-53.4618845741
 30
0.0
 10
2.5026770407
 20
-53.2901209242
 30
0.0
 10
2.4809381709
 20
-53.167890004
 30
0.0
 10
2.4809381709
 20
-53.1099370539
 30
0.0
  0
SPLINE
  5
2FF
100
AcDbEntity
  8
0
100
AcDbSpline
 62
7
  6
CONTINUOUS
 70
0
 71
3
 72
11
 73
7
 74
0
 42
0.0000001
 43
0.0000001
 44
0.0000000001
 40
0.0
 40
0.0
 40
0.0
 40
0.0
 40
0.2372216659
 40
0.5000061068
 40
0.7627872236
 40
1.0
 40
1.0
 40
1.0
 40
1.0
 10
-32.5208474978
 20
-33.3085798226
 30
0.0
 10
-32.5710372972
 20
-33.2796008615
 30
0.0
 10
-32.6660242435
 20
-33.1996563097
 30
0.0
 10
-32.7768928905
 20
-33.0481549078
 30
0.0
 10
-32.8526620187
 20
-32.8763912578
 30
0.0
 10
-32.8744008884
 20
-32.7541603376
 30
0.0
 10
-32.8744008884
 20
-32.6962073875
 30
0.0
  0
SPLINE
  5
300
100
AcDbEntity
  8
0
100
AcDbSpline
 62
7
  6
CONTINUOUS
 70
0
 71
3
 72
10
 73
6
 74
0
 42
0.0000001
 43
0.0000001
 44
0.0000000001
 40
0.0
 40
0.0
 40
0.0
 40
0.0
 40
0.5476706609
 40
0.781563722
 40
1.0
 40
1.0
 40
1.0
 40
1.0
 10
-32.8744008884
 20
60.3814041669
 30
0.0
 10
-32.8744008884
 20
60.429146798
 30
0.0
 10
-32.8642412901
 20
60.49946539
 30
0.0
 10
-32.8182240883
 20
60.5748058309
 30
0.0
 10
-32.7873501779
 20
60.6007511202
 30
0.0
 10
-32.7708596277
 20
60.6102725687
 30
0.0
  0
SPLINE
  5
301
100
AcDbEntity
  8
ASSI
100
AcDbSpline
 62
7
  6
CONTINUOUS
 70
0
 71
3
 72
11
 73
7
 74
0
 42
0.0000001
 43
0.0000001
 44
0.0000000001
 40
0.0
 40
0.0
 40
0.0
 40
0.0
 40
0.2177724698
 40
0.4509515227
 40
0.7102006852
 40
1.0
 40
1.0
 40
1.0
 40
1.0
 10
-10.2432013885
 20
-20.3123481835
 30
0.0
 10
-10.103031498
 20
-20.2314158102
 30
0.0
 10
-9.8406847413
 20
-20.0109584285
 30
0.0
 10
-9.5616353771
 20
-19.5544027747
 30
0.0
 10
-9.3956269087
 20
-18.9918401706
 30
0.0
 10
-9.363100414
 20
-18.5823566122
 30
0.0
 10
-9.363100414
 20
-18.3669666189
 30
0.0
  0
SPLINE
  5
302
100
AcDbEntity
  8
0
100
AcDbSpline
 62
7
  6
CONTINUOUS
 70
0
 71
3
 72
11
 73
7
 74
0
 42
0.0000001
 43
0.0000001
 44
0.0000000001
 40
0.0
 40
0.0
 40
0.0
 40
0.0
 40
0.2372132543
 40
0.4999938932
 40
0.7627778561
 40
1.0
 40
1.0
 40
1.0
 40
1.0
 10
-25.8386884156
 20
-30.7968072832
 30
0.0
 10
-25.8386884156
 20
-30.8547603615
 30
0.0
 10
-25.8604263938
 20
-30.9769915617
 30
0.0
 10
-25.9361972696
 20
-31.1487543091
 30
0.0
 10
-26.0470642612
 20
-31.3002567734
 30
0.0
 10
-26.1420518958
 20
-31.380200693
 30
0.0
 10
-26.1922418062
 20
-31.4091797182
 30
0.0
  0
SPLINE
  5
303
100
AcDbEntity
  8
ASSI
100
AcDbSpline
 62
7
  6
CONTINUOUS
 70
0
 71
3
 72
11
 73
7
 74
0
 42
0.0000001
 43
0.0000001
 44
0.0000000001
 40
0.0
 40
0.0
 40
0.0
 40
0.0
 40
0.2177724698
 40
0.4509515227
 40
0.7102006852
 40
1.0
 40
1.0
 40
1.0
 40
1.0
 10
3.8989342352
 20
-28.4778400501
 30
0.0
 10
4.0391041257
 20
-28.3969076768
 30
0.0
 10
4.3014508824
 20
-28.176450295
 30
0.0
 10
4.5805002466
 20
-27.7198946412
 30
0.0
 10
4.7465087151
 20
-27.1573320372
 30
0.0
 10
4.7790352098
 20
-26.7478484788
 30
0.0
 10
4.7790352098
 20
-26.5324584854
 30
0.0
  0
SPLINE
  5
304
100
AcDbEntity
  8
0
100
AcDbSpline
 62
7
  6
CONTINUOUS
 70
0
 71
3
 72
11
 73
7
 74
0
 42
0.0000001
 43
0.0000001
 44
0.0000000001
 40
0.0
 40
0.0
 40
0.0
 40
0.0
 40
0.230186391
 40
0.4761340294
 40
0.7371542805
 40
1.0
 40
1.0
 40
1.0
 40
1.0
 10
-24.9548049391
 20
-22.9179184308
 30
0.0
 10
-24.9548049391
 20
-22.8859794764
 30
0.0
 10
-24.9590263636
 20
-22.8199197307
 30
0.0
 10
-24.9793010626
 20
-22.7189242275
 30
0.0
 10
-25.0167098735
 20
-22.6198691093
 30
0.0
 10
-25.0723220629
 20
-22.5604045049
 30
0.0
 10
-25.1076784542
 20
-22.5514588668
 30
0.0
  0
SPLINE
  5
305
100
AcDbEntity
  8
0
100
AcDbSpline
 62
7
  6
CONTINUOUS
 70
0
 71
3
 72
9
 73
5
 74
0
 42
0.0000001
 43
0.0000001
 44
0.0000000001
 40
0.0
 40
0.0
 40
0.0
 40
0.0
 40
0.5185497409
 40
1.0
 40
1.0
 40
1.0
 40
1.0
 10
-25.1076784542
 20
-22.5514588668
 30
0.0
 10
-25.2026443956
 20
-22.5274312181
 30
0.0
 10
-25.3948309855
 20
-22.5160207192
 30
0.0
 10
-25.5831479415
 20
-22.5662648582
 30
0.0
 10
-25.6619117203
 20
-22.611742077
 30
0.0
  0
SPLINE
  5
306
100
AcDbEntity
  8
ASSI
100
AcDbSpline
 62
7
  6
CONTINUOUS
 70
0
 71
3
 72
9
 73
5
 74
0
 42
0.0000001
 43
0.0000001
 44
0.0000000001
 40
0.0
 40
0.0
 40
0.0
 40
0.0
 40
0.2440000749
 40
1.0
 40
1.0
 40
1.0
 40
1.0
 10
-4.7346871234
 20
-11.6257988272
 30
0.0
 10
-4.7201421595
 20
-11.6173987467
 30
0.0
 10
-4.6628190337
 20
-11.5790176475
 30
0.0
 10
-4.6167298213
 20
-11.5249319258
 30
0.0
 10
-4.5899444186
 20
-11.4803133103
 30
0.0
  0
SPLINE
  5
307
100
AcDbEntity
  8
ASSI
100
AcDbSpline
 62
7
  6
CONTINUOUS
 70
0
 71
3
 72
11
 73
7
 74
0
 42
0.0000001
 43
0.0000001
 44
0.0000000001
 40
0.0
 40
0.0
 40
0.0
 40
0.0
 40
0.2177724906
 40
0.4509525223
 40
0.7101901104
 40
1.0
 40
1.0
 40
1.0
 40
1.0
 10
-21.867801082
 20
-22.3249484371
 30
0.0
 10
-21.8414126046
 20
-22.3097168403
 30
0.0
 10
-21.7920233816
 20
-22.2682194226
 30
0.0
 10
-21.739492181
 20
-22.1822773815
 30
0.0
 10
-21.708236393
 20
-22.076378873
 30
0.0
 10
-21.7021137457
 20
-21.9992951039
 30
0.0
 10
-21.7021137457
 20
-21.9587473482
 30
0.0
  0
SPLINE
  5
308
100
AcDbEntity
  8
0
100
AcDbSpline
 62
7
  6
CONTINUOUS
 70
0
 71
3
 72
9
 73
5
 74
0
 42
0.0000001
 43
0.0000001
 44
0.0000000001
 40
0.0
 40
0.0
 40
0.0
 40
0.0
 40
0.4492533003
 40
1.0
 40
1.0
 40
1.0
 40
1.0
 10
-25.0324613945
 20
-23.0895688619
 30
0.0
 10
-25.0071666767
 20
-23.0749639951
 30
0.0
 10
-24.9634942153
 20
-23.0202637912
 30
0.0
 10
-24.9548049391
 20
-22.953725348
 30
0.0
 10
-24.9548049391
 20
-22.9179184308
 30
0.0
  0
SPLINE
  5
309
100
AcDbEntity
  8
ASSI
100
AcDbSpline
 62
7
  6
CONTINUOUS
 70
0
 71
3
 72
15
 73
11
 74
0
 42
0.0000001
 43
0.0000001
 44
0.0000000001
 40
0.0
 40
0.0
 40
0.0
 40
0.0
 40
0.1288165481
 40
0.2705614397
 40
0.4178769395
 40
0.5623815329
 40
0.6961996216
 40
0.8135941965
 40
0.9130669694
 40
1.0
 40
1.0
 40
1.0
 40
1.0
 10
-21.7021137457
 20
-21.9587473482
 30
0.0
 10
-21.7021137457
 20
-21.8903732045
 30
0.0
 10
-21.7212454772
 20
-21.7465990161
 30
0.0
 10
-21.7926331192
 20
-21.5354937313
 30
0.0
 10
-21.9026750403
 20
-21.3321168404
 30
0.0
 10
-22.0424306092
 20
-21.1531983645
 30
0.0
 10
-22.2007394133
 20
-21.013009883
 30
0.0
 10
-22.3658335846
 20
-20.9228210562
 30
0.0
 10
-22.5274351983
 20
-20.890444119
 30
0.0
 10
-22.6278338292
 20
-20.9162397641
 30
0.0
 10
-22.6677972593
 20
-20.93930691
 30
0.0
  0
SPLINE
  5
30A
100
AcDbEntity
  8
ASSI
100
AcDbSpline
 62
7
  6
CONTINUOUS
 70
0
 71
3
 72
9
 73
5
 74
0
 42
0.0000001
 43
0.0000001
 44
0.0000000001
 40
0.0
 40
0.0
 40
0.0
 40
0.0
 40
0.5311867531
 40
1.0
 40
1.0
 40
1.0
 40
1.0
 10
29.8812808137
 20
-30.0676342097
 30
0.0
 10
29.8145438748
 20
-30.0466706687
 30
0.0
 10
29.6815057935
 20
-30.0239954354
 30
0.0
 10
29.5490160328
 20
-30.0601535339
 30
0.0
 10
29.4955533384
 20
-30.0910295773
 30
0.0
  0
SPLINE
  5
30B
100
AcDbEntity
  8
ASSI
100
AcDbSpline
 62
7
  6
CONTINUOUS
 70
0
 71
3
 72
11
 73
7
 74
0
 42
0.0000001
 43
0.0000001
 44
0.0000000001
 40
0.0
 40
0.0
 40
0.0
 40
0.0
 40
0.2898102256
 40
0.5490549167
 40
0.7822327686
 40
1.0
 40
1.0
 40
1.0
 40
1.0
 10
-6.8882266798
 20
40.1738141349
 30
0.0
 10
-6.9376093922
 20
40.2023270941
 30
0.0
 10
-7.0357953966
 20
40.2490754447
 30
0.0
 10
-7.1867457328
 20
40.2854845389
 30
0.0
 10
-7.3283537704
 20
40.281946276
 30
0.0
 10
-7.4136221178
 20
40.2509815991
 30
0.0
 10
-7.4507311521
 20
40.2295604164
 30
0.0
  0
SPLINE
  5
30C
100
AcDbEntity
  8
ASSI
100
AcDbSpline
 62
7
  6
CONTINUOUS
 70
0
 71
3
 72
13
 73
9
 74
0
 42
0.0000001
 43
0.0000001
 44
0.0000000001
 40
0.0
 40
0.0
 40
0.0
 40
0.0
 40
0.2976246728
 40
0.580686633
 40
0.7055372843
 40
0.8156830414
 40
0.9121430825
 40
1.0
 40
1.0
 40
1.0
 40
1.0
 10
-4.5899444186
 20
-10.6395485046
 30
0.0
 10
-4.6482179242
 20
-10.4751848211
 30
0.0
 10
-4.8083488024
 20
-10.1700162846
 30
0.0
 10
-5.0921872811
 20
-9.860344018
 30
0.0
 10
-5.3497023787
 20
-9.6963108362
 30
0.0
 10
-5.5340057996
 20
-9.6290491674
 30
0.0
 10
-5.7091418497
 20
-9.617449193
 30
0.0
 10
-5.8152076025
 20
-9.6515549324
 30
0.0
 10
-5.8597857209
 20
-9.6772999109
 30
0.0
  0
SPLINE
  5
30D
100
AcDbEntity
  8
ASSI
100
AcDbSpline
 62
7
  6
CONTINUOUS
 70
0
 71
3
 72
17
 73
13
 74
0
 42
0.0000001
 43
0.0000001
 44
0.0000000001
 40
0.0
 40
0.0
 40
0.0
 40
0.0
 40
0.1286778321
 40
0.2702704693
 40
0.4174273972
 40
0.5617758347
 40
0.6954484353
 40
0.8127144242
 40
0.864678979
 40
0.9125124023
 40
0.9571410214
 40
1.0
 40
1.0
 40
1.0
 40
1.0
 10
-9.363100414
 20
-18.3669666189
 30
0.0
 10
-9.363100414
 20
-18.0037208472
 30
0.0
 10
-9.4647392476
 20
-17.2399049437
 30
0.0
 10
-9.8440186218
 20
-16.1183709946
 30
0.0
 10
-10.4285726492
 20
-15.0379617387
 30
0.0
 10
-11.1712893914
 20
-14.0872722543
 30
0.0
 10
-12.0115365407
 20
-13.3431153506
 30
0.0
 10
-12.7720557841
 20
-12.927272068
 30
0.0
 10
-13.3669658649
 20
-12.7689882771
 30
0.0
 10
-13.7764079288
 20
-12.7388779901
 30
0.0
 10
-14.1576648084
 20
-12.7947521273
 30
0.0
 10
-14.3886309773
 20
-12.8907545763
 30
0.0
 10
-14.4934070795
 20
-12.9512510109
 30
0.0
  0
SPLINE
  5
30E
100
AcDbEntity
  8
ASSI
100
AcDbSpline
 62
7
  6
CONTINUOUS
 70
0
 71
3
 72
11
 73
7
 74
0
 42
0.0000001
 43
0.0000001
 44
0.0000000001
 40
0.0
 40
0.0
 40
0.0
 40
0.0
 40
0.2287159658
 40
0.4801087552
 40
0.7419007081
 40
1.0
 40
1.0
 40
1.0
 40
1.0
 10
4.7790352098
 20
-26.5324584854
 30
0.0
 10
4.7790352098
 20
-26.1795127815
 30
0.0
 10
4.6830422583
 20
-25.4377941447
 30
0.0
 10
4.3227968197
 20
-24.3455166084
 30
0.0
 10
3.7658276
 20
-23.287895944
 30
0.0
 10
3.2793228901
 20
-22.6442263634
 30
0.0
 10
3.011289989
 20
-22.3496208099
 30
0.0
  0
SPLINE
  5
30F
100
AcDbEntity
  8
ASSI
100
AcDbSpline
 62
7
  6
CONTINUOUS
 70
0
 71
3
 72
11
 73
7
 74
0
 42
0.0000001
 43
0.0000001
 44
0.0000000001
 40
0.0
 40
0.0
 40
0.0
 40
0.0
 40
0.2177724906
 40
0.4509525223
 40
0.7101901104
 40
1.0
 40
1.0
 40
1.0
 40
1.0
 10
-22.6677972593
 20
-20.93930691
 30
0.0
 10
-22.6941857366
 20
-20.9545385068
 30
0.0
 10
-22.7435749596
 20
-20.9960359245
 30
0.0
 10
-22.7961061603
 20
-21.0819779656
 30
0.0
 10
-22.8273619482
 20
-21.1878764742
 30
0.0
 10
-22.8334845956
 20
-21.2649602432
 30
0.0
 10
-22.8334845956
 20
-21.3055079989
 30
0.0
  0
SPLINE
  5
310
100
AcDbEntity
  8
ASSI
100
AcDbSpline
 62
7
  6
CONTINUOUS
 70
0
 71
3
 72
11
 73
7
 74
0
 42
0.0000001
 43
0.0000001
 44
0.0000000001
 40
0.0
 40
0.0
 40
0.0
 40
0.0
 40
0.2177724698
 40
0.4509515227
 40
0.7102006852
 40
1.0
 40
1.0
 40
1.0
 40
1.0
 10
-14.4934070795
 20
-12.9512510109
 30
0.0
 10
-14.63357697
 20
-13.0321833842
 30
0.0
 10
-14.8959237267
 20
-13.252640766
 30
0.0
 10
-15.1749730909
 20
-13.7091964198
 30
0.0
 10
-15.3409815593
 20
-14.2717590239
 30
0.0
 10
-15.373508054
 20
-14.6812425822
 30
0.0
 10
-15.373508054
 20
-14.8966325756
 30
0.0
  0
SPLINE
  5
311
100
AcDbEntity
  8
ASSI
100
AcDbSpline
 62
7
  6
CONTINUOUS
 70
0
 71
3
 72
15
 73
11
 74
0
 42
0.0000001
 43
0.0000001
 44
0.0000000001
 40
0.0
 40
0.0
 40
0.0
 40
0.0
 40
0.1288165481
 40
0.2705614397
 40
0.4178769395
 40
0.5623815329
 40
0.6961996216
 40
0.8135941965
 40
0.9130669694
 40
1.0
 40
1.0
 40
1.0
 40
1.0
 10
-22.8334845956
 20
-21.3055079989
 30
0.0
 10
-22.8334845956
 20
-21.3738821426
 30
0.0
 10
-22.814352864
 20
-21.517656331
 30
0.0
 10
-22.742965222
 20
-21.7287616158
 30
0.0
 10
-22.632923301
 20
-21.9321385067
 30
0.0
 10
-22.493167732
 20
-22.1110569827
 30
0.0
 10
-22.3348589279
 20
-22.2512454641
 30
0.0
 10
-22.1697647567
 20
-22.3414342909
 30
0.0
 10
-22.0081631429
 20
-22.3738112281
 30
0.0
 10
-21.907764512
 20
-22.348015583
 30
0.0
 10
-21.867801082
 20
-22.3249484371
 30
0.0
  0
SPLINE
  5
312
100
AcDbEntity
  8
ASSI
100
AcDbSpline
 62
7
  6
CONTINUOUS
 70
0
 71
3
 72
11
 73
7
 74
0
 42
0.0000001
 43
0.0000001
 44
0.0000000001
 40
0.0
 40
0.0
 40
0.0
 40
0.0
 40
0.2316666239
 40
0.4877271387
 40
0.7503114569
 40
1.0
 40
1.0
 40
1.0
 40
1.0
 10
29.2626075084
 20
-30.6059701179
 30
0.0
 10
29.2626075084
 20
-30.7167111427
 30
0.0
 10
29.2981628522
 20
-30.9500881391
 30
0.0
 10
29.4270496535
 20
-31.2870357057
 30
0.0
 10
29.6215836856
 20
-31.601013476
 30
0.0
 10
29.7899188498
 20
-31.781930749
 30
0.0
 10
29.8812808137
 20
-31.8587344516
 30
0.0
  0
SPLINE
  5
313
100
AcDbEntity
  8
ASSI
100
AcDbSpline
 62
7
  6
CONTINUOUS
 70
0
 71
3
 72
11
 73
7
 74
0
 42
0.0000001
 43
0.0000001
 44
0.0000000001
 40
0.0
 40
0.0
 40
0.0
 40
0.0
 40
0.2177725752
 40
0.450952672
 40
0.7101953065
 40
1.0
 40
1.0
 40
1.0
 40
1.0
 10
29.4955533384
 20
-30.0910295773
 30
0.0
 10
29.4584533617
 20
-30.112455742
 30
0.0
 10
29.3890144798
 20
-30.1708121929
 30
0.0
 10
29.3151566032
 20
-30.2916616452
 30
0.0
 10
29.2712166923
 20
-30.4405687818
 30
0.0
 10
29.2626075084
 20
-30.5489565661
 30
0.0
 10
29.2626075084
 20
-30.6059701179
 30
0.0
  0
SPLINE
  5
314
100
AcDbEntity
  8
ASSI
100
AcDbSpline
 62
7
  6
CONTINUOUS
 70
0
 71
3
 72
15
 73
11
 74
0
 42
0.0000001
 43
0.0000001
 44
0.0000000001
 40
0.0
 40
0.0
 40
0.0
 40
0.0
 40
0.1288179957
 40
0.2705656299
 40
0.4178830858
 40
0.5623884875
 40
0.6962058276
 40
0.8135981026
 40
0.9130679578
 40
1.0
 40
1.0
 40
1.0
 40
1.0
 10
-6.092731551
 20
-10.1922404516
 30
0.0
 10
-6.092731551
 20
-10.288395197
 30
0.0
 10
-6.0658248447
 20
-10.4905860126
 30
0.0
 10
-5.9654289057
 20
-10.7874640443
 30
0.0
 10
-5.8106715911
 20
-11.0734714412
 30
0.0
 10
-5.6141283802
 20
-11.3250790899
 30
0.0
 10
-5.3914954775
 20
-11.5222156618
 30
0.0
 10
-5.1593220965
 20
-11.6490342143
 30
0.0
 10
-4.9320646017
 20
-11.6945413845
 30
0.0
 10
-4.7908787798
 20
-11.6582509144
 30
0.0
 10
-4.7346871234
 20
-11.6257988272
 30
0.0
  0
SPLINE
  5
315
100
AcDbEntity
  8
ASSI
100
AcDbSpline
 62
7
  6
CONTINUOUS
 70
0
 71
3
 72
17
 73
13
 74
0
 42
0.0000001
 43
0.0000001
 44
0.0000000001
 40
0.0
 40
0.0
 40
0.0
 40
0.0
 40
0.1286778321
 40
0.2702704693
 40
0.4174273972
 40
0.5617758347
 40
0.6954484353
 40
0.8127144242
 40
0.864678979
 40
0.9125124023
 40
0.9571410214
 40
1.0
 40
1.0
 40
1.0
 40
1.0
 10
-15.373508054
 20
-14.8966325756
 30
0.0
 10
-15.373508054
 20
-15.2598783473
 30
0.0
 10
-15.2718692204
 20
-16.0236942508
 30
0.0
 10
-14.8925898462
 20
-17.1452281999
 30
0.0
 10
-14.3080358188
 20
-18.2256374558
 30
0.0
 10
-13.5653190766
 20
-19.1763269402
 30
0.0
 10
-12.7250719273
 20
-19.9204838439
 30
0.0
 10
-11.9645526839
 20
-20.3363271265
 30
0.0
 10
-11.3696426031
 20
-20.4946109174
 30
0.0
 10
-10.9602005392
 20
-20.5247212044
 30
0.0
 10
-10.5789436596
 20
-20.4688470672
 30
0.0
 10
-10.3479774907
 20
-20.3728446181
 30
0.0
 10
-10.2432013885
 20
-20.3123481835
 30
0.0
  0
SPLINE
  5
316
100
AcDbEntity
  8
ASSI
100
AcDbSpline
 62
7
  6
CONTINUOUS
 70
0
 71
3
 72
9
 73
5
 74
0
 42
0.0000001
 43
0.0000001
 44
0.0000000001
 40
0.0
 40
0.0
 40
0.0
 40
0.0
 40
0.5147002545
 40
1.0
 40
1.0
 40
1.0
 40
1.0
 10
3.011289989
 20
-28.6739482901
 30
0.0
 10
3.1686930062
 20
-28.6827054726
 30
0.0
 10
3.4786415785
 20
-28.6630667158
 30
0.0
 10
3.7702090811
 20
-28.5521643731
 30
0.0
 10
3.8989342352
 20
-28.4778400501
 30
0.0
  0
SPLINE
  5
317
100
AcDbEntity
  8
0
100
AcDbSpline
 62
7
  6
CONTINUOUS
 70
0
 71
3
 72
9
 73
5
 74
0
 42
0.0000001
 43
0.0000001
 44
0.0000000001
 40
0.0
 40
0.0
 40
0.0
 40
0.0
 40
0.5507549801
 40
1.0
 40
1.0
 40
1.0
 40
1.0
 10
-25.2199699821
 20
-23.0709918121
 30
0.0
 10
-25.1889557104
 20
-23.0888990639
 30
0.0
 10
-25.1269786194
 20
-23.1146490444
 30
0.0
 10
-25.0577594024
 20
-23.1041756284
 30
0.0
 10
-25.0324613945
 20
-23.0895688619
 30
0.0
  0
SPLINE
  5
318
100
AcDbEntity
  8
ASSI
100
AcDbSpline
 62
7
  6
CONTINUOUS
 70
0
 71
3
 72
15
 73
11
 74
0
 42
0.0000001
 43
0.0000001
 44
0.0000000001
 40
0.0
 40
0.0
 40
0.0
 40
0.0
 40
0.0869317726
 40
0.1864004656
 40
0.303790718
 40
0.4376058486
 40
0.5821097607
 40
0.7294273288
 40
0.8711773093
 40
1.0
 40
1.0
 40
1.0
 40
1.0
 10
-7.4507311521
 20
40.2295604164
 30
0.0
 10
-7.5069271232
 20
40.197121303
 30
0.0
 10
-7.6089388573
 20
40.0929968361
 30
0.0
 10
-7.6831467986
 20
39.8734415506
 30
0.0
 10
-7.6893976652
 20
39.6089785198
 30
0.0
 10
-7.6299843481
 20
39.317621763
 30
0.0
 10
-7.5103560286
 20
39.0216235555
 30
0.0
 10
-7.3400462817
 20
38.7446096297
 30
0.0
 10
-7.133142947
 20
38.509232376
 30
0.0
 10
-6.971497554
 20
38.3848355712
 30
0.0
 10
-6.8882266798
 20
38.3367560121
 30
0.0
  0
SPLINE
  5
319
100
AcDbEntity
  8
ASSI
100
AcDbSpline
 62
7
  6
CONTINUOUS
 70
0
 71
3
 72
11
 73
7
 74
0
 42
0.0000001
 43
0.0000001
 44
0.0000000001
 40
0.0
 40
0.0
 40
0.0
 40
0.0
 40
0.2177725752
 40
0.450952672
 40
0.7101953065
 40
1.0
 40
1.0
 40
1.0
 40
1.0
 10
-5.8597857209
 20
-9.6772999109
 30
0.0
 10
-5.8968856976
 20
-9.6987260756
 30
0.0
 10
-5.9663245795
 20
-9.7570825265
 30
0.0
 10
-6.0401824561
 20
-9.8779319788
 30
0.0
 10
-6.084122367
 20
-10.0268391154
 30
0.0
 10
-6.092731551
 20
-10.1352268997
 30
0.0
 10
-6.092731551
 20
-10.1922404516
 30
0.0
  0
SPLINE
  5
31A
100
AcDbEntity
  8
0
100
AcDbSpline
 62
7
  6
CONTINUOUS
 70
0
 71
3
 72
8
 73
4
 74
0
 42
0.0000001
 43
0.0000001
 44
0.0000000001
 40
0.0
 40
0.0
 40
0.0
 40
0.0
 40
1.0
 40
1.0
 40
1.0
 40
1.0
 10
-23.1280626507
 20
84.9070433354
 30
0.0
 10
-23.0852418753
 20
84.9006243672
 30
0.0
 10
-23.0427425847
 20
84.8864320421
 30
0.0
 10
-23.0052132658
 20
84.8648363902
 30
0.0
  0
SPLINE
  5
31B
100
AcDbEntity
  8
ASSI
100
AcDbSpline
 62
7
  6
CONTINUOUS
 70
0
 71
3
 72
10
 73
6
 74
0
 42
0.0000001
 43
0.0000001
 44
0.0000000001
 40
0.0
 40
0.0
 40
0.0
 40
0.0
 40
0.5138949988
 40
0.7589105215
 40
1.0
 40
1.0
 40
1.0
 40
1.0
 10
-51.9177526822
 20
62.3552128378
 30
0.0
 10
-51.9177526822
 20
62.1588040179
 30
0.0
 10
-51.8708685881
 20
61.8639713218
 30
0.0
 10
-51.7014481512
 20
61.5191163137
 30
0.0
 10
-51.5858881395
 20
61.3714551597
 30
0.0
 10
-51.5215938204
 20
61.3054500772
 30
0.0
  0
SPLINE
  5
31C
100
AcDbEntity
  8
ASSI
100
AcDbSpline
 62
7
  6
CONTINUOUS
 70
0
 71
3
 72
9
 73
5
 74
0
 42
0.0000001
 43
0.0000001
 44
0.0000000001
 40
0.0
 40
0.0
 40
0.0
 40
0.0
 40
0.2576368112
 40
1.0
 40
1.0
 40
1.0
 40
1.0
 10
27.3810860431
 20
15.7564198713
 30
0.0
 10
27.3688639624
 20
15.7569300832
 30
0.0
 10
27.321510596
 20
15.7604769748
 30
0.0
 10
27.2746090034
 20
15.770822798
 30
0.0
 10
27.24134021
 20
15.7824672491
 30
0.0
  0
SPLINE
  5
31D
100
AcDbEntity
  8
0
100
AcDbSpline
 62
7
  6
CONTINUOUS
 70
0
 71
3
 72
13
 73
9
 74
0
 42
0.0000001
 43
0.0000001
 44
0.0000000001
 40
0.0
 40
0.0
 40
0.0
 40
0.0
 40
0.2931361933
 40
0.5470385723
 40
0.6630995147
 40
0.7750260127
 40
0.8861697374
 40
1.0
 40
1.0
 40
1.0
 40
1.0
 10
-51.9177526822
 20
68.9465134919
 30
0.0
 10
-51.9177526822
 20
69.2289135141
 30
0.0
 10
-51.8656185203
 20
69.7588797796
 30
0.0
 10
-51.6215531698
 20
70.3635165989
 30
0.0
 10
-51.3289096891
 20
70.7278512442
 30
0.0
 10
-51.0735274894
 20
70.9357799755
 30
0.0
 10
-50.7807490096
 20
71.0816481469
 30
0.0
 10
-50.5686950643
 20
71.1346784705
 30
0.0
 10
-50.4602230842
 20
71.1507846736
 30
0.0
  0
SPLINE
  5
31E
100
AcDbEntity
  8
0
100
AcDbSpline
 62
7
  6
CONTINUOUS
 70
0
 71
3
 72
13
 73
9
 74
0
 42
0.0000001
 43
0.0000001
 44
0.0000000001
 40
0.0
 40
0.0
 40
0.0
 40
0.0
 40
0.1080932255
 40
0.2182247615
 40
0.3322487447
 40
0.4516981615
 40
0.7105936713
 40
1.0
 40
1.0
 40
1.0
 40
1.0
 10
32.4824819902
 20
-84.796505735
 30
0.0
 10
32.6464364622
 20
-84.8911710205
 30
0.0
 10
32.9945467372
 20
-85.054192923
 30
0.0
 10
33.5578053564
 20
-85.2099475726
 30
0.0
 10
34.1582846188
 20
-85.2769197856
 30
0.0
 10
35.022756091
 20
-85.2467971036
 30
0.0
 10
36.1714307302
 20
-84.97008789
 30
0.0
 10
37.0437558552
 20
-84.5545487141
 30
0.0
 10
37.4827238396
 20
-84.3010941014
 30
0.0
  0
SPLINE
  5
31F
100
AcDbEntity
  8
ASSI
100
AcDbSpline
 62
7
  6
CONTINUOUS
 70
0
 71
3
 72
11
 73
7
 74
0
 42
0.0000001
 43
0.0000001
 44
0.0000000001
 40
0.0
 40
0.0
 40
0.0
 40
0.0
 40
0.222177062
 40
0.4613136838
 40
0.7202820096
 40
1.0
 40
1.0
 40
1.0
 40
1.0
 10
-48.4307500745
 20
59.4161160396
 30
0.0
 10
-48.2532907386
 20
59.18794929
 30
0.0
 10
-47.9376204196
 20
58.6715990951
 30
0.0
 10
-47.6079509245
 20
57.7895987722
 30
0.0
 10
-47.4104441979
 20
56.7933048259
 30
0.0
 10
-47.3700899027
 20
56.0914183089
 30
0.0
 10
-47.3700899027
 20
55.7275038617
 30
0.0
  0
SPLINE
  5
320
100
AcDbEntity
  8
0
100
AcDbSpline
 62
7
  6
CONTINUOUS
 70
0
 71
3
 72
9
 73
5
 74
0
 42
0.0000001
 43
0.0000001
 44
0.0000000001
 40
0.0
 40
0.0
 40
0.0
 40
0.0
 40
0.5124208339
 40
1.0
 40
1.0
 40
1.0
 40
1.0
 10
-47.6541902456
 20
72.1404228908
 30
0.0
 10
-48.0962506328
 20
71.8851827636
 30
0.0
 10
-49.0071098734
 20
71.4660517286
 30
0.0
 10
-49.9797809222
 20
71.2221182882
 30
0.0
 10
-50.4602235156
 20
71.1507857151
 30
0.0
  0
SPLINE
  5
321
100
AcDbEntity
  8
0
100
AcDbSpline
 62
7
  6
CONTINUOUS
 70
0
 71
3
 72
11
 73
7
 74
0
 42
0.0000001
 43
0.0000001
 44
0.0000000001
 40
0.0
 40
0.0
 40
0.0
 40
0.0
 40
0.2898033778
 40
0.5490383358
 40
0.782222982
 40
1.0
 40
1.0
 40
1.0
 40
1.0
 10
51.6248594634
 20
-76.1356022349
 30
0.0
 10
51.668755437
 20
-76.1102572498
 30
0.0
 10
51.7483780448
 20
-76.0554465947
 30
0.0
 10
51.8434855031
 20
-75.9554148353
 30
0.0
 10
51.9036943531
 20
-75.8448252726
 30
0.0
 10
51.9177526822
 20
-75.7654175259
 30
0.0
 10
51.9177526822
 20
-75.7273276415
 30
0.0
  0
SPLINE
  5
322
100
AcDbEntity
  8
0
100
AcDbSpline
 62
7
  6
CONTINUOUS
 70
0
 71
3
 72
13
 73
9
 74
0
 42
0.0000001
 43
0.0000001
 44
0.0000000001
 40
0.0
 40
0.0
 40
0.0
 40
0.0
 40
0.1080960602
 40
0.218229995
 40
0.3322555856
 40
0.4517055963
 40
0.7105991257
 40
1.0
 40
1.0
 40
1.0
 40
1.0
 10
-45.2992639404
 20
-39.8863004689
 30
0.0
 10
-45.4631981396
 20
-39.7916468887
 30
0.0
 10
-45.778384315
 20
-39.5716992455
 30
0.0
 10
-46.194836601
 20
-39.1618232669
 30
0.0
 10
-46.5530227432
 20
-38.6753429409
 30
0.0
 10
-46.9591142495
 20
-37.9117437986
 30
0.0
 10
-47.2937819667
 20
-36.7787968698
 30
0.0
 10
-47.3700899027
 20
-35.8157312151
 30
0.0
 10
-47.3700899027
 20
-35.3089320007
 30
0.0
  0
SPLINE
  5
323
100
AcDbEntity
  8
ASSI
100
AcDbSpline
 62
7
  6
CONTINUOUS
 70
0
 71
3
 72
9
 73
5
 74
0
 42
0.0000001
 43
0.0000001
 44
0.0000000001
 40
0.0
 40
0.0
 40
0.0
 40
0.0
 40
0.2629824213
 40
1.0
 40
1.0
 40
1.0
 40
1.0
 10
28.0890987874
 20
15.5855501768
 30
0.0
 10
28.0304615396
 20
15.6113255955
 30
0.0
 10
27.8036186607
 20
15.7000325971
 30
0.0
 10
27.5604387242
 20
15.748932777
 30
0.0
 10
27.3810860431
 20
15.7564198713
 30
0.0
  0
SPLINE
  5
324
100
AcDbEntity
  8
ASSI
100
AcDbSpline
 62
7
  6
CONTINUOUS
 70
0
 71
3
 72
9
 73
5
 74
0
 42
0.0000001
 43
0.0000001
 44
0.0000000001
 40
0.0
 40
0.0
 40
0.0
 40
0.0
 40
0.2477218943
 40
1.0
 40
1.0
 40
1.0
 40
1.0
 10
-49.0419405663
 20
60.0733271257
 30
0.0
 10
-48.9849973753
 20
60.0257277867
 30
0.0
 10
-48.7611039873
 20
59.8265186867
 30
0.0
 10
-48.5627603476
 20
59.5987919117
 30
0.0
 10
-48.4307500745
 20
59.4161160396
 30
0.0
  0
SPLINE
  5
325
100
AcDbEntity
  8
0
100
AcDbSpline
 62
7
  6
CONTINUOUS
 70
0
 71
3
 72
10
 73
6
 74
0
 42
0.0000001
 43
0.0000001
 44
0.0000000001
 40
0.0
 40
0.0
 40
0.0
 40
0.0
 40
0.459756245
 40
0.7193410535
 40
1.0
 40
1.0
 40
1.0
 40
1.0
 10
-50.4602230842
 20
71.1507846736
 30
0.0
 10
-50.1974942357
 20
71.1897953399
 30
0.0
 10
-49.7700769232
 20
71.1522884444
 30
0.0
 10
-49.2225548222
 20
70.9668113336
 30
0.0
 10
-48.942397622
 20
70.8262479479
 30
0.0
 10
-48.8019811346
 20
70.7451732279
 30
0.0
  0
SPLINE
  5
326
100
AcDbEntity
  8
0
100
AcDbSpline
 62
250
  6
CONTINUOUS
 70
0
 71
3
 72
11
 73
7
 74
0
 42
0.0000001
 43
0.0000001
 44
0.0000000001
 40
0.0
 40
0.0
 40
0.0
 40
0.0
 40
0.2177672127
 40
0.4509438741
 40
0.710193207
 40
1.0
 40
1.0
 40
1.0
 40
1.0
 10
-47.6541902456
 20
72.1404228908
 30
0.0
 10
-47.5304954401
 20
72.2118427358
 30
0.0
 10
-47.2462577477
 20
72.3150744254
 30
0.0
 10
-46.7742088992
 20
72.3268856495
 30
0.0
 10
-46.2710160535
 20
72.2055240149
 30
0.0
 10
-45.9437139425
 20
72.0496897068
 30
0.0
 10
-45.7790996451
 20
71.9546434745
 30
0.0
  0
SPLINE
  5
327
100
AcDbEntity
  8
0
100
AcDbSpline
 62
250
  6
CONTINUOUS
 70
0
 71
3
 72
9
 73
5
 74
0
 42
0.0000001
 43
0.0000001
 44
0.0000000001
 40
0.0
 40
0.0
 40
0.0
 40
0.0
 40
0.2663426131
 40
1.0
 40
1.0
 40
1.0
 40
1.0
 10
-45.7790996451
 20
71.9546434745
 30
0.0
 10
-46.0299714613
 20
71.809793232
 30
0.0
 10
-46.988587991
 20
71.2967820553
 30
0.0
 10
-48.0217306741
 20
70.9123517562
 30
0.0
 10
-48.8019811346
 20
70.7451732279
 30
0.0
  0
SPLINE
  5
328
100
AcDbEntity
  8
0
100
AcDbSpline
 62
7
  6
CONTINUOUS
 70
0
 71
3
 72
15
 73
11
 74
0
 42
0.0000001
 43
0.0000001
 44
0.0000000001
 40
0.0
 40
0.0
 40
0.0
 40
0.0
 40
0.1141566514
 40
0.237329741
 40
0.3669809462
 40
0.5000060513
 40
0.6330303149
 40
0.7626790615
 40
0.8858482781
 40
1.0
 40
1.0
 40
1.0
 40
1.0
 10
23.676463937
 20
28.8970274118
 30
0.0
 10
23.889762788
 20
28.7738713284
 30
0.0
 10
24.311066142
 20
28.478527914
 30
0.0
 10
24.8907585133
 20
27.9361661058
 30
0.0
 10
25.424978623
 20
27.2950622467
 30
0.0
 10
25.8936030317
 20
26.5792642845
 30
0.0
 10
26.2791879483
 20
25.8155295107
 30
0.0
 10
26.5672828675
 20
25.032343091
 30
0.0
 10
26.7471236634
 20
24.2591558148
 30
0.0
 10
26.7922354845
 20
23.7466424219
 30
0.0
 10
26.7922354845
 20
23.5003527922
 30
0.0
  0
SPLINE
  5
329
100
AcDbEntity
  8
ASSI
100
AcDbSpline
 62
7
  6
CONTINUOUS
 70
0
 71
3
 72
9
 73
5
 74
0
 42
0.0000001
 43
0.0000001
 44
0.0000000001
 40
0.0
 40
0.0
 40
0.0
 40
0.0
 40
0.5368056195
 40
1.0
 40
1.0
 40
1.0
 40
1.0
 10
29.350995856
 20
14.5059107735
 30
0.0
 10
29.1754282048
 20
14.7488613641
 30
0.0
 10
28.8000857223
 20
15.1699113685
 30
0.0
 10
28.3258769115
 20
15.4814686329
 30
0.0
 10
28.0890987874
 20
15.5855501768
 30
0.0
  0
SPLINE
  5
32A
100
AcDbEntity
  8
0
100
AcDbSpline
 62
7
  6
CONTINUOUS
 70
0
 71
3
 72
11
 73
7
 74
0
 42
0.0000001
 43
0.0000001
 44
0.0000000001
 40
0.0
 40
0.0
 40
0.0
 40
0.0
 40
0.2857742752
 40
0.5454338417
 40
0.7814002957
 40
1.0
 40
1.0
 40
1.0
 40
1.0
 10
30.4116560278
 20
-80.2191372668
 30
0.0
 10
30.4116560278
 20
-80.6616910197
 30
0.0
 10
30.4706207134
 20
-81.508420504
 30
0.0
 10
30.7656636002
 20
-82.6896454709
 30
0.0
 10
31.2592127267
 20
-83.6902935686
 30
0.0
 10
31.7293708837
 20
-84.2284964028
 30
0.0
 10
31.9874991071
 20
-84.4475167292
 30
0.0
  0
SPLINE
  5
32B
100
AcDbEntity
  8
ASSI
100
AcDbSpline
 62
7
  6
CONTINUOUS
 70
0
 71
3
 72
11
 73
7
 74
0
 42
0.0000001
 43
0.0000001
 44
0.0000000001
 40
0.0
 40
0.0
 40
0.0
 40
0.0
 40
0.222177062
 40
0.4613136838
 40
0.7202820096
 40
1.0
 40
1.0
 40
1.0
 40
1.0
 10
29.350995856
 20
14.5059107735
 30
0.0
 10
29.5284551919
 20
14.2777440239
 30
0.0
 10
29.8441255109
 20
13.7613938291
 30
0.0
 10
30.173795006
 20
12.8793935062
 30
0.0
 10
30.3713017326
 20
11.8830995599
 30
0.0
 10
30.4116560278
 20
11.1812130428
 30
0.0
 10
30.4116560278
 20
10.8172985956
 30
0.0
  0
SPLINE
  5
32C
100
AcDbEntity
  8
0
100
AcDbSpline
 62
7
  6
CONTINUOUS
 70
0
 71
3
 72
9
 73
5
 74
0
 42
0.0000001
 43
0.0000001
 44
0.0000000001
 40
0.0
 40
0.0
 40
0.0
 40
0.0
 40
0.2897932699
 40
1.0
 40
1.0
 40
1.0
 40
1.0
 10
48.9732097141
 20
42.9671469556
 30
0.0
 10
49.006021339
 20
42.9860919776
 30
0.0
 10
49.1223511577
 20
43.044677441
 30
0.0
 10
49.2587801711
 20
43.0724540146
 30
0.0
 10
49.3506173383
 20
43.0587500292
 30
0.0
  0
SPLINE
  5
32D
100
AcDbEntity
  8
0
100
AcDbSpline
 62
7
  6
CONTINUOUS
 70
0
 71
3
 72
9
 73
5
 74
0
 42
0.0000001
 43
0.0000001
 44
0.0000000001
 40
0.0
 40
0.0
 40
0.0
 40
0.0
 40
0.5463989953
 40
1.0
 40
1.0
 40
1.0
 40
1.0
 10
-23.5052367178
 20
84.8152935571
 30
0.0
 10
-23.4431492448
 20
84.8511420839
 30
0.0
 10
-23.3214782029
 20
84.9049694162
 30
0.0
 10
-23.1869224761
 20
84.9158666073
 30
0.0
 10
-23.1280626507
 20
84.9070433354
 30
0.0
  0
SPLINE
  5
32E
100
AcDbEntity
  8
0
100
AcDbSpline
 62
7
  6
CONTINUOUS
 70
0
 71
3
 72
9
 73
5
 74
0
 42
0.0000001
 43
0.0000001
 44
0.0000000001
 40
0.0
 40
0.0
 40
0.0
 40
0.0
 40
0.2897855229
 40
1.0
 40
1.0
 40
1.0
 40
1.0
 10
51.6248594634
 20
38.3743548707
 30
0.0
 10
51.6576693701
 20
38.3932988986
 30
0.0
 10
51.7665640726
 20
38.4647553854
 30
0.0
 10
51.858823252
 20
38.5690212988
 30
0.0
 10
51.8928708121
 20
38.6554063308
 30
0.0
  0
SPLINE
  5
32F
100
AcDbEntity
  8
0
100
AcDbSpline
 62
250
  6
CONTINUOUS
 70
0
 71
3
 72
9
 73
5
 74
0
 42
0.0000001
 43
0.0000001
 44
0.0000000001
 40
0.0
 40
0.0
 40
0.0
 40
0.0
 40
0.2663426131
 40
1.0
 40
1.0
 40
1.0
 40
1.0
 10
26.6993454266
 20
30.1064976585
 30
0.0
 10
26.4484736103
 20
29.9616474159
 30
0.0
 10
25.4898570806
 20
29.4486362392
 30
0.0
 10
24.4567143975
 20
29.0642059401
 30
0.0
 10
23.676463937
 20
28.8970274118
 30
0.0
  0
SPLINE
  5
330
100
AcDbEntity
  8
0
100
AcDbSpline
 62
250
  6
CONTINUOUS
 70
0
 71
3
 72
13
 73
9
 74
0
 42
0.0000001
 43
0.0000001
 44
0.0000000001
 40
0.0
 40
0.0
 40
0.0
 40
0.0
 40
0.1142585671
 40
0.2375416221
 40
0.5000060652
 40
0.7624671883
 40
0.8857463667
 40
1.0
 40
1.0
 40
1.0
 40
1.0
 10
26.6993454266
 20
30.1064976585
 30
0.0
 10
26.8808715691
 20
30.0016867388
 30
0.0
 10
27.2394632507
 20
29.7503426177
 30
0.0
 10
27.9107352214
 20
29.121982678
 30
0.0
 10
28.6198748761
 20
28.1534201254
 30
0.0
 10
29.1041039912
 20
27.0550124285
 30
0.0
 10
29.3126310116
 20
26.1595135367
 30
0.0
 10
29.350995856
 20
25.7233070549
 30
0.0
 10
29.350995856
 20
25.5137043955
 30
0.0
  0
SPLINE
  5
331
100
AcDbEntity
  8
ASSI
100
AcDbSpline
 62
7
  6
CONTINUOUS
 70
0
 71
3
 72
13
 73
9
 74
0
 42
0.0000001
 43
0.0000001
 44
0.0000000001
 40
0.0
 40
0.0
 40
0.0
 40
0.0
 40
0.0921659363
 40
0.1873703977
 40
0.2910025264
 40
0.4066224902
 40
0.6768069804
 40
1.0
 40
1.0
 40
1.0
 40
1.0
 10
27.24134021
 20
15.7824672491
 30
0.0
 10
27.2041467631
 20
15.795485373
 30
0.0
 10
27.1317353772
 20
15.8323537783
 30
0.0
 10
27.0386129818
 20
15.9166615452
 30
0.0
 10
26.9609746744
 20
16.0275442593
 30
0.0
 10
26.8729949974
 20
16.2183363744
 30
0.0
 10
26.8062318577
 20
16.5169053065
 30
0.0
 10
26.7922354845
 20
16.7708697621
 30
0.0
 10
26.7922354845
 20
16.9090521381
 30
0.0
  0
SPLINE
  5
332
100
AcDbEntity
  8
0
100
AcDbSpline
 62
250
  6
CONTINUOUS
 70
0
 71
3
 72
9
 73
5
 74
0
 42
0.0000001
 43
0.0000001
 44
0.0000000001
 40
0.0
 40
0.0
 40
0.0
 40
0.0
 40
0.2663404298
 40
1.0
 40
1.0
 40
1.0
 40
1.0
 10
29.350995856
 20
25.5137043955
 30
0.0
 10
29.100123542
 20
25.3688538656
 30
0.0
 10
28.1765588558
 20
24.7951129549
 30
0.0
 10
27.3271019445
 20
24.0925301873
 30
0.0
 10
26.7922354845
 20
23.5003527922
 30
0.0
  0
SPLINE
  5
333
100
AcDbEntity
  8
0
100
AcDbSpline
 62
250
  6
CONTINUOUS
 70
0
 71
3
 72
11
 73
7
 74
0
 42
0.0000001
 43
0.0000001
 44
0.0000000001
 40
0.0
 40
0.0
 40
0.0
 40
0.0
 40
0.2177671198
 40
0.4509439192
 40
0.7101951249
 40
1.0
 40
1.0
 40
1.0
 40
1.0
 10
-25.3803266382
 20
85.0010725807
 30
0.0
 10
-25.2566318504
 20
85.072492412
 30
0.0
 10
-24.9723945062
 20
85.1757250794
 30
0.0
 10
-24.5003439769
 20
85.1875369506
 30
0.0
 10
-23.9971515186
 20
85.0661726309
 30
0.0
 10
-23.6698492904
 20
84.9103387934
 30
0.0
 10
-23.5052360377
 20
84.8152931644
 30
0.0
  0
SPLINE
  5
334
100
AcDbEntity
  8
0
100
AcDbSpline
 62
250
  6
CONTINUOUS
 70
0
 71
3
 72
13
 73
9
 74
0
 42
0.0000001
 43
0.0000001
 44
0.0000000001
 40
0.0
 40
0.0
 40
0.0
 40
0.0
 40
0.1142582764
 40
0.2375415424
 40
0.5000060652
 40
0.762467268
 40
0.8857466575
 40
1.0
 40
1.0
 40
1.0
 40
1.0
 10
48.9732090339
 20
42.9671473483
 30
0.0
 10
49.1547347227
 20
42.8623366906
 30
0.0
 10
49.5133261803
 20
42.6109925161
 30
0.0
 10
50.1845989208
 20
41.9826333517
 30
0.0
 10
50.8937391122
 20
41.0140701782
 30
0.0
 10
51.3779684967
 20
39.9156617061
 30
0.0
 10
51.5864944606
 20
39.0201625353
 30
0.0
 10
51.6248594634
 20
38.5839562208
 30
0.0
 10
51.6248594634
 20
38.3743540853
 30
0.0
  0
SPLINE
  5
335
100
AcDbEntity
  8
ASSI
100
AcDbSpline
 62
7
  6
CONTINUOUS
 70
0
 71
3
 72
11
 73
7
 74
0
 42
0.0000001
 43
0.0000001
 44
0.0000000001
 40
0.0
 40
0.0
 40
0.0
 40
0.0
 40
0.2364804056
 40
0.4984388538
 40
0.761244125
 40
1.0
 40
1.0
 40
1.0
 40
1.0
 10
-34.8542998757
 20
-34.9821545063
 30
0.0
 10
-34.8542998757
 20
-35.0733128902
 30
0.0
 10
-34.8206484963
 20
-35.2655845991
 30
0.0
 10
-34.7028418779
 20
-35.5366540334
 30
0.0
 10
-34.5298281012
 20
-35.7773705154
 30
0.0
 10
-34.3814442708
 20
-35.905879079
 30
0.0
 10
-34.3027407834
 20
-35.9535896651
 30
0.0
  0
SPLINE
  5
336
100
AcDbEntity
  8
ASSI
100
AcDbSpline
 62
7
  6
CONTINUOUS
 70
0
 71
3
 72
11
 73
7
 74
0
 42
0.0000001
 43
0.0000001
 44
0.0000000001
 40
0.0
 40
0.0
 40
0.0
 40
0.0
 40
0.2364804056
 40
0.4984388538
 40
0.761244125
 40
1.0
 40
1.0
 40
1.0
 40
1.0
 10
-2.6809413317
 20
-53.5586485027
 30
0.0
 10
-2.6809413317
 20
-53.6498068866
 30
0.0
 10
-2.6472899523
 20
-53.8420785955
 30
0.0
 10
-2.5294833339
 20
-54.1131480298
 30
0.0
 10
-2.3564695572
 20
-54.3538645118
 30
0.0
 10
-2.2080857268
 20
-54.4823730754
 30
0.0
 10
-2.1293822394
 20
-54.5300836615
 30
0.0
  0
SPLINE
  5
337
100
AcDbEntity
  8
0
100
AcDbSpline
 62
7
  6
CONTINUOUS
 70
0
 71
3
 72
9
 73
5
 74
0
 42
0.0000001
 43
0.0000001
 44
0.0000000001
 40
0.0
 40
0.0
 40
0.0
 40
0.0
 40
0.4999980061
 40
1.0
 40
1.0
 40
1.0
 40
1.0
 10
-27.5475254541
 20
-38.5546857092
 30
0.0
 10
-27.526821053
 20
-38.6559324202
 30
0.0
 10
-27.448143573
 20
-38.8510853362
 30
0.0
 10
-27.3184661216
 20
-39.0167924706
 30
0.0
 10
-27.2411306941
 20
-39.0853415095
 30
0.0
  0
SPLINE
  5
338
100
AcDbEntity
  8
0
100
AcDbSpline
 62
7
  6
CONTINUOUS
 70
0
 71
3
 72
9
 73
5
 74
0
 42
0.0000001
 43
0.0000001
 44
0.0000000001
 40
0.0
 40
0.0
 40
0.0
 40
0.0
 40
0.4999980061
 40
1.0
 40
1.0
 40
1.0
 40
1.0
 10
-9.6930792292
 20
-48.8636191907
 30
0.0
 10
-9.672374828
 20
-48.9648659017
 30
0.0
 10
-9.5936973481
 20
-49.1600188177
 30
0.0
 10
-9.4640198967
 20
-49.3257259521
 30
0.0
 10
-9.3866844691
 20
-49.394274991
 30
0.0
  0
SPLINE
  5
339
100
AcDbEntity
  8
0
100
AcDbSpline
 62
7
  6
CONTINUOUS
 70
0
 71
3
 72
9
 73
5
 74
0
 42
0.0000001
 43
0.0000001
 44
0.0000000001
 40
0.0
 40
0.0
 40
0.0
 40
0.0
 40
0.4999980061
 40
1.0
 40
1.0
 40
1.0
 40
1.0
 10
25.6622598301
 20
-69.2773488571
 30
0.0
 10
25.6829642313
 20
-69.3785955681
 30
0.0
 10
25.7616417112
 20
-69.5737484841
 30
0.0
 10
25.8913191627
 20
-69.7394556185
 30
0.0
 10
25.9686545902
 20
-69.8080046574
 30
0.0
  0
SPLINE
  5
33A
100
AcDbEntity
  8
0
100
AcDbSpline
 62
7
  6
CONTINUOUS
 70
0
 71
3
 72
9
 73
5
 74
0
 42
0.0000001
 43
0.0000001
 44
0.0000000001
 40
0.0
 40
0.0
 40
0.0
 40
0.0
 40
0.4999980061
 40
1.0
 40
1.0
 40
1.0
 40
1.0
 10
7.8078136052
 20
-58.9684153756
 30
0.0
 10
7.8285180064
 20
-59.0696620866
 30
0.0
 10
7.9071954863
 20
-59.2648150025
 30
0.0
 10
8.0368729377
 20
-59.430522137
 30
0.0
 10
8.1142083652
 20
-59.4990711758
 30
0.0
  0
SPLINE
  5
33B
100
AcDbEntity
  8
0
100
AcDbSpline
 62
7
  6
CONTINUOUS
 70
0
 71
3
 72
11
 73
7
 74
0
 42
0.0000001
 43
0.0000001
 44
0.0000000001
 40
0.0
 40
0.0
 40
0.0
 40
0.0
 40
0.2372127764
 40
0.4999938932
 40
0.7627783341
 40
1.0
 40
1.0
 40
1.0
 40
1.0
 10
3.0112682568
 20
-52.8037311089
 30
0.0
 10
3.0112682568
 20
-52.861684059
 30
0.0
 10
3.0330071266
 20
-52.9839149792
 30
0.0
 10
3.1087762547
 20
-53.1556786292
 30
0.0
 10
3.2196449017
 20
-53.3071800311
 30
0.0
 10
3.314631848
 20
-53.3871245828
 30
0.0
 10
3.3648216474
 20
-53.416103544
 30
0.0
  0
SPLINE
  5
33C
100
AcDbEntity
  8
0
100
AcDbSpline
 62
7
  6
CONTINUOUS
 70
0
 71
3
 72
11
 73
7
 74
0
 42
0.0000001
 43
0.0000001
 44
0.0000000001
 40
0.0
 40
0.0
 40
0.0
 40
0.0
 40
0.2372127764
 40
0.4999938932
 40
0.7627783341
 40
1.0
 40
1.0
 40
1.0
 40
1.0
 10
-32.3440708025
 20
-32.3900014425
 30
0.0
 10
-32.3440708025
 20
-32.4479543926
 30
0.0
 10
-32.3223319328
 20
-32.5701853128
 30
0.0
 10
-32.2465628047
 20
-32.7419489628
 30
0.0
 10
-32.1356941576
 20
-32.8934503647
 30
0.0
 10
-32.0407072113
 20
-32.9733949165
 30
0.0
 10
-31.9905174119
 20
-33.0023738776
 30
0.0
  0
SPLINE
  5
33D
100
AcDbEntity
  8
ASSI
100
AcDbSpline
 62
7
  6
CONTINUOUS
 70
0
 71
3
 72
11
 73
7
 74
0
 42
0.0000001
 43
0.0000001
 44
0.0000000001
 40
0.0
 40
0.0
 40
0.0
 40
0.0
 40
0.2450134225
 40
0.5158997548
 40
0.777861929
 40
1.0
 40
1.0
 40
1.0
 40
1.0
 10
-5.5624014651
 20
-9.8860345066
 30
0.0
 10
-5.5624014651
 20
-10.0363308286
 30
0.0
 10
-5.4981535106
 20
-10.3528091359
 30
0.0
 10
-5.2827475006
 20
-10.7835578296
 30
0.0
 10
-4.9787758353
 20
-11.1385275915
 30
0.0
 10
-4.7200857001
 20
-11.3021520161
 30
0.0
 10
-4.5900845128
 20
-11.3429882497
 30
0.0
  0
SPLINE
  5
33E
100
AcDbEntity
  8
ASSI
100
AcDbSpline
 62
7
  6
CONTINUOUS
 70
0
 71
3
 72
9
 73
5
 74
0
 42
0.0000001
 43
0.0000001
 44
0.0000000001
 40
0.0
 40
0.0
 40
0.0
 40
0.0
 40
0.2335161047
 40
1.0
 40
1.0
 40
1.0
 40
1.0
 10
29.7929375942
 20
-30.2997641729
 30
0.0
 10
29.7929375942
 20
-30.3371908777
 30
0.0
 10
29.8014298297
 20
-30.4974471392
 30
0.0
 10
29.8400898843
 20
-30.6552877768
 30
0.0
 10
29.8811407196
 20
-30.7710739549
 30
0.0
  0
SPLINE
  5
33F
100
AcDbEntity
  8
ASSI
100
AcDbSpline
 62
7
  6
CONTINUOUS
 70
0
 71
3
 72
9
 73
5
 74
0
 42
0.0000001
 43
0.0000001
 44
0.0000000001
 40
0.0
 40
0.0
 40
0.0
 40
0.0
 40
0.5265425119
 40
1.0
 40
1.0
 40
1.0
 40
1.0
 10
3.0113420987
 20
-28.2719570204
 30
0.0
 10
3.2046658512
 20
-28.3295325255
 30
0.0
 10
3.5863166644
 20
-28.3993068842
 30
0.0
 10
3.9746918719
 20
-28.3511472967
 30
0.0
 10
4.1474742761
 20
-28.2959707724
 30
0.0
  0
SPLINE
  5
340
100
AcDbEntity
  8
ASSI
100
AcDbSpline
 62
7
  6
CONTINUOUS
 70
0
 71
3
 72
17
 73
13
 74
0
 42
0.0000001
 43
0.0000001
 44
0.0000000001
 40
0.0
 40
0.0
 40
0.0
 40
0.0
 40
0.1260379392
 40
0.2644122304
 40
0.4087659839
 40
0.5517514725
 40
0.6862398999
 40
0.8065709733
 40
0.8605684624
 40
0.9104092186
 40
0.9565782979
 40
1.0
 40
1.0
 40
1.0
 40
1.0
 10
-14.8431779682
 20
-14.5904266306
 30
0.0
 10
-14.8431779682
 20
-14.933383029
 30
0.0
 10
-14.7524975863
 20
-15.6536857587
 30
0.0
 10
-14.4104615749
 20
-16.7171759657
 30
0.0
 10
-13.8796191993
 20
-17.752396774
 30
0.0
 10
-13.1986775945
 20
-18.6827715112
 30
0.0
 10
-12.417883583
 20
-19.4401887602
 30
0.0
 10
-11.7033710256
 20
-19.8986420308
 30
0.0
 10
-11.1319486325
 20
-20.1177195139
 30
0.0
 10
-10.7307085499
 20
-20.2029437082
 30
0.0
 10
-10.3490874188
 20
-20.2126371212
 30
0.0
 10
-10.1072145487
 20
-20.1664217697
 30
0.0
 10
-9.9946613476
 20
-20.1304789059
 30
0.0
  0
SPLINE
  5
341
100
AcDbEntity
  8
ASSI
100
AcDbSpline
 62
7
  6
CONTINUOUS
 70
0
 71
3
 72
11
 73
7
 74
0
 42
0.0000001
 43
0.0000001
 44
0.0000000001
 40
0.0
 40
0.0
 40
0.0
 40
0.0
 40
0.2190090394
 40
0.4555070245
 40
0.7151312844
 40
1.0
 40
1.0
 40
1.0
 40
1.0
 10
-14.2116565414
 20
-12.8269425769
 30
0.0
 10
-14.3155542743
 20
-12.9214611243
 30
0.0
 10
-14.503930221
 20
-13.1500410762
 30
0.0
 10
-14.7013799403
 20
-13.5680542416
 30
0.0
 10
-14.8194870397
 20
-14.0577350592
 30
0.0
 10
-14.8431779682
 20
-14.4077303559
 30
0.0
 10
-14.8431779682
 20
-14.5904266306
 30
0.0
  0
SPLINE
  5
342
100
AcDbEntity
  8
ASSI
100
AcDbSpline
 62
7
  6
CONTINUOUS
 70
0
 71
3
 72
9
 73
5
 74
0
 42
0.0000001
 43
0.0000001
 44
0.0000000001
 40
0.0
 40
0.0
 40
0.0
 40
0.0
 40
0.2349860509
 40
1.0
 40
1.0
 40
1.0
 40
1.0
 10
29.8272005212
 20
-30.0528789482
 30
0.0
 10
29.8214107811
 20
-30.0715689031
 30
0.0
 10
29.8003658854
 20
-30.1522156088
 30
0.0
 10
29.7929375942
 20
-30.2360650613
 30
0.0
 10
29.7929375942
 20
-30.2997641729
 30
0.0
  0
SPLINE
  5
343
100
AcDbEntity
  8
ASSI
100
AcDbSpline
 62
7
  6
CONTINUOUS
 70
0
 71
3
 72
12
 73
8
 74
0
 42
0.0000001
 43
0.0000001
 44
0.0000000001
 40
0.0
 40
0.0
 40
0.0
 40
0.0
 40
0.2168919694
 40
0.3440112661
 40
0.4788478702
 40
0.7522959749
 40
1.0
 40
1.0
 40
1.0
 40
1.0
 10
-7.1192218484
 20
40.2673837385
 30
0.0
 10
-7.1597164218
 20
40.1364141029
 30
0.0
 10
-7.1612249674
 20
39.9099677163
 30
0.0
 10
-7.0933733708
 20
39.6152836114
 30
0.0
 10
-6.9698403395
 20
39.2987067856
 30
0.0
 10
-6.7438763001
 20
38.9460895455
 30
0.0
 10
-6.4934809615
 20
38.7212466717
 30
0.0
 10
-6.3578965939
 20
38.6429619571
 30
0.0
  0
SPLINE
  5
344
100
AcDbEntity
  8
ASSI
100
AcDbSpline
 62
7
  6
CONTINUOUS
 70
0
 71
3
 72
9
 73
5
 74
0
 42
0.0000001
 43
0.0000001
 44
0.0000000001
 40
0.0
 40
0.0
 40
0.0
 40
0.0
 40
0.2349860509
 40
1.0
 40
1.0
 40
1.0
 40
1.0
 10
-5.5281385381
 20
-9.6391492818
 30
0.0
 10
-5.5339282782
 20
-9.6578392367
 30
0.0
 10
-5.5549731739
 20
-9.7384859424
 30
0.0
 10
-5.5624014651
 20
-9.8223353949
 30
0.0
 10
-5.5624014651
 20
-9.8860345066
 30
0.0
  0
SPLINE
  5
345
100
AcDbEntity
  8
ASSI
100
AcDbSpline
 62
7
  6
CONTINUOUS
 70
0
 71
3
 72
9
 73
5
 74
0
 42
0.0000001
 43
0.0000001
 44
0.0000000001
 40
0.0
 40
0.0
 40
0.0
 40
0.0
 40
0.4999980061
 40
1.0
 40
1.0
 40
1.0
 40
1.0
 10
7.8078136052
 20
-58.9684153756
 30
0.0
 10
7.8285180064
 20
-59.0696620866
 30
0.0
 10
7.9071954863
 20
-59.2648150025
 30
0.0
 10
8.0368729377
 20
-59.430522137
 30
0.0
 10
8.1142083652
 20
-59.4990711758
 30
0.0
  0
SPLINE
  5
346
100
AcDbEntity
  8
ASSI
100
AcDbSpline
 62
7
  6
CONTINUOUS
 70
0
 71
3
 72
11
 73
7
 74
0
 42
0.0000001
 43
0.0000001
 44
0.0000000001
 40
0.0
 40
0.0
 40
0.0
 40
0.0
 40
0.2392671195
 40
0.5042865989
 40
0.7669534802
 40
1.0
 40
1.0
 40
1.0
 40
1.0
 10
-34.7393950238
 20
-35.0484991278
 30
0.0
 10
-34.7393950238
 20
-35.125670451
 30
0.0
 10
-34.7092505072
 20
-35.2883989566
 30
0.0
 10
-34.6053786251
 20
-35.5150587312
 30
0.0
 10
-34.4549014922
 20
-35.7113145627
 30
0.0
 10
-34.3263008335
 20
-35.8114863692
 30
0.0
 10
-34.2591156121
 20
-35.8451897856
 30
0.0
  0
SPLINE
  5
347
100
AcDbEntity
  8
ASSI
100
AcDbSpline
 62
7
  6
CONTINUOUS
 70
0
 71
3
 72
11
 73
7
 74
0
 42
0.0000001
 43
0.0000001
 44
0.0000000001
 40
0.0
 40
0.0
 40
0.0
 40
0.0
 40
0.2392671195
 40
0.5042865989
 40
0.7669534802
 40
1.0
 40
1.0
 40
1.0
 40
1.0
 10
-2.5660364798
 20
-53.6249931242
 30
0.0
 10
-2.5660364798
 20
-53.7021644474
 30
0.0
 10
-2.5358919632
 20
-53.864892953
 30
0.0
 10
-2.4320200811
 20
-54.0915527276
 30
0.0
 10
-2.2815429483
 20
-54.2878085591
 30
0.0
 10
-2.1529422895
 20
-54.3879803656
 30
0.0
 10
-2.0857570681
 20
-54.421683782
 30
0.0
  0
SPLINE
  5
348
100
AcDbEntity
  8
ASSI
100
AcDbSpline
 62
7
  6
CONTINUOUS
 70
0
 71
3
 72
9
 73
5
 74
0
 42
0.0000001
 43
0.0000001
 44
0.0000000001
 40
0.0
 40
0.0
 40
0.0
 40
0.0
 40
0.4999980061
 40
1.0
 40
1.0
 40
1.0
 40
1.0
 10
-27.5475254541
 20
-38.5546857092
 30
0.0
 10
-27.526821053
 20
-38.6559324202
 30
0.0
 10
-27.448143573
 20
-38.8510853362
 30
0.0
 10
-27.3184661216
 20
-39.0167924706
 30
0.0
 10
-27.2411306941
 20
-39.0853415095
 30
0.0
  0
SPLINE
  5
349
100
AcDbEntity
  8
ASSI
100
AcDbSpline
 62
7
  6
CONTINUOUS
 70
0
 71
3
 72
9
 73
5
 74
0
 42
0.0000001
 43
0.0000001
 44
0.0000000001
 40
0.0
 40
0.0
 40
0.0
 40
0.0
 40
0.4999980061
 40
1.0
 40
1.0
 40
1.0
 40
1.0
 10
-9.6930792292
 20
-48.8636191907
 30
0.0
 10
-9.672374828
 20
-48.9648659017
 30
0.0
 10
-9.5936973481
 20
-49.1600188177
 30
0.0
 10
-9.4640198967
 20
-49.3257259521
 30
0.0
 10
-9.3866844691
 20
-49.394274991
 30
0.0
  0
SPLINE
  5
34A
100
AcDbEntity
  8
ASSI
100
AcDbSpline
 62
7
  6
CONTINUOUS
 70
0
 71
3
 72
9
 73
5
 74
0
 42
0.0000001
 43
0.0000001
 44
0.0000000001
 40
0.0
 40
0.0
 40
0.0
 40
0.0
 40
0.4999980061
 40
1.0
 40
1.0
 40
1.0
 40
1.0
 10
25.6622598301
 20
-69.2773488571
 30
0.0
 10
25.6829642313
 20
-69.3785955681
 30
0.0
 10
25.7616417112
 20
-69.5737484841
 30
0.0
 10
25.8913191627
 20
-69.7394556185
 30
0.0
 10
25.9686545902
 20
-69.8080046574
 30
0.0
  0
SPLINE
  5
34B
100
AcDbEntity
  8
ASSI
100
AcDbSpline
 62
7
  6
CONTINUOUS
 70
0
 71
3
 72
11
 73
7
 74
0
 42
0.0000001
 43
0.0000001
 44
0.0000000001
 40
0.0
 40
0.0
 40
0.0
 40
0.0
 40
0.222177062
 40
0.4613136838
 40
0.7202820096
 40
1.0
 40
1.0
 40
1.0
 40
1.0
 10
28.8206657701
 20
14.8121167185
 30
0.0
 10
28.998125106
 20
14.5839499689
 30
0.0
 10
29.313795425
 20
14.0675997741
 30
0.0
 10
29.6434649201
 20
13.1855994511
 30
0.0
 10
29.8409716467
 20
12.1893055049
 30
0.0
 10
29.8813259419
 20
11.4874189878
 30
0.0
 10
29.8813259419
 20
11.1235045406
 30
0.0
  0
SPLINE
  5
34C
100
AcDbEntity
  8
ASSI
100
AcDbSpline
 62
7
  6
CONTINUOUS
 70
0
 71
3
 72
9
 73
5
 74
0
 42
0.0000001
 43
0.0000001
 44
0.0000000001
 40
0.0
 40
0.0
 40
0.0
 40
0.0
 40
0.5169851367
 40
1.0
 40
1.0
 40
1.0
 40
1.0
 10
-50.4937354678
 20
60.5856351951
 30
0.0
 10
-50.1727915831
 20
60.5186547912
 30
0.0
 10
-49.5592359668
 20
60.3465552524
 30
0.0
 10
-48.9881746112
 20
60.0572497481
 30
0.0
 10
-48.7339650917
 20
59.886349767
 30
0.0
  0
SPLINE
  5
34D
100
AcDbEntity
  8
ASSI
100
AcDbSpline
 62
7
  6
CONTINUOUS
 70
0
 71
3
 72
9
 73
5
 74
0
 42
0.0000001
 43
0.0000001
 44
0.0000000001
 40
0.0
 40
0.0
 40
0.0
 40
0.0
 40
0.2650732773
 40
1.0
 40
1.0
 40
1.0
 40
1.0
 10
28.8206657701
 20
14.8121167185
 30
0.0
 10
28.7633347744
 20
14.8858295321
 30
0.0
 10
28.537773597
 20
15.1564233459
 30
0.0
 10
28.2739095574
 20
15.3962277434
 30
0.0
 10
28.0614050543
 20
15.5441318066
 30
0.0
  0
SPLINE
  5
34E
100
AcDbEntity
  8
0
100
AcDbSpline
 62
7
  6
CONTINUOUS
 70
0
 71
3
 72
13
 73
9
 74
0
 42
0.0000001
 43
0.0000001
 44
0.0000000001
 40
0.0
 40
0.0
 40
0.0
 40
0.0
 40
0.1080960602
 40
0.218229995
 40
0.3322555856
 40
0.4517055963
 40
0.7105991257
 40
1.0
 40
1.0
 40
1.0
 40
1.0
 10
31.9521519043
 20
-84.49029979
 30
0.0
 10
31.7882177051
 20
-84.3956462097
 30
0.0
 10
31.4730315297
 20
-84.1756985665
 30
0.0
 10
31.0565792436
 20
-83.7658225879
 30
0.0
 10
30.6983931014
 20
-83.279342262
 30
0.0
 10
30.2923015951
 20
-82.5157431196
 30
0.0
 10
29.9576338779
 20
-81.3827961909
 30
0.0
 10
29.8813259419
 20
-80.4197305361
 30
0.0
 10
29.8813259419
 20
-79.9129313218
 30
0.0
  0
SPLINE
  5
34F
100
AcDbEntity
  8
0
100
AcDbSpline
 62
7
  6
CONTINUOUS
 70
0
 71
3
 72
13
 73
9
 74
0
 42
0.0000001
 43
0.0000001
 44
0.0000000001
 40
0.0
 40
0.0
 40
0.0
 40
0.0
 40
0.1080932255
 40
0.2182247615
 40
0.3322487447
 40
0.4516981615
 40
0.7105936713
 40
1.0
 40
1.0
 40
1.0
 40
1.0
 10
-44.7689338545
 20
-40.1925064139
 30
0.0
 10
-44.6049793825
 20
-40.2871716994
 30
0.0
 10
-44.2568691074
 20
-40.450193602
 30
0.0
 10
-43.6936104883
 20
-40.6059482515
 30
0.0
 10
-43.0931312258
 20
-40.6729204645
 30
0.0
 10
-42.2286597536
 20
-40.6427977826
 30
0.0
 10
-41.0799851144
 20
-40.366088569
 30
0.0
 10
-40.2076599894
 20
-39.950549393
 30
0.0
 10
-39.768692005
 20
-39.6970947804
 30
0.0
  0
SPLINE
  5
350
100
AcDbEntity
  8
0
100
AcDbSpline
 62
7
  6
CONTINUOUS
 70
0
 71
3
 72
13
 73
9
 74
0
 42
0.0000001
 43
0.0000001
 44
0.0000000001
 40
0.0
 40
0.0
 40
0.0
 40
0.0
 40
0.1142585671
 40
0.2375416221
 40
0.5000060652
 40
0.7624671883
 40
0.8857463667
 40
1.0
 40
1.0
 40
1.0
 40
1.0
 10
23.5173649112
 20
28.2210183754
 30
0.0
 10
23.6960307816
 20
28.1178589411
 30
0.0
 10
24.0489722038
 20
27.8704752004
 30
0.0
 10
24.7096670724
 20
27.2520162061
 30
0.0
 10
25.4076329515
 20
26.2987151055
 30
0.0
 10
25.8842321624
 20
25.2176148052
 30
0.0
 10
26.0894734631
 20
24.3362261155
 30
0.0
 10
26.1272338001
 20
23.9068928544
 30
0.0
 10
26.1272338001
 20
23.7005928634
 30
0.0
  0
SPLINE
  5
351
100
AcDbEntity
  8
ASSI
100
AcDbSpline
 62
7
  6
CONTINUOUS
 70
0
 71
3
 72
13
 73
9
 74
0
 42
0.0000001
 43
0.0000001
 44
0.0000000001
 40
0.0
 40
0.0
 40
0.0
 40
0.0
 40
0.0938074881
 40
0.1899921359
 40
0.2941015653
 40
0.4095331891
 40
0.6783617147
 40
1.0
 40
1.0
 40
1.0
 40
1.0
 10
26.5746437699
 20
16.0149431542
 30
0.0
 10
26.5376604604
 20
16.0277900387
 30
0.0
 10
26.4657932218
 20
16.063765579
 30
0.0
 10
26.3729138201
 20
16.1457685934
 30
0.0
 10
26.2954408084
 20
16.2534816326
 30
0.0
 10
26.2077892182
 20
16.4384331054
 30
0.0
 10
26.1411194443
 20
16.7283367931
 30
0.0
 10
26.1272338001
 20
16.975054647
 30
0.0
 10
26.1272338001
 20
17.1092922093
 30
0.0
  0
SPLINE
  5
352
100
AcDbEntity
  8
ASSI
100
AcDbSpline
 62
7
  6
CONTINUOUS
 70
0
 71
3
 72
9
 73
5
 74
0
 42
0.0000001
 43
0.0000001
 44
0.0000000001
 40
0.0
 40
0.0
 40
0.0
 40
0.0
 40
0.4907886642
 40
1.0
 40
1.0
 40
1.0
 40
1.0
 10
-51.1877058134
 20
60.9616160854
 30
0.0
 10
-51.0968741116
 20
60.8677988456
 30
0.0
 10
-50.8809466948
 20
60.7044055756
 30
0.0
 10
-50.6263632381
 20
60.6133143691
 30
0.0
 10
-50.4937354678
 20
60.5856351951
 30
0.0
  0
SPLINE
  5
353
100
AcDbEntity
  8
0
100
AcDbSpline
 62
7
  6
CONTINUOUS
 70
0
 71
3
 72
10
 73
6
 74
0
 42
0.0000001
 43
0.0000001
 44
0.0000000001
 40
0.0
 40
0.0
 40
0.0
 40
0.0
 40
0.459756245
 40
0.7193410535
 40
1.0
 40
1.0
 40
1.0
 40
1.0
 10
-50.3500761149
 20
70.4089171795
 30
0.0
 10
-50.1300061138
 20
70.4415937486
 30
0.0
 10
-49.7719878414
 20
70.4101767855
 30
0.0
 10
-49.3133659959
 20
70.2548152856
 30
0.0
 10
-49.0786974556
 20
70.1370749437
 30
0.0
 10
-48.9610801604
 20
70.0691641915
 30
0.0
  0
SPLINE
  5
354
100
AcDbEntity
  8
0
100
AcDbSpline
 62
250
  6
CONTINUOUS
 70
0
 71
3
 72
9
 73
5
 74
0
 42
0.0000001
 43
0.0000001
 44
0.0000000001
 40
0.0
 40
0.0
 40
0.0
 40
0.0
 40
0.2405748944
 40
1.0
 40
1.0
 40
1.0
 40
1.0
 10
-48.4882612553
 20
69.7961410554
 30
0.0
 10
-48.7248650771
 20
69.6735364805
 30
0.0
 10
-49.7216228335
 20
69.1896467318
 30
0.0
 10
-50.7654631279
 20
68.8050914322
 30
0.0
 10
-51.5709490493
 20
68.5625498537
 30
0.0
  0
SPLINE
  5
355
100
AcDbEntity
  8
0
100
AcDbSpline
 62
7
  6
CONTINUOUS
 70
0
 71
3
 72
13
 73
9
 74
0
 42
0.0000001
 43
0.0000001
 44
0.0000000001
 40
0.0
 40
0.0
 40
0.0
 40
0.0
 40
0.2931361933
 40
0.5470385723
 40
0.6630995147
 40
0.7750260127
 40
0.8861697374
 40
1.0
 40
1.0
 40
1.0
 40
1.0
 10
-51.5709490493
 20
68.5625498537
 30
0.0
 10
-51.5709490493
 20
68.7990970527
 30
0.0
 10
-51.5272798249
 20
69.2430135746
 30
0.0
 10
-51.3228429605
 20
69.7494765164
 30
0.0
 10
-51.0777155164
 20
70.0546547496
 30
0.0
 10
-50.863799301
 20
70.2288224376
 30
0.0
 10
-50.6185587773
 20
70.3510062359
 30
0.0
 10
-50.4409356795
 20
70.3954261138
 30
0.0
 10
-50.3500761149
 20
70.4089171795
 30
0.0
  0
SPLINE
  5
356
100
AcDbEntity
  8
0
100
AcDbSpline
 62
7
  6
CONTINUOUS
 70
0
 71
3
 72
11
 73
7
 74
0
 42
0.0000001
 43
0.0000001
 44
0.0000000001
 40
0.0
 40
0.0
 40
0.0
 40
0.0
 40
0.2857742752
 40
0.5454338417
 40
0.7814002957
 40
1.0
 40
1.0
 40
1.0
 40
1.0
 10
-46.8397598168
 20
-35.6151379457
 30
0.0
 10
-46.8397598168
 20
-36.0576916986
 30
0.0
 10
-46.7807951313
 20
-36.9044211829
 30
0.0
 10
-46.4857522444
 20
-38.0856461498
 30
0.0
 10
-45.9922031179
 20
-39.0862942476
 30
0.0
 10
-45.5220449609
 20
-39.6244970818
 30
0.0
 10
-45.2639167375
 20
-39.8435174082
 30
0.0
  0
SPLINE
  5
357
100
AcDbEntity
  8
ASSI
100
AcDbSpline
 62
7
  6
CONTINUOUS
 70
0
 71
3
 72
11
 73
7
 74
0
 42
0.0000001
 43
0.0000001
 44
0.0000000001
 40
0.0
 40
0.0
 40
0.0
 40
0.0
 40
0.2364804056
 40
0.4984388538
 40
0.761244125
 40
1.0
 40
1.0
 40
1.0
 40
1.0
 10
-22.3031545097
 20
-20.9993020539
 30
0.0
 10
-22.3031545097
 20
-21.0904604377
 30
0.0
 10
-22.2695031303
 20
-21.2827321467
 30
0.0
 10
-22.1516965119
 20
-21.553801581
 30
0.0
 10
-21.9786827351
 20
-21.7945180629
 30
0.0
 10
-21.8302989047
 20
-21.9230266265
 30
0.0
 10
-21.7515954173
 20
-21.9707372127
 30
0.0
  0
SPLINE
  5
358
100
AcDbEntity
  8
ASSI
100
AcDbSpline
 62
7
  6
CONTINUOUS
 70
0
 71
3
 72
11
 73
7
 74
0
 42
0.0000001
 43
0.0000001
 44
0.0000000001
 40
0.0
 40
0.0
 40
0.0
 40
0.0
 40
0.222177062
 40
0.4613136838
 40
0.7202820096
 40
1.0
 40
1.0
 40
1.0
 40
1.0
 10
-47.9004199886
 20
59.1099100946
 30
0.0
 10
-47.7229606527
 20
58.881743345
 30
0.0
 10
-47.4072903337
 20
58.3653931501
 30
0.0
 10
-47.0776208386
 20
57.4833928272
 30
0.0
 10
-46.880114112
 20
56.4870988809
 30
0.0
 10
-46.8397598168
 20
55.7852123639
 30
0.0
 10
-46.8397598168
 20
55.4212979167
 30
0.0
  0
SPLINE
  5
359
100
AcDbEntity
  8
ASSI
100
AcDbSpline
 62
7
  6
CONTINUOUS
 70
0
 71
3
 72
9
 73
5
 74
0
 42
0.0000001
 43
0.0000001
 44
0.0000000001
 40
0.0
 40
0.0
 40
0.0
 40
0.0
 40
0.4984378733
 40
1.0
 40
1.0
 40
1.0
 40
1.0
 10
-48.7339650917
 20
59.886349767
 30
0.0
 10
-48.576390766
 20
59.7804156961
 30
0.0
 10
-48.2759114197
 20
59.5433816552
 30
0.0
 10
-48.0177197917
 20
59.2607272643
 30
0.0
 10
-47.9004199886
 20
59.1099100946
 30
0.0
  0
SPLINE
  5
35A
100
AcDbEntity
  8
ASSI
100
AcDbSpline
 62
7
  6
CONTINUOUS
 70
0
 71
3
 72
10
 73
6
 74
0
 42
0.0000001
 43
0.0000001
 44
0.0000000001
 40
0.0
 40
0.0
 40
0.0
 40
0.0
 40
0.5117089126
 40
0.7569006911
 40
1.0
 40
1.0
 40
1.0
 40
1.0
 10
-51.5709490493
 20
61.9712491996
 30
0.0
 10
-51.5709490493
 20
61.7830308469
 30
0.0
 10
-51.525382686
 20
61.5000487535
 30
0.0
 10
-51.3615854199
 20
61.1685577264
 30
0.0
 10
-51.2499031198
 20
61.0258577487
 30
0.0
 10
-51.1877058134
 20
60.9616160854
 30
0.0
  0
SPLINE
  5
35B
100
AcDbEntity
  8
SUPERFICI
100
AcDbSpline
 62
250
  6
CONTINUOUS
 70
0
 71
3
 72
19
 73
15
 74
0
 42
0.0000001
 43
0.0000001
 44
0.0000000001
 40
0.0
 40
0.0
 40
0.0
 40
0.0
 40
0.142500602
 40
0.209218491
 40
0.2726282922
 40
0.3901046116
 40
0.4456139326
 40
0.4999888311
 40
0.5543642829
 40
0.6098751834
 40
0.7273570575
 40
0.7907703573
 40
0.857491958
 40
1.0
 40
1.0
 40
1.0
 40
1.0
 10
-25.2730029907
 20
82.9783534064
 30
0.0
 10
-25.2730029907
 20
83.1168940958
 30
0.0
 10
-25.2582785747
 20
83.3210984439
 30
0.0
 10
-25.2004560913
 20
83.5802629402
 30
0.0
 10
-25.1218738108
 20
83.808132072
 30
0.0
 10
-25.0040571094
 20
84.0101494263
 30
0.0
 10
-24.8484500607
 20
84.1684838439
 30
0.0
 10
-24.7174859092
 20
84.2614645105
 30
0.0
 10
-24.5714713235
 20
84.3283766663
 30
0.0
 10
-24.3565331551
 20
84.3839483497
 30
0.0
 10
-24.122662777
 20
84.3849516839
 30
0.0
 10
-23.8860220031
 20
84.3390539975
 30
0.0
 10
-23.6326582668
 20
84.2595303001
 30
0.0
 10
-23.4484434304
 20
84.1701688446
 30
0.0
 10
-23.3284593424
 20
84.1008915359
 30
0.0
  0
SPLINE
  5
35C
100
AcDbEntity
  8
SUPERFICI
100
AcDbSpline
 62
7
  6
CONTINUOUS
 70
0
 71
3
 72
11
 73
7
 74
0
 42
0.0000001
 43
0.0000001
 44
0.0000000001
 40
0.0
 40
0.0
 40
0.0
 40
0.0
 40
0.2372504025
 40
0.5000654713
 40
0.7625988039
 40
1.0
 40
1.0
 40
1.0
 40
1.0
 10
-25.2730029907
 20
82.9783534064
 30
0.0
 10
-25.298097822
 20
82.9928428475
 30
0.0
 10
-25.3564557518
 20
83.0139650458
 30
0.0
 10
-25.4497636733
 20
83.024216223
 30
0.0
 10
-25.5429829568
 20
83.0136519565
 30
0.0
 10
-25.6014455999
 20
82.9928520568
 30
0.0
 10
-25.6265563812
 20
82.9783534064
 30
0.0
  0
SPLINE
  5
35D
100
AcDbEntity
  8
SUPERFICI
100
AcDbSpline
 62
7
  6
CONTINUOUS
 70
0
 71
3
 72
15
 73
11
 74
0
 42
0.0000001
 43
0.0000001
 44
0.0000000001
 40
0.0
 40
0.0
 40
0.0
 40
0.0
 40
0.1449332302
 40
0.274672991
 40
0.3914075532
 40
0.5003017565
 40
0.6092090421
 40
0.7259481374
 40
0.8553819363
 40
1.0
 40
1.0
 40
1.0
 40
1.0
 10
-23.3284593424
 20
84.1008915359
 30
0.0
 10
-23.3284593424
 20
84.1135577094
 30
0.0
 10
-23.3304012557
 20
84.137641986
 30
0.0
 10
-23.3401330557
 20
84.1707465491
 30
0.0
 10
-23.3565621866
 20
84.1976180167
 30
0.0
 10
-23.3793687705
 20
84.2168527199
 30
0.0
 10
-23.4075102337
 20
84.2267309803
 30
0.0
 10
-23.4389452961
 20
84.2274309221
 30
0.0
 10
-23.4724662637
 20
84.2195310542
 30
0.0
 10
-23.4942908392
 20
84.2092600772
 30
0.0
 10
-23.5052360377
 20
84.2029404568
 30
0.0
  0
SPLINE
  5
35E
100
AcDbEntity
  8
SUPERFICI
100
AcDbSpline
 62
7
  6
CONTINUOUS
 70
0
 71
3
 72
19
 73
15
 74
0
 42
0.0000001
 43
0.0000001
 44
0.0000000001
 40
0.0
 40
0.0
 40
0.0
 40
0.0
 40
0.1447072024
 40
0.2113934883
 40
0.2744182475
 40
0.3908475485
 40
0.4459321907
 40
0.4999889433
 40
0.5540462094
 40
0.6091323358
 40
0.7255669836
 40
0.7885951915
 40
0.8552851959
 40
1.0
 40
1.0
 40
1.0
 40
1.0
 10
-25.6265563812
 20
82.9783534064
 30
0.0
 10
-25.6265563812
 20
83.1303771331
 30
0.0
 10
-25.6086292424
 20
83.3535020534
 30
0.0
 10
-25.5400602963
 20
83.634103333
 30
0.0
 10
-25.4497631799
 20
83.8768169468
 30
0.0
 10
-25.3184316657
 20
84.090207377
 30
0.0
 10
-25.1489001689
 20
84.2571221719
 30
0.0
 10
-25.0077124849
 20
84.3558968167
 30
0.0
 10
-24.851567718
 20
84.4287647201
 30
0.0
 10
-24.6222354186
 20
84.4921036219
 30
0.0
 10
-24.3717572666
 20
84.4991228124
 30
0.0
 10
-24.116402555
 20
84.4559465206
 30
0.0
 10
-23.8390997536
 20
84.3750092099
 30
0.0
 10
-23.6368972424
 20
84.2789599863
 30
0.0
 10
-23.5052360377
 20
84.2029404568
 30
0.0
  0
SPLINE
  5
35F
100
AcDbEntity
  8
SUPERFICI
100
AcDbSpline
 62
250
  6
CONTINUOUS
 70
0
 71
3
 72
15
 73
11
 74
0
 42
0.0000001
 43
0.0000001
 44
0.0000000001
 40
0.0
 40
0.0
 40
0.0
 40
0.0
 40
0.1123336622
 40
0.2348340218
 40
0.3653234455
 40
0.5000062022
 40
0.6346880478
 40
0.7651748735
 40
0.8876712411
 40
1.0
 40
1.0
 40
1.0
 40
1.0
 10
49.1499857292
 20
42.2527457198
 30
0.0
 10
49.2812064884
 20
42.1769804981
 30
0.0
 10
49.5431582014
 20
41.9966130083
 30
0.0
 10
49.9087464755
 20
41.6641985814
 30
0.0
 10
50.24776434
 20
41.2642717303
 30
0.0
 10
50.5461403968
 20
40.8134210046
 30
0.0
 10
50.7873991854
 20
40.3295976101
 30
0.0
 10
50.9642323216
 20
39.8360450565
 30
0.0
 10
51.0693096573
 20
39.3532431394
 30
0.0
 10
51.0945293775
 20
39.0362138351
 30
0.0
 10
51.0945293775
 20
38.884697327
 30
0.0
  0
SPLINE
  5
360
100
AcDbEntity
  8
SUPERFICI
100
AcDbSpline
 62
7
  6
CONTINUOUS
 70
0
 71
3
 72
15
 73
11
 74
0
 42
0.0000001
 43
0.0000001
 44
0.0000000001
 40
0.0
 40
0.0
 40
0.0
 40
0.0
 40
0.1449332302
 40
0.274672991
 40
0.3914075532
 40
0.5003017565
 40
0.6092090421
 40
0.7259481374
 40
0.8553819363
 40
1.0
 40
1.0
 40
1.0
 40
1.0
 10
49.1499857292
 20
42.2527457198
 30
0.0
 10
49.1499857292
 20
42.2654118933
 30
0.0
 10
49.148043816
 20
42.2894961699
 30
0.0
 10
49.1383120159
 20
42.322600733
 30
0.0
 10
49.121882885
 20
42.3494722006
 30
0.0
 10
49.0990763011
 20
42.3687069038
 30
0.0
 10
49.0709348379
 20
42.3785851642
 30
0.0
 10
49.0394997755
 20
42.379285106
 30
0.0
 10
49.005978808
 20
42.3713852381
 30
0.0
 10
48.9841542324
 20
42.3611142611
 30
0.0
 10
48.9732090339
 20
42.3547946407
 30
0.0
  0
SPLINE
  5
361
100
AcDbEntity
  8
SUPERFICI
100
AcDbSpline
 62
7
  6
CONTINUOUS
 70
0
 71
3
 72
15
 73
11
 74
0
 42
0.0000001
 43
0.0000001
 44
0.0000000001
 40
0.0
 40
0.0
 40
0.0
 40
0.0
 40
0.1141756139
 40
0.2373290017
 40
0.3669847838
 40
0.5000060516
 40
0.6330264752
 40
0.7626798014
 40
0.8858293144
 40
1.0
 40
1.0
 40
1.0
 40
1.0
 10
48.9732090339
 20
42.3547946407
 30
0.0
 10
49.1184520503
 20
42.2709331433
 30
0.0
 10
49.4051371229
 20
42.0696613845
 30
0.0
 10
49.8000498004
 20
41.7006650246
 30
0.0
 10
50.1634745647
 20
41.2639804404
 30
0.0
 10
50.4828112949
 20
40.7768429257
 30
0.0
 10
50.7450149629
 20
40.2567237469
 30
0.0
 10
50.9414775916
 20
39.7236557034
 30
0.0
 10
51.0635732107
 20
39.1971680544
 30
0.0
 10
51.0945293775
 20
38.8482676817
 30
0.0
 10
51.0945293775
 20
38.6805600303
 30
0.0
  0
SPLINE
  5
362
100
AcDbEntity
  8
SUPERFICI
100
AcDbSpline
 62
7
  6
CONTINUOUS
 70
0
 71
3
 72
15
 73
11
 74
0
 42
0.0000001
 43
0.0000001
 44
0.0000000001
 40
0.0
 40
0.0
 40
0.0
 40
0.0
 40
0.1449328566
 40
0.274675074
 40
0.3914140503
 40
0.5003128564
 40
0.6092226658
 40
0.7259607751
 40
0.8553898776
 40
1.0
 40
1.0
 40
1.0
 40
1.0
 10
51.0945293775
 20
38.884697327
 30
0.0
 10
51.1054990683
 20
38.878363565
 30
0.0
 10
51.1253866659
 20
38.8646381645
 30
0.0
 10
51.1491914386
 20
38.8396554711
 30
0.0
 10
51.1642496056
 20
38.8119891971
 30
0.0
 10
51.1695056666
 20
38.7826183048
 30
0.0
 10
51.1639915871
 20
38.7533052949
 30
0.0
 10
51.1488818719
 20
38.7257289902
 30
0.0
 10
51.125281282
 20
38.7006463405
 30
0.0
 10
51.1054746412
 20
38.6868796884
 30
0.0
 10
51.0945293775
 20
38.6805600303
 30
0.0
  0
ENDSEC
  0
SECTION
  2
OBJECTS
  0
DICTIONARY
  5
C
100
AcDbDictionary
280
0
281
1
  3
ACAD_GROUP
350
D
  3
ACAD_MLINESTYLE
350
17
  3
ACAD_LAYOUT
350
1A
  3
ACAD_PLOTSETTINGS
350
19
  3
ACAD_PLOTSTYLENAME
350
E
  0
DICTIONARY
  5
D
102
{ACAD_REACTORS
330
C
102
}
100
AcDbDictionary
280
0
281
1
  0
ACDBDICTIONARYWDFLT
  5
E
102
{ACAD_REACTORS
330
C
102
}
100
AcDbDictionary
281
1
  3
Normal
350
F
100
AcDbDictionaryWithDefault
340
F
  0
DICTIONARY
  5
17
102
{ACAD_REACTORS
330
C
102
}
100
AcDbDictionary
280
0
281
1
  3
Standard
350
18
  0
DICTIONARY
  5
19
102
{ACAD_REACTORS
330
C
102
}
100
AcDbDictionary
281
1
  0
DICTIONARY
  5
1A
102
{ACAD_REACTORS
330
C
102
}
100
AcDbDictionary
281
1
  3
Model
350
363
  3
Layout1
350
364
  0
ACDBPLACEHOLDER
  5
F
102
{ACAD_REACTORS
330
E
102
}
  0
MLINESTYLE
  5
18
102
{ACAD_REACTORS
330
17
102
}
100
AcDbMlineStyle
  2
STANDARD
 70
0
  3

 62
256
 51
90.0
 52
90.0
 71
2
 49
0.5
 62
256
  6
BYLAYER
 49
-0.5
 62
256
  6
BYLAYER
  0
LAYOUT
  5
363
102
{ACAD_REACTORS
330
1A
102
}
100
AcDbPlotSettings
  1

  2
none_device
  4

  6

 40
0.0
 41
0.0
 42
0.0
 43
0.0
 44
431.8
 45
558.8
 46
0.0
 47
0.0
 48
0.0
 49
0.0
140
0.0
141
0.0
142
1.0
143
1.0
 70
1024
 72
1
 73
0
 74
0
  7

 75
0
147
1.0
148
0.0
149
0.0
100
AcDbLayout
  1
Model
 70
0
 71
0
 10
0.0
 20
0.0
 11
431.8
 21
558.8
 12
0.0
 22
0.0
 32
0.0
 14
0.0
 24
0.0
 34
0.0
 15
0.0
 25
0.0
 35
0.0
146
0.0
 13
0.0
 23
0.0
 33
0.0
 16
1.0
 26
0.0
 36
0.0
 17
0.0
 27
1.0
 37
0.0
 76
0
330
20E
345
0
346
0
  0
LAYOUT
  5
364
102
{ACAD_REACTORS
330
1A
102
}
100
AcDbPlotSettings
  1

  2
none_device
  4

  6

 40
0.0
 41
0.0
 42
0.0
 43
0.0
 44
431.8
 45
558.8
 46
0.0
 47
0.0
 48
0.0
 49
0.0
140
0.0
141
0.0
142
1.0
143
1.0
 70
0
 72
1
 73
0
 74
0
  7

 75
0
147
1.0
148
0.0
149
0.0
100
AcDbLayout
  1
Layout1
 70
0
 71
1
 10
0.0
 20
0.0
 11
431.8
 21
558.8
 12
0.0
 22
0.0
 32
0.0
 14
0.0
 24
0.0
 34
0.0
 15
0.0
 25
0.0
 35
0.0
146
0.0
 13
0.0
 23
0.0
 33
0.0
 16
1.0
 26
0.0
 36
0.0
 17
0.0
 27
1.0
 37
0.0
 76
0
330
20F
345
0
346
0
  0
ENDSEC
  0
EOF
