  0
SECTION
  2
HEADER
  9
$ACADVER
  1
AC1024
  9
$DWGCODEPAGE
  3
ANSI_1252
  9
$EXTMAX
 10
297.0
 20
210.0
 30
0.0
  9
$EXTMIN
 10
0.0
 20
0.0
 30
0.0
  9
$LIMMIN
 10
0.0
 20
0.0
  9
$LIMMAX
 10
297.0
 20
210.0
  9
$VIEWCTR
 10
148.5
 20
105.0
  9
$VIEWSIZE
 40
210.0
  9
$CLAYER
  8
0
  9
$LTSCALE
 40
16.335
  9
$CELTYPE
  6
BYLAYER
  9
$DIMSCALE
 40
1.0
  9
$DIMASZ
 40
3.0
  9
$DIMEXO
 40
0.5
  9
$DIMDLI
 40
11.286
  9
$DIMEXE
 40
1.5
  9
$DIMCEN
 40
2.673
  9
$DIMLFAC
 40
1.0
  9
$DIMBLK
  1
_FILLED
  9
$DIMALT
 70
0
  9
$DIMALTF
 40
0.0393700787
  9
$DIMTXT
 40
3.0
  9
$DIMTOL
 70
1
  9
$DIMLIM
 70
0
  9
$DIMTFAC
 40
1.0
  9
$DIMTP
 40
0.01
  9
$DIMTM
 40
0.01
  9
$DIMGAP
 40
0.625
  9
$DIMDSEP
 70
44
  9
$AUNITS
 70
0
  9
$PDMODE
 70
3
  9
$PDSIZE
 40
3.0
  9
$HANDSEED
  5
2EA
  9
$TILEMODE
 70
1
  9
$MEASUREMENT
 70
1
  9
$INSUNITS
 70
4
  0
ENDSEC
  0
SECTION
  2
CLASSES
  0
CLASS
  1
ACDBDICTIONARYWDFLT
  2
AcDbDictionaryWithDefault
  3
AutoCAD 2000
 90
0
 91
1
280
0
281
0
  0
CLASS
  1
ACDBPLACEHOLDER
  2
AcDbPlaceHolder
  3
AutoCAD 2000
 90
0
 91
1
280
0
281
0
  0
CLASS
  1
LAYOUT
  2
AcDbLayout
  3
AutoCAD 2000
 90
0
 91
0
280
0
281
0
  0
ENDSEC
  0
SECTION
  2
TABLES
  0
TABLE
  2
VPORT
  5
8
100
AcDbSymbolTable
 70
2
  0
VPORT
  5
1F4
100
AcDbSymbolTableRecord
100
AcDbViewportTableRecord
  2
*ACTIVE
 70
0
 10
0.0
 20
0.0
 11
1.0
 21
1.0
 12
148.5
 22
105.0
 13
0.0
 23
0.0
 14
1.0
 24
1.0
 15
0.0
 25
0.0
 16
0.0
 26
0.0
 36
1.0
 17
0.0
 27
0.0
 37
0.0
 40
210.0
 41
1.4142857143
 42
50.0
 43
0.0
 44
0.0
 50
0.0
 51
0.0
 71
0
 72
100
 73
1
 74
1
 75
0
 76
0
 77
0
 78
0
  0
ENDTAB
  0
TABLE
  2
LTYPE
  5
5
100
AcDbSymbolTable
 70
6
  0
LTYPE
  5
14
100
AcDbSymbolTableRecord
100
AcDbLinetypeTableRecord
  2
BYBLOCK
 70
0
  3

 72
65
 73
0
 40
0.0
  0
LTYPE
  5
15
100
AcDbSymbolTableRecord
100
AcDbLinetypeTableRecord
  2
BYLAYER
 70
0
  3

 72
65
 73
0
 40
0.0
  0
LTYPE
  5
16
100
AcDbSymbolTableRecord
100
AcDbLinetypeTableRecord
  2
CONTINUOUS
 70
64
  3
Solid line
 72
65
 73
0
 40
0.0
  0
LTYPE
  5
1F5
100
AcDbSymbolTableRecord
100
AcDbLinetypeTableRecord
  2
CENTER
 70
64
  3
____ _ ____ _ ____ _ ____ _ ____ _ ____ _ ____
 72
65
 73
4
 40
0.6
 49
0.375
 74
0
 49
-0.075
 74
0
 49
0.075
 74
0
 49
-0.075
 74
0
  0
LTYPE
  5
1F6
100
AcDbSymbolTableRecord
100
AcDbLinetypeTableRecord
  2
HIDDEN
 70
64
  3
- - - - - - - - - - - - - - - - - - - -
 72
65
 73
2
 40
0.2
 49
0.1
 74
0
 49
-0.1
 74
0
  0
LTYPE
  5
1F7
100
AcDbSymbolTableRecord
100
AcDbLinetypeTableRecord
  2
PHANTOM
 70
64
  3
_____ _ _ _____ _ _ _____ _ _ _____
 72
65
 73
6
 40
0.8
 49
0.45
 74
0
 49
-0.05
 74
0
 49
0.1
 74
0
 49
-0.05
 74
0
 49
0.1
 74
0
 49
-0.05
 74
0
  0
LTYPE
  5
1F8
100
AcDbSymbolTableRecord
100
AcDbLinetypeTableRecord
  2
DOT
 70
64
  3
. . . . . . . . . . . . . . . . . . . .
 72
65
 73
2
 40
0.2
 49
0.1
 74
0
 49
-0.1
 74
0
  0
LTYPE
  5
1F9
100
AcDbSymbolTableRecord
100
AcDbLinetypeTableRecord
  2
DASHED
 70
64
  3
- - - - - - - - - - - - - - - - - - - -
 72
65
 73
2
 40
0.2
 49
0.1
 74
0
 49
-0.1
 74
0
  0
ENDTAB
  0
TABLE
  2
LAYER
  5
2
100
AcDbSymbolTable
 70
36
  0
LAYER
  5
10
100
AcDbSymbolTableRecord
100
AcDbLayerTableRecord
  2
0
 70
0
 62
7
  6
CONTINUOUS
370
-3
390
F
  0
LAYER
  5
1FA
100
AcDbSymbolTableRecord
100
AcDbLayerTableRecord
  2
DEFAULT_1
 70
0
 62
7
  6
CENTER
370
-3
390
F
  0
LAYER
  5
1FB
100
AcDbSymbolTableRecord
100
AcDbLayerTableRecord
  2
DEFAULT_2
 70
0
 62
7
  6
HIDDEN
370
-3
390
F
  0
LAYER
  5
1FC
100
AcDbSymbolTableRecord
100
AcDbLayerTableRecord
  2
DEFAULT_3
 70
0
 62
7
  6
PHANTOM
370
-3
390
F
  0
LAYER
  5
1FD
100
AcDbSymbolTableRecord
100
AcDbLayerTableRecord
  2
ASSI
 70
0
 62
7
  6
CONTINUOUS
370
-3
390
F
  0
LAYER
  5
1FE
100
AcDbSymbolTableRecord
100
AcDbLayerTableRecord
  2
COORDINATE
 70
0
 62
7
  6
CONTINUOUS
370
-3
390
F
  0
LAYER
  5
1FF
100
AcDbSymbolTableRecord
100
AcDbLayerTableRecord
  2
COPY_PUBLISH
 70
0
 62
7
  6
CONTINUOUS
370
-3
390
F
  0
LAYER
  5
200
100
AcDbSymbolTableRecord
100
AcDbLayerTableRecord
  2
COSMETICI
 70
0
 62
7
  6
CONTINUOUS
370
-3
390
F
  0
LAYER
  5
201
100
AcDbSymbolTableRecord
100
AcDbLayerTableRecord
  2
CURVE
 70
0
 62
7
  6
CONTINUOUS
370
-3
390
F
  0
LAYER
  5
202
100
AcDbSymbolTableRecord
100
AcDbLayerTableRecord
  2
IMPORT_IGES
 70
0
 62
7
  6
CONTINUOUS
370
-3
390
F
  0
LAYER
  5
203
100
AcDbSymbolTableRecord
100
AcDbLayerTableRecord
  2
INTF_1
 70
0
 62
7
  6
CONTINUOUS
370
-3
390
F
  0
LAYER
  5
204
100
AcDbSymbolTableRecord
100
AcDbLayerTableRecord
  2
NOTE
 70
0
 62
7
  6
CONTINUOUS
370
-3
390
F
  0
LAYER
  5
205
100
AcDbSymbolTableRecord
100
AcDbLayerTableRecord
  2
PIANI
 70
0
 62
7
  6
CONTINUOUS
370
-3
390
F
  0
LAYER
  5
206
100
AcDbSymbolTableRecord
100
AcDbLayerTableRecord
  2
PUNTI
 70
0
 62
7
  6
CONTINUOUS
370
-3
390
F
  0
LAYER
  5
207
100
AcDbSymbolTableRecord
100
AcDbLayerTableRecord
  2
RACCORDO
 70
0
 62
7
  6
CONTINUOUS
370
-3
390
F
  0
LAYER
  5
208
100
AcDbSymbolTableRecord
100
AcDbLayerTableRecord
  2
SIMBOLI
 70
0
 62
7
  6
CONTINUOUS
370
-3
390
F
  0
LAYER
  5
209
100
AcDbSymbolTableRecord
100
AcDbLayerTableRecord
  2
SMUSSO
 70
0
 62
7
  6
CONTINUOUS
370
-3
390
F
  0
LAYER
  5
20A
100
AcDbSymbolTableRecord
100
AcDbLayerTableRecord
  2
SNAPLINE
 70
0
 62
7
  6
CONTINUOUS
370
-3
390
F
  0
LAYER
  5
20B
100
AcDbSymbolTableRecord
100
AcDbLayerTableRecord
  2
SUPERFICI
 70
0
 62
7
  6
CONTINUOUS
370
-3
390
F
  0
LAYER
  5
20C
100
AcDbSymbolTableRecord
100
AcDbLayerTableRecord
  2
TRASH
 70
0
 62
7
  6
CONTINUOUS
370
-3
390
F
  0
ENDTAB
  0
TABLE
  2
STYLE
  5
3
100
AcDbSymbolTable
 70
1
  0
STYLE
  5
11
100
AcDbSymbolTableRecord
100
AcDbTextStyleTableRecord
  2
STANDARD
 70
0
 40
0.0
 41
0.8
 50
0.0
 71
0
 42
0.2
  3
txt
  4

  0
STYLE
  5
20D
100
AcDbSymbolTableRecord
100
AcDbTextStyleTableRecord
  2
TEXTSTYLE_1
 70
0
 40
0.0
 41
0.8
 50
0.0
 71
0
 42
0.2
  3
gdt
  4

  0
ENDTAB
  0
TABLE
  2
VIEW
  5
6
100
AcDbSymbolTable
 70
0
  0
ENDTAB
  0
TABLE
  2
UCS
  5
7
100
AcDbSymbolTable
 70
0
  0
ENDTAB
  0
TABLE
  2
APPID
  5
9
100
AcDbSymbolTable
 70
1
  0
APPID
  5
20E
100
AcDbSymbolTableRecord
100
AcDbRegAppTableRecord
  2
ACAD
 70
0
  0
ENDTAB
  0
TABLE
  2
BLOCK_RECORD
  5
1
100
AcDbSymbolTable
 70
0
  0
BLOCK_RECORD
  5
20F
100
AcDbSymbolTableRecord
100
AcDbBlockTableRecord
  2
*Model_Space
  0
BLOCK_RECORD
  5
210
100
AcDbSymbolTableRecord
100
AcDbBlockTableRecord
  2
*Paper_Space
  0
BLOCK_RECORD
  5
211
100
AcDbSymbolTableRecord
100
AcDbBlockTableRecord
  2
_FILLED
  0
ENDTAB
  0
TABLE
  2
DIMSTYLE
  5
A
100
AcDbSymbolTable
 70
1
100
AcDbDimStyleTable
 71
0
  0
DIMSTYLE
105
212
100
AcDbSymbolTableRecord
100
AcDbDimStyleTableRecord
  2
STANDARD
 70
0
  3

  4

 40
1.0
 41
3.0
 42
0.5
 43
0.38
 44
1.5
 45
0.0
 46
0.0
 47
0.01
 48
0.01
140
3.0
141
0.09
142
0.0
143
25.4
144
1.0
145
0.0
146
1.0
147
0.625
 71
1
 72
0
 73
0
 74
0
 75
0
 76
0
 77
1
 78
8
 79
2
170
0
171
1
172
0
173
0
174
0
175
0
176
0
177
0
178
0
270
2
179
2
271
2
272
2
273
2
274
2
275
0
280
0
281
0
282
0
283
1
284
8
285
0
286
0
287
3
288
0
340
11
278
44
341
211
342
211
343
211
344
211
  0
ENDTAB
  0
ENDSEC
  0
SECTION
  2
BLOCKS
  0
BLOCK
  5
20
100
AcDbEntity
  8
0
100
AcDbBlockBegin
  2
*Model_Space
 70
0
 10
0.0
 20
0.0
 30
0.0
  3
*Model_Space
  1

  0
ENDBLK
  5
21
100
AcDbEntity
  8
0
100
AcDbBlockEnd
  0
BLOCK
  5
1C
100
AcDbEntity
  8
0
100
AcDbBlockBegin
  2
*Paper_Space
 70
0
 10
0.0
 20
0.0
 30
0.0
  3
*Paper_Space
  1

  0
ENDBLK
  5
1D
100
AcDbEntity
  8
0
100
AcDbBlockEnd
  0
BLOCK
  5
213
100
AcDbEntity
  8
0
100
AcDbBlockBegin
  2
_FILLED
 70
64
 10
0.0
 20
0.0
  3
_FILLED
  1

  0
SOLID
  5
214
100
AcDbEntity
  8
0
  6
BYBLOCK
 62
0
100
AcDbTrace
 10
0.0
 20
0.0
 11
-1.0
 21
0.3166666667
 12
-1.0
 22
-0.3166666667
 13
-1.0
 23
-0.3166666667
  0
ENDBLK
  5
215
100
AcDbEntity
  8
0
  6
BYBLOCK
 62
0
100
AcDbBlockEnd
  0
ENDSEC
  0
SECTION
  2
ENTITIES
  0
LINE
  5
216
100
AcDbEntity
  8
0
100
AcDbLine
 62
7
  6
CONTINUOUS
 10
-29.9765207159
 20
61.9312994343
 11
-7.7026571085
 21
74.7919491241
  0
LINE
  5
217
100
AcDbEntity
  8
0
100
AcDbLine
 62
250
  6
CONTINUOUS
 10
-28.1014301154
 20
61.745520018
 11
-5.827566508
 21
74.6061697078
  0
LINE
  5
218
100
AcDbEntity
  8
0
100
AcDbLine
 62
7
  6
CONTINUOUS
 10
14.8048127086
 20
-74.5918996684
 11
14.2744826227
 21
-74.2856937234
  0
LINE
  5
219
100
AcDbEntity
  8
0
100
AcDbLine
 62
7
  6
CONTINUOUS
 10
-27.6215941626
 20
-50.0954240687
 11
-27.0912640767
 21
-50.4016300137
  0
LINE
  5
21A
100
AcDbEntity
  8
0
100
AcDbLine
 62
250
  6
CONTINUOUS
 10
12.7339864981
 20
-70.0145310569
 11
12.2036564122
 21
-69.7083251119
  0
LINE
  5
21B
100
AcDbEntity
  8
0
100
AcDbLine
 62
250
  6
CONTINUOUS
 10
-29.6924203731
 20
-45.5180554572
 11
-29.1620902872
 21
-45.8242614022
  0
LINE
  5
21C
100
AcDbEntity
  8
0
100
AcDbLine
 62
250
  6
CONTINUOUS
 10
-14.8507652188
 20
50.3720372236
 11
-15.1967313587
 21
50.1722807103
  0
LINE
  5
21D
100
AcDbEntity
  8
0
100
AcDbLine
 62
7
  6
CONTINUOUS
 10
-14.1089932674
 20
49.9437473954
 11
-14.6664012729
 21
49.621906999
  0
LINE
  5
21E
100
AcDbEntity
  8
0
100
AcDbLine
 62
7
  6
CONTINUOUS
 10
-13.5786631815
 20
49.6375414504
 11
-14.6664012729
 21
49.009495109
  0
LINE
  5
21F
100
AcDbEntity
  8
0
100
AcDbLine
 62
7
  6
CONTINUOUS
 10
-21.7374690847
 20
-49.7020809402
 11
12.2036564122
 21
-69.29926142
  0
LINE
  5
220
100
AcDbEntity
  8
CURVE
100
AcDbLine
 62
250
  6
CONTINUOUS
 10
1.2669348226
 20
-60.7426142045
 11
-0.4898903601
 21
-59.7282453622
  0
LINE
  5
221
100
AcDbEntity
  8
CURVE
100
AcDbLine
 62
250
  6
CONTINUOUS
 10
-1.747199049
 20
-59.002291083
 11
-3.2767134431
 21
-58.1191686411
  0
LINE
  5
222
100
AcDbEntity
  8
CURVE
100
AcDbLine
 62
250
  6
CONTINUOUS
 10
-3.4641335097
 20
-58.0109546436
 11
-5.3672707526
 21
-56.9121070515
  0
LINE
  5
223
100
AcDbEntity
  8
CURVE
100
AcDbLine
 62
250
  6
CONTINUOUS
 10
3.30840584
 20
-61.9161812404
 11
2.7162615399
 21
-61.5742845428
  0
LINE
  5
224
100
AcDbEntity
  8
CURVE
100
AcDbLine
 62
250
  6
CONTINUOUS
 10
2.0244576101
 20
-61.1748456241
 11
1.4321778992
 21
-60.832870742
  0
LINE
  5
225
100
AcDbEntity
  8
CURVE
100
AcDbLine
 62
250
  6
CONTINUOUS
 10
0.073541162
 20
-59.6469553402
 11
0.7035033005
 21
-60.0106875837
  0
LINE
  5
226
100
AcDbEntity
  8
CURVE
100
AcDbLine
 62
250
  6
CONTINUOUS
 10
-4.8225899346
 20
-56.7166532309
 11
-3.4641335097
 21
-57.5010089452
  0
LINE
  5
227
100
AcDbEntity
  8
CURVE
100
AcDbLine
 62
250
  6
CONTINUOUS
 10
-2.7435266458
 20
-57.9170783171
 11
-1.747199049
 21
-58.4923453846
  0
LINE
  5
228
100
AcDbEntity
  8
CURVE
100
AcDbLine
 62
250
  6
CONTINUOUS
 10
-4.1602645794
 20
-56.844098945
 11
-4.8225899346
 21
-56.4616805858
  0
LINE
  5
229
100
AcDbEntity
  8
CURVE
100
AcDbLine
 62
250
  6
CONTINUOUS
 10
0.7035033005
 20
-59.5490401845
 11
0.073541162
 21
-59.185307941
  0
LINE
  5
22A
100
AcDbEntity
  8
CURVE
100
AcDbLine
 62
250
  6
CONTINUOUS
 10
-4.8225899346
 20
-55.9517344792
 11
-4.1602645794
 21
-56.3341528384
  0
LINE
  5
22B
100
AcDbEntity
  8
CURVE
100
AcDbLine
 62
250
  6
CONTINUOUS
 10
-3.2767134431
 20
-56.844304191
 11
-2.7435266458
 21
-57.1521595653
  0
LINE
  5
22C
100
AcDbEntity
  8
CURVE
100
AcDbLine
 62
250
  6
CONTINUOUS
 10
-0.4898903601
 20
-58.453380912
 11
1.2669348226
 21
-59.4677497543
  0
LINE
  5
22D
100
AcDbEntity
  8
CURVE
100
AcDbLine
 62
250
  6
CONTINUOUS
 10
1.510608062
 20
-59.3534705755
 11
-0.5353255063
 21
-58.1721741747
  0
LINE
  5
22E
100
AcDbEntity
  8
CURVE
100
AcDbLine
 62
250
  6
CONTINUOUS
 10
-2.0588895968
 20
-57.2924873636
 11
-3.4772503405
 21
-56.4735436464
  0
LINE
  5
22F
100
AcDbEntity
  8
CURVE
100
AcDbLine
 62
250
  6
CONTINUOUS
 10
-3.6631826544
 20
-56.3661886587
 11
-4.8225899346
 21
-55.6967614258
  0
LINE
  5
230
100
AcDbEntity
  8
CURVE
100
AcDbLine
 62
250
  6
CONTINUOUS
 10
-5.3672707526
 20
-54.8723242578
 11
-3.6631826544
 21
-55.8562433685
  0
LINE
  5
231
100
AcDbEntity
  8
CURVE
100
AcDbLine
 62
250
  6
CONTINUOUS
 10
-3.4772503405
 20
-55.9635983562
 11
-1.7828987491
 21
-56.9418957299
  0
LINE
  5
232
100
AcDbEntity
  8
CURVE
100
AcDbLine
 62
250
  6
CONTINUOUS
 10
-0.8113167076
 20
-57.5028750239
 11
1.1895868866
 21
-58.658171682
  0
LINE
  5
233
100
AcDbEntity
  8
CURVE
100
AcDbLine
 62
250
  6
CONTINUOUS
 10
1.4321778992
 20
-58.7962101306
 11
2.0244576101
 21
-59.1381850128
  0
LINE
  5
234
100
AcDbEntity
  8
CURVE
100
AcDbLine
 62
250
  6
CONTINUOUS
 10
2.7162615399
 20
-59.5376239315
 11
3.30840584
 21
-59.879520629
  0
LINE
  5
235
100
AcDbEntity
  8
0
100
AcDbLine
 62
250
  6
CONTINUOUS
 10
-31.2834106307
 20
59.860040735
 11
-31.124311605
 21
60.5360497713
  0
LINE
  5
236
100
AcDbEntity
  8
0
100
AcDbLine
 62
7
  6
CONTINUOUS
 10
12.2036564122
 20
-59.1342064739
 11
-14.8431779682
 21
-43.5177032791
  0
LINE
  5
237
100
AcDbEntity
  8
0
100
AcDbLine
 62
7
  6
CONTINUOUS
 10
12.2036564122
 20
-58.5217945839
 11
-14.3128478823
 21
-43.2114973341
  0
LINE
  5
238
100
AcDbEntity
  8
0
100
AcDbLine
 62
250
  6
CONTINUOUS
 10
-8.5145722765
 20
-41.6183031747
 11
12.2036564122
 21
-53.5807487592
  0
LINE
  5
239
100
AcDbEntity
  8
0
100
AcDbLine
 62
250
  6
CONTINUOUS
 10
-8.1610188859
 20
-41.0059307397
 11
12.2036564122
 21
-52.7642390275
  0
LINE
  5
23A
100
AcDbEntity
  8
ASSI
100
AcDbLine
 62
7
  6
CONTINUOUS
 10
-34.2400831525
 20
52.1460893812
 11
-34.2400831525
 21
58.7373900353
  0
LINE
  5
23B
100
AcDbEntity
  8
ASSI
100
AcDbLine
 62
7
  6
CONTINUOUS
 10
-33.8932795197
 20
51.7621257431
 11
-33.8932795197
 21
58.3534263972
  0
LINE
  5
23C
100
AcDbEntity
  8
0
100
AcDbLine
 62
7
  6
CONTINUOUS
 10
-8.1610188859
 20
-32.9228749994
 11
-7.5423004524
 21
-33.2801152686
  0
LINE
  5
23D
100
AcDbEntity
  8
ASSI
100
AcDbLine
 62
250
  6
CONTINUOUS
 10
-30.222750459
 20
48.9007866381
 11
-30.222750459
 21
59.247628845
  0
LINE
  5
23E
100
AcDbEntity
  8
0
100
AcDbLine
 62
7
  6
CONTINUOUS
 10
-29.6924203731
 20
-45.5180554572
 11
-29.6924203731
 21
45.5183804052
  0
LINE
  5
23F
100
AcDbEntity
  8
0
100
AcDbLine
 62
7
  6
CONTINUOUS
 10
-29.1620902872
 20
-45.8242614022
 11
-29.1620902872
 21
45.2121744602
  0
LINE
  5
240
100
AcDbEntity
  8
0
100
AcDbLine
 62
250
  6
CONTINUOUS
 10
31.2955395043
 20
53.1717535581
 11
9.0216758969
 21
40.3111038683
  0
LINE
  5
241
100
AcDbEntity
  8
0
100
AcDbLine
 62
7
  6
CONTINUOUS
 10
-21.7374690847
 20
54.3483337251
 11
-21.7374690847
 21
-49.7020809402
  0
LINE
  5
242
100
AcDbEntity
  8
0
100
AcDbLine
 62
250
  6
CONTINUOUS
 10
33.9471899337
 20
48.5789602952
 11
11.6733263263
 21
35.7183106054
  0
LINE
  5
243
100
AcDbEntity
  8
CURVE
100
AcDbLine
 62
250
  6
CONTINUOUS
 10
2.0742198963
 20
-60.1852474388
 11
1.4321778992
 21
-58.7962101306
  0
LINE
  5
244
100
AcDbEntity
  8
CURVE
100
AcDbLine
 62
250
  6
CONTINUOUS
 10
2.0244576101
 20
-59.1381850128
 11
2.3703597518
 21
-59.8864170626
  0
LINE
  5
245
100
AcDbEntity
  8
CURVE
100
AcDbLine
 62
250
  6
CONTINUOUS
 10
2.7162615399
 20
-61.5742845428
 11
2.3703597518
 21
-60.8258971595
  0
LINE
  5
246
100
AcDbEntity
  8
CURVE
100
AcDbLine
 62
250
  6
CONTINUOUS
 10
2.6664996073
 20
-60.5272223209
 11
3.30840584
 21
-61.9161812404
  0
LINE
  5
247
100
AcDbEntity
  8
CURVE
100
AcDbLine
 62
250
  6
CONTINUOUS
 10
1.1895868866
 20
-58.658171682
 11
1.510608062
 21
-59.3534705755
  0
LINE
  5
248
100
AcDbEntity
  8
CURVE
100
AcDbLine
 62
250
  6
CONTINUOUS
 10
-1.2970396693
 20
-59.262207467
 11
-2.0588895968
 21
-57.2924873636
  0
LINE
  5
249
100
AcDbEntity
  8
CURVE
100
AcDbLine
 62
250
  6
CONTINUOUS
 10
-1.7828987491
 20
-56.9418957299
 11
-1.2970396693
 21
-58.1979731612
  0
LINE
  5
24A
100
AcDbEntity
  8
0
100
AcDbLine
 62
7
  6
CONTINUOUS
 10
-15.1967313587
 20
-42.905330844
 11
-15.1967313587
 21
50.1722807103
  0
LINE
  5
24B
100
AcDbEntity
  8
0
100
AcDbLine
 62
7
  6
CONTINUOUS
 10
-14.6664012729
 20
-42.5991248991
 11
-14.6664012729
 21
50.2655877918
  0
LINE
  5
24C
100
AcDbEntity
  8
0
100
AcDbLine
 62
7
  6
CONTINUOUS
 10
-8.1610188859
 20
-32.9228749994
 11
-8.1610188859
 21
-41.0059307397
  0
LINE
  5
24D
100
AcDbEntity
  8
0
100
AcDbLine
 62
250
  6
CONTINUOUS
 10
-7.9842421906
 20
46.4073928848
 11
-7.9842421906
 21
-32.8208655335
  0
LINE
  5
24E
100
AcDbEntity
  8
0
100
AcDbLine
 62
250
  6
CONTINUOUS
 10
-7.2771354095
 20
45.9991182915
 11
-7.2771354095
 21
-33.1270418873
  0
LINE
  5
24F
100
AcDbEntity
  8
CURVE
100
AcDbLine
 62
250
  6
CONTINUOUS
 10
-5.3672707526
 20
-56.9121070515
 11
-5.3672707526
 21
-54.8723242578
  0
LINE
  5
250
100
AcDbEntity
  8
CURVE
100
AcDbLine
 62
250
  6
CONTINUOUS
 10
-4.8225899346
 20
-55.6967614258
 11
-4.8225899346
 21
-55.9517344792
  0
LINE
  5
251
100
AcDbEntity
  8
CURVE
100
AcDbLine
 62
250
  6
CONTINUOUS
 10
-4.8225899346
 20
-56.4616805858
 11
-4.8225899346
 21
-56.7166532309
  0
LINE
  5
252
100
AcDbEntity
  8
CURVE
100
AcDbLine
 62
250
  6
CONTINUOUS
 10
-4.1602645794
 20
-56.3341528384
 11
-4.1602645794
 21
-56.844098945
  0
LINE
  5
253
100
AcDbEntity
  8
CURVE
100
AcDbLine
 62
250
  6
CONTINUOUS
 10
-3.6631826544
 20
-55.8562433685
 11
-3.6631826544
 21
-56.3661886587
  0
LINE
  5
254
100
AcDbEntity
  8
CURVE
100
AcDbLine
 62
250
  6
CONTINUOUS
 10
-3.4772503405
 20
-56.4735436464
 11
-3.4772503405
 21
-55.9635983562
  0
LINE
  5
255
100
AcDbEntity
  8
CURVE
100
AcDbLine
 62
250
  6
CONTINUOUS
 10
-3.4641335097
 20
-57.5010089452
 11
-3.4641335097
 21
-58.0109546436
  0
LINE
  5
256
100
AcDbEntity
  8
CURVE
100
AcDbLine
 62
250
  6
CONTINUOUS
 10
-3.2767134431
 20
-58.1191686411
 11
-3.2767134431
 21
-56.844304191
  0
LINE
  5
257
100
AcDbEntity
  8
CURVE
100
AcDbLine
 62
250
  6
CONTINUOUS
 10
-2.7435266458
 20
-57.1521595653
 11
-2.7435266458
 21
-57.9170783171
  0
LINE
  5
258
100
AcDbEntity
  8
CURVE
100
AcDbLine
 62
250
  6
CONTINUOUS
 10
-1.747199049
 20
-58.4923453846
 11
-1.747199049
 21
-59.002291083
  0
LINE
  5
259
100
AcDbEntity
  8
CURVE
100
AcDbLine
 62
250
  6
CONTINUOUS
 10
-0.4898903601
 20
-59.7282453622
 11
-0.4898903601
 21
-58.453380912
  0
LINE
  5
25A
100
AcDbEntity
  8
CURVE
100
AcDbLine
 62
250
  6
CONTINUOUS
 10
0.073541162
 20
-59.185307941
 11
0.073541162
 21
-59.6469553402
  0
LINE
  5
25B
100
AcDbEntity
  8
CURVE
100
AcDbLine
 62
250
  6
CONTINUOUS
 10
0.7035033005
 20
-60.0106875837
 11
0.7035033005
 21
-59.5490401845
  0
LINE
  5
25C
100
AcDbEntity
  8
0
100
AcDbLine
 62
250
  6
CONTINUOUS
 10
5.8396953816
 20
38.4256245853
 11
5.9987944073
 21
39.1016336216
  0
LINE
  5
25D
100
AcDbEntity
  8
CURVE
100
AcDbLine
 62
250
  6
CONTINUOUS
 10
1.2669348226
 20
-59.4677497543
 11
1.2669348226
 21
-60.7426142045
  0
LINE
  5
25E
100
AcDbEntity
  8
ASSI
100
AcDbLine
 62
7
  6
CONTINUOUS
 10
8.4495642705
 20
33.9051990732
 11
8.4495642705
 21
27.3138984191
  0
LINE
  5
25F
100
AcDbEntity
  8
ASSI
100
AcDbLine
 62
7
  6
CONTINUOUS
 10
9.1145659549
 20
33.7049590021
 11
9.1145659549
 21
27.113658348
  0
LINE
  5
260
100
AcDbEntity
  8
ASSI
100
AcDbLine
 62
250
  6
CONTINUOUS
 10
11.6733263263
 20
35.7183106054
 11
11.6733263263
 21
24.7105169834
  0
LINE
  5
261
100
AcDbEntity
  8
ASSI
100
AcDbLine
 62
7
  6
CONTINUOUS
 10
-33.5100272791
 20
50.7524833283
 11
-33.8439300826
 21
51.0963325668
  0
LINE
  5
262
100
AcDbEntity
  8
ASSI
100
AcDbLine
 62
250
  6
CONTINUOUS
 10
-33.8932795197
 20
51.7621257431
 11
-34.2400831525
 21
52.1460893812
  0
LINE
  5
263
100
AcDbEntity
  8
0
100
AcDbLine
 62
7
  6
CONTINUOUS
 10
12.2036564122
 20
-69.7083251119
 11
12.2036564122
 21
21.3281107505
  0
LINE
  5
264
100
AcDbEntity
  8
0
100
AcDbLine
 62
7
  6
CONTINUOUS
 10
12.7339864981
 20
-70.0145310569
 11
12.7339864981
 21
21.0219048055
  0
LINE
  5
265
100
AcDbEntity
  8
0
100
AcDbLine
 62
250
  6
CONTINUOUS
 10
-33.8932795197
 20
58.3534263972
 11
-34.2400831525
 21
58.7373900353
  0
LINE
  5
266
100
AcDbEntity
  8
ASSI
100
AcDbLine
 62
250
  6
CONTINUOUS
 10
2.8344915615
 20
-24.7995500871
 11
2.3041614756
 21
-25.1057560321
  0
LINE
  5
267
100
AcDbEntity
  8
ASSI
100
AcDbLine
 62
250
  6
CONTINUOUS
 10
12.1152680646
 20
-20.0951579631
 11
11.5849379787
 21
-20.4013639081
  0
LINE
  5
268
100
AcDbEntity
  8
0
100
AcDbLine
 62
7
  6
CONTINUOUS
 10
-7.9842421906
 20
-32.8208655335
 11
-14.6664012729
 21
-36.6790604404
  0
LINE
  5
269
100
AcDbEntity
  8
ASSI
100
AcDbLine
 62
250
  6
CONTINUOUS
 10
-4.5901857887
 20
-31.1880441997
 11
-5.1558150659
 21
-31.5146314554
  0
LINE
  5
26A
100
AcDbEntity
  8
0
100
AcDbLine
 62
250
  6
CONTINUOUS
 10
-7.2771482232
 20
-33.1270196946
 11
-7.5423004524
 21
-33.2801152686
  0
LINE
  5
26B
100
AcDbEntity
  8
ASSI
100
AcDbLine
 62
7
  6
CONTINUOUS
 10
9.5636737251
 20
25.9870723933
 11
8.896951588
 21
26.2195572334
  0
LINE
  5
26C
100
AcDbEntity
  8
ASSI
100
AcDbLine
 62
250
  6
CONTINUOUS
 10
12.2036564122
 20
21.3281107505
 11
12.7339864981
 21
21.0219048055
  0
LINE
  5
26D
100
AcDbEntity
  8
ASSI
100
AcDbLine
 62
250
  6
CONTINUOUS
 10
-29.1620902872
 20
45.2121744602
 11
-29.6924203731
 21
45.5183804052
  0
LINE
  5
26E
100
AcDbEntity
  8
ASSI
100
AcDbLine
 62
250
  6
CONTINUOUS
 10
11.1429962405
 20
25.0167229284
 11
11.6733263263
 21
24.7105169834
  0
LINE
  5
26F
100
AcDbEntity
  8
ASSI
100
AcDbLine
 62
250
  6
CONTINUOUS
 10
-30.222750459
 20
48.9007866381
 11
-30.7530805449
 21
49.2069925831
  0
LINE
  5
270
100
AcDbEntity
  8
CURVE
100
AcDbLine
 62
250
  6
CONTINUOUS
 10
-1.2970396693
 20
-58.1979731612
 11
-0.8113167076
 21
-57.5028750239
  0
LINE
  5
271
100
AcDbEntity
  8
CURVE
100
AcDbLine
 62
250
  6
CONTINUOUS
 10
-0.5353255063
 20
-58.1721741747
 11
-1.2970396693
 21
-59.262207467
  0
LINE
  5
272
100
AcDbEntity
  8
0
100
AcDbLine
 62
250
  6
CONTINUOUS
 10
-14.6664012729
 20
-42.5991248991
 11
-15.1967313587
 21
-42.905330844
  0
LINE
  5
273
100
AcDbEntity
  8
0
100
AcDbLine
 62
250
  6
CONTINUOUS
 10
-14.3128478823
 20
-43.2114973341
 11
-14.8431779682
 21
-43.5177032791
  0
LINE
  5
274
100
AcDbEntity
  8
ASSI
100
AcDbLine
 62
250
  6
CONTINUOUS
 10
-17.1766303461
 20
-45.1912779629
 11
-17.706960432
 21
-45.4974839079
  0
LINE
  5
275
100
AcDbEntity
  8
ASSI
100
AcDbLine
 62
250
  6
CONTINUOUS
 10
-17.0617254941
 20
-45.2576225843
 11
-17.0364235339
 21
-45.2430135495
  0
LINE
  5
276
100
AcDbEntity
  8
0
100
AcDbLine
 62
7
  6
CONTINUOUS
 10
-8.5145722765
 20
-41.6183031747
 11
-12.7933678052
 21
-44.0888260871
  0
LINE
  5
277
100
AcDbEntity
  8
0
100
AcDbLine
 62
7
  6
CONTINUOUS
 10
-22.0910224753
 20
-49.9062182369
 11
-21.7374690847
 21
-49.7020809402
  0
LINE
  5
278
100
AcDbEntity
  8
ASSI
100
AcDbLine
 62
250
  6
CONTINUOUS
 10
8.4495642705
 20
27.3138984191
 11
9.1145659549
 21
27.113658348
  0
LINE
  5
279
100
AcDbEntity
  8
0
100
AcDbLine
 62
250
  6
CONTINUOUS
 10
33.9471899337
 20
48.5789602952
 11
33.9471899337
 21
-65.930996025
  0
LINE
  5
27A
100
AcDbEntity
  8
0
100
AcDbLine
 62
7
  6
CONTINUOUS
 10
34.2400831525
 20
48.9872348885
 11
34.2400831525
 21
-65.5227214317
  0
LINE
  5
27B
100
AcDbEntity
  8
0
100
AcDbLine
 62
250
  6
CONTINUOUS
 10
-9.9820317771
 20
-48.682223643
 11
-10.414921751
 21
-48.9321688886
  0
LINE
  5
27C
100
AcDbEntity
  8
0
100
AcDbLine
 62
250
  6
CONTINUOUS
 10
8.4495642705
 20
33.9051990732
 11
9.1145659549
 21
33.7049590021
  0
LINE
  5
27D
100
AcDbEntity
  8
0
100
AcDbLine
 62
7
  6
CONTINUOUS
 10
-31.2834106307
 20
59.860040735
 11
5.8396953816
 21
38.4256245853
  0
LINE
  5
27E
100
AcDbEntity
  8
0
100
AcDbLine
 62
7
  6
CONTINUOUS
 10
-31.124311605
 20
60.5360497713
 11
5.9987944073
 21
39.1016336216
  0
LINE
  5
27F
100
AcDbEntity
  8
CURVE
100
AcDbLine
 62
250
  6
CONTINUOUS
 10
3.30840584
 20
-59.879520629
 11
2.6664996073
 21
-60.5272223209
  0
LINE
  5
280
100
AcDbEntity
  8
CURVE
100
AcDbLine
 62
250
  6
CONTINUOUS
 10
1.4321778992
 20
-60.832870742
 11
2.0742198963
 21
-60.1852474388
  0
LINE
  5
281
100
AcDbEntity
  8
CURVE
100
AcDbLine
 62
250
  6
CONTINUOUS
 10
2.3703597518
 20
-60.8258971595
 11
2.0244576101
 21
-61.1748456241
  0
LINE
  5
282
100
AcDbEntity
  8
CURVE
100
AcDbLine
 62
250
  6
CONTINUOUS
 10
2.3703597518
 20
-59.8864170626
 11
2.7162615399
 21
-59.5376239315
  0
LINE
  5
283
100
AcDbEntity
  8
0
100
AcDbLine
 62
250
  6
CONTINUOUS
 10
-28.1014301154
 20
61.745520018
 11
9.0216758969
 21
40.3111038683
  0
LINE
  5
284
100
AcDbEntity
  8
0
100
AcDbLine
 62
250
  6
CONTINUOUS
 10
7.8724144479
 20
-58.9911571246
 11
7.439524474
 21
-59.2411023701
  0
LWPOLYLINE
  5
285
100
AcDbEntity
  8
0
100
AcDbPolyline
 62
7
  6
CONTINUOUS
 90
27
 70
0
 10
-5.3270863122
 20
74.6554492267
 10
-5.4016388401
 20
74.6973255091
 10
-5.5037801634
 20
74.750921141
 10
-5.605822818
 20
74.8001387298
 10
-5.7075371018
 20
74.8449223702
 10
-5.8088619158
 20
74.8853074597
 10
-5.9099349788
 20
74.9213954409
 10
-6.0105786712
 20
74.9531599851
 10
-6.110625022
 20
74.9805908598
 10
-6.2102708967
 20
75.0037691722
 10
-6.3094840175
 20
75.0226935489
 10
-6.4080027263
 20
75.0373217357
 10
-6.5057065034
 20
75.0476529637
 10
-6.6025521221
 20
75.0537240147
 10
-6.698362177
 20
75.0555940213
 10
-6.7928224738
 20
75.0533515345
 10
-6.8859584597
 20
75.0471009474
 10
-6.9776016549
 20
75.0369283588
 10
-7.0671442398
 20
75.0229890991
 10
-7.1543450332
 20
75.005455465
 10
-7.2393429048
 20
74.984435662
 10
-7.3221093813
 20
74.9600603849
 10
-7.4026130766
 20
74.9324627814
 10
-7.480838825
 20
74.9017732176
 10
-7.5567978776
 20
74.8681122015
 10
-7.6304962774
 20
74.8316013917
 10
-7.7027359803
 20
74.7919035797
  0
LINE
  5
286
100
AcDbEntity
  8
0
100
AcDbLine
 62
250
  6
CONTINUOUS
 10
-5.827566508
 20
74.6061697078
 11
31.2955395043
 21
53.1717535581
  0
LINE
  5
287
100
AcDbEntity
  8
0
100
AcDbLine
 62
7
  6
CONTINUOUS
 10
-5.3275423479
 20
74.6557108855
 11
31.7955636644
 21
53.2212947358
  0
LWPOLYLINE
  5
288
100
AcDbEntity
  8
0
100
AcDbPolyline
 62
7
  6
CONTINUOUS
 90
43
 70
0
 10
31.7959832068
 20
53.2210541514
 10
31.8886766005
 20
53.1657134965
 10
31.9846505421
 20
53.1045401424
 10
32.0801236397
 20
53.0397082591
 10
32.1752503285
 20
52.9710857413
 10
32.2698426802
 20
52.8987704035
 10
32.3633907931
 20
52.823145707
 10
32.4558148189
 20
52.7442860758
 10
32.547048853
 20
52.6622373212
 10
32.636616449
 20
52.5774260097
 10
32.7244556296
 20
52.4899195649
 10
32.8104997302
 20
52.3997798131
 10
32.8943255654
 20
52.3075142704
 10
32.9758109683
 20
52.2133888234
 10
33.0550163716
 20
52.1174520397
 10
33.131827436
 20
52.0199467171
 10
33.2061131591
 20
51.921147407
 10
33.2779429225
 20
51.8210640849
 10
33.3474845637
 20
51.7195296548
 10
33.4146736623
 20
51.6166705268
 10
33.4794489451
 20
51.5125993385
 10
33.5419458969
 20
51.4070787091
 10
33.602088817
 20
51.3001982597
 10
33.6598376662
 20
51.192068523
 10
33.7153300928
 20
51.0824538322
 10
33.7684992139
 20
50.9714634866
 10
33.8192677315
 20
50.8592165197
 10
33.8676962097
 20
50.7454846032
 10
33.9137412589
 20
50.6302128399
 10
33.9572306872
 20
50.5136518194
 10
33.998011368
 20
50.3960221093
 10
34.0360110523
 20
50.2772957446
 10
34.0710606148
 20
50.1577113577
 10
34.1029319857
 20
50.0378891191
 10
34.1316049644
 20
49.9179176372
 10
34.1570521971
 20
49.7978842564
 10
34.1791425219
 20
49.6784147123
 10
34.1978692506
 20
49.559588995
 10
34.2132078736
 20
49.4415136115
 10
34.2250812507
 20
49.3248217268
 10
34.2334986337
 20
49.209724916
 10
34.2384972232
 20
49.0960234359
 10
34.2400845447
 20
48.9877190513
  0
LINE
  5
289
100
AcDbEntity
  8
0
100
AcDbLine
 62
7
  6
CONTINUOUS
 10
33.9471899337
 20
-65.930996025
 11
19.80505431
 21
-74.0964878916
  0
ARC
  5
28A
100
AcDbEntity
  8
0
100
AcDbCircle
 62
7
  6
CONTINUOUS
 10
16.4943684838
 20
-71.6700163103
 40
3.3752026385
100
AcDbArc
 50
229.6896011202
 51
239.9616967255
  0
ARC
  5
28B
100
AcDbEntity
  8
0
100
AcDbCircle
 62
7
  6
CONTINUOUS
 10
-25.4017083015
 20
-47.4797466556
 40
3.3752026385
100
AcDbArc
 50
229.6896011202
 51
239.9616967255
  0
ARC
  5
28C
100
AcDbEntity
  8
ASSI
100
AcDbCircle
 62
7
  6
CONTINUOUS
 10
8.7436367258
 20
23.3937066571
 40
2.8698600616
100
AcDbArc
 50
55.145746378
 51
59.8345096696
  0
ARC
  5
28D
100
AcDbEntity
  8
0
100
AcDbCircle
 62
250
  6
CONTINUOUS
 10
-7.0771257007
 20
73.7085559062
 40
1.2510105812
100
AcDbArc
 50
117.9997916662
 51
120.0013502214
  0
ARC
  5
28E
100
AcDbEntity
  8
ASSI
100
AcDbCircle
 62
7
  6
CONTINUOUS
 10
-16.2484978978
 20
-45.5437700144
 40
0.7244846155
100
AcDbArc
 50
239.9813037436
 51
242.6480209267
  0
ARC
  5
28F
100
AcDbEntity
  8
ASSI
100
AcDbCircle
 62
7
  6
CONTINUOUS
 10
-3.6973525317
 20
-31.560917562
 40
0.7244846155
100
AcDbArc
 50
239.9813037435
 51
242.6480209267
  0
ARC
  5
290
100
AcDbEntity
  8
ASSI
100
AcDbCircle
 62
7
  6
CONTINUOUS
 10
-16.4570153794
 20
-45.1909974909
 40
0.7196150213
100
AcDbArc
 50
176.9274355679
 51
180.0223311944
  0
ARC
  5
291
100
AcDbEntity
  8
ASSI
100
AcDbCircle
 62
7
  6
CONTINUOUS
 10
-3.9058700134
 20
-31.2081450384
 40
0.7196150213
100
AcDbArc
 50
176.9274355679
 51
180.0223311943
  0
ARC
  5
292
100
AcDbEntity
  8
ASSI
100
AcDbCircle
 62
7
  6
CONTINUOUS
 10
-16.2635930617
 20
-45.5725044885
 40
0.6920271073
100
AcDbArc
 50
242.6650205057
 51
243.0968827148
  0
ARC
  5
293
100
AcDbEntity
  8
ASSI
100
AcDbCircle
 62
7
  6
CONTINUOUS
 10
-3.7124476958
 20
-31.5896520362
 40
0.6920271071
100
AcDbArc
 50
242.6650205056
 51
243.0968827148
  0
ARC
  5
294
100
AcDbEntity
  8
ASSI
100
AcDbCircle
 62
7
  6
CONTINUOUS
 10
-16.4904283469
 20
-45.2573628656
 40
0.5712972063
100
AcDbArc
 50
176.6773166399
 51
180.026047365
  0
SPLINE
  5
295
100
AcDbEntity
  8
0
100
AcDbSpline
 62
7
  6
CONTINUOUS
 70
0
 71
3
 72
9
 73
5
 74
0
 42
0.0000001
 43
0.0000001
 44
0.0000000001
 40
0.0
 40
0.0
 40
0.0
 40
0.0
 40
0.4671369424
 40
1.0
 40
1.0
 40
1.0
 40
1.0
 10
-15.0931893451
 20
50.401147994
 30
0.0
 10
-15.0685920945
 20
50.4153501275
 30
0.0
 10
-15.00710523
 20
50.4314928147
 30
0.0
 10
-14.9458590752
 20
50.4197438841
 30
0.0
 10
-14.9151589845
 20
50.4093895423
 30
0.0
  0
SPLINE
  5
296
100
AcDbEntity
  8
0
100
AcDbSpline
 62
7
  6
CONTINUOUS
 70
0
 71
3
 72
11
 73
7
 74
0
 42
0.0000001
 43
0.0000001
 44
0.0000000001
 40
0.0
 40
0.0
 40
0.0
 40
0.0
 40
0.2177720464
 40
0.4509568281
 40
0.7101929508
 40
1.0
 40
1.0
 40
1.0
 40
1.0
 10
8.1789134638
 20
-60.0215894578
 30
0.0
 10
8.1991106092
 20
-60.0099228568
 30
0.0
 10
8.2369144248
 20
-59.9781510871
 30
0.0
 10
8.2771204831
 20
-59.9123554651
 30
0.0
 10
8.3010444652
 20
-59.8312875317
 30
0.0
 10
8.3057302809
 20
-59.77227862
 30
0.0
 10
8.3057302809
 20
-59.7412387469
 30
0.0
  0
SPLINE
  5
297
100
AcDbEntity
  8
0
100
AcDbSpline
 62
7
  6
CONTINUOUS
 70
0
 71
3
 72
11
 73
7
 74
0
 42
0.0000001
 43
0.0000001
 44
0.0000000001
 40
0.0
 40
0.0
 40
0.0
 40
0.0
 40
0.2177720464
 40
0.4509568281
 40
0.7101929508
 40
1.0
 40
1.0
 40
1.0
 40
1.0
 10
-9.6755327611
 20
-49.7126559763
 30
0.0
 10
-9.6553356158
 20
-49.7009893753
 30
0.0
 10
-9.6175318002
 20
-49.6692176055
 30
0.0
 10
-9.5773257419
 20
-49.6034219835
 30
0.0
 10
-9.5534017597
 20
-49.5223540502
 30
0.0
 10
-9.548715944
 20
-49.4633451385
 30
0.0
 10
-9.548715944
 20
-49.4323052654
 30
0.0
  0
SPLINE
  5
298
100
AcDbEntity
  8
ASSI
100
AcDbSpline
 62
7
  6
CONTINUOUS
 70
0
 71
3
 72
11
 73
7
 74
0
 42
0.0000001
 43
0.0000001
 44
0.0000000001
 40
0.0
 40
0.0
 40
0.0
 40
0.0
 40
0.2177724998
 40
0.4509548069
 40
0.7101910283
 40
1.0
 40
1.0
 40
1.0
 40
1.0
 10
-16.7412555993
 20
-46.5169127001
 30
0.0
 10
-16.7148707447
 20
-46.5016783365
 30
0.0
 10
-16.6654875798
 20
-46.4601798915
 30
0.0
 10
-16.6129637206
 20
-46.3742401629
 30
0.0
 10
-16.5817111223
 20
-46.2683476175
 30
0.0
 10
-16.5755895821
 20
-46.1912685483
 30
0.0
 10
-16.5755895821
 20
-46.1507232572
 30
0.0
  0
SPLINE
  5
299
100
AcDbEntity
  8
ASSI
100
AcDbSpline
 62
7
  6
CONTINUOUS
 70
0
 71
3
 72
17
 73
13
 74
0
 42
0.0000001
 43
0.0000001
 44
0.0000000001
 40
0.0
 40
0.0
 40
0.0
 40
0.0
 40
0.1286786404
 40
0.270270774
 40
0.4174275092
 40
0.5617757419
 40
0.6954482048
 40
0.8127142031
 40
0.8646788605
 40
0.9125123007
 40
0.9571409966
 40
1.0
 40
1.0
 40
1.0
 40
1.0
 10
-16.5755895821
 20
-46.1507232572
 30
0.0
 10
-16.5755895821
 20
-46.0823471793
 30
0.0
 10
-16.5947214505
 20
-45.9385699031
 30
0.0
 10
-16.666116017
 20
-45.7274579132
 30
0.0
 10
-16.7761496247
 20
-45.5240873897
 30
0.0
 10
-16.9159550087
 20
-45.3451344839
 30
0.0
 10
-17.0741189053
 20
-45.2050579102
 30
0.0
 10
-17.2172753215
 20
-45.1267816555
 30
0.0
 10
-17.3292582592
 20
-45.0969862818
 30
0.0
 10
-17.4063297746
 20
-45.0913187294
 30
0.0
 10
-17.4780959169
 20
-45.1018355384
 30
0.0
 10
-17.521571874
 20
-45.1199068579
 30
0.0
 10
-17.5412944147
 20
-45.131294465
 30
0.0
  0
SPLINE
  5
29A
100
AcDbEntity
  8
0
100
AcDbSpline
 62
7
  6
CONTINUOUS
 70
0
 71
3
 72
16
 73
12
 74
0
 42
0.0000001
 43
0.0000001
 44
0.0000000001
 40
0.0
 40
0.0
 40
0.0
 40
0.0
 40
0.128737027
 40
0.2703918066
 40
0.4176138853
 40
0.5620258259
 40
0.6957561075
 40
0.813070998
 40
0.9124750276
 40
0.9571223823
 40
1.0
 40
1.0
 40
1.0
 40
1.0
 10
8.3057302809
 20
-59.7412387469
 30
0.0
 10
8.3057302809
 20
-59.6888862955
 30
0.0
 10
8.2910806786
 20
-59.5788030569
 30
0.0
 10
8.236419646
 20
-59.4171667127
 30
0.0
 10
8.15215533
 20
-59.2614551716
 30
0.0
 10
8.0451693603
 20
-59.1244518634
 30
0.0
 10
7.9238811463
 20
-59.0171758728
 30
0.0
 10
7.7977045487
 20
-58.9479689182
 30
0.0
 10
7.6905939092
 20
-58.9270627253
 30
0.0
 10
7.6147259991
 20
-58.9381921994
 30
0.0
 10
7.5814400434
 20
-58.9520300743
 30
0.0
 10
7.5663412911
 20
-58.9607516593
 30
0.0
  0
SPLINE
  5
29B
100
AcDbEntity
  8
0
100
AcDbSpline
 62
7
  6
CONTINUOUS
 70
0
 71
3
 72
16
 73
12
 74
0
 42
0.0000001
 43
0.0000001
 44
0.0000000001
 40
0.0
 40
0.0
 40
0.0
 40
0.0
 40
0.128737027
 40
0.2703918066
 40
0.4176138853
 40
0.5620258259
 40
0.6957561075
 40
0.813070998
 40
0.9124750276
 40
0.9571223823
 40
1.0
 40
1.0
 40
1.0
 40
1.0
 10
-9.548715944
 20
-49.4323052654
 30
0.0
 10
-9.548715944
 20
-49.379952814
 30
0.0
 10
-9.5633655464
 20
-49.2698695754
 30
0.0
 10
-9.618026579
 20
-49.1082332312
 30
0.0
 10
-9.7022908949
 20
-48.9525216901
 30
0.0
 10
-9.8092768646
 20
-48.8155183819
 30
0.0
 10
-9.9305650787
 20
-48.7082423912
 30
0.0
 10
-10.0567416763
 20
-48.6390354366
 30
0.0
 10
-10.1638523158
 20
-48.6181292438
 30
0.0
 10
-10.2397202258
 20
-48.6292587179
 30
0.0
 10
-10.2730061815
 20
-48.6430965928
 30
0.0
 10
-10.2881049339
 20
-48.6518181778
 30
0.0
  0
SPLINE
  5
29C
100
AcDbEntity
  8
0
100
AcDbSpline
 62
7
  6
CONTINUOUS
 70
0
 71
3
 72
11
 73
7
 74
0
 42
0.0000001
 43
0.0000001
 44
0.0000000001
 40
0.0
 40
0.0
 40
0.0
 40
0.0
 40
0.2177720464
 40
0.4509568281
 40
0.7101929508
 40
1.0
 40
1.0
 40
1.0
 40
1.0
 10
-10.2881049339
 20
-48.6518181778
 30
0.0
 10
-10.3083020792
 20
-48.6634847788
 30
0.0
 10
-10.3461058948
 20
-48.6952565485
 30
0.0
 10
-10.3863119531
 20
-48.7610521705
 30
0.0
 10
-10.4102359352
 20
-48.8421201038
 30
0.0
 10
-10.414921751
 20
-48.9011290155
 30
0.0
 10
-10.414921751
 20
-48.9321688886
 30
0.0
  0
SPLINE
  5
29D
100
AcDbEntity
  8
ASSI
100
AcDbSpline
 62
7
  6
CONTINUOUS
 70
0
 71
3
 72
17
 73
13
 74
0
 42
0.0000001
 43
0.0000001
 44
0.0000000001
 40
0.0
 40
0.0
 40
0.0
 40
0.0
 40
0.1286786404
 40
0.270270774
 40
0.4174275092
 40
0.5617757419
 40
0.6954482048
 40
0.8127142031
 40
0.8646788605
 40
0.9125123007
 40
0.9571409966
 40
1.0
 40
1.0
 40
1.0
 40
1.0
 10
-17.706960432
 20
-45.4974839079
 30
0.0
 10
-17.706960432
 20
-45.5658599857
 30
0.0
 10
-17.6878285635
 20
-45.7096372619
 30
0.0
 10
-17.616433997
 20
-45.9207492518
 30
0.0
 10
-17.5064003894
 20
-46.1241197753
 30
0.0
 10
-17.3665950053
 20
-46.3030726812
 30
0.0
 10
-17.2084311087
 20
-46.4431492549
 30
0.0
 10
-17.0652746925
 20
-46.5214255096
 30
0.0
 10
-16.9532917548
 20
-46.5512208833
 30
0.0
 10
-16.8762202394
 20
-46.5568884356
 30
0.0
 10
-16.8044540972
 20
-46.5463716266
 30
0.0
 10
-16.76097814
 20
-46.5283003072
 30
0.0
 10
-16.7412555993
 20
-46.5169127001
 30
0.0
  0
SPLINE
  5
29E
100
AcDbEntity
  8
0
100
AcDbSpline
 62
7
  6
CONTINUOUS
 70
0
 71
3
 72
16
 73
12
 74
0
 42
0.0000001
 43
0.0000001
 44
0.0000000001
 40
0.0
 40
0.0
 40
0.0
 40
0.0
 40
0.128737027
 40
0.2703918066
 40
0.4176138853
 40
0.5620258259
 40
0.6957561075
 40
0.813070998
 40
0.9124750276
 40
0.9571223823
 40
1.0
 40
1.0
 40
1.0
 40
1.0
 10
7.439524474
 20
-59.2411023701
 30
0.0
 10
7.439524474
 20
-59.2934548216
 30
0.0
 10
7.4541740764
 20
-59.4035380601
 30
0.0
 10
7.508835109
 20
-59.5651744043
 30
0.0
 10
7.5930994249
 20
-59.7208859455
 30
0.0
 10
7.7000853946
 20
-59.8578892536
 30
0.0
 10
7.8213736087
 20
-59.9651652443
 30
0.0
 10
7.9475502063
 20
-60.0343721989
 30
0.0
 10
8.0546608458
 20
-60.0552783918
 30
0.0
 10
8.1305287558
 20
-60.0441489177
 30
0.0
 10
8.1638147115
 20
-60.0303110427
 30
0.0
 10
8.1789134638
 20
-60.0215894578
 30
0.0
  0
SPLINE
  5
29F
100
AcDbEntity
  8
0
100
AcDbSpline
 62
7
  6
CONTINUOUS
 70
0
 71
3
 72
16
 73
12
 74
0
 42
0.0000001
 43
0.0000001
 44
0.0000000001
 40
0.0
 40
0.0
 40
0.0
 40
0.0
 40
0.128737027
 40
0.2703918066
 40
0.4176138853
 40
0.5620258259
 40
0.6957561075
 40
0.813070998
 40
0.9124750276
 40
0.9571223823
 40
1.0
 40
1.0
 40
1.0
 40
1.0
 10
-10.414921751
 20
-48.9321688886
 30
0.0
 10
-10.414921751
 20
-48.9845213401
 30
0.0
 10
-10.4002721486
 20
-49.0946045786
 30
0.0
 10
-10.345611116
 20
-49.2562409228
 30
0.0
 10
-10.2613468001
 20
-49.411952464
 30
0.0
 10
-10.1543608304
 20
-49.5489557721
 30
0.0
 10
-10.0330726163
 20
-49.6562317628
 30
0.0
 10
-9.9068960187
 20
-49.7254387174
 30
0.0
 10
-9.7997853792
 20
-49.7463449103
 30
0.0
 10
-9.7239174692
 20
-49.7352154361
 30
0.0
 10
-9.6906315135
 20
-49.7213775612
 30
0.0
 10
-9.6755327611
 20
-49.7126559763
 30
0.0
  0
SPLINE
  5
2A0
100
AcDbEntity
  8
ASSI
100
AcDbSpline
 62
7
  6
CONTINUOUS
 70
0
 71
3
 72
11
 73
7
 74
0
 42
0.0000001
 43
0.0000001
 44
0.0000000001
 40
0.0
 40
0.0
 40
0.0
 40
0.0
 40
0.2177724998
 40
0.4509548069
 40
0.7101910283
 40
1.0
 40
1.0
 40
1.0
 40
1.0
 10
-17.5412944147
 20
-45.131294465
 30
0.0
 10
-17.5676792693
 20
-45.1465288286
 30
0.0
 10
-17.6170624342
 20
-45.1880272735
 30
0.0
 10
-17.6695862934
 20
-45.2739670022
 30
0.0
 10
-17.7008388917
 20
-45.3798595475
 30
0.0
 10
-17.706960432
 20
-45.4569386167
 30
0.0
 10
-17.706960432
 20
-45.4974839079
 30
0.0
  0
SPLINE
  5
2A1
100
AcDbEntity
  8
0
100
AcDbSpline
 62
7
  6
CONTINUOUS
 70
0
 71
3
 72
11
 73
7
 74
0
 42
0.0000001
 43
0.0000001
 44
0.0000000001
 40
0.0
 40
0.0
 40
0.0
 40
0.0
 40
0.2177720464
 40
0.4509568281
 40
0.7101929508
 40
1.0
 40
1.0
 40
1.0
 40
1.0
 10
7.5663412911
 20
-58.9607516593
 30
0.0
 10
7.5461441458
 20
-58.9724182603
 30
0.0
 10
7.5083403302
 20
-59.00419003
 30
0.0
 10
7.4681342718
 20
-59.069985652
 30
0.0
 10
7.4442102897
 20
-59.1510535853
 30
0.0
 10
7.439524474
 20
-59.210062497
 30
0.0
 10
7.439524474
 20
-59.2411023701
 30
0.0
  0
SPLINE
  5
2A2
100
AcDbEntity
  8
0
100
AcDbSpline
 62
7
  6
CONTINUOUS
 70
0
 71
3
 72
11
 73
7
 74
0
 42
0.0000001
 43
0.0000001
 44
0.0000000001
 40
0.0
 40
0.0
 40
0.0
 40
0.0
 40
0.2372212891
 40
0.5000061068
 40
0.7627876004
 40
1.0
 40
1.0
 40
1.0
 40
1.0
 10
-14.8431779682
 20
-43.5177032791
 30
0.0
 10
-14.8933676756
 20
-43.488724371
 30
0.0
 10
-14.9883549028
 20
-43.4087800604
 30
0.0
 10
-15.0992222023
 20
-43.2572776954
 30
0.0
 10
-15.1749928382
 20
-43.0855147309
 30
0.0
 10
-15.1967313587
 20
-42.963283688
 30
0.0
 10
-15.1967313587
 20
-42.905330844
 30
0.0
  0
SPLINE
  5
2A3
100
AcDbEntity
  8
0
100
AcDbSpline
 62
7
  6
CONTINUOUS
 70
0
 71
3
 72
11
 73
7
 74
0
 42
0.0000001
 43
0.0000001
 44
0.0000000001
 40
0.0
 40
0.0
 40
0.0
 40
0.0
 40
0.2898086083
 40
0.549045172
 40
0.7822281915
 40
1.0
 40
1.0
 40
1.0
 40
1.0
 10
-15.1967313587
 20
50.1722807103
 30
0.0
 10
-15.1967313587
 20
50.1976214608
 30
0.0
 10
-15.192905591
 20
50.2457958576
 30
0.0
 10
-15.1733726105
 20
50.3119786406
 30
0.0
 10
-15.1405449693
 20
50.3656909708
 30
0.0
 10
-15.1096798353
 20
50.3916265987
 30
0.0
 10
-15.0931893451
 20
50.401147994
 30
0.0
  0
SPLINE
  5
2A4
100
AcDbEntity
  8
0
100
AcDbSpline
 62
7
  6
CONTINUOUS
 70
0
 71
3
 72
11
 73
7
 74
0
 42
0.0000001
 43
0.0000001
 44
0.0000000001
 40
0.0
 40
0.0
 40
0.0
 40
0.0
 40
0.2372127764
 40
0.4999938932
 40
0.7627783341
 40
1.0
 40
1.0
 40
1.0
 40
1.0
 10
-8.1610188859
 20
-41.0059307397
 30
0.0
 10
-8.1610188859
 20
-41.0638836897
 30
0.0
 10
-8.1827577557
 20
-41.18611461
 30
0.0
 10
-8.2585268838
 20
-41.3578782599
 30
0.0
 10
-8.3693955308
 20
-41.5093796619
 30
0.0
 10
-8.4643824772
 20
-41.5893242136
 30
0.0
 10
-8.5145722765
 20
-41.6183031747
 30
0.0
  0
SPLINE
  5
2A5
100
AcDbEntity
  8
ASSI
100
AcDbSpline
 62
7
  6
CONTINUOUS
 70
0
 71
3
 72
12
 73
8
 74
0
 42
0.0000001
 43
0.0000001
 44
0.0000000001
 40
0.0
 40
0.0
 40
0.0
 40
0.0
 40
0.1081627676
 40
0.218364639
 40
0.4513670264
 40
0.7104192525
 40
1.0
 40
1.0
 40
1.0
 40
1.0
 10
7.4344672162
 20
-30.5214706356
 30
0.0
 10
7.5041392455
 20
-30.4812428906
 30
0.0
 10
7.63809181
 20
-30.3877436272
 30
0.0
 10
7.8783971228
 20
-30.1513810208
 30
0.0
 10
8.1163508361
 20
-29.7633723382
 30
0.0
 10
8.2819361559
 20
-29.2010161916
 30
0.0
 10
8.3145691157
 20
-28.7914806458
 30
0.0
 10
8.3145691157
 20
-28.5760900754
 30
0.0
  0
SPLINE
  5
2A6
100
AcDbEntity
  8
0
100
AcDbSpline
 62
7
  6
CONTINUOUS
 70
0
 71
3
 72
13
 73
9
 74
0
 42
0.0000001
 43
0.0000001
 44
0.0000000001
 40
0.0
 40
0.0
 40
0.0
 40
0.0
 40
0.2280582912
 40
0.4751254025
 40
0.6046196273
 40
0.7367346011
 40
0.8695319699
 40
1.0
 40
1.0
 40
1.0
 40
1.0
 10
-7.2771354095
 20
-33.1270418873
 30
0.0
 10
-7.2771354095
 20
-33.0923622852
 30
0.0
 10
-7.2836280751
 20
-33.0200534942
 30
0.0
 10
-7.3073014297
 20
-32.9305152892
 30
0.0
 10
-7.3402372953
 20
-32.8602615641
 30
0.0
 10
-7.3745363792
 20
-32.810595171
 30
0.0
 10
-7.4197120669
 20
-32.769830528
 30
0.0
 10
-7.4577164506
 20
-32.75387619
 30
0.0
 10
-7.4772207607
 20
-32.7502443051
 30
0.0
  0
SPLINE
  5
2A7
100
AcDbEntity
  8
0
100
AcDbSpline
 62
7
  6
CONTINUOUS
 70
0
 71
3
 72
10
 73
6
 74
0
 42
0.0000001
 43
0.0000001
 44
0.0000000001
 40
0.0
 40
0.0
 40
0.0
 40
0.0
 40
0.5204642282
 40
0.7713301656
 40
1.0
 40
1.0
 40
1.0
 40
1.0
 10
-7.4772207607
 20
-32.7502443051
 30
0.0
 10
-7.5659575381
 20
-32.7337206879
 30
0.0
 10
-7.7027733945
 20
-32.7309379251
 30
0.0
 10
-7.8726021089
 20
-32.7683174959
 30
0.0
 10
-7.9498984946
 20
-32.8010359138
 30
0.0
 10
-7.9842421906
 20
-32.8208655335
 30
0.0
  0
SPLINE
  5
2A8
100
AcDbEntity
  8
ASSI
100
AcDbSpline
 62
7
  6
CONTINUOUS
 70
0
 71
3
 72
11
 73
7
 74
0
 42
0.0000001
 43
0.0000001
 44
0.0000000001
 40
0.0
 40
0.0
 40
0.0
 40
0.0
 40
0.2177724998
 40
0.4509548069
 40
0.7101910283
 40
1.0
 40
1.0
 40
1.0
 40
1.0
 10
-4.1901102332
 20
-32.5340602476
 30
0.0
 10
-4.1637253786
 20
-32.518825884
 30
0.0
 10
-4.1143422138
 20
-32.4773274391
 30
0.0
 10
-4.0618183546
 20
-32.3913877104
 30
0.0
 10
-4.0305657563
 20
-32.2854951651
 30
0.0
 10
-4.024444216
 20
-32.2084160959
 30
0.0
 10
-4.024444216
 20
-32.1678708047
 30
0.0
  0
SPLINE
  5
2A9
100
AcDbEntity
  8
0
100
AcDbSpline
 62
7
  6
CONTINUOUS
 70
0
 71
3
 72
11
 73
7
 74
0
 42
0.0000001
 43
0.0000001
 44
0.0000000001
 40
0.0
 40
0.0
 40
0.0
 40
0.0
 40
0.21777184
 40
0.4509548759
 40
0.7101914237
 40
1.0
 40
1.0
 40
1.0
 40
1.0
 10
-7.3547918648
 20
-33.2986923184
 30
0.0
 10
-7.3424240046
 20
-33.2915512642
 30
0.0
 10
-7.3192751666
 20
-33.2720995403
 30
0.0
 10
-7.2946544566
 20
-33.231815295
 30
0.0
 10
-7.2800047326
 20
-33.1821782249
 30
0.0
 10
-7.2771354095
 20
-33.146047442
 30
0.0
 10
-7.2771354095
 20
-33.1270418873
 30
0.0
  0
SPLINE
  5
2AA
100
AcDbEntity
  8
ASSI
100
AcDbSpline
 62
7
  6
CONTINUOUS
 70
0
 71
3
 72
17
 73
13
 74
0
 42
0.0000001
 43
0.0000001
 44
0.0000000001
 40
0.0
 40
0.0
 40
0.0
 40
0.0
 40
0.1286786404
 40
0.270270774
 40
0.4174275092
 40
0.5617757419
 40
0.6954482048
 40
0.8127142031
 40
0.8646788605
 40
0.9125123007
 40
0.9571409966
 40
1.0
 40
1.0
 40
1.0
 40
1.0
 10
-4.024444216
 20
-32.1678708047
 30
0.0
 10
-4.024444216
 20
-32.0994947269
 30
0.0
 10
-4.0435760845
 20
-31.9557174507
 30
0.0
 10
-4.1149706509
 20
-31.7446054608
 30
0.0
 10
-4.2250042586
 20
-31.5412349373
 30
0.0
 10
-4.3648096426
 20
-31.3622820314
 30
0.0
 10
-4.5229735392
 20
-31.2222054577
 30
0.0
 10
-4.6661299555
 20
-31.143929203
 30
0.0
 10
-4.7781128931
 20
-31.1141338293
 30
0.0
 10
-4.8551844086
 20
-31.108466277
 30
0.0
 10
-4.9269505508
 20
-31.118983086
 30
0.0
 10
-4.9704265079
 20
-31.1370544054
 30
0.0
 10
-4.9901490487
 20
-31.1484420125
 30
0.0
  0
SPLINE
  5
2AB
100
AcDbEntity
  8
ASSI
100
AcDbSpline
 62
7
  6
CONTINUOUS
 70
0
 71
3
 72
10
 73
6
 74
0
 42
0.0000001
 43
0.0000001
 44
0.0000000001
 40
0.0
 40
0.0
 40
0.0
 40
0.0
 40
0.5294884201
 40
0.7690918965
 40
1.0
 40
1.0
 40
1.0
 40
1.0
 10
12.2036137608
 20
-19.8630295625
 30
0.0
 10
12.1368814521
 20
-19.8420650531
 30
0.0
 10
12.0335347463
 20
-19.8250415942
 30
0.0
 10
11.9022505151
 20
-19.8466618148
 30
0.0
 10
11.8443234397
 20
-19.8711582039
 30
0.0
 10
11.8179065753
 20
-19.8864109548
 30
0.0
  0
SPLINE
  5
2AC
100
AcDbEntity
  8
ASSI
100
AcDbSpline
 62
7
  6
CONTINUOUS
 70
0
 71
3
 72
20
 73
16
 74
0
 42
0.0000001
 43
0.0000001
 44
0.0000000001
 40
0.0
 40
0.0
 40
0.0
 40
0.0
 40
0.0624196753
 40
0.1287951596
 40
0.2702968165
 40
0.4173590616
 40
0.561614647
 40
0.6302530935
 40
0.6953798081
 40
0.7563638702
 40
0.8128348616
 40
0.8647660155
 40
0.9125686363
 40
0.9571686045
 40
1.0
 40
1.0
 40
1.0
 40
1.0
 10
8.3145691157
 20
-28.5760900754
 30
0.0
 10
8.3145691157
 20
-28.3997716552
 30
0.0
 10
8.2906932999
 20
-28.0356953885
 30
0.0
 10
8.1567172605
 20
-27.2828678683
 30
0.0
 10
7.8335100682
 20
-26.3270536408
 30
0.0
 10
7.249175952
 20
-25.2473452621
 30
0.0
 10
6.6197763858
 20
-24.4412750836
 30
0.0
 10
6.0533881454
 20
-23.8956837538
 30
0.0
 10
5.619356137
 20
-23.5558995431
 30
0.0
 10
5.1783116189
 20
-23.2860686423
 30
0.0
 10
4.7391715344
 20
-23.0919832224
 30
0.0
 10
4.3106852679
 20
-22.9781362594
 30
0.0
 10
3.9012666624
 20
-22.9479975926
 30
0.0
 10
3.5200031302
 20
-23.0038745619
 30
0.0
 10
3.2890394374
 20
-23.099879104
 30
0.0
 10
3.1842633751
 20
-23.1603754719
 30
0.0
  0
SPLINE
  5
2AD
100
AcDbEntity
  8
ASSI
100
AcDbSpline
 62
7
  6
CONTINUOUS
 70
0
 71
3
 72
11
 73
7
 74
0
 42
0.0000001
 43
0.0000001
 44
0.0000000001
 40
0.0
 40
0.0
 40
0.0
 40
0.0
 40
0.2177724998
 40
0.4509548069
 40
0.7101910283
 40
1.0
 40
1.0
 40
1.0
 40
1.0
 10
-4.9901490487
 20
-31.1484420125
 30
0.0
 10
-5.0165339033
 20
-31.1636763761
 30
0.0
 10
-5.0659170681
 20
-31.2051748211
 30
0.0
 10
-5.1184409273
 20
-31.2911145497
 30
0.0
 10
-5.1496935256
 20
-31.3970070951
 30
0.0
 10
-5.1558150659
 20
-31.4740861643
 30
0.0
 10
-5.1558150659
 20
-31.5146314554
 30
0.0
  0
SPLINE
  5
2AE
100
AcDbEntity
  8
ASSI
100
AcDbSpline
 62
7
  6
CONTINUOUS
 70
0
 71
3
 72
12
 73
8
 74
0
 42
0.0000001
 43
0.0000001
 44
0.0000000001
 40
0.0
 40
0.0
 40
0.0
 40
0.0
 40
0.1081627676
 40
0.218364639
 40
0.4513670264
 40
0.7104192525
 40
1.0
 40
1.0
 40
1.0
 40
1.0
 10
3.1842633751
 20
-23.1603754719
 30
0.0
 10
3.1145913458
 20
-23.2006032169
 30
0.0
 10
2.9806387813
 20
-23.2941024803
 30
0.0
 10
2.7403334685
 20
-23.5304650867
 30
0.0
 10
2.5023797552
 20
-23.9184737694
 30
0.0
 10
2.3367944354
 20
-24.4808299159
 30
0.0
 10
2.3041614756
 20
-24.8903654617
 30
0.0
 10
2.3041614756
 20
-25.1057560321
 30
0.0
  0
SPLINE
  5
2AF
100
AcDbEntity
  8
ASSI
100
AcDbSpline
 62
7
  6
CONTINUOUS
 70
0
 71
3
 72
17
 73
13
 74
0
 42
0.0000001
 43
0.0000001
 44
0.0000000001
 40
0.0
 40
0.0
 40
0.0
 40
0.0
 40
0.1286786404
 40
0.270270774
 40
0.4174275092
 40
0.5617757419
 40
0.6954482048
 40
0.8127142031
 40
0.8646788605
 40
0.9125123007
 40
0.9571409966
 40
1.0
 40
1.0
 40
1.0
 40
1.0
 10
-5.1558150659
 20
-31.5146314554
 30
0.0
 10
-5.1558150659
 20
-31.5830075333
 30
0.0
 10
-5.1366831974
 20
-31.7267848095
 30
0.0
 10
-5.065288631
 20
-31.9378967994
 30
0.0
 10
-4.9552550233
 20
-32.1412673229
 30
0.0
 10
-4.8154496393
 20
-32.3202202287
 30
0.0
 10
-4.6572857427
 20
-32.4602968024
 30
0.0
 10
-4.5141293264
 20
-32.5385730571
 30
0.0
 10
-4.4021463888
 20
-32.5683684308
 30
0.0
 10
-4.3250748733
 20
-32.5740359832
 30
0.0
 10
-4.2533087311
 20
-32.5635191742
 30
0.0
 10
-4.209832774
 20
-32.5454478547
 30
0.0
 10
-4.1901102332
 20
-32.5340602476
 30
0.0
  0
SPLINE
  5
2B0
100
AcDbEntity
  8
ASSI
100
AcDbSpline
 62
7
  6
CONTINUOUS
 70
0
 71
3
 72
11
 73
7
 74
0
 42
0.0000001
 43
0.0000001
 44
0.0000000001
 40
0.0
 40
0.0
 40
0.0
 40
0.0
 40
0.2316665924
 40
0.487727418
 40
0.7503118802
 40
1.0
 40
1.0
 40
1.0
 40
1.0
 10
11.5849379787
 20
-20.4013639081
 30
0.0
 10
11.5849379787
 20
-20.5121051219
 30
0.0
 10
11.6204933819
 20
-20.7454827287
 30
0.0
 10
11.7493815622
 20
-21.0824307403
 30
0.0
 10
11.9439151818
 20
-21.3964091963
 30
0.0
 10
12.1122501496
 20
-21.5773277688
 30
0.0
 10
12.2036137608
 20
-21.6541295393
 30
0.0
  0
SPLINE
  5
2B1
100
AcDbEntity
  8
ASSI
100
AcDbSpline
 62
7
  6
CONTINUOUS
 70
0
 71
3
 72
20
 73
16
 74
0
 42
0.0000001
 43
0.0000001
 44
0.0000000001
 40
0.0
 40
0.0
 40
0.0
 40
0.0
 40
0.0624196753
 40
0.1287951596
 40
0.2702968165
 40
0.4173590616
 40
0.561614647
 40
0.6302530935
 40
0.6953798081
 40
0.7563638702
 40
0.8128348616
 40
0.8647660155
 40
0.9125686363
 40
0.9571686045
 40
1.0
 40
1.0
 40
1.0
 40
1.0
 10
2.3041614756
 20
-25.1057560321
 30
0.0
 10
2.3041614756
 20
-25.2820744523
 30
0.0
 10
2.3280372914
 20
-25.646150719
 30
0.0
 10
2.4620133308
 20
-26.3989782392
 30
0.0
 10
2.7852205232
 20
-27.3547924667
 30
0.0
 10
3.3695546394
 20
-28.4345008454
 30
0.0
 10
3.9989542055
 20
-29.2405710239
 30
0.0
 10
4.5653424459
 20
-29.7861623537
 30
0.0
 10
4.9993744543
 20
-30.1259465645
 30
0.0
 10
5.4404189724
 20
-30.3957774652
 30
0.0
 10
5.879559057
 20
-30.5898628851
 30
0.0
 10
6.3080453234
 20
-30.7037098482
 30
0.0
 10
6.7174639289
 20
-30.7338485149
 30
0.0
 10
7.0987274612
 20
-30.6779715457
 30
0.0
 10
7.3296911539
 20
-30.5819670035
 30
0.0
 10
7.4344672162
 20
-30.5214706356
 30
0.0
  0
SPLINE
  5
2B2
100
AcDbEntity
  8
0
100
AcDbSpline
 62
7
  6
CONTINUOUS
 70
0
 71
3
 72
11
 73
7
 74
0
 42
0.0000001
 43
0.0000001
 44
0.0000000001
 40
0.0
 40
0.0
 40
0.0
 40
0.0
 40
0.2898142756
 40
0.5490528732
 40
0.7822336123
 40
1.0
 40
1.0
 40
1.0
 40
1.0
 10
-7.5423004524
 20
-33.2801152686
 30
0.0
 10
-7.5258386336
 20
-33.2896201165
 30
0.0
 10
-7.4931088258
 20
-33.3052040211
 30
0.0
 10
-7.442789295
 20
-33.3173383824
 30
0.0
 10
-7.395584951
 20
-33.316158258
 30
0.0
 10
-7.3671612692
 20
-33.3058342643
 30
0.0
 10
-7.3547918648
 20
-33.2986923184
 30
0.0
  0
SPLINE
  5
2B3
100
AcDbEntity
  8
ASSI
100
AcDbSpline
 62
7
  6
CONTINUOUS
 70
0
 71
3
 72
11
 73
7
 74
0
 42
0.0000001
 43
0.0000001
 44
0.0000000001
 40
0.0
 40
0.0
 40
0.0
 40
0.0
 40
0.2177724475
 40
0.4509526031
 40
0.7101928525
 40
1.0
 40
1.0
 40
1.0
 40
1.0
 10
11.8179065753
 20
-19.8864109548
 30
0.0
 10
11.7808027954
 20
-19.9078341903
 30
0.0
 10
11.7113567968
 20
-19.9661894644
 30
0.0
 10
11.6374934695
 20
-20.0870422802
 30
0.0
 10
11.5935474631
 20
-20.2359547034
 30
0.0
 10
11.5849379787
 20
-20.3443474063
 30
0.0
 10
11.5849379787
 20
-20.4013639081
 30
0.0
  0
SPLINE
  5
2B4
100
AcDbEntity
  8
0
100
AcDbSpline
 62
7
  6
CONTINUOUS
 70
0
 71
3
 72
9
 73
5
 74
0
 42
0.0000001
 43
0.0000001
 44
0.0000000001
 40
0.0
 40
0.0
 40
0.0
 40
0.0
 40
0.2518195477
 40
1.0
 40
1.0
 40
1.0
 40
1.0
 10
-5.4503887507
 20
74.6979192237
 30
0.0
 10
-5.4395710688
 20
74.6962974927
 30
0.0
 10
-5.3969077209
 20
74.6880689259
 30
0.0
 10
-5.3557125152
 20
74.6719222113
 30
0.0
 10
-5.3275437362
 20
74.6557129337
 30
0.0
  0
SPLINE
  5
2B5
100
AcDbEntity
  8
ASSI
100
AcDbSpline
 62
7
  6
CONTINUOUS
 70
0
 71
3
 72
11
 73
7
 74
0
 42
0.0000001
 43
0.0000001
 44
0.0000000001
 40
0.0
 40
0.0
 40
0.0
 40
0.0
 40
0.2619302265
 40
0.5149071215
 40
0.7594124956
 40
1.0
 40
1.0
 40
1.0
 40
1.0
 10
-34.2400831525
 20
52.1460893812
 30
0.0
 10
-34.2400831525
 20
52.0457717188
 30
0.0
 10
-34.2242847195
 20
51.848074052
 30
0.0
 10
-34.149062658
 20
51.5653641697
 30
0.0
 10
-34.0237844226
 20
51.3099061966
 30
0.0
 10
-33.9082186098
 20
51.1623317032
 30
0.0
 10
-33.8439242907
 20
51.0963266207
 30
0.0
  0
SPLINE
  5
2B6
100
AcDbEntity
  8
ASSI
100
AcDbSpline
 62
7
  6
CONTINUOUS
 70
0
 71
3
 72
9
 73
5
 74
0
 42
0.0000001
 43
0.0000001
 44
0.0000000001
 40
0.0
 40
0.0
 40
0.0
 40
0.0
 40
0.2576368112
 40
1.0
 40
1.0
 40
1.0
 40
1.0
 10
9.7034165135
 20
25.9610260811
 30
0.0
 10
9.6911944327
 20
25.961536293
 30
0.0
 10
9.6438410663
 20
25.9650831847
 30
0.0
 10
9.5969394738
 20
25.9754290079
 30
0.0
 10
9.5636706804
 20
25.987073459
 30
0.0
  0
SPLINE
  5
2B7
100
AcDbEntity
  8
0
100
AcDbSpline
 62
7
  6
CONTINUOUS
 70
0
 71
3
 72
14
 73
10
 74
0
 42
0.0000001
 43
0.0000001
 44
0.0000000001
 40
0.0
 40
0.0
 40
0.0
 40
0.0
 40
0.2928780601
 40
0.4245786706
 40
0.5474373682
 40
0.6633961284
 40
0.7752241019
 40
0.8862699531
 40
1.0
 40
1.0
 40
1.0
 40
1.0
 10
-34.2400831525
 20
58.7373900353
 30
0.0
 10
-34.2400831525
 20
59.019790017
 30
0.0
 10
-34.1988954756
 20
59.4330321176
 30
0.0
 10
-34.032265209
 20
59.9358095594
 30
0.0
 10
-33.8643668508
 20
60.253355472
 30
0.0
 10
-33.6512392575
 20
60.5187340089
 30
0.0
 10
-33.3958577767
 20
60.7266542545
 30
0.0
 10
-33.1030799552
 20
60.8725259916
 30
0.0
 10
-32.8910261333
 20
60.9255571424
 30
0.0
 10
-32.7825539861
 20
60.9416622588
 30
0.0
  0
SPLINE
  5
2B8
100
AcDbEntity
  8
0
100
AcDbSpline
 62
7
  6
CONTINUOUS
 70
0
 71
3
 72
14
 73
10
 74
0
 42
0.0000001
 43
0.0000001
 44
0.0000000001
 40
0.0
 40
0.0
 40
0.0
 40
0.0
 40
0.1080446796
 40
0.2181267323
 40
0.332099531
 40
0.4514954065
 40
0.5774560666
 40
0.7107237153
 40
1.0
 40
1.0
 40
1.0
 40
1.0
 10
14.8048134554
 20
-74.5918986928
 30
0.0
 10
14.9687679134
 20
-74.6865639264
 30
0.0
 10
15.3168766529
 20
-74.8495861732
 30
0.0
 10
15.8801395589
 20
-75.0053436597
 30
0.0
 10
16.4806009316
 20
-75.0723093454
 30
0.0
 10
17.111845241
 20
-75.0503389285
 30
0.0
 10
17.7678855093
 20
-74.9402611404
 30
0.0
 10
18.6921458221
 20
-74.6707314291
 30
0.0
 10
19.3660865175
 20
-74.3499423934
 30
0.0
 10
19.80505431
 20
-74.0964878916
 30
0.0
  0
SPLINE
  5
2B9
100
AcDbEntity
  8
ASSI
100
AcDbSpline
 62
7
  6
CONTINUOUS
 70
0
 71
3
 72
11
 73
7
 74
0
 42
0.0000001
 43
0.0000001
 44
0.0000000001
 40
0.0
 40
0.0
 40
0.0
 40
0.0
 40
0.222177062
 40
0.4613136838
 40
0.7202820096
 40
1.0
 40
1.0
 40
1.0
 40
1.0
 10
-30.7530805449
 20
49.2069925831
 30
0.0
 10
-30.5756212089
 20
48.9788258334
 30
0.0
 10
-30.25995089
 20
48.4624756386
 30
0.0
 10
-29.9302813948
 20
47.5804753157
 30
0.0
 10
-29.7327746682
 20
46.5841813694
 30
0.0
 10
-29.6924203731
 20
45.8822948523
 30
0.0
 10
-29.6924203731
 20
45.5183804052
 30
0.0
  0
SPLINE
  5
2BA
100
AcDbEntity
  8
0
100
AcDbSpline
 62
7
  6
CONTINUOUS
 70
0
 71
3
 72
9
 73
5
 74
0
 42
0.0000001
 43
0.0000001
 44
0.0000000001
 40
0.0
 40
0.0
 40
0.0
 40
0.0
 40
0.5124208339
 40
1.0
 40
1.0
 40
1.0
 40
1.0
 10
-29.9765207159
 20
61.9312994343
 30
0.0
 10
-30.4185811032
 20
61.676059307
 30
0.0
 10
-31.3294403437
 20
61.2569282721
 30
0.0
 10
-32.3021113925
 20
61.0129948316
 30
0.0
 10
-32.782553986
 20
60.9416622586
 30
0.0
  0
SPLINE
  5
2BB
100
AcDbEntity
  8
0
100
AcDbSpline
 62
7
  6
CONTINUOUS
 70
0
 71
3
 72
11
 73
7
 74
0
 42
0.0000001
 43
0.0000001
 44
0.0000000001
 40
0.0
 40
0.0
 40
0.0
 40
0.0
 40
0.2898033778
 40
0.5490383358
 40
0.782222982
 40
1.0
 40
1.0
 40
1.0
 40
1.0
 10
33.9471899337
 20
-65.930996025
 30
0.0
 10
33.9910859073
 20
-65.90565104
 30
0.0
 10
34.0707085151
 20
-65.8508403849
 30
0.0
 10
34.1658159735
 20
-65.7508086255
 30
0.0
 10
34.2260248234
 20
-65.6402190628
 30
0.0
 10
34.2400831525
 20
-65.560811316
 30
0.0
 10
34.2400831525
 20
-65.5227214317
 30
0.0
  0
SPLINE
  5
2BC
100
AcDbEntity
  8
0
100
AcDbSpline
 62
7
  6
CONTINUOUS
 70
0
 71
3
 72
14
 73
10
 74
0
 42
0.0000001
 43
0.0000001
 44
0.0000000001
 40
0.0
 40
0.0
 40
0.0
 40
0.0
 40
0.10804752
 40
0.2181319755
 40
0.3321063851
 40
0.4515028581
 40
0.5774630262
 40
0.7107291472
 40
1.0
 40
1.0
 40
1.0
 40
1.0
 10
-27.6215934158
 20
-50.0954230931
 30
0.0
 10
-27.7855276307
 20
-50.0007695476
 30
0.0
 10
-28.1007134346
 20
-49.7808234235
 30
0.0
 10
-28.5171704775
 20
-49.3709451748
 30
0.0
 10
-28.875342159
 20
-48.8844770567
 30
0.0
 10
-29.1718969453
 20
-48.3269008076
 30
0.0
 10
-29.4045597976
 20
-47.7038134707
 30
0.0
 10
-29.6332517324
 20
-46.768773197
 30
0.0
 10
-29.6924203731
 20
-46.0248545443
 30
0.0
 10
-29.6924203731
 20
-45.5180554572
 30
0.0
  0
SPLINE
  5
2BD
100
AcDbEntity
  8
ASSI
100
AcDbSpline
 62
7
  6
CONTINUOUS
 70
0
 71
3
 72
9
 73
5
 74
0
 42
0.0000001
 43
0.0000001
 44
0.0000000001
 40
0.0
 40
0.0
 40
0.0
 40
0.0
 40
0.5158537999
 40
1.0
 40
1.0
 40
1.0
 40
1.0
 10
10.4114292577
 20
25.7901563867
 30
0.0
 10
10.2962778506
 20
25.8407739692
 30
0.0
 10
10.0644140968
 20
25.9207606655
 30
0.0
 10
9.8213676994
 20
25.9561021979
 30
0.0
 10
9.7034165135
 20
25.9610260811
 30
0.0
  0
SPLINE
  5
2BE
100
AcDbEntity
  8
ASSI
100
AcDbSpline
 62
7
  6
CONTINUOUS
 70
0
 71
3
 72
9
 73
5
 74
0
 42
0.0000001
 43
0.0000001
 44
0.0000000001
 40
0.0
 40
0.0
 40
0.0
 40
0.0
 40
0.4960766944
 40
1.0
 40
1.0
 40
1.0
 40
1.0
 10
-31.3642710366
 20
49.8642036691
 30
0.0
 10
-31.2501832291
 20
49.7688366176
 30
0.0
 10
-31.0319766097
 20
49.5620329825
 30
0.0
 10
-30.8415527299
 20
49.3294204304
 30
0.0
 10
-30.7530805449
 20
49.2069925831
 30
0.0
  0
SPLINE
  5
2BF
100
AcDbEntity
  8
0
100
AcDbSpline
 62
7
  6
CONTINUOUS
 70
0
 71
3
 72
11
 73
7
 74
0
 42
0.0000001
 43
0.0000001
 44
0.0000000001
 40
0.0
 40
0.0
 40
0.0
 40
0.0
 40
0.2219389741
 40
0.4609229233
 40
0.7199461903
 40
1.0
 40
1.0
 40
1.0
 40
1.0
 10
-32.7825539861
 20
60.9416622588
 30
0.0
 10
-32.6554519254
 20
60.9605334025
 30
0.0
 10
-32.3864293063
 20
60.9694671173
 30
0.0
 10
-31.9729561343
 20
60.9022871535
 30
0.0
 10
-31.5445175468
 20
60.7576962004
 30
0.0
 10
-31.2647283639
 20
60.6171246481
 30
0.0
 10
-31.124311605
 20
60.5360497713
 30
0.0
  0
SPLINE
  5
2C0
100
AcDbEntity
  8
0
100
AcDbSpline
 62
250
  6
CONTINUOUS
 70
0
 71
3
 72
12
 73
8
 74
0
 42
0.0000001
 43
0.0000001
 44
0.0000000001
 40
0.0
 40
0.0
 40
0.0
 40
0.0
 40
0.1081598835
 40
0.2183593357
 40
0.4513594692
 40
0.7104110619
 40
1.0
 40
1.0
 40
1.0
 40
1.0
 10
-29.9765196598
 20
61.9312976052
 30
0.0
 10
-29.9150367864
 20
61.9667970416
 30
0.0
 10
-29.7844800234
 20
62.027919937
 30
0.0
 10
-29.4978128161
 20
62.1072887016
 30
0.0
 10
-29.09628234
 20
62.1179370162
 30
0.0
 10
-28.5934344872
 20
61.9963420637
 30
0.0
 10
-28.266045303
 20
61.8405667642
 30
0.0
 10
-28.1014301154
 20
61.745520018
 30
0.0
  0
SPLINE
  5
2C1
100
AcDbEntity
  8
0
100
AcDbSpline
 62
250
  6
CONTINUOUS
 70
0
 71
3
 72
9
 73
5
 74
0
 42
0.0000001
 43
0.0000001
 44
0.0000000001
 40
0.0
 40
0.0
 40
0.0
 40
0.0
 40
0.5212851487
 40
1.0
 40
1.0
 40
1.0
 40
1.0
 10
-28.1014301154
 20
61.745520018
 30
0.0
 10
-28.5928524084
 20
61.461778945
 30
0.0
 10
-29.5712239384
 20
60.975843577
 30
0.0
 10
-30.6147626396
 20
60.645227081
 30
0.0
 10
-31.124311605
 20
60.5360497713
 30
0.0
  0
SPLINE
  5
2C2
100
AcDbEntity
  8
0
100
AcDbSpline
 62
7
  6
CONTINUOUS
 70
0
 71
3
 72
15
 73
11
 74
0
 42
0.0000001
 43
0.0000001
 44
0.0000000001
 40
0.0
 40
0.0
 40
0.0
 40
0.0
 40
0.1141571495
 40
0.2373298232
 40
0.3669809215
 40
0.5000060513
 40
0.6330303396
 40
0.7626789794
 40
0.88584778
 40
1.0
 40
1.0
 40
1.0
 40
1.0
 10
5.9987944073
 20
39.1016336216
 30
0.0
 10
6.2120941881
 20
38.9784770015
 30
0.0
 10
6.6333977178
 20
38.6831334364
 30
0.0
 10
7.2130891475
 20
38.1407707588
 30
0.0
 10
7.7473092708
 20
37.4996684175
 30
0.0
 10
8.2159344888
 20
36.7838710641
 30
0.0
 10
8.6015184736
 20
36.0201358937
 30
0.0
 10
8.8896120715
 20
35.2369502213
 30
0.0
 10
9.0694540911
 20
34.4637633256
 30
0.0
 10
9.1145659549
 20
33.9512497053
 30
0.0
 10
9.1145659549
 20
33.7049590021
 30
0.0
  0
SPLINE
  5
2C3
100
AcDbEntity
  8
ASSI
100
AcDbSpline
 62
7
  6
CONTINUOUS
 70
0
 71
3
 72
9
 73
5
 74
0
 42
0.0000001
 43
0.0000001
 44
0.0000000001
 40
0.0
 40
0.0
 40
0.0
 40
0.0
 40
0.5368056195
 40
1.0
 40
1.0
 40
1.0
 40
1.0
 10
11.6733263263
 20
24.7105169834
 30
0.0
 10
11.4977586751
 20
24.953467574
 30
0.0
 10
11.1224161927
 20
25.3745175784
 30
0.0
 10
10.6482073818
 20
25.6860748427
 30
0.0
 10
10.4114292577
 20
25.7901563867
 30
0.0
  0
SPLINE
  5
2C4
100
AcDbEntity
  8
0
100
AcDbSpline
 62
7
  6
CONTINUOUS
 70
0
 71
3
 72
12
 73
8
 74
0
 42
0.0000001
 43
0.0000001
 44
0.0000000001
 40
0.0
 40
0.0
 40
0.0
 40
0.0
 40
0.28563653
 40
0.5451617559
 40
0.7810000456
 40
0.8921037954
 40
1.0
 40
1.0
 40
1.0
 40
1.0
 10
12.7339864981
 20
-70.0145310569
 30
0.0
 10
12.7339864981
 20
-70.4572276379
 30
0.0
 10
12.7931220282
 20
-71.3043268413
 30
0.0
 10
13.087818004
 20
-72.4854365776
 30
0.0
 10
13.5088805663
 20
-73.3369176484
 30
0.0
 10
13.9401602306
 20
-73.8968518601
 30
0.0
 10
14.1833019134
 20
-74.1356407834
 30
0.0
 10
14.3108547529
 20
-74.2437802152
 30
0.0
  0
SPLINE
  5
2C5
100
AcDbEntity
  8
ASSI
100
AcDbSpline
 62
7
  6
CONTINUOUS
 70
0
 71
3
 72
11
 73
7
 74
0
 42
0.0000001
 43
0.0000001
 44
0.0000000001
 40
0.0
 40
0.0
 40
0.0
 40
0.0
 40
0.222177062
 40
0.4613136838
 40
0.7202820096
 40
1.0
 40
1.0
 40
1.0
 40
1.0
 10
11.6733263263
 20
24.7105169834
 30
0.0
 10
11.8507856623
 20
24.4823502338
 30
0.0
 10
12.1664559812
 20
23.9660000389
 30
0.0
 10
12.4961254763
 20
23.083999716
 30
0.0
 10
12.693632203
 20
22.0877057697
 30
0.0
 10
12.7339864981
 20
21.3858192527
 30
0.0
 10
12.7339864981
 20
21.0219048055
 30
0.0
  0
SPLINE
  5
2C6
100
AcDbEntity
  8
0
100
AcDbSpline
 62
7
  6
CONTINUOUS
 70
0
 71
3
 72
9
 73
5
 74
0
 42
0.0000001
 43
0.0000001
 44
0.0000000001
 40
0.0
 40
0.0
 40
0.0
 40
0.0
 40
0.5465404423
 40
1.0
 40
1.0
 40
1.0
 40
1.0
 10
31.2955401844
 20
53.1717531654
 30
0.0
 10
31.3576697806
 20
53.2076260176
 30
0.0
 10
31.4795055967
 20
53.2612383546
 30
0.0
 10
31.6140757748
 20
53.2721411517
 30
0.0
 10
31.6729478087
 20
53.2633562391
 30
0.0
  0
SPLINE
  5
2C7
100
AcDbEntity
  8
0
100
AcDbSpline
 62
7
  6
CONTINUOUS
 70
0
 71
3
 72
9
 73
5
 74
0
 42
0.0000001
 43
0.0000001
 44
0.0000000001
 40
0.0
 40
0.0
 40
0.0
 40
0.0
 40
0.5463993584
 40
1.0
 40
1.0
 40
1.0
 40
1.0
 10
-5.8275671882
 20
74.6061701006
 30
0.0
 10
-5.76547899
 20
74.642019046
 30
0.0
 10
-5.6438065008
 20
74.6958468584
 30
0.0
 10
-5.5092490762
 20
74.7067432597
 30
0.0
 10
-5.4503887507
 20
74.6979192237
 30
0.0
  0
SPLINE
  5
2C8
100
AcDbEntity
  8
0
100
AcDbSpline
 62
7
  6
CONTINUOUS
 70
0
 71
3
 72
9
 73
5
 74
0
 42
0.0000001
 43
0.0000001
 44
0.0000000001
 40
0.0
 40
0.0
 40
0.0
 40
0.0
 40
0.5465305312
 40
1.0
 40
1.0
 40
1.0
 40
1.0
 10
33.9471899337
 20
48.5789610805
 30
0.0
 10
34.0093167852
 20
48.614832344
 30
0.0
 10
34.1166566877
 20
48.6935440013
 30
0.0
 10
34.1933749316
 20
48.8046350037
 30
0.0
 10
34.2152012824
 20
48.8600125406
 30
0.0
  0
SPLINE
  5
2C9
100
AcDbEntity
  8
0
100
AcDbSpline
 62
250
  6
CONTINUOUS
 70
0
 71
3
 72
9
 73
5
 74
0
 42
0.0000001
 43
0.0000001
 44
0.0000000001
 40
0.0
 40
0.0
 40
0.0
 40
0.0
 40
0.5212851487
 40
1.0
 40
1.0
 40
1.0
 40
1.0
 10
9.0216758969
 20
40.3111038683
 30
0.0
 10
8.5302536039
 20
40.0273627953
 30
0.0
 10
7.5518820739
 20
39.5414274272
 30
0.0
 10
6.5083433726
 20
39.2108109313
 30
0.0
 10
5.9987944073
 20
39.1016336216
 30
0.0
  0
SPLINE
  5
2CA
100
AcDbEntity
  8
0
100
AcDbSpline
 62
250
  6
CONTINUOUS
 70
0
 71
3
 72
15
 73
11
 74
0
 42
0.0000001
 43
0.0000001
 44
0.0000000001
 40
0.0
 40
0.0
 40
0.0
 40
0.0
 40
0.1141571495
 40
0.2373298232
 40
0.3669809215
 40
0.5000060513
 40
0.6330303396
 40
0.7626789794
 40
0.88584778
 40
1.0
 40
1.0
 40
1.0
 40
1.0
 10
9.0216758969
 20
40.3111038683
 30
0.0
 10
9.2032028306
 20
40.2062924918
 30
0.0
 10
9.561749556
 20
39.954942905
 30
0.0
 10
10.055090934
 20
39.4933698387
 30
0.0
 10
10.5097343498
 20
38.9477652356
 30
0.0
 10
10.9085537888
 20
38.3385920884
 30
0.0
 10
11.2367017044
 20
37.6886218767
 30
0.0
 10
11.4818812694
 20
37.0220984834
 30
0.0
 10
11.6349342648
 20
36.3640844626
 30
0.0
 10
11.6733263263
 20
35.9279141783
 30
0.0
 10
11.6733263263
 20
35.7183106054
 30
0.0
  0
SPLINE
  5
2CB
100
AcDbEntity
  8
ASSI
100
AcDbSpline
 62
7
  6
CONTINUOUS
 70
0
 71
3
 72
14
 73
10
 74
0
 42
0.0000001
 43
0.0000001
 44
0.0000000001
 40
0.0
 40
0.0
 40
0.0
 40
0.0
 40
0.0921284325
 40
0.1872941537
 40
0.2908841128
 40
0.4064570291
 40
0.5347495289
 40
0.6769384928
 40
1.0
 40
1.0
 40
1.0
 40
1.0
 10
9.5636706804
 20
25.987073459
 30
0.0
 10
9.5264772335
 20
26.0000915828
 30
0.0
 10
9.4540668648
 20
26.0369604806
 30
0.0
 10
9.3609396256
 20
26.1212659028
 30
0.0
 10
9.283321513
 20
26.2321583923
 30
0.0
 10
9.2207501664
 20
26.3676157713
 30
0.0
 10
9.1726157452
 20
26.5259985622
 30
0.0
 10
9.1254066886
 20
26.7757949938
 30
0.0
 10
9.1145659549
 20
26.9754759719
 30
0.0
 10
9.1145659549
 20
27.113658348
 30
0.0
  0
SPLINE
  5
2CC
100
AcDbEntity
  8
0
100
AcDbSpline
 62
250
  6
CONTINUOUS
 70
0
 71
3
 72
9
 73
5
 74
0
 42
0.0000001
 43
0.0000001
 44
0.0000000001
 40
0.0
 40
0.0
 40
0.0
 40
0.0
 40
0.5212820066
 40
1.0
 40
1.0
 40
1.0
 40
1.0
 10
11.6733263263
 20
35.7183106054
 30
0.0
 10
11.1819019348
 20
35.4345683207
 30
0.0
 10
10.2719114265
 20
34.8301780887
 30
0.0
 10
9.4638661791
 20
34.0916867414
 30
0.0
 10
9.1145659549
 20
33.7049590021
 30
0.0
  0
SPLINE
  5
2CD
100
AcDbEntity
  8
0
100
AcDbSpline
 62
250
  6
CONTINUOUS
 70
0
 71
3
 72
12
 73
8
 74
0
 42
0.0000001
 43
0.0000001
 44
0.0000000001
 40
0.0
 40
0.0
 40
0.0
 40
0.0
 40
0.1079913049
 40
0.218304545
 40
0.4518595979
 40
0.7110858809
 40
1.0
 40
1.0
 40
1.0
 40
1.0
 10
-7.6644355769
 20
74.813134823
 30
0.0
 10
-7.6032255275
 20
74.845680626
 30
0.0
 10
-7.4737264901
 20
74.9012066055
 30
0.0
 10
-7.1911291439
 20
74.9712258316
 30
0.0
 10
-6.798219125
 20
74.9745374367
 30
0.0
 10
-6.3076751256
 20
74.8516613134
 30
0.0
 10
-5.9881833021
 20
74.6989078317
 30
0.0
 10
-5.827566508
 20
74.6061697078
 30
0.0
  0
SPLINE
  5
2CE
100
AcDbEntity
  8
0
100
AcDbSpline
 62
250
  6
CONTINUOUS
 70
0
 71
3
 72
15
 73
11
 74
0
 42
0.0000001
 43
0.0000001
 44
0.0000000001
 40
0.0
 40
0.0
 40
0.0
 40
0.0
 40
0.1141566633
 40
0.237329749
 40
0.3669809502
 40
0.5000060513
 40
0.6330303109
 40
0.7626790535
 40
0.8858482662
 40
1.0
 40
1.0
 40
1.0
 40
1.0
 10
31.2955395043
 20
53.1717535581
 30
0.0
 10
31.4770656657
 20
53.0669426276
 30
0.0
 10
31.8356122515
 20
52.8155931569
 30
0.0
 10
32.3289544319
 20
52.3540208214
 30
0.0
 10
32.7835978174
 20
51.8084149395
 30
0.0
 10
33.1824165574
 20
51.199241294
 30
0.0
 10
33.510565254
 20
50.5492714384
 30
0.0
 10
33.7557459417
 20
49.882747432
 30
0.0
 10
33.908797903
 20
49.2247330817
 30
0.0
 10
33.9471899337
 20
48.7885629764
 30
0.0
 10
33.9471899337
 20
48.5789602952
 30
0.0
  0
SPLINE
  5
2CF
100
AcDbEntity
  8
ASSI
100
AcDbSpline
 62
7
  6
CONTINUOUS
 70
0
 71
3
 72
11
 73
7
 74
0
 42
0.0000001
 43
0.0000001
 44
0.0000000001
 40
0.0
 40
0.0
 40
0.0
 40
0.0
 40
0.2372127603
 40
0.4999938571
 40
0.7627773434
 40
1.0
 40
1.0
 40
1.0
 40
1.0
 10
-17.1766303461
 20
-45.1912779629
 30
0.0
 10
-17.1766303461
 20
-45.2840026833
 30
0.0
 10
-17.1418481872
 20
-45.4795721837
 30
0.0
 10
-17.0206175621
 20
-45.7543935475
 30
0.0
 10
-16.8432284301
 20
-45.9967963765
 30
0.0
 10
-16.6912489412
 20
-46.1247073242
 30
0.0
 10
-16.6109449211
 20
-46.171073859
 30
0.0
  0
SPLINE
  5
2D0
100
AcDbEntity
  8
0
100
AcDbSpline
 62
7
  6
CONTINUOUS
 70
0
 71
3
 72
11
 73
7
 74
0
 42
0.0000001
 43
0.0000001
 44
0.0000000001
 40
0.0
 40
0.0
 40
0.0
 40
0.0
 40
0.2372123996
 40
0.4999938932
 40
0.7627787109
 40
1.0
 40
1.0
 40
1.0
 40
1.0
 10
-14.6664012729
 20
-42.5991248991
 30
0.0
 10
-14.6664012729
 20
-42.657077743
 30
0.0
 10
-14.6446627523
 20
-42.7793087859
 30
0.0
 10
-14.5688921164
 20
-42.9510717504
 30
0.0
 10
-14.4580248169
 20
-43.1025741154
 30
0.0
 10
-14.3630375897
 20
-43.182518426
 30
0.0
 10
-14.3128478823
 20
-43.2114973341
 30
0.0
  0
SPLINE
  5
2D1
100
AcDbEntity
  8
ASSI
100
AcDbSpline
 62
7
  6
CONTINUOUS
 70
0
 71
3
 72
9
 73
5
 74
0
 42
0.0000001
 43
0.0000001
 44
0.0000000001
 40
0.0
 40
0.0
 40
0.0
 40
0.0
 40
0.4785448663
 40
1.0
 40
1.0
 40
1.0
 40
1.0
 10
12.1152680646
 20
-20.0951579631
 30
0.0
 10
12.1152680646
 20
-20.1719999609
 30
0.0
 10
12.1324696148
 20
-20.3327206019
 30
0.0
 10
12.1756453106
 20
-20.4880610535
 30
0.0
 10
12.2036497882
 20
-20.5669714107
 30
0.0
  0
SPLINE
  5
2D2
100
AcDbEntity
  8
ASSI
100
AcDbSpline
 62
7
  6
CONTINUOUS
 70
0
 71
3
 72
18
 73
14
 74
0
 42
0.0000001
 43
0.0000001
 44
0.0000000001
 40
0.0
 40
0.0
 40
0.0
 40
0.0
 40
0.1260119458
 40
0.2643578361
 40
0.4086819279
 40
0.551638087
 40
0.6860989842
 40
0.7483713623
 40
0.8066102613
 40
0.8605967869
 40
0.9104273882
 40
0.9565871685
 40
1.0
 40
1.0
 40
1.0
 40
1.0
 10
2.8344915615
 20
-24.7995500871
 30
0.0
 10
2.8344915615
 20
-25.1425053603
 30
0.0
 10
2.9251773055
 20
-25.8628111132
 30
0.0
 10
3.2671870059
 20
-26.9262734217
 30
0.0
 10
3.7981180103
 20
-27.9615915983
 30
0.0
 10
4.4787226176
 20
-28.8916046399
 30
0.0
 10
5.1465546336
 20
-29.5395445141
 30
0.0
 10
5.7144078303
 20
-29.9405664757
 30
0.0
 10
6.1324558256
 20
-30.1684986288
 30
0.0
 10
6.5457257632
 20
-30.3268229943
 30
0.0
 10
6.946943115
 20
-30.4120679005
 30
0.0
 10
7.3285690177
 20
-30.4217609696
 30
0.0
 10
7.5704422557
 20
-30.3755509332
 30
0.0
 10
7.6829947374
 20
-30.3396063358
 30
0.0
  0
SPLINE
  5
2D3
100
AcDbEntity
  8
ASSI
100
AcDbSpline
 62
7
  6
CONTINUOUS
 70
0
 71
3
 72
11
 73
7
 74
0
 42
0.0000001
 43
0.0000001
 44
0.0000000001
 40
0.0
 40
0.0
 40
0.0
 40
0.0
 40
0.2190088025
 40
0.4555062466
 40
0.7151295948
 40
1.0
 40
1.0
 40
1.0
 40
1.0
 10
3.4660374715
 20
-23.0360441702
 30
0.0
 10
3.3621336111
 20
-23.1305592737
 30
0.0
 10
3.1737550664
 20
-23.3591440498
 30
0.0
 10
2.9762939518
 20
-23.7771584198
 30
0.0
 10
2.8581839704
 20
-24.2668481737
 30
0.0
 10
2.8344915615
 20
-24.6168496498
 30
0.0
 10
2.8344915615
 20
-24.7995500871
 30
0.0
  0
SPLINE
  5
2D4
100
AcDbEntity
  8
ASSI
100
AcDbSpline
 62
7
  6
CONTINUOUS
 70
0
 71
3
 72
9
 73
5
 74
0
 42
0.0000001
 43
0.0000001
 44
0.0000000001
 40
0.0
 40
0.0
 40
0.0
 40
0.0
 40
0.2349949813
 40
1.0
 40
1.0
 40
1.0
 40
1.0
 10
12.1494812616
 20
-19.8484323649
 30
0.0
 10
12.1436999945
 20
-19.8671120862
 30
0.0
 10
12.1226868787
 20
-19.9477095497
 30
0.0
 10
12.1152680646
 20
-20.0315019984
 30
0.0
 10
12.1152680646
 20
-20.0951579631
 30
0.0
  0
SPLINE
  5
2D5
100
AcDbEntity
  8
0
100
AcDbSpline
 62
7
  6
CONTINUOUS
 70
0
 71
3
 72
9
 73
5
 74
0
 42
0.0000001
 43
0.0000001
 44
0.0000000001
 40
0.0
 40
0.0
 40
0.0
 40
0.0
 40
0.4999965819
 40
1.0
 40
1.0
 40
1.0
 40
1.0
 10
7.9846433563
 20
-59.0730017809
 30
0.0
 10
8.0053636566
 20
-59.1741557834
 30
0.0
 10
8.083991878
 20
-59.3691296672
 30
0.0
 10
8.2135396911
 20
-59.5347021605
 30
0.0
 10
8.2907850063
 20
-59.6032216169
 30
0.0
  0
SPLINE
  5
2D6
100
AcDbEntity
  8
ASSI
100
AcDbSpline
 62
7
  6
CONTINUOUS
 70
0
 71
3
 72
11
 73
7
 74
0
 42
0.0000001
 43
0.0000001
 44
0.0000000001
 40
0.0
 40
0.0
 40
0.0
 40
0.0
 40
0.2392612862
 40
0.5042752343
 40
0.7669420407
 40
1.0
 40
1.0
 40
1.0
 40
1.0
 10
-17.0617254941
 20
-45.2576225843
 30
0.0
 10
-17.0617254941
 20
-45.3347855084
 30
0.0
 10
-17.0315866342
 20
-45.4974965501
 30
0.0
 10
-16.9277344546
 20
-45.7241375003
 30
0.0
 10
-16.7772793929
 20
-45.9203868249
 30
0.0
 10
-16.6486967009
 20
-46.0205615811
 30
0.0
 10
-16.5815202993
 20
-46.0542766457
 30
0.0
  0
SPLINE
  5
2D7
100
AcDbEntity
  8
0
100
AcDbSpline
 62
7
  6
CONTINUOUS
 70
0
 71
3
 72
9
 73
5
 74
0
 42
0.0000001
 43
0.0000001
 44
0.0000000001
 40
0.0
 40
0.0
 40
0.0
 40
0.0
 40
0.4999965819
 40
1.0
 40
1.0
 40
1.0
 40
1.0
 10
-9.8698028686
 20
-48.7640682993
 30
0.0
 10
-9.8490825684
 20
-48.8652223019
 30
0.0
 10
-9.770454347
 20
-49.0601961856
 30
0.0
 10
-9.6409065339
 20
-49.225768679
 30
0.0
 10
-9.5636612187
 20
-49.2942881354
 30
0.0
  0
SPLINE
  5
2D8
100
AcDbEntity
  8
ASSI
100
AcDbSpline
 62
7
  6
CONTINUOUS
 70
0
 71
3
 72
11
 73
7
 74
0
 42
0.0000001
 43
0.0000001
 44
0.0000000001
 40
0.0
 40
0.0
 40
0.0
 40
0.0
 40
0.222177062
 40
0.4613136838
 40
0.7202820096
 40
1.0
 40
1.0
 40
1.0
 40
1.0
 10
11.1429962405
 20
25.0167229284
 30
0.0
 10
11.3204555764
 20
24.7885561788
 30
0.0
 10
11.6361258953
 20
24.2722059839
 30
0.0
 10
11.9657953905
 20
23.390205661
 30
0.0
 10
12.1633021171
 20
22.3939117147
 30
0.0
 10
12.2036564122
 20
21.6920251977
 30
0.0
 10
12.2036564122
 20
21.3281107505
 30
0.0
  0
SPLINE
  5
2D9
100
AcDbEntity
  8
ASSI
100
AcDbSpline
 62
7
  6
CONTINUOUS
 70
0
 71
3
 72
9
 73
5
 74
0
 42
0.0000001
 43
0.0000001
 44
0.0000000001
 40
0.0
 40
0.0
 40
0.0
 40
0.0
 40
0.5169851367
 40
1.0
 40
1.0
 40
1.0
 40
1.0
 10
-32.8160659381
 20
50.3765117386
 30
0.0
 10
-32.4951220534
 20
50.3095313346
 30
0.0
 10
-31.8815664371
 20
50.1374317959
 30
0.0
 10
-31.3105050816
 20
49.8481262916
 30
0.0
 10
-31.056295562
 20
49.6772263105
 30
0.0
  0
SPLINE
  5
2DA
100
AcDbEntity
  8
ASSI
100
AcDbSpline
 62
7
  6
CONTINUOUS
 70
0
 71
3
 72
9
 73
5
 74
0
 42
0.0000001
 43
0.0000001
 44
0.0000000001
 40
0.0
 40
0.0
 40
0.0
 40
0.0
 40
0.2650732773
 40
1.0
 40
1.0
 40
1.0
 40
1.0
 10
11.1429962405
 20
25.0167229284
 30
0.0
 10
11.0856652448
 20
25.0904357419
 30
0.0
 10
10.8601040673
 20
25.3610295558
 30
0.0
 10
10.5962400278
 20
25.6008339533
 30
0.0
 10
10.3837355247
 20
25.7487380164
 30
0.0
  0
SPLINE
  5
2DB
100
AcDbEntity
  8
0
100
AcDbSpline
 62
7
  6
CONTINUOUS
 70
0
 71
3
 72
14
 73
10
 74
0
 42
0.0000001
 43
0.0000001
 44
0.0000000001
 40
0.0
 40
0.0
 40
0.0
 40
0.0
 40
0.10804752
 40
0.2181319755
 40
0.3321063851
 40
0.4515028581
 40
0.5774630262
 40
0.7107291472
 40
1.0
 40
1.0
 40
1.0
 40
1.0
 10
14.2744833695
 20
-74.2856927478
 30
0.0
 10
14.1105491546
 20
-74.1910392023
 30
0.0
 10
13.7953633507
 20
-73.9710930782
 30
0.0
 10
13.3789063078
 20
-73.5612148295
 30
0.0
 10
13.0207346263
 20
-73.0747467114
 30
0.0
 10
12.72417984
 20
-72.5171704623
 30
0.0
 10
12.4915169877
 20
-71.8940831254
 30
0.0
 10
12.2628250529
 20
-70.9590428517
 30
0.0
 10
12.2036564122
 20
-70.215124199
 30
0.0
 10
12.2036564122
 20
-69.7083251119
 30
0.0
  0
SPLINE
  5
2DC
100
AcDbEntity
  8
0
100
AcDbSpline
 62
7
  6
CONTINUOUS
 70
0
 71
3
 72
14
 73
10
 74
0
 42
0.0000001
 43
0.0000001
 44
0.0000000001
 40
0.0
 40
0.0
 40
0.0
 40
0.0
 40
0.1080446796
 40
0.2181267323
 40
0.332099531
 40
0.4514954065
 40
0.5774560666
 40
0.7107237153
 40
1.0
 40
1.0
 40
1.0
 40
1.0
 10
-27.0912633299
 20
-50.4016290381
 30
0.0
 10
-26.9273088719
 20
-50.4962942717
 30
0.0
 10
-26.5792001324
 20
-50.6593165185
 30
0.0
 10
-26.0159372264
 20
-50.815074005
 30
0.0
 10
-25.4154758537
 20
-50.8820396907
 30
0.0
 10
-24.7842315443
 20
-50.8600692739
 30
0.0
 10
-24.128191276
 20
-50.7499914857
 30
0.0
 10
-23.2039309632
 20
-50.4804617745
 30
0.0
 10
-22.5299902678
 20
-50.1596727387
 30
0.0
 10
-22.0910224753
 20
-49.9062182369
 30
0.0
  0
SPLINE
  5
2DD
100
AcDbEntity
  8
0
100
AcDbSpline
 62
7
  6
CONTINUOUS
 70
0
 71
3
 72
15
 73
11
 74
0
 42
0.0000001
 43
0.0000001
 44
0.0000000001
 40
0.0
 40
0.0
 40
0.0
 40
0.0
 40
0.1141571495
 40
0.2373298232
 40
0.3669809215
 40
0.5000060513
 40
0.6330303396
 40
0.7626789794
 40
0.88584778
 40
1.0
 40
1.0
 40
1.0
 40
1.0
 10
5.8396953816
 20
38.4256245853
 30
0.0
 10
6.0183620307
 20
38.3224647013
 30
0.0
 10
6.371259205
 20
38.075075581
 30
0.0
 10
6.8568270987
 20
37.6207754319
 30
0.0
 10
7.3043067866
 20
37.0837678145
 30
0.0
 10
7.6968421052
 20
36.4841932902
 30
0.0
 10
8.0198194578
 20
35.8444645327
 30
0.0
 10
8.2611357761
 20
35.188443419
 30
0.0
 10
8.4117771452
 20
34.5407975973
 30
0.0
 10
8.4495642705
 20
34.1114999634
 30
0.0
 10
8.4495642705
 20
33.9051990732
 30
0.0
  0
SPLINE
  5
2DE
100
AcDbEntity
  8
ASSI
100
AcDbSpline
 62
7
  6
CONTINUOUS
 70
0
 71
3
 72
14
 73
10
 74
0
 42
0.0000001
 43
0.0000001
 44
0.0000000001
 40
0.0
 40
0.0
 40
0.0
 40
0.0
 40
0.0937676536
 40
0.1899114574
 40
0.2939766778
 40
0.4093592846
 40
0.5370349
 40
0.6784982955
 40
1.0
 40
1.0
 40
1.0
 40
1.0
 10
8.8969742403
 20
26.2195493641
 30
0.0
 10
8.8599909308
 20
26.2323962485
 30
0.0
 10
8.7881246722
 20
26.2683722797
 30
0.0
 10
8.6952406425
 20
26.350372976
 30
0.0
 10
8.6177867453
 20
26.4580955895
 30
0.0
 10
8.5553763146
 20
26.5895697399
 30
0.0
 10
8.5073942416
 20
26.7432193161
 30
0.0
 10
8.4603370303
 20
26.9856591583
 30
0.0
 10
8.4495642705
 20
27.1796608569
 30
0.0
 10
8.4495642705
 20
27.3138984191
 30
0.0
  0
SPLINE
  5
2DF
100
AcDbEntity
  8
ASSI
100
AcDbSpline
 62
7
  6
CONTINUOUS
 70
0
 71
3
 72
9
 73
5
 74
0
 42
0.0000001
 43
0.0000001
 44
0.0000000001
 40
0.0
 40
0.0
 40
0.0
 40
0.0
 40
0.4907886642
 40
1.0
 40
1.0
 40
1.0
 40
1.0
 10
-33.5100362837
 20
50.7524926288
 30
0.0
 10
-33.4192045819
 20
50.6586753891
 30
0.0
 10
-33.2032771652
 20
50.495282119
 30
0.0
 10
-32.9486937084
 20
50.4041909126
 30
0.0
 10
-32.8160659381
 20
50.3765117386
 30
0.0
  0
SPLINE
  5
2E0
100
AcDbEntity
  8
0
100
AcDbSpline
 62
7
  6
CONTINUOUS
 70
0
 71
3
 72
11
 73
7
 74
0
 42
0.0000001
 43
0.0000001
 44
0.0000000001
 40
0.0
 40
0.0
 40
0.0
 40
0.0
 40
0.2219389741
 40
0.4609229233
 40
0.7199461903
 40
1.0
 40
1.0
 40
1.0
 40
1.0
 10
-32.6724069466
 20
60.1997945956
 30
0.0
 10
-32.5659422368
 20
60.215601663
 30
0.0
 10
-32.3406003741
 20
60.2230848253
 30
0.0
 10
-31.9942621553
 20
60.1668127608
 30
0.0
 10
-31.6353884307
 20
60.0456988009
 30
0.0
 10
-31.4010281534
 20
59.9279516185
 30
0.0
 10
-31.2834106307
 20
59.860040735
 30
0.0
  0
SPLINE
  5
2E1
100
AcDbEntity
  8
0
100
AcDbSpline
 62
250
  6
CONTINUOUS
 70
0
 71
3
 72
9
 73
5
 74
0
 42
0.0000001
 43
0.0000001
 44
0.0000000001
 40
0.0
 40
0.0
 40
0.0
 40
0.0
 40
0.4875307566
 40
1.0
 40
1.0
 40
1.0
 40
1.0
 10
-30.8105917257
 20
59.5870175988
 30
0.0
 10
-31.2901931439
 20
59.3384952902
 30
0.0
 10
-32.30124497
 20
58.8804108331
 30
0.0
 10
-33.3495939605
 20
58.5171367119
 30
0.0
 10
-33.8932795197
 20
58.3534263972
 30
0.0
  0
SPLINE
  5
2E2
100
AcDbEntity
  8
0
100
AcDbSpline
 62
7
  6
CONTINUOUS
 70
0
 71
3
 72
14
 73
10
 74
0
 42
0.0000001
 43
0.0000001
 44
0.0000000001
 40
0.0
 40
0.0
 40
0.0
 40
0.0
 40
0.2928780601
 40
0.4245786706
 40
0.5474373682
 40
0.6633961284
 40
0.7752241019
 40
0.8862699531
 40
1.0
 40
1.0
 40
1.0
 40
1.0
 10
-33.8932795197
 20
58.3534263972
 30
0.0
 10
-33.8932795197
 20
58.5899735622
 30
0.0
 10
-33.8587794176
 20
58.9361182283
 30
0.0
 10
-33.7192046309
 20
59.3572605307
 30
0.0
 10
-33.5785676507
 20
59.6232470401
 30
0.0
 10
-33.4000452313
 20
59.8455365042
 30
0.0
 10
-33.1861296179
 20
60.0196970843
 30
0.0
 10
-32.9408896457
 20
60.1418838694
 30
0.0
 10
-32.7632666512
 20
60.1863044402
 30
0.0
 10
-32.6724069466
 20
60.1997945956
 30
0.0
  0
SPLINE
  5
2E3
100
AcDbEntity
  8
0
100
AcDbSpline
 62
7
  6
CONTINUOUS
 70
0
 71
3
 72
12
 73
8
 74
0
 42
0.0000001
 43
0.0000001
 44
0.0000000001
 40
0.0
 40
0.0
 40
0.0
 40
0.0
 40
0.28563653
 40
0.5451617559
 40
0.7810000456
 40
0.8921037954
 40
1.0
 40
1.0
 40
1.0
 40
1.0
 10
-29.1620902872
 20
-45.8242614022
 30
0.0
 10
-29.1620902872
 20
-46.2669579832
 30
0.0
 10
-29.1029547571
 20
-47.1140571867
 30
0.0
 10
-28.8082587813
 20
-48.2951669229
 30
0.0
 10
-28.387196219
 20
-49.1466479938
 30
0.0
 10
-27.9559165547
 20
-49.7065822054
 30
0.0
 10
-27.7127748719
 20
-49.9453711288
 30
0.0
 10
-27.5852220324
 20
-50.0535105606
 30
0.0
  0
SPLINE
  5
2E4
100
AcDbEntity
  8
ASSI
100
AcDbSpline
 62
7
  6
CONTINUOUS
 70
0
 71
3
 72
11
 73
7
 74
0
 42
0.0000001
 43
0.0000001
 44
0.0000000001
 40
0.0
 40
0.0
 40
0.0
 40
0.0
 40
0.2372127603
 40
0.4999938571
 40
0.7627773434
 40
1.0
 40
1.0
 40
1.0
 40
1.0
 10
-4.62548498
 20
-31.2084255104
 30
0.0
 10
-4.62548498
 20
-31.3011502309
 30
0.0
 10
-4.5907028211
 20
-31.4967197312
 30
0.0
 10
-4.4694721961
 20
-31.771541095
 30
0.0
 10
-4.2920830641
 20
-32.013943924
 30
0.0
 10
-4.1401035751
 20
-32.1418548718
 30
0.0
 10
-4.0597995551
 20
-32.1882214065
 30
0.0
  0
SPLINE
  5
2E5
100
AcDbEntity
  8
ASSI
100
AcDbSpline
 62
7
  6
CONTINUOUS
 70
0
 71
3
 72
11
 73
7
 74
0
 42
0.0000001
 43
0.0000001
 44
0.0000000001
 40
0.0
 40
0.0
 40
0.0
 40
0.0
 40
0.222177062
 40
0.4613136838
 40
0.7202820096
 40
1.0
 40
1.0
 40
1.0
 40
1.0
 10
-30.222750459
 20
48.9007866381
 30
0.0
 10
-30.045291123
 20
48.6726198884
 30
0.0
 10
-29.7296208041
 20
48.1562696936
 30
0.0
 10
-29.399951309
 20
47.2742693707
 30
0.0
 10
-29.2024445823
 20
46.2779754244
 30
0.0
 10
-29.1620902872
 20
45.5760889073
 30
0.0
 10
-29.1620902872
 20
45.2121744602
 30
0.0
  0
SPLINE
  5
2E6
100
AcDbEntity
  8
ASSI
100
AcDbSpline
 62
7
  6
CONTINUOUS
 70
0
 71
3
 72
9
 73
5
 74
0
 42
0.0000001
 43
0.0000001
 44
0.0000000001
 40
0.0
 40
0.0
 40
0.0
 40
0.0
 40
0.4984378733
 40
1.0
 40
1.0
 40
1.0
 40
1.0
 10
-31.056295562
 20
49.6772263105
 30
0.0
 10
-30.8987212363
 20
49.5712922396
 30
0.0
 10
-30.5982418901
 20
49.3342581987
 30
0.0
 10
-30.340050262
 20
49.0516038078
 30
0.0
 10
-30.222750459
 20
48.9007866381
 30
0.0
  0
SPLINE
  5
2E7
100
AcDbEntity
  8
ASSI
100
AcDbSpline
 62
7
  6
CONTINUOUS
 70
0
 71
3
 72
11
 73
7
 74
0
 42
0.0000001
 43
0.0000001
 44
0.0000000001
 40
0.0
 40
0.0
 40
0.0
 40
0.0
 40
0.260519741
 40
0.512733577
 40
0.7574108279
 40
1.0
 40
1.0
 40
1.0
 40
1.0
 10
-33.8932795197
 20
51.7621257431
 30
0.0
 10
-33.8932795197
 20
51.6660990581
 30
0.0
 10
-33.8780131296
 20
51.4766288408
 30
0.0
 10
-33.8052639943
 20
51.2053929033
 30
0.0
 10
-33.6839246783
 20
50.959347071
 30
0.0
 10
-33.5722335901
 20
50.8167342921
 30
0.0
 10
-33.5100362837
 20
50.7524926288
 30
0.0
  0
ENDSEC
  0
SECTION
  2
OBJECTS
  0
DICTIONARY
  5
C
100
AcDbDictionary
280
0
281
1
  3
ACAD_GROUP
350
D
  3
ACAD_MLINESTYLE
350
17
  3
ACAD_LAYOUT
350
1A
  3
ACAD_PLOTSETTINGS
350
19
  3
ACAD_PLOTSTYLENAME
350
E
  0
DICTIONARY
  5
D
102
{ACAD_REACTORS
330
C
102
}
100
AcDbDictionary
280
0
281
1
  0
ACDBDICTIONARYWDFLT
  5
E
102
{ACAD_REACTORS
330
C
102
}
100
AcDbDictionary
281
1
  3
Normal
350
F
100
AcDbDictionaryWithDefault
340
F
  0
DICTIONARY
  5
17
102
{ACAD_REACTORS
330
C
102
}
100
AcDbDictionary
280
0
281
1
  3
Standard
350
18
  0
DICTIONARY
  5
19
102
{ACAD_REACTORS
330
C
102
}
100
AcDbDictionary
281
1
  0
DICTIONARY
  5
1A
102
{ACAD_REACTORS
330
C
102
}
100
AcDbDictionary
281
1
  3
Model
350
2E8
  3
Layout1
350
2E9
  0
ACDBPLACEHOLDER
  5
F
102
{ACAD_REACTORS
330
E
102
}
  0
MLINESTYLE
  5
18
102
{ACAD_REACTORS
330
17
102
}
100
AcDbMlineStyle
  2
STANDARD
 70
0
  3

 62
256
 51
90.0
 52
90.0
 71
2
 49
0.5
 62
256
  6
BYLAYER
 49
-0.5
 62
256
  6
BYLAYER
  0
LAYOUT
  5
2E8
102
{ACAD_REACTORS
330
1A
102
}
100
AcDbPlotSettings
  1

  2
none_device
  4
ISO_A4_(297.00_x_210.00_MM)
  6

 40
0.0
 41
0.0
 42
0.0
 43
0.0
 44
297.0
 45
210.0
 46
0.0
 47
0.0
 48
0.0
 49
0.0
140
0.0
141
0.0
142
1.0
143
1.0
 70
1024
 72
1
 73
0
 74
0
  7

 75
0
147
1.0
148
0.0
149
0.0
100
AcDbLayout
  1
Model
 70
0
 71
0
 10
0.0
 20
0.0
 11
297.0
 21
210.0
 12
0.0
 22
0.0
 32
0.0
 14
0.0
 24
0.0
 34
0.0
 15
0.0
 25
0.0
 35
0.0
146
0.0
 13
0.0
 23
0.0
 33
0.0
 16
1.0
 26
0.0
 36
0.0
 17
0.0
 27
1.0
 37
0.0
 76
0
330
20F
345
0
346
0
  0
LAYOUT
  5
2E9
102
{ACAD_REACTORS
330
1A
102
}
100
AcDbPlotSettings
  1

  2
none_device
  4
ISO_A4_(297.00_x_210.00_MM)
  6

 40
0.0
 41
0.0
 42
0.0
 43
0.0
 44
297.0
 45
210.0
 46
0.0
 47
0.0
 48
0.0
 49
0.0
140
0.0
141
0.0
142
1.0
143
1.0
 70
0
 72
1
 73
0
 74
0
  7

 75
0
147
1.0
148
0.0
149
0.0
100
AcDbLayout
  1
Layout1
 70
0
 71
1
 10
0.0
 20
0.0
 11
297.0
 21
210.0
 12
0.0
 22
0.0
 32
0.0
 14
0.0
 24
0.0
 34
0.0
 15
0.0
 25
0.0
 35
0.0
146
0.0
 13
0.0
 23
0.0
 33
0.0
 16
1.0
 26
0.0
 36
0.0
 17
0.0
 27
1.0
 37
0.0
 76
0
330
210
345
0
346
0
  0
ENDSEC
  0
EOF
