  0
SECTION
  2
HEADER
  9
$ACADVER
  1
AC1024
  9
$DWGCODEPAGE
  3
ANSI_1252
  9
$EXTMAX
 10
297.0
 20
210.0
 30
0.0
  9
$EXTMIN
 10
0.0
 20
0.0
 30
0.0
  9
$LIMMIN
 10
0.0
 20
0.0
  9
$LIMMAX
 10
297.0
 20
210.0
  9
$VIEWCTR
 10
148.5
 20
105.0
  9
$VIEWSIZE
 40
210.0
  9
$CLAYER
  8
0
  9
$LTSCALE
 40
16.335
  9
$CELTYPE
  6
BYLAYER
  9
$DIMSCALE
 40
1.0
  9
$DIMASZ
 40
3.0
  9
$DIMEXO
 40
0.5
  9
$DIMDLI
 40
11.286
  9
$DIMEXE
 40
1.5
  9
$DIMCEN
 40
2.673
  9
$DIMLFAC
 40
1.0
  9
$DIMBLK
  1
_FILLED
  9
$DIMALT
 70
0
  9
$DIMALTF
 40
0.0393700787
  9
$DIMTXT
 40
3.0
  9
$DIMTOL
 70
1
  9
$DIMLIM
 70
0
  9
$DIMTFAC
 40
1.0
  9
$DIMTP
 40
0.01
  9
$DIMTM
 40
0.01
  9
$DIMGAP
 40
0.625
  9
$DIMDSEP
 70
44
  9
$AUNITS
 70
0
  9
$PDMODE
 70
3
  9
$PDSIZE
 40
3.0
  9
$HANDSEED
  5
392
  9
$TILEMODE
 70
1
  9
$MEASUREMENT
 70
1
  9
$INSUNITS
 70
4
  0
ENDSEC
  0
SECTION
  2
CLASSES
  0
CLASS
  1
ACDBDICTIONARYWDFLT
  2
AcDbDictionaryWithDefault
  3
AutoCAD 2000
 90
0
 91
1
280
0
281
0
  0
CLASS
  1
ACDBPLACEHOLDER
  2
AcDbPlaceHolder
  3
AutoCAD 2000
 90
0
 91
1
280
0
281
0
  0
CLASS
  1
LAYOUT
  2
AcDbLayout
  3
AutoCAD 2000
 90
0
 91
0
280
0
281
0
  0
ENDSEC
  0
SECTION
  2
TABLES
  0
TABLE
  2
VPORT
  5
8
100
AcDbSymbolTable
 70
2
  0
VPORT
  5
1F4
100
AcDbSymbolTableRecord
100
AcDbViewportTableRecord
  2
*ACTIVE
 70
0
 10
0.0
 20
0.0
 11
1.0
 21
1.0
 12
148.5
 22
105.0
 13
0.0
 23
0.0
 14
1.0
 24
1.0
 15
0.0
 25
0.0
 16
0.0
 26
0.0
 36
1.0
 17
0.0
 27
0.0
 37
0.0
 40
210.0
 41
1.4142857143
 42
50.0
 43
0.0
 44
0.0
 50
0.0
 51
0.0
 71
0
 72
100
 73
1
 74
1
 75
0
 76
0
 77
0
 78
0
  0
ENDTAB
  0
TABLE
  2
LTYPE
  5
5
100
AcDbSymbolTable
 70
6
  0
LTYPE
  5
14
100
AcDbSymbolTableRecord
100
AcDbLinetypeTableRecord
  2
BYBLOCK
 70
0
  3

 72
65
 73
0
 40
0.0
  0
LTYPE
  5
15
100
AcDbSymbolTableRecord
100
AcDbLinetypeTableRecord
  2
BYLAYER
 70
0
  3

 72
65
 73
0
 40
0.0
  0
LTYPE
  5
16
100
AcDbSymbolTableRecord
100
AcDbLinetypeTableRecord
  2
CONTINUOUS
 70
64
  3
Solid line
 72
65
 73
0
 40
0.0
  0
LTYPE
  5
1F5
100
AcDbSymbolTableRecord
100
AcDbLinetypeTableRecord
  2
CENTER
 70
64
  3
____ _ ____ _ ____ _ ____ _ ____ _ ____ _ ____
 72
65
 73
4
 40
0.6
 49
0.375
 74
0
 49
-0.075
 74
0
 49
0.075
 74
0
 49
-0.075
 74
0
  0
LTYPE
  5
1F6
100
AcDbSymbolTableRecord
100
AcDbLinetypeTableRecord
  2
HIDDEN
 70
64
  3
- - - - - - - - - - - - - - - - - - - -
 72
65
 73
2
 40
0.2
 49
0.1
 74
0
 49
-0.1
 74
0
  0
LTYPE
  5
1F7
100
AcDbSymbolTableRecord
100
AcDbLinetypeTableRecord
  2
PHANTOM
 70
64
  3
_____ _ _ _____ _ _ _____ _ _ _____
 72
65
 73
6
 40
0.8
 49
0.45
 74
0
 49
-0.05
 74
0
 49
0.1
 74
0
 49
-0.05
 74
0
 49
0.1
 74
0
 49
-0.05
 74
0
  0
LTYPE
  5
1F8
100
AcDbSymbolTableRecord
100
AcDbLinetypeTableRecord
  2
DOT
 70
64
  3
. . . . . . . . . . . . . . . . . . . .
 72
65
 73
2
 40
0.2
 49
0.1
 74
0
 49
-0.1
 74
0
  0
LTYPE
  5
1F9
100
AcDbSymbolTableRecord
100
AcDbLinetypeTableRecord
  2
DASHED
 70
64
  3
- - - - - - - - - - - - - - - - - - - -
 72
65
 73
2
 40
0.2
 49
0.1
 74
0
 49
-0.1
 74
0
  0
ENDTAB
  0
TABLE
  2
LAYER
  5
2
100
AcDbSymbolTable
 70
36
  0
LAYER
  5
10
100
AcDbSymbolTableRecord
100
AcDbLayerTableRecord
  2
0
 70
0
 62
7
  6
CONTINUOUS
370
-3
390
F
  0
LAYER
  5
1FA
100
AcDbSymbolTableRecord
100
AcDbLayerTableRecord
  2
DEFAULT_1
 70
0
 62
7
  6
CENTER
370
-3
390
F
  0
LAYER
  5
1FB
100
AcDbSymbolTableRecord
100
AcDbLayerTableRecord
  2
DEFAULT_2
 70
0
 62
7
  6
HIDDEN
370
-3
390
F
  0
LAYER
  5
1FC
100
AcDbSymbolTableRecord
100
AcDbLayerTableRecord
  2
DEFAULT_3
 70
0
 62
7
  6
PHANTOM
370
-3
390
F
  0
LAYER
  5
1FD
100
AcDbSymbolTableRecord
100
AcDbLayerTableRecord
  2
ARROTONDAMENTI
 70
0
 62
7
  6
CONTINUOUS
370
-3
390
F
  0
LAYER
  5
1FE
100
AcDbSymbolTableRecord
100
AcDbLayerTableRecord
  2
ASSI
 70
0
 62
7
  6
CONTINUOUS
370
-3
390
F
  0
LAYER
  5
1FF
100
AcDbSymbolTableRecord
100
AcDbLayerTableRecord
  2
COORDINATE
 70
0
 62
7
  6
CONTINUOUS
370
-3
390
F
  0
LAYER
  5
200
100
AcDbSymbolTableRecord
100
AcDbLayerTableRecord
  2
COPY_PUBLISH
 70
0
 62
7
  6
CONTINUOUS
370
-3
390
F
  0
LAYER
  5
201
100
AcDbSymbolTableRecord
100
AcDbLayerTableRecord
  2
COSMETICHE_FILETTO
 70
0
 62
7
  6
CONTINUOUS
370
-3
390
F
  0
LAYER
  5
202
100
AcDbSymbolTableRecord
100
AcDbLayerTableRecord
  2
COSMETICI
 70
0
 62
7
  6
CONTINUOUS
370
-3
390
F
  0
LAYER
  5
203
100
AcDbSymbolTableRecord
100
AcDbLayerTableRecord
  2
CURVE
 70
0
 62
7
  6
CONTINUOUS
370
-3
390
F
  0
LAYER
  5
204
100
AcDbSymbolTableRecord
100
AcDbLayerTableRecord
  2
DRAFT
 70
0
 62
7
  6
CONTINUOUS
370
-3
390
F
  0
LAYER
  5
205
100
AcDbSymbolTableRecord
100
AcDbLayerTableRecord
  2
ELEMENTI_DI_ANNOTAZIONE
 70
0
 62
7
  6
CONTINUOUS
370
-3
390
F
  0
LAYER
  5
206
100
AcDbSymbolTableRecord
100
AcDbLayerTableRecord
  2
FEATURE_CON_ASSI
 70
0
 62
7
  6
CONTINUOUS
370
-3
390
F
  0
LAYER
  5
207
100
AcDbSymbolTableRecord
100
AcDbLayerTableRecord
  2
FEATURE_DI_GUSCIO
 70
0
 62
7
  6
CONTINUOUS
370
-3
390
F
  0
LAYER
  5
208
100
AcDbSymbolTableRecord
100
AcDbLayerTableRecord
  2
FEATURE_DI_TAGLIO
 70
0
 62
7
  6
CONTINUOUS
370
-3
390
F
  0
LAYER
  5
209
100
AcDbSymbolTableRecord
100
AcDbLayerTableRecord
  2
FORI
 70
0
 62
7
  6
CONTINUOUS
370
-3
390
F
  0
LAYER
  5
20A
100
AcDbSymbolTableRecord
100
AcDbLayerTableRecord
  2
FORI_FILETTATI
 70
0
 62
7
  6
CONTINUOUS
370
-3
390
F
  0
LAYER
  5
20B
100
AcDbSymbolTableRecord
100
AcDbLayerTableRecord
  2
GEOMETRIA_SOLIDA
 70
0
 62
7
  6
CONTINUOUS
370
-3
390
F
  0
LAYER
  5
20C
100
AcDbSymbolTableRecord
100
AcDbLayerTableRecord
  2
IMPORT_IGES
 70
0
 62
7
  6
CONTINUOUS
370
-3
390
F
  0
LAYER
  5
20D
100
AcDbSymbolTableRecord
100
AcDbLayerTableRecord
  2
INTFCLR_2816
 70
0
 62
7
  6
CONTINUOUS
370
-3
390
F
  0
LAYER
  5
20E
100
AcDbSymbolTableRecord
100
AcDbLayerTableRecord
  2
NOTE
 70
0
 62
7
  6
CONTINUOUS
370
-3
390
F
  0
LAYER
  5
20F
100
AcDbSymbolTableRecord
100
AcDbLayerTableRecord
  2
PIANI
 70
0
 62
7
  6
CONTINUOUS
370
-3
390
F
  0
LAYER
  5
210
100
AcDbSymbolTableRecord
100
AcDbLayerTableRecord
  2
PIANI_DI_DEFAULT
 70
0
 62
7
  6
CONTINUOUS
370
-3
390
F
  0
LAYER
  5
211
100
AcDbSymbolTableRecord
100
AcDbLayerTableRecord
  2
PIANI_DI_RIFERIMENTO_CREATI
 70
0
 62
7
  6
CONTINUOUS
370
-3
390
F
  0
LAYER
  5
212
100
AcDbSymbolTableRecord
100
AcDbLayerTableRecord
  2
PROTUSIONI
 70
0
 62
7
  6
CONTINUOUS
370
-3
390
F
  0
LAYER
  5
213
100
AcDbSymbolTableRecord
100
AcDbLayerTableRecord
  2
PUNTI
 70
0
 62
7
  6
CONTINUOUS
370
-3
390
F
  0
LAYER
  5
214
100
AcDbSymbolTableRecord
100
AcDbLayerTableRecord
  2
QUOTE_AE
 70
0
 62
7
  6
CONTINUOUS
370
-3
390
F
  0
LAYER
  5
215
100
AcDbSymbolTableRecord
100
AcDbLayerTableRecord
  2
QUOTE_DEL_MODELLO
 70
0
 62
7
  6
CONTINUOUS
370
-3
390
F
  0
LAYER
  5
216
100
AcDbSymbolTableRecord
100
AcDbLayerTableRecord
  2
RACCORDO
 70
0
 62
7
  6
CONTINUOUS
370
-3
390
F
  0
LAYER
  5
217
100
AcDbSymbolTableRecord
100
AcDbLayerTableRecord
  2
SALDATURE
 70
0
 62
7
  6
CONTINUOUS
370
-3
390
F
  0
LAYER
  5
218
100
AcDbSymbolTableRecord
100
AcDbLayerTableRecord
  2
SIMBOLI
 70
0
 62
7
  6
CONTINUOUS
370
-3
390
F
  0
LAYER
  5
219
100
AcDbSymbolTableRecord
100
AcDbLayerTableRecord
  2
SMUSSI
 70
0
 62
7
  6
CONTINUOUS
370
-3
390
F
  0
LAYER
  5
21A
100
AcDbSymbolTableRecord
100
AcDbLayerTableRecord
  2
SMUSSO
 70
0
 62
7
  6
CONTINUOUS
370
-3
390
F
  0
LAYER
  5
21B
100
AcDbSymbolTableRecord
100
AcDbLayerTableRecord
  2
SNAPLINE
 70
0
 62
7
  6
CONTINUOUS
370
-3
390
F
  0
LAYER
  5
21C
100
AcDbSymbolTableRecord
100
AcDbLayerTableRecord
  2
SUPERFICI
 70
0
 62
7
  6
CONTINUOUS
370
-3
390
F
  0
LAYER
  5
21D
100
AcDbSymbolTableRecord
100
AcDbLayerTableRecord
  2
TERNA_DI_RIFERIMENTO_DI_DEFAULT
 70
0
 62
7
  6
CONTINUOUS
370
-3
390
F
  0
LAYER
  5
21E
100
AcDbSymbolTableRecord
100
AcDbLayerTableRecord
  2
TERNE_DI_RIFERIMENTO_CREATE
 70
0
 62
7
  6
CONTINUOUS
370
-3
390
F
  0
LAYER
  5
21F
100
AcDbSymbolTableRecord
100
AcDbLayerTableRecord
  2
TRASH
 70
0
 62
7
  6
CONTINUOUS
370
-3
390
F
  0
ENDTAB
  0
TABLE
  2
STYLE
  5
3
100
AcDbSymbolTable
 70
1
  0
STYLE
  5
11
100
AcDbSymbolTableRecord
100
AcDbTextStyleTableRecord
  2
STANDARD
 70
0
 40
0.0
 41
0.8
 50
0.0
 71
0
 42
0.2
  3
txt
  4

  0
STYLE
  5
220
100
AcDbSymbolTableRecord
100
AcDbTextStyleTableRecord
  2
TEXTSTYLE_1
 70
0
 40
0.0
 41
0.8
 50
0.0
 71
0
 42
0.2
  3
gdt
  4

  0
ENDTAB
  0
TABLE
  2
VIEW
  5
6
100
AcDbSymbolTable
 70
0
  0
ENDTAB
  0
TABLE
  2
UCS
  5
7
100
AcDbSymbolTable
 70
0
  0
ENDTAB
  0
TABLE
  2
APPID
  5
9
100
AcDbSymbolTable
 70
1
  0
APPID
  5
221
100
AcDbSymbolTableRecord
100
AcDbRegAppTableRecord
  2
ACAD
 70
0
  0
ENDTAB
  0
TABLE
  2
BLOCK_RECORD
  5
1
100
AcDbSymbolTable
 70
0
  0
BLOCK_RECORD
  5
222
100
AcDbSymbolTableRecord
100
AcDbBlockTableRecord
  2
*Model_Space
  0
BLOCK_RECORD
  5
223
100
AcDbSymbolTableRecord
100
AcDbBlockTableRecord
  2
*Paper_Space
  0
BLOCK_RECORD
  5
224
100
AcDbSymbolTableRecord
100
AcDbBlockTableRecord
  2
_FILLED
  0
ENDTAB
  0
TABLE
  2
DIMSTYLE
  5
A
100
AcDbSymbolTable
 70
1
100
AcDbDimStyleTable
 71
0
  0
DIMSTYLE
105
225
100
AcDbSymbolTableRecord
100
AcDbDimStyleTableRecord
  2
STANDARD
 70
0
  3

  4

 40
1.0
 41
3.0
 42
0.5
 43
0.38
 44
1.5
 45
0.0
 46
0.0
 47
0.01
 48
0.01
140
3.0
141
0.09
142
0.0
143
25.4
144
1.0
145
0.0
146
1.0
147
0.625
 71
1.0
 72
0.0
 73
0
 74
0
 75
0
 76
0
 77
1
 78
8
 79
2
170
0
171
1
172
0
173
0
174
0
175
0
176
0
177
0
178
0
270
2
179
2
271
2
272
2
273
2
274
2
275
0
280
0
281
0
282
0
283
1
284
8
285
0
286
0
287
3
288
0
340
11
278
44
341
224
342
224
343
224
344
224
  0
ENDTAB
  0
ENDSEC
  0
SECTION
  2
BLOCKS
  0
BLOCK
  5
20
100
AcDbEntity
  8
0
100
AcDbBlockBegin
  2
*Model_Space
 70
0
 10
0.0
 20
0.0
 30
0.0
  3
*Model_Space
  1

  0
ENDBLK
  5
21
100
AcDbEntity
  8
0
100
AcDbBlockEnd
  0
BLOCK
  5
1C
100
AcDbEntity
  8
0
100
AcDbBlockBegin
  2
*Paper_Space
 70
0
 10
0.0
 20
0.0
 30
0.0
  3
*Paper_Space
  1

  0
ENDBLK
  5
1D
100
AcDbEntity
  8
0
100
AcDbBlockEnd
  0
BLOCK
  5
226
100
AcDbEntity
  8
0
100
AcDbBlockBegin
  2
_FILLED
 70
64
 10
0.0
 20
0.0
  3
_FILLED
  1

  0
SOLID
  5
227
100
AcDbEntity
  8
0
  6
BYBLOCK
 62
0
100
AcDbTrace
 10
0.0
 20
0.0
 11
-1.0
 21
0.3166666667
 12
-1.0
 22
-0.3166666667
 13
-1.0
 23
-0.3166666667
  0
ENDBLK
  5
228
100
AcDbEntity
  8
0
  6
BYBLOCK
 62
0
100
AcDbBlockEnd
  0
ENDSEC
  0
SECTION
  2
ENTITIES
  0
LINE
  5
229
100
AcDbEntity
  8
0
100
AcDbLine
 62
7
  6
CONTINUOUS
 10
-31.0562012565
 20
71.3649400046
 11
-36.748410845
 21
68.0783295283
  0
LINE
  5
22A
100
AcDbEntity
  8
0
100
AcDbLine
 62
7
  6
CONTINUOUS
 10
-30.8794245612
 20
70.4054947103
 11
-35.8998827076
 21
67.5067450976
  0
LINE
  5
22B
100
AcDbEntity
  8
0
100
AcDbLine
 62
7
  6
CONTINUOUS
 10
-37.0312535575
 20
66.1186114803
 11
-36.1827254201
 21
66.6085409923
  0
LINE
  5
22C
100
AcDbEntity
  8
0
100
AcDbLine
 62
7
  6
CONTINUOUS
 10
-35.2634866045
 20
66.077784021
 11
-36.748410845
 21
65.220407375
  0
LINE
  5
22D
100
AcDbEntity
  8
0
100
AcDbLine
 62
7
  6
CONTINUOUS
 10
-28.5813275223
 20
69.2827395786
 11
-28.0156420974
 21
69.6093592533
  0
LINE
  5
22E
100
AcDbEntity
  8
0
100
AcDbLine
 62
7
  6
CONTINUOUS
 10
-33.4250089734
 20
65.6695094277
 11
-34.9099332139
 21
64.8121327817
  0
LINE
  5
22F
100
AcDbEntity
  8
ASSI
100
AcDbLine
 62
7
  6
CONTINUOUS
 10
16.6884741957
 20
-48.8066603623
 11
16.6920566941
 21
-48.8059730856
  0
LINE
  5
230
100
AcDbEntity
  8
ASSI
100
AcDbLine
 62
7
  6
CONTINUOUS
 10
16.6890220384
 20
-48.8078769857
 11
16.6926177985
 21
-48.8072175398
  0
LINE
  5
231
100
AcDbEntity
  8
ASSI
100
AcDbLine
 62
7
  6
CONTINUOUS
 10
-37.5685118577
 20
-23.693040057
 11
-37.5685118577
 21
66.935160667
  0
LINE
  5
232
100
AcDbEntity
  8
0
100
AcDbLine
 62
7
  6
CONTINUOUS
 10
-37.202104591
 20
-24.4925969169
 11
-37.202104591
 21
66.1356038071
  0
LINE
  5
233
100
AcDbEntity
  8
0
100
AcDbLine
 62
250
  6
CONTINUOUS
 10
-37.1726749137
 20
66.1186114803
 11
-37.1726749137
 21
-24.5095892437
  0
LINE
  5
234
100
AcDbEntity
  8
ASSI
100
AcDbLine
 62
7
  6
CONTINUOUS
 10
-37.0413040638
 20
64.8121327817
 11
-37.0413040638
 21
-25.8160679423
  0
LINE
  5
235
100
AcDbEntity
  8
0
100
AcDbLine
 62
250
  6
CONTINUOUS
 10
-37.0312535575
 20
66.1186114803
 11
-37.0312535575
 21
64.892652072
  0
LWPOLYLINE
  5
236
100
AcDbEntity
  8
RACCORDO
100
AcDbPolyline
 62
7
  6
CONTINUOUS
 90
18
 70
0
 10
-1.8993837376
 20
-42.456483327
 10
-1.6748502854
 20
-42.5660960243
 10
-1.3892924963
 20
-42.6915667612
 10
-1.1050874048
 20
-42.8009326436
 10
-0.8229152824
 20
-42.8942341225
 10
-0.5431818418
 20
-42.9715906642
 10
-0.2661313661
 20
-43.0330098286
 10
0.0076476127
 20
-43.0783885774
 10
0.2775808764
 20
-43.1077906533
 10
0.5432672427
 20
-43.1212779392
 10
0.8041686505
 20
-43.1189063958
 10
1.0597123589
 20
-43.1008042102
 10
1.3094647178
 20
-43.0670995287
 10
1.5529327035
 20
-43.0179076633
 10
1.7894551408
 20
-42.9533714885
 10
2.0183989769
 20
-42.8737952643
 10
2.2392580274
 20
-42.7795105545
 10
2.4647417375
 20
-42.6634157491
  0
LINE
  5
237
100
AcDbEntity
  8
RACCORDO
100
AcDbLine
 62
250
  6
CONTINUOUS
 10
-8.1476195647
 20
-38.95753975
 11
-8.1366200378
 21
-38.9635651376
  0
LINE
  5
238
100
AcDbEntity
  8
RACCORDO
100
AcDbLine
 62
250
  6
CONTINUOUS
 10
-8.1476195647
 20
-38.95753975
 11
-8.1366947333
 21
-38.963609967
  0
LINE
  5
239
100
AcDbEntity
  8
0
100
AcDbLine
 62
7
  6
CONTINUOUS
 10
-36.748410845
 20
-26.2243425357
 11
-36.1510985172
 21
-26.5692231877
  0
LINE
  5
23A
100
AcDbEntity
  8
0
100
AcDbLine
 62
7
  6
CONTINUOUS
 10
24.7382522153
 20
-61.7259711778
 11
25.3355645432
 21
-62.0708518298
  0
LINE
  5
23B
100
AcDbEntity
  8
0
100
AcDbLine
 62
7
  6
CONTINUOUS
 10
-37.202104591
 20
-24.4925969169
 11
-37.1726749137
 21
-24.5095892437
  0
LINE
  5
23C
100
AcDbEntity
  8
0
100
AcDbLine
 62
7
  6
CONTINUOUS
 10
28.3054130241
 20
-62.3158165858
 11
28.3348427014
 21
-62.3328089126
  0
LINE
  5
23D
100
AcDbEntity
  8
0
100
AcDbLine
 62
7
  6
CONTINUOUS
 10
28.234702346
 20
-61.2134751838
 11
28.2761237023
 21
-61.2373913558
  0
LINE
  5
23E
100
AcDbEntity
  8
RACCORDO
100
AcDbLine
 62
250
  6
CONTINUOUS
 10
-28.9407642299
 20
-25.3624810816
 11
-28.773281372
 21
-25.4899172447
  0
LWPOLYLINE
  5
23F
100
AcDbEntity
  8
RACCORDO
100
AcDbPolyline
 62
7
  6
CONTINUOUS
 90
16
 70
0
 10
-28.8459022473
 20
-25.585359162
 10
-27.2836428693
 20
-26.7746240941
 10
-25.6440594077
 20
-27.9882651506
 10
-23.9758451672
 20
-29.1886961361
 10
-22.2793561808
 20
-30.375661259
 10
-20.5549019836
 20
-31.5489517887
 10
-18.8027692695
 20
-32.7083771639
 10
-17.0232674072
 20
-33.8537348087
 10
-15.2167496019
 20
-34.9848031373
 10
-13.383569624
 20
-36.1013619415
 10
-11.5240856938
 20
-37.2031938444
 10
-9.6386268657
 20
-38.2901089629
 10
-7.7275017911
 20
-39.3619290307
 10
-5.7910605119
 20
-40.4184564607
 10
-3.82972713
 20
-41.4594656772
 10
-1.8993926483
 20
-42.4564787866
  0
LINE
  5
240
100
AcDbEntity
  8
RACCORDO
100
AcDbLine
 62
250
  6
CONTINUOUS
 10
-28.9407642299
 20
-25.3624810816
 11
-28.7746501867
 21
-25.4905104291
  0
LINE
  5
241
100
AcDbEntity
  8
0
100
AcDbLine
 62
250
  6
CONTINUOUS
 10
-36.748410845
 20
64.4038581883
 11
-36.748410845
 21
-26.2243425357
  0
LINE
  5
242
100
AcDbEntity
  8
0
100
AcDbLine
 62
7
  6
CONTINUOUS
 10
-36.1827254201
 20
65.5470270497
 11
-36.1827254201
 21
66.6085409923
  0
LINE
  5
243
100
AcDbEntity
  8
0
100
AcDbLine
 62
250
  6
CONTINUOUS
 10
-36.1510985172
 20
-26.5692231877
 11
-36.1510985172
 21
64.0589775363
  0
LINE
  5
244
100
AcDbEntity
  8
ASSI
100
AcDbLine
 62
7
  6
CONTINUOUS
 10
-34.7673862445
 20
61.4879813173
 11
-34.7673862445
 21
-29.1402194067
  0
LINE
  5
245
100
AcDbEntity
  8
0
100
AcDbLine
 62
250
  6
CONTINUOUS
 10
-34.7248260118
 20
61.4074181915
 11
-34.7248260118
 21
-29.2207825325
  0
LINE
  5
246
100
AcDbEntity
  8
0
100
AcDbLine
 62
250
  6
CONTINUOUS
 10
-33.4250089734
 20
63.5473295054
 11
-33.4250089734
 21
65.6695094277
  0
LINE
  5
247
100
AcDbEntity
  8
ASSI
100
AcDbLine
 62
7
  6
CONTINUOUS
 10
-33.278562364
 20
63.3295386818
 11
-33.278562364
 21
65.8736467243
  0
LINE
  5
248
100
AcDbEntity
  8
ASSI
100
AcDbLine
 62
7
  6
CONTINUOUS
 10
-32.8866324231
 20
61.6928889515
 11
-32.8866324231
 21
62.0176045697
  0
LINE
  5
249
100
AcDbEntity
  8
RACCORDO
100
AcDbLine
 62
7
  6
CONTINUOUS
 10
10.8873692821
 20
-37.0210789605
 11
11.1278415527
 21
-37.0572143119
  0
LWPOLYLINE
  5
24A
100
AcDbEntity
  8
RACCORDO
100
AcDbPolyline
 62
7
  6
CONTINUOUS
 90
13
 70
0
 10
11.1278415527
 20
-37.0572143119
 10
11.3719973079
 20
-37.1059562043
 10
11.6192484268
 20
-37.1672074507
 10
11.8692805628
 20
-37.2409151314
 10
12.1215449676
 20
-37.3269541462
 10
12.3754030315
 20
-37.4251599498
 10
12.6304162016
 20
-37.5354137679
 10
12.8860644336
 20
-37.6575497682
 10
13.1416546938
 20
-37.7913134579
 10
13.3964946085
 20
-37.9364003519
 10
13.6499978525
 20
-38.0925235695
 10
13.901530844
 20
-38.2593584381
 10
14.1503454627
 20
-38.4364556207
  0
LINE
  5
24B
100
AcDbEntity
  8
0
100
AcDbLine
 62
7
  6
CONTINUOUS
 10
-30.8794245612
 20
60.0170410434
 11
-30.8794245612
 21
70.4054947103
  0
LINE
  5
24C
100
AcDbEntity
  8
0
100
AcDbLine
 62
250
  6
CONTINUOUS
 10
-28.9348809129
 20
69.2827395786
 11
-28.9348809129
 21
58.4492612565
  0
LINE
  5
24D
100
AcDbEntity
  8
0
100
AcDbLine
 62
250
  6
CONTINUOUS
 10
-28.5813275223
 20
69.2827395786
 11
-28.5813275223
 21
58.1694390068
  0
LINE
  5
24E
100
AcDbEntity
  8
0
100
AcDbLine
 62
250
  6
CONTINUOUS
 10
-28.0156420974
 20
69.6093592533
 11
-28.0156420974
 21
57.7217234073
  0
LINE
  5
24F
100
AcDbEntity
  8
ASSI
100
AcDbLine
 62
7
  6
CONTINUOUS
 10
-27.9424187927
 20
69.7114279016
 11
-27.9424187927
 21
57.6653919284
  0
LINE
  5
250
100
AcDbEntity
  8
ASSI
100
AcDbLine
 62
7
  6
CONTINUOUS
 10
16.6884741957
 20
-28.3949034425
 11
16.6920566941
 21
-28.3942161658
  0
LINE
  5
251
100
AcDbEntity
  8
ASSI
100
AcDbLine
 62
7
  6
CONTINUOUS
 10
16.6890220384
 20
-28.3961200659
 11
16.6926177985
 21
-28.39546062
  0
LWPOLYLINE
  5
252
100
AcDbEntity
  8
RACCORDO
100
AcDbPolyline
 62
7
  6
CONTINUOUS
 90
52
 70
0
 10
-31.8789955116
 20
8.2316165935
 10
-31.952450161
 20
8.1860746464
 10
-32.107534349
 20
8.0758847656
 10
-32.2549868509
 20
7.9510874239
 10
-32.3942798212
 20
7.8119915894
 10
-32.5251285306
 20
7.6587521841
 10
-32.6470712896
 20
7.4917914512
 10
-32.7598564729
 20
7.3114041991
 10
-32.8633387233
 20
7.1176758323
 10
-32.9573404639
 20
6.9106490405
 10
-33.0418987763
 20
6.6899396174
 10
-33.1166109227
 20
6.4562295461
 10
-33.1808542132
 20
6.2114047879
 10
-33.2345755006
 20
5.956282556
 10
-33.2779155987
 20
5.6909970284
 10
-33.3108200471
 20
5.4167871303
 10
-33.3333653505
 20
5.1345361611
 10
-33.345679631
 20
4.8445251975
 10
-33.3478824025
 20
4.547227827
 10
-33.3401092239
 20
4.2432808672
 10
-33.3224450009
 20
3.9333012825
 10
-33.2949895258
 20
3.6178108505
 10
-33.2579294635
 20
3.2975212063
 10
-33.2113883973
 20
2.9730866665
 10
-33.155442372
 20
2.6450332052
 10
-33.0902900457
 20
2.3141358606
 10
-33.0161049694
 20
1.9810580463
 10
-32.9329611242
 20
1.6462209403
 10
-32.8410249778
 20
1.3103506695
 10
-32.7404888723
 20
0.974161739
 10
-32.6314781509
 20
0.6380729449
 10
-32.5141692248
 20
0.302741752
 10
-32.3887584505
 20
-0.0310739097
 10
-32.2554142409
 20
-0.3628046104
 10
-32.1143544967
 20
-0.6917786331
 10
-31.9658081594
 20
-1.0172553468
 10
-31.8099973709
 20
-1.3385634855
 10
-31.6471842717
 20
-1.6550136643
 10
-31.4776447075
 20
-1.9659147446
 10
-31.3016491589
 20
-2.2705993126
 10
-31.1194767857
 20
-2.5683976322
 10
-30.9314369507
 20
-2.8586386375
 10
-30.737851849
 20
-3.140669468
 10
-30.539032685
 20
-3.4138423922
 10
-30.3353037642
 20
-3.677516831
 10
-30.1269998796
 20
-3.9310752342
 10
-29.9144798121
 20
-4.1738831659
 10
-29.6981163482
 20
-4.4054098888
 10
-29.4781951912
 20
-4.6252206304
 10
-29.2549961222
 20
-4.8327730576
 10
-29.0289038243
 20
-5.0273758456
 10
-28.8458863747
 20
-5.1736144928
  0
LINE
  5
253
100
AcDbEntity
  8
RACCORDO
100
AcDbLine
 62
7
  6
CONTINUOUS
 10
-31.8773307225
 20
8.2326107389
 11
-31.8788903269
 21
8.2316868349
  0
LINE
  5
254
100
AcDbEntity
  8
DRAFT
100
AcDbLine
 62
7
  6
CONTINUOUS
 10
-31.2492163107
 20
8.6042832238
 11
-31.8773294018
 21
8.2326115204
  0
LINE
  5
255
100
AcDbEntity
  8
RACCORDO
100
AcDbLine
 62
250
  6
CONTINUOUS
 10
-28.9407642299
 20
-4.9507241617
 11
-28.773281372
 21
-5.0781603248
  0
LWPOLYLINE
  5
256
100
AcDbEntity
  8
RACCORDO
100
AcDbPolyline
 62
7
  6
CONTINUOUS
 90
16
 70
0
 10
-28.8459022473
 20
-5.1736022421
 10
-27.2836428693
 20
-6.3628671743
 10
-25.6440594077
 20
-7.5765082308
 10
-23.9758451672
 20
-8.7769392163
 10
-22.2793561808
 20
-9.9639043392
 10
-20.5549019836
 20
-11.1371948689
 10
-18.8027692695
 20
-12.296620244
 10
-17.0232674072
 20
-13.4419778889
 10
-15.2167496019
 20
-14.5730462175
 10
-13.383569624
 20
-15.6896050216
 10
-11.5240856938
 20
-16.7914369245
 10
-9.6386268657
 20
-17.8783520431
 10
-7.7275017911
 20
-18.9501721109
 10
-5.7910605119
 20
-20.0066995409
 10
-3.82972713
 20
-21.0477087574
 10
-1.8993926483
 20
-22.0447218667
  0
LWPOLYLINE
  5
257
100
AcDbEntity
  8
RACCORDO
100
AcDbPolyline
 62
7
  6
CONTINUOUS
 90
28
 70
0
 10
14.1503454627
 20
-38.4364556207
 10
14.3958769271
 20
-38.623448464
 10
14.6375033625
 20
-38.8199168478
 10
14.8744260474
 20
-39.025234691
 10
15.106040705
 20
-39.2388852114
 10
15.3318517697
 20
-39.4604277
 10
15.5512646888
 20
-39.6892822877
 10
15.7637602043
 20
-39.9249177065
 10
15.9688585826
 20
-40.1668029259
 10
16.1660489154
 20
-40.4143407817
 10
16.3548830383
 20
-40.6669630968
 10
16.5349331943
 20
-40.9240958132
 10
16.7057632357
 20
-41.1851015596
 10
16.8669788738
 20
-41.4493556319
 10
17.0182467931
 20
-41.7162804417
 10
17.1592554706
 20
-41.9852922665
 10
17.2896889365
 20
-42.2557471792
 10
17.4092886608
 20
-42.5270483712
 10
17.5178493208
 20
-42.7986726344
 10
17.6151466363
 20
-43.0699958779
 10
17.7009888824
 20
-43.340387775
 10
17.7752380028
 20
-43.6093077658
 10
17.8377589978
 20
-43.8761273317
 10
17.8884559559
 20
-44.140233707
 10
17.9272770128
 20
-44.4011089648
 10
17.9541873874
 20
-44.6582007552
 10
17.9691780373
 20
-44.9108795248
 10
17.9726229173
 20
-45.1001003944
  0
LINE
  5
258
100
AcDbEntity
  8
RACCORDO
100
AcDbLine
 62
250
  6
CONTINUOUS
 10
-28.9407642299
 20
-4.9507241617
 11
-28.7746501867
 21
-5.0787535093
  0
LWPOLYLINE
  5
259
100
AcDbEntity
  8
RACCORDO
100
AcDbPolyline
 62
7
  6
CONTINUOUS
 90
18
 70
0
 10
-1.8993837376
 20
-22.0447264072
 10
-1.6748502854
 20
-22.1543391045
 10
-1.3892924963
 20
-22.2798098414
 10
-1.1050874048
 20
-22.3891757238
 10
-0.8229152824
 20
-22.4824772027
 10
-0.5431818418
 20
-22.5598337444
 10
-0.2661313661
 20
-22.6212529088
 10
0.0076476127
 20
-22.6666316576
 10
0.2775808764
 20
-22.6960337335
 10
0.5432672427
 20
-22.7095210194
 10
0.8041686505
 20
-22.707149476
 10
1.0597123589
 20
-22.6890472904
 10
1.3094647178
 20
-22.6553426089
 10
1.5529327035
 20
-22.6061507435
 10
1.7894551408
 20
-22.5416145687
 10
2.0183989769
 20
-22.4620383445
 10
2.2392580274
 20
-22.3677536346
 10
2.4647417375
 20
-22.2516588293
  0
LINE
  5
25A
100
AcDbEntity
  8
RACCORDO
100
AcDbLine
 62
250
  6
CONTINUOUS
 10
-8.1476195647
 20
-18.5457828301
 11
-8.1366200378
 21
-18.5518082178
  0
LINE
  5
25B
100
AcDbEntity
  8
RACCORDO
100
AcDbLine
 62
250
  6
CONTINUOUS
 10
-8.1476195647
 20
-18.5457828301
 11
-8.1366947333
 21
-18.5518530472
  0
LINE
  5
25C
100
AcDbEntity
  8
RACCORDO
100
AcDbLine
 62
250
  6
CONTINUOUS
 10
15.3367927938
 20
-39.2230108108
 11
15.322993224
 21
-39.2094378579
  0
LINE
  5
25D
100
AcDbEntity
  8
RACCORDO
100
AcDbLine
 62
250
  6
CONTINUOUS
 10
15.3366159235
 20
-39.2232437316
 11
15.322993224
 21
-39.2094378579
  0
LINE
  5
25E
100
AcDbEntity
  8
0
100
AcDbLine
 62
7
  6
CONTINUOUS
 10
26.0426713244
 20
29.6188628368
 11
27.5275955648
 21
30.4762394828
  0
LINE
  5
25F
100
AcDbEntity
  8
0
100
AcDbLine
 62
7
  6
CONTINUOUS
 10
33.7854905783
 20
33.2729204471
 11
34.3511760033
 21
33.5995401218
  0
LINE
  5
260
100
AcDbEntity
  8
0
100
AcDbLine
 62
7
  6
CONTINUOUS
 10
26.7497781055
 20
28.5573488942
 11
28.234702346
 21
29.4147255402
  0
LINE
  5
261
100
AcDbEntity
  8
0
100
AcDbLine
 62
7
  6
CONTINUOUS
 10
29.1539411616
 20
28.8839685688
 11
28.3054130241
 21
28.3940390568
  0
LINE
  5
262
100
AcDbEntity
  8
RACCORDO
100
AcDbLine
 62
7
  6
CONTINUOUS
 10
10.8873692821
 20
-16.6093220407
 11
11.1278415527
 21
-16.6454573921
  0
LWPOLYLINE
  5
263
100
AcDbEntity
  8
RACCORDO
100
AcDbPolyline
 62
7
  6
CONTINUOUS
 90
13
 70
0
 10
11.1278415527
 20
-16.6454573921
 10
11.3719973079
 20
-16.6941992844
 10
11.6192484268
 20
-16.7554505309
 10
11.8692805628
 20
-16.8291582116
 10
12.1215449676
 20
-16.9151972264
 10
12.3754030315
 20
-17.01340303
 10
12.6304162016
 20
-17.123656848
 10
12.8860644336
 20
-17.2457928484
 10
13.1416546938
 20
-17.3795565381
 10
13.3964946085
 20
-17.5246434321
 10
13.6499978525
 20
-17.6807666497
 10
13.901530844
 20
-17.8476015183
 10
14.1503454627
 20
-18.0246987009
  0
LWPOLYLINE
  5
264
100
AcDbEntity
  8
RACCORDO
100
AcDbPolyline
 62
7
  6
CONTINUOUS
 90
52
 70
0
 10
-31.8789955116
 20
-12.1801403263
 10
-31.952450161
 20
-12.2256822734
 10
-32.107534349
 20
-12.3358721542
 10
-32.2549868509
 20
-12.460669496
 10
-32.3942798212
 20
-12.5997653304
 10
-32.5251285306
 20
-12.7530047358
 10
-32.6470712896
 20
-12.9199654687
 10
-32.7598564729
 20
-13.1003527207
 10
-32.8633387233
 20
-13.2940810875
 10
-32.9573404639
 20
-13.5011078793
 10
-33.0418987763
 20
-13.7218173024
 10
-33.1166109227
 20
-13.9555273737
 10
-33.1808542132
 20
-14.2003521319
 10
-33.2345755006
 20
-14.4554743638
 10
-33.2779155987
 20
-14.7207598914
 10
-33.3108200471
 20
-14.9949697895
 10
-33.3333653505
 20
-15.2772207588
 10
-33.345679631
 20
-15.5672317223
 10
-33.3478824025
 20
-15.8645290929
 10
-33.3401092239
 20
-16.1684760526
 10
-33.3224450009
 20
-16.4784556373
 10
-33.2949895258
 20
-16.7939460693
 10
-33.2579294635
 20
-17.1142357135
 10
-33.2113883973
 20
-17.4386702533
 10
-33.155442372
 20
-17.7667237146
 10
-33.0902900457
 20
-18.0976210592
 10
-33.0161049694
 20
-18.4306988736
 10
-32.9329611242
 20
-18.7655359795
 10
-32.8410249778
 20
-19.1014062504
 10
-32.7404888723
 20
-19.4375951808
 10
-32.6314781509
 20
-19.7736839749
 10
-32.5141692248
 20
-20.1090151678
 10
-32.3887584505
 20
-20.4428308296
 10
-32.2554142409
 20
-20.7745615303
 10
-32.1143544967
 20
-21.1035355529
 10
-31.9658081594
 20
-21.4290122666
 10
-31.8099973709
 20
-21.7503204053
 10
-31.6471842717
 20
-22.0667705841
 10
-31.4776447075
 20
-22.3776716644
 10
-31.3016491589
 20
-22.6823562324
 10
-31.1194767857
 20
-22.980154552
 10
-30.9314369507
 20
-23.2703955573
 10
-30.737851849
 20
-23.5524263878
 10
-30.539032685
 20
-23.825599312
 10
-30.3353037642
 20
-24.0892737508
 10
-30.1269998796
 20
-24.3428321541
 10
-29.9144798121
 20
-24.5856400857
 10
-29.6981163482
 20
-24.8171668086
 10
-29.4781951912
 20
-25.0369775502
 10
-29.2549961222
 20
-25.2445299775
 10
-29.0289038243
 20
-25.4391327654
 10
-28.8458863747
 20
-25.5853714126
  0
LINE
  5
265
100
AcDbEntity
  8
RACCORDO
100
AcDbLine
 62
7
  6
CONTINUOUS
 10
-31.8773307225
 20
-12.1791461809
 11
-31.8788903269
 21
-12.1800700849
  0
LINE
  5
266
100
AcDbEntity
  8
DRAFT
100
AcDbLine
 62
7
  6
CONTINUOUS
 10
-31.2492163107
 20
-11.8074736961
 11
-31.8773294018
 21
-12.1791453994
  0
LINE
  5
267
100
AcDbEntity
  8
0
100
AcDbLine
 62
7
  6
CONTINUOUS
 10
30.7095760802
 20
29.0472784062
 11
35.7300342266
 21
31.9460280188
  0
LINE
  5
268
100
AcDbEntity
  8
ASSI
100
AcDbLine
 62
250
  6
CONTINUOUS
 10
-28.7940032799
 20
-5.4666552491
 11
-28.6045974852
 21
-5.357294717
  0
LINE
  5
269
100
AcDbEntity
  8
0
100
AcDbLine
 62
7
  6
CONTINUOUS
 10
31.6995255738
 20
28.5573488942
 11
37.3917351624
 21
31.8439593705
  0
LWPOLYLINE
  5
26A
100
AcDbEntity
  8
RACCORDO
100
AcDbPolyline
 62
7
  6
CONTINUOUS
 90
28
 70
0
 10
14.1503454627
 20
-18.0246987009
 10
14.3958769271
 20
-18.2116915442
 10
14.6375033625
 20
-18.408159928
 10
14.8744260474
 20
-18.6134777712
 10
15.106040705
 20
-18.8271282916
 10
15.3318517697
 20
-19.0486707802
 10
15.5512646888
 20
-19.2775253679
 10
15.7637602043
 20
-19.5131607867
 10
15.9688585826
 20
-19.7550460061
 10
16.1660489154
 20
-20.0025838619
 10
16.3548830383
 20
-20.255206177
 10
16.5349331943
 20
-20.5123388934
 10
16.7057632357
 20
-20.7733446398
 10
16.8669788738
 20
-21.037598712
 10
17.0182467931
 20
-21.3045235219
 10
17.1592554706
 20
-21.5735353466
 10
17.2896889365
 20
-21.8439902594
 10
17.4092886608
 20
-22.1152914514
 10
17.5178493208
 20
-22.3869157145
 10
17.6151466363
 20
-22.6582389581
 10
17.7009888824
 20
-22.9286308552
 10
17.7752380028
 20
-23.1975508459
 10
17.8377589978
 20
-23.4643704118
 10
17.8884559559
 20
-23.7284767871
 10
17.9272770128
 20
-23.989352045
 10
17.9541873874
 20
-24.2464438354
 10
17.9691780373
 20
-24.499122605
 10
17.9726229173
 20
-24.6883434746
  0
LINE
  5
26B
100
AcDbEntity
  8
RACCORDO
100
AcDbLine
 62
250
  6
CONTINUOUS
 10
15.3367927938
 20
-18.811253891
 11
15.322993224
 21
-18.797680938
  0
LINE
  5
26C
100
AcDbEntity
  8
RACCORDO
100
AcDbLine
 62
250
  6
CONTINUOUS
 10
15.3366159235
 20
-18.8114868118
 11
15.322993224
 21
-18.797680938
  0
LWPOLYLINE
  5
26D
100
AcDbEntity
  8
RACCORDO
100
AcDbPolyline
 62
7
  6
CONTINUOUS
 90
51
 70
0
 10
6.6272716913
 20
-40.3706214444
 10
6.6310836426
 20
-40.5871693744
 10
6.647548661
 20
-40.8753913409
 10
6.6769342992
 20
-41.1681662172
 10
6.7191713019
 20
-41.4648645224
 10
6.7742038551
 20
-41.7648551024
 10
6.841930177
 20
-42.0674238177
 10
6.9222154221
 20
-42.3718836676
 10
7.0149176587
 20
-42.677551348
 10
7.1198176719
 20
-42.9836645283
 10
7.2366951921
 20
-43.2895226359
 10
7.3653175064
 20
-43.5944290827
 10
7.5053740991
 20
-43.897618723
 10
7.6565501481
 20
-44.1983486556
 10
7.8185498872
 20
-44.4959689672
 10
7.9910369434
 20
-44.7898647399
 10
8.1736171744
 20
-45.0793290871
 10
8.3659294001
 20
-45.3637307198
 10
8.567678287
 20
-45.6425738844
 10
8.7784870642
 20
-45.9152282798
 10
8.9979262173
 20
-46.181018587
 10
9.225603162
 20
-46.4393894799
 10
9.4610955224
 20
-46.6897477921
 10
9.7039012103
 20
-46.9314378712
 10
9.9534720229
 20
-47.1638520122
 10
10.2092956378
 20
-47.3864350185
 10
10.4708355409
 20
-47.5986311617
 10
10.7374722665
 20
-47.7999014465
 10
11.0086523523
 20
-47.9897780351
 10
11.2837925826
 20
-48.1677846315
 10
11.5622075639
 20
-48.333443551
 10
11.8433272886
 20
-48.4863666839
 10
12.1265325736
 20
-48.6261517973
 10
12.4110463455
 20
-48.7523973714
 10
12.6962743203
 20
-48.8648143217
 10
12.9815707944
 20
-48.9631061374
 10
13.2660832517
 20
-49.0469977576
 10
13.5491986477
 20
-49.116330519
 10
13.8302983318
 20
-49.1709515058
 10
14.1085375057
 20
-49.2107295558
 10
14.3833189057
 20
-49.2356106616
 10
14.6540344126
 20
-49.2455480086
 10
14.9198508843
 20
-49.2405662291
 10
15.1801903873
 20
-49.2207377233
 10
15.434473736
 20
-49.186143757
 10
15.6819077217
 20
-49.1369814189
 10
15.9218702721
 20
-49.0734863608
 10
16.153917711
 20
-48.9958636042
 10
16.3775712847
 20
-48.9043918607
 10
16.5922882588
 20
-48.7994239406
 10
16.6779402033
 20
-48.7523879889
  0
LWPOLYLINE
  5
26E
100
AcDbEntity
  8
RACCORDO
100
AcDbPolyline
 62
7
  6
CONTINUOUS
 90
51
 70
0
 10
6.6272716913
 20
-19.9588645246
 10
6.6310836426
 20
-20.1754124546
 10
6.647548661
 20
-20.463634421
 10
6.6769342992
 20
-20.7564092973
 10
6.7191713019
 20
-21.0531076026
 10
6.7742038551
 20
-21.3530981826
 10
6.841930177
 20
-21.6556668979
 10
6.9222154221
 20
-21.9601267478
 10
7.0149176587
 20
-22.2657944282
 10
7.1198176719
 20
-22.5719076085
 10
7.2366951921
 20
-22.8777657161
 10
7.3653175064
 20
-23.1826721629
 10
7.5053740991
 20
-23.4858618031
 10
7.6565501481
 20
-23.7865917358
 10
7.8185498872
 20
-24.0842120474
 10
7.9910369434
 20
-24.3781078201
 10
8.1736171744
 20
-24.6675721673
 10
8.3659294001
 20
-24.9519738
 10
8.567678287
 20
-25.2308169645
 10
8.7784870642
 20
-25.50347136
 10
8.9979262173
 20
-25.7692616671
 10
9.225603162
 20
-26.0276325601
 10
9.4610955224
 20
-26.2779908723
 10
9.7039012103
 20
-26.5196809514
 10
9.9534720229
 20
-26.7520950924
 10
10.2092956378
 20
-26.9746780987
 10
10.4708355409
 20
-27.1868742418
 10
10.7374722665
 20
-27.3881445267
 10
11.0086523523
 20
-27.5780211153
 10
11.2837925826
 20
-27.7560277116
 10
11.5622075639
 20
-27.9216866311
 10
11.8433272886
 20
-28.0746097641
 10
12.1265325736
 20
-28.2143948775
 10
12.4110463455
 20
-28.3406404516
 10
12.6962743203
 20
-28.4530574019
 10
12.9815707944
 20
-28.5513492176
 10
13.2660832517
 20
-28.6352408378
 10
13.5491986477
 20
-28.7045735992
 10
13.8302983318
 20
-28.759194586
 10
14.1085375057
 20
-28.798972636
 10
14.3833189057
 20
-28.8238537417
 10
14.6540344126
 20
-28.8337910888
 10
14.9198508843
 20
-28.8288093093
 10
15.1801903873
 20
-28.8089808035
 10
15.434473736
 20
-28.7743868371
 10
15.6819077217
 20
-28.7252244991
 10
15.9218702721
 20
-28.661729441
 10
16.153917711
 20
-28.5841066844
 10
16.3775712847
 20
-28.4926349409
 10
16.5922882588
 20
-28.3876670208
 10
16.6779402033
 20
-28.3406310691
  0
LINE
  5
26F
100
AcDbEntity
  8
ASSI
100
AcDbLine
 62
250
  6
CONTINUOUS
 10
-28.7940032799
 20
-25.8784121689
 11
-28.6045974852
 21
-25.7690516369
  0
LINE
  5
270
100
AcDbEntity
  8
ASSI
100
AcDbLine
 62
7
  6
CONTINUOUS
 10
8.3272361646
 20
-16.4581702085
 11
8.325215209
 21
-16.4610567778
  0
LINE
  5
271
100
AcDbEntity
  8
ASSI
100
AcDbLine
 62
7
  6
CONTINUOUS
 10
8.3272418855
 20
-16.4581764234
 11
8.3251486324
 21
-16.4609872257
  0
LINE
  5
272
100
AcDbEntity
  8
0
100
AcDbLine
 62
250
  6
CONTINUOUS
 10
20.1459125887
 20
29.7257414154
 11
20.1459125887
 21
-60.9024593086
  0
LINE
  5
273
100
AcDbEntity
  8
0
100
AcDbLine
 62
250
  6
CONTINUOUS
 10
20.3291228015
 20
29.7033879678
 11
20.3291228015
 21
-60.9248127562
  0
LWPOLYLINE
  5
274
100
AcDbEntity
  8
RACCORDO
100
AcDbPolyline
 62
7
  6
CONTINUOUS
 90
11
 70
0
 10
17.9726229173
 20
-24.6883618343
 10
17.9695124786
 20
-24.8655754197
 10
17.9552578875
 20
-25.1027799077
 10
17.9293447893
 20
-25.3352903082
 10
17.8916807084
 20
-25.5625659117
 10
17.8422325696
 20
-25.783905171
 10
17.7810657816
 20
-25.9984646313
 10
17.7082550144
 20
-26.2056586869
 10
17.6238985796
 20
-26.4049467473
 10
17.5282136977
 20
-26.5956431718
 10
17.421403414
 20
-26.777249249
  0
LWPOLYLINE
  5
275
100
AcDbEntity
  8
RACCORDO
100
AcDbPolyline
 62
7
  6
CONTINUOUS
 90
11
 70
0
 10
17.9726229173
 20
-45.1001187542
 10
17.9695124786
 20
-45.2773323395
 10
17.9552578875
 20
-45.5145368276
 10
17.9293447893
 20
-45.747047228
 10
17.8916807084
 20
-45.9743228315
 10
17.8422325696
 20
-46.1956620908
 10
17.7810657816
 20
-46.4102215511
 10
17.7082550144
 20
-46.6174156067
 10
17.6238985796
 20
-46.8167036671
 10
17.5282136977
 20
-47.0074000916
 10
17.421403414
 20
-47.1890061688
  0
LINE
  5
276
100
AcDbEntity
  8
0
100
AcDbLine
 62
7
  6
CONTINUOUS
 10
10.3638891322
 20
-16.5756525479
 11
9.0498818569
 21
-17.5968884773
  0
LINE
  5
277
100
AcDbEntity
  8
ASSI
100
AcDbLine
 62
7
  6
CONTINUOUS
 10
10.3638891322
 20
-16.5756525479
 11
9.0498818569
 21
-17.5968884773
  0
LWPOLYLINE
  5
278
100
AcDbEntity
  8
RACCORDO
100
AcDbPolyline
 62
7
  6
CONTINUOUS
 90
20
 70
0
 10
8.3493136287
 20
-16.4756670644
 10
8.3285723789
 20
-16.4879086967
 10
8.1498614136
 20
-16.6025401098
 10
7.9797899506
 20
-16.7284830536
 10
7.8186773993
 20
-16.8654927672
 10
7.6668490535
 20
-17.0132787686
 10
7.5245777135
 20
-17.1715055041
 10
7.3920971585
 20
-17.3398676173
 10
7.2696600448
 20
-17.5180102892
 10
7.1574674323
 20
-17.7055629356
 10
7.0556732787
 20
-17.9022270403
 10
6.964451338
 20
-18.107598205
 10
6.8839258874
 20
-18.3212680066
 10
6.8141783669
 20
-18.5429579175
 10
6.7553332082
 20
-18.7722590791
 10
6.7074961427
 20
-19.0087680063
 10
6.6707114388
 20
-19.2522102542
 10
6.6450591102
 20
-19.5022144021
 10
6.6306418659
 20
-19.7583151889
 10
6.6272716907
 20
-19.9588863258
  0
LINE
  5
279
100
AcDbEntity
  8
DRAFT
100
AcDbLine
 62
7
  6
CONTINUOUS
 10
9.2790884496
 20
-15.9308429711
 11
8.3475486441
 21
-16.4766972117
  0
LINE
  5
27A
100
AcDbEntity
  8
ASSI
100
AcDbLine
 62
250
  6
CONTINUOUS
 10
-1.9589500259
 20
-22.3894345327
 11
-1.6049628977
 21
-22.1850468014
  0
LINE
  5
27B
100
AcDbEntity
  8
DRAFT
100
AcDbLine
 62
7
  6
CONTINUOUS
 10
2.4651326048
 20
-22.2514393683
 11
3.2397764431
 21
-21.8151418822
  0
LINE
  5
27C
100
AcDbEntity
  8
RACCORDO
100
AcDbLine
 62
7
  6
CONTINUOUS
 10
2.464727988
 20
-22.2516672173
 11
2.4651327819
 21
-22.2514392686
  0
LINE
  5
27D
100
AcDbEntity
  8
RACCORDO
100
AcDbLine
 62
7
  6
CONTINUOUS
 10
8.7788266237
 20
-16.9534821825
 11
8.7800762885
 21
-16.9527787542
  0
LWPOLYLINE
  5
27E
100
AcDbEntity
  8
RACCORDO
100
AcDbPolyline
 62
7
  6
CONTINUOUS
 90
11
 70
0
 10
8.7800263621
 20
-16.9528076505
 10
8.9658982624
 20
-16.8575945284
 10
9.152657389
 20
-16.7790172618
 10
9.3470345145
 20
-16.7131418515
 10
9.5486494487
 20
-16.6599968079
 10
9.7571937805
 20
-16.6196049825
 10
9.9721290913
 20
-16.5919995244
 10
10.1929796939
 20
-16.5771875253
 10
10.4194993548
 20
-16.5751530996
 10
10.6511536062
 20
-16.585875848
 10
10.8873692821
 20
-16.6093220407
  0
LINE
  5
27F
100
AcDbEntity
  8
0
100
AcDbLine
 62
250
  6
CONTINUOUS
 10
24.7382522153
 20
-61.7259711778
 11
24.7382522153
 21
28.9022295462
  0
LINE
  5
280
100
AcDbEntity
  8
0
100
AcDbLine
 62
250
  6
CONTINUOUS
 10
25.3355645432
 20
28.5573488942
 11
25.3355645432
 21
-62.0708518298
  0
LINE
  5
281
100
AcDbEntity
  8
0
100
AcDbLine
 62
250
  6
CONTINUOUS
 10
26.7497781055
 20
28.5573488942
 11
26.7497781055
 21
-62.0708518298
  0
LINE
  5
282
100
AcDbEntity
  8
RACCORDO
100
AcDbLine
 62
250
  6
CONTINUOUS
 10
17.8951581197
 20
-26.2454696322
 11
17.8931702293
 21
-26.2519661895
  0
LINE
  5
283
100
AcDbEntity
  8
RACCORDO
100
AcDbLine
 62
250
  6
CONTINUOUS
 10
17.895250491
 20
-26.245531468
 11
17.8931729156
 21
-26.2519680203
  0
LINE
  5
284
100
AcDbEntity
  8
0
100
AcDbLine
 62
7
  6
CONTINUOUS
 10
28.234702346
 20
-61.2134751838
 11
28.234702346
 21
29.4147255402
  0
LINE
  5
285
100
AcDbEntity
  8
ASSI
100
AcDbLine
 62
7
  6
CONTINUOUS
 10
28.2761237023
 20
28.3532115975
 11
28.2761237023
 21
-62.2749891265
  0
LINE
  5
286
100
AcDbEntity
  8
0
100
AcDbLine
 62
250
  6
CONTINUOUS
 10
28.3054130241
 20
28.3123841382
 11
28.3054130241
 21
-62.3158165858
  0
LINE
  5
287
100
AcDbEntity
  8
0
100
AcDbLine
 62
7
  6
CONTINUOUS
 10
28.3348427014
 20
-62.3328089126
 11
28.3348427014
 21
28.2953918114
  0
LINE
  5
288
100
AcDbEntity
  8
0
100
AcDbLine
 62
250
  6
CONTINUOUS
 10
31.6995255738
 20
-62.0708518298
 11
31.6995255738
 21
28.5573488942
  0
LINE
  5
289
100
AcDbEntity
  8
RACCORDO
100
AcDbLine
 62
250
  6
CONTINUOUS
 10
17.8951581197
 20
-46.657226552
 11
17.8931702293
 21
-46.6637231093
  0
LINE
  5
28A
100
AcDbEntity
  8
RACCORDO
100
AcDbLine
 62
250
  6
CONTINUOUS
 10
17.895250491
 20
-46.6572883878
 11
17.8931729156
 21
-46.6637249401
  0
LWPOLYLINE
  5
28B
100
AcDbEntity
  8
RACCORDO
100
AcDbPolyline
 62
7
  6
CONTINUOUS
 90
8
 70
0
 10
17.421403414
 20
-26.777249249
 10
17.3036647138
 20
-26.9493422223
 10
17.175277262
 20
-27.1114457573
 10
17.036509058
 20
-27.2631716475
 10
16.8876203677
 20
-27.4041789086
 10
16.7289114592
 20
-27.5341258314
 10
16.5606848378
 20
-27.6527031668
 10
16.4526372001
 20
-27.7198521957
  0
LINE
  5
28C
100
AcDbEntity
  8
ASSI
100
AcDbLine
 62
7
  6
CONTINUOUS
 10
8.3272361646
 20
-36.8699271283
 11
8.325215209
 21
-36.8728136976
  0
LINE
  5
28D
100
AcDbEntity
  8
ASSI
100
AcDbLine
 62
7
  6
CONTINUOUS
 10
8.3272418855
 20
-36.8699333432
 11
8.3251486324
 21
-36.8727441455
  0
LINE
  5
28E
100
AcDbEntity
  8
RACCORDO
100
AcDbLine
 62
7
  6
CONTINUOUS
 10
16.4530872754
 20
-27.719586602
 11
16.4525992079
 21
-27.7198753454
  0
LINE
  5
28F
100
AcDbEntity
  8
DRAFT
100
AcDbLine
 62
7
  6
CONTINUOUS
 10
16.6814045797
 20
-28.3386633829
 11
17.6017205053
 21
-27.8151247337
  0
LINE
  5
290
100
AcDbEntity
  8
RACCORDO
100
AcDbLine
 62
7
  6
CONTINUOUS
 10
16.678050497
 20
-28.3405688729
 11
16.6813998104
 21
-28.338666096
  0
LINE
  5
291
100
AcDbEntity
  8
0
100
AcDbLine
 62
7
  6
CONTINUOUS
 10
17.2506372158
 20
-26.8153458874
 11
15.4318195906
 21
-27.7252144797
  0
LINE
  5
292
100
AcDbEntity
  8
ASSI
100
AcDbLine
 62
7
  6
CONTINUOUS
 10
17.2506372158
 20
-26.8153458874
 11
15.4318195906
 21
-27.7252144797
  0
LINE
  5
293
100
AcDbEntity
  8
ASSI
100
AcDbLine
 62
7
  6
CONTINUOUS
 10
33.7122672736
 20
30.7809946687
 11
33.7122672736
 21
33.1708517988
  0
LINE
  5
294
100
AcDbEntity
  8
0
100
AcDbLine
 62
250
  6
CONTINUOUS
 10
33.7854905783
 20
30.8232728871
 11
33.7854905783
 21
33.0687831504
  0
LINE
  5
295
100
AcDbEntity
  8
0
100
AcDbLine
 62
250
  6
CONTINUOUS
 10
37.3917351624
 20
31.8439593705
 11
37.3917351624
 21
-58.7842413535
  0
LINE
  5
296
100
AcDbEntity
  8
ASSI
100
AcDbLine
 62
7
  6
CONTINUOUS
 10
37.4649584671
 20
31.9460280188
 11
37.4649584671
 21
-58.6821727052
  0
LINE
  5
297
100
AcDbEntity
  8
0
100
AcDbLine
 62
7
  6
CONTINUOUS
 10
10.3638891322
 20
-36.9874094678
 11
9.0498818569
 21
-38.0086453971
  0
LINE
  5
298
100
AcDbEntity
  8
ASSI
100
AcDbLine
 62
7
  6
CONTINUOUS
 10
10.3638891322
 20
-36.9874094678
 11
9.0498818569
 21
-38.0086453971
  0
LWPOLYLINE
  5
299
100
AcDbEntity
  8
RACCORDO
100
AcDbPolyline
 62
7
  6
CONTINUOUS
 90
20
 70
0
 10
8.3493136287
 20
-36.8874239843
 10
8.3285723789
 20
-36.8996656165
 10
8.1498614136
 20
-37.0142970296
 10
7.9797899506
 20
-37.1402399734
 10
7.8186773993
 20
-37.277249687
 10
7.6668490535
 20
-37.4250356885
 10
7.5245777135
 20
-37.5832624239
 10
7.3920971585
 20
-37.7516245372
 10
7.2696600448
 20
-37.9297672091
 10
7.1574674323
 20
-38.1173198554
 10
7.0556732787
 20
-38.3139839602
 10
6.964451338
 20
-38.5193551248
 10
6.8839258874
 20
-38.7330249264
 10
6.8141783669
 20
-38.9547148373
 10
6.7553332082
 20
-39.184015999
 10
6.7074961427
 20
-39.4205249261
 10
6.6707114388
 20
-39.663967174
 10
6.6450591102
 20
-39.9139713219
 10
6.6306418659
 20
-40.1700721087
 10
6.6272716907
 20
-40.3706432456
  0
LINE
  5
29A
100
AcDbEntity
  8
DRAFT
100
AcDbLine
 62
7
  6
CONTINUOUS
 10
9.2790884496
 20
-36.3425998909
 11
8.3475486441
 21
-36.8884541315
  0
LINE
  5
29B
100
AcDbEntity
  8
ASSI
100
AcDbLine
 62
250
  6
CONTINUOUS
 10
-1.9589500259
 20
-42.8011914525
 11
-1.6049628977
 21
-42.5968037212
  0
LINE
  5
29C
100
AcDbEntity
  8
RACCORDO
100
AcDbLine
 62
7
  6
CONTINUOUS
 10
8.7788266237
 20
-37.3652391023
 11
8.7800762885
 21
-37.364535674
  0
LWPOLYLINE
  5
29D
100
AcDbEntity
  8
RACCORDO
100
AcDbPolyline
 62
7
  6
CONTINUOUS
 90
11
 70
0
 10
8.7800263621
 20
-37.3645645703
 10
8.9658982624
 20
-37.2693514482
 10
9.152657389
 20
-37.1907741816
 10
9.3470345145
 20
-37.1248987713
 10
9.5486494487
 20
-37.0717537277
 10
9.7571937805
 20
-37.0313619023
 10
9.9721290913
 20
-37.0037564442
 10
10.1929796939
 20
-36.9889444452
 10
10.4194993548
 20
-36.9869100194
 10
10.6511536062
 20
-36.9976327678
 10
10.8873692821
 20
-37.0210789605
  0
LINE
  5
29E
100
AcDbEntity
  8
0
100
AcDbLine
 62
7
  6
CONTINUOUS
 10
-36.748410845
 20
64.4038581883
 11
-36.1510985172
 21
64.0589775363
  0
LINE
  5
29F
100
AcDbEntity
  8
0
100
AcDbLine
 62
7
  6
CONTINUOUS
 10
24.7382522153
 20
28.9022295462
 11
25.3355645432
 21
28.5573488942
  0
LWPOLYLINE
  5
2A0
100
AcDbEntity
  8
RACCORDO
100
AcDbPolyline
 62
7
  6
CONTINUOUS
 90
8
 70
0
 10
17.421403414
 20
-47.1890061688
 10
17.3036647138
 20
-47.3610991421
 10
17.175277262
 20
-47.5232026771
 10
17.036509058
 20
-47.6749285673
 10
16.8876203677
 20
-47.8159358284
 10
16.7289114592
 20
-47.9458827512
 10
16.5606848378
 20
-48.0644600866
 10
16.4526372001
 20
-48.1316091155
  0
LINE
  5
2A1
100
AcDbEntity
  8
DRAFT
100
AcDbLine
 62
7
  6
CONTINUOUS
 10
2.4651326048
 20
-42.6631962881
 11
3.2397764431
 21
-42.2268988021
  0
LINE
  5
2A2
100
AcDbEntity
  8
RACCORDO
100
AcDbLine
 62
7
  6
CONTINUOUS
 10
2.464727988
 20
-42.6634241372
 11
2.4651327819
 21
-42.6631961884
  0
LINE
  5
2A3
100
AcDbEntity
  8
0
100
AcDbLine
 62
7
  6
CONTINUOUS
 10
-37.202104591
 20
66.1356038071
 11
-37.1726749137
 21
66.1186114803
  0
LINE
  5
2A4
100
AcDbEntity
  8
0
100
AcDbLine
 62
7
  6
CONTINUOUS
 10
-34.9099332139
 20
64.8121327817
 11
-34.878306311
 21
64.7938718043
  0
LINE
  5
2A5
100
AcDbEntity
  8
0
100
AcDbLine
 62
7
  6
CONTINUOUS
 10
26.0110444215
 20
29.6371238142
 11
26.0426713244
 21
29.6188628368
  0
LINE
  5
2A6
100
AcDbEntity
  8
0
100
AcDbLine
 62
7
  6
CONTINUOUS
 10
28.3054130241
 20
28.3123841382
 11
28.3348427014
 21
28.2953918114
  0
LINE
  5
2A7
100
AcDbEntity
  8
0
100
AcDbLine
 62
7
  6
CONTINUOUS
 10
-36.1827254201
 20
66.6085409923
 11
-35.2634866045
 21
66.077784021
  0
LINE
  5
2A8
100
AcDbEntity
  8
0
100
AcDbLine
 62
7
  6
CONTINUOUS
 10
28.234702346
 20
29.4147255402
 11
29.1539411616
 21
28.8839685688
  0
LINE
  5
2A9
100
AcDbEntity
  8
0
100
AcDbLine
 62
7
  6
CONTINUOUS
 10
-35.8998827076
 20
67.5067450976
 11
-33.4250089734
 21
66.077784021
  0
LINE
  5
2AA
100
AcDbEntity
  8
0
100
AcDbLine
 62
7
  6
CONTINUOUS
 10
28.234702346
 20
30.4762394828
 11
30.7095760802
 21
29.0472784062
  0
LINE
  5
2AB
100
AcDbEntity
  8
0
100
AcDbLine
 62
7
  6
CONTINUOUS
 10
35.7300342266
 20
31.9460280188
 11
33.7854905783
 21
33.0687831504
  0
LINE
  5
2AC
100
AcDbEntity
  8
0
100
AcDbLine
 62
7
  6
CONTINUOUS
 10
-28.9348809129
 20
69.2827395786
 11
-30.8794245612
 21
70.4054947103
  0
LINE
  5
2AD
100
AcDbEntity
  8
0
100
AcDbLine
 62
7
  6
CONTINUOUS
 10
37.3917351624
 20
32.0480966671
 11
34.7047293939
 21
33.5995401218
  0
LINE
  5
2AE
100
AcDbEntity
  8
0
100
AcDbLine
 62
7
  6
CONTINUOUS
 10
-28.0156420974
 20
69.8134965499
 11
-30.7026478659
 21
71.3649400046
  0
LINE
  5
2AF
100
AcDbEntity
  8
RACCORDO
100
AcDbLine
 62
7
  6
CONTINUOUS
 10
16.4530872754
 20
-48.1313435218
 11
16.4525992079
 21
-48.1316322652
  0
LINE
  5
2B0
100
AcDbEntity
  8
DRAFT
100
AcDbLine
 62
7
  6
CONTINUOUS
 10
16.6814045797
 20
-48.7504203027
 11
17.6017205053
 21
-48.2268816535
  0
LINE
  5
2B1
100
AcDbEntity
  8
RACCORDO
100
AcDbLine
 62
7
  6
CONTINUOUS
 10
16.678050497
 20
-48.7523257927
 11
16.6813998104
 21
-48.7504230159
  0
LINE
  5
2B2
100
AcDbEntity
  8
0
100
AcDbLine
 62
7
  6
CONTINUOUS
 10
17.2506372158
 20
-47.2271028072
 11
15.4318195906
 21
-48.1369713996
  0
LINE
  5
2B3
100
AcDbEntity
  8
ASSI
100
AcDbLine
 62
7
  6
CONTINUOUS
 10
17.2506372158
 20
-47.2271028072
 11
15.4318195906
 21
-48.1369713996
  0
LINE
  5
2B4
100
AcDbEntity
  8
0
100
AcDbLine
 62
7
  6
CONTINUOUS
 10
26.7497781055
 20
-62.0708518298
 11
28.234702346
 21
-61.2134751838
  0
LINE
  5
2B5
100
AcDbEntity
  8
0
100
AcDbLine
 62
7
  6
CONTINUOUS
 10
31.6995255738
 20
-62.0708518298
 11
37.3917351624
 21
-58.7842413535
  0
ARC
  5
2B6
100
AcDbEntity
  8
ASSI
100
AcDbCircle
 62
7
  6
CONTINUOUS
 10
-29.4665855192
 20
7.0401114753
 40
2.5179909688
100
AcDbArc
 50
141.9709564693
 51
147.0094098176
  0
ARC
  5
2B7
100
AcDbEntity
  8
ASSI
100
AcDbCircle
 62
7
  6
CONTINUOUS
 10
-29.4665855192
 20
-13.3716454445
 40
2.5179909688
100
AcDbArc
 50
141.9709564693
 51
147.0094098176
  0
ARC
  5
2B8
100
AcDbEntity
  8
RACCORDO
100
AcDbCircle
 62
250
  6
CONTINUOUS
 10
-29.2936979056
 20
-13.2894078243
 40
2.4687172641
100
AcDbArc
 50
143.0943028584
 51
143.5759386322
  0
ARC
  5
2B9
100
AcDbEntity
  8
RACCORDO
100
AcDbCircle
 62
250
  6
CONTINUOUS
 10
-29.2936979058
 20
7.1223490956
 40
2.4687172639
100
AcDbArc
 50
143.0943028584
 51
143.5759386323
  0
ARC
  5
2BA
100
AcDbEntity
  8
RACCORDO
100
AcDbCircle
 62
250
  6
CONTINUOUS
 10
7.7587843653
 20
-46.9136029414
 40
10.7968243152
100
AcDbArc
 50
45.5251820821
 51
46.6586737464
  0
ARC
  5
2BB
100
AcDbEntity
  8
RACCORDO
100
AcDbCircle
 62
250
  6
CONTINUOUS
 10
7.8638993421
 20
-46.8009305124
 40
10.6427352449
100
AcDbArc
 50
46.653913903
 51
50.7719881531
  0
ARC
  5
2BC
100
AcDbEntity
  8
RACCORDO
100
AcDbCircle
 62
250
  6
CONTINUOUS
 10
7.8082061339
 20
-46.8768170379
 40
10.6425347255
100
AcDbArc
 50
45.3250527724
 51
45.4677462598
  0
ARC
  5
2BD
100
AcDbEntity
  8
RACCORDO
100
AcDbCircle
 62
250
  6
CONTINUOUS
 10
7.965541988
 20
-46.7098855726
 40
10.4131965136
100
AcDbArc
 50
45.4407135627
 51
50.8937282864
  0
ARC
  5
2BE
100
AcDbEntity
  8
RACCORDO
100
AcDbCircle
 62
250
  6
CONTINUOUS
 10
8.038044583
 20
-46.5932727795
 40
10.3717459701
100
AcDbArc
 50
50.7917352216
 51
51.0204687501
  0
ARC
  5
2BF
100
AcDbEntity
  8
RACCORDO
100
AcDbCircle
 62
250
  6
CONTINUOUS
 10
8.0575994939
 20
-46.5690994468
 40
10.3406534544
100
AcDbArc
 50
51.0204430219
 51
51.3350963548
  0
ARC
  5
2C0
100
AcDbEntity
  8
RACCORDO
100
AcDbCircle
 62
250
  6
CONTINUOUS
 10
8.1317072372
 20
-46.5087002638
 40
10.1522709549
100
AcDbArc
 50
50.9052451309
 51
51.3436751684
  0
ARC
  5
2C1
100
AcDbEntity
  8
RACCORDO
100
AcDbCircle
 62
250
  6
CONTINUOUS
 10
8.168545132
 20
-46.4626274073
 40
10.093281647
100
AcDbArc
 50
51.3436051428
 51
51.8922935007
  0
ARC
  5
2C2
100
AcDbEntity
  8
ASSI
100
AcDbCircle
 62
7
  6
CONTINUOUS
 10
1.8813623328
 20
-39.0885409945
 40
3.6557938233
100
AcDbArc
 50
277.755923093
 51
279.2686569025
  0
ARC
  5
2C3
100
AcDbEntity
  8
ASSI
100
AcDbCircle
 62
7
  6
CONTINUOUS
 10
1.8909558544
 20
-39.1477532818
 40
3.5958094435
100
AcDbArc
 50
279.269751515
 51
280.4276786419
  0
ARC
  5
2C4
100
AcDbEntity
  8
RACCORDO
100
AcDbCircle
 62
250
  6
CONTINUOUS
 10
2.1164732449
 20
-39.0134333852
 40
3.5431668167
100
AcDbArc
 50
280.497290813
 51
285.6860584714
  0
ARC
  5
2C5
100
AcDbEntity
  8
ASSI
100
AcDbCircle
 62
7
  6
CONTINUOUS
 10
1.9148786002
 20
-39.2722682265
 40
3.4690212305
100
AcDbArc
 50
280.4113084061
 51
286.6400503381
  0
ARC
  5
2C6
100
AcDbEntity
  8
RACCORDO
100
AcDbCircle
 62
250
  6
CONTINUOUS
 10
7.7587843653
 20
-26.5018460215
 40
10.7968243151
100
AcDbArc
 50
45.5251820821
 51
46.6586737464
  0
ARC
  5
2C7
100
AcDbEntity
  8
RACCORDO
100
AcDbCircle
 62
250
  6
CONTINUOUS
 10
7.8638993421
 20
-26.3891735925
 40
10.6427352449
100
AcDbArc
 50
46.653913903
 51
50.7719881531
  0
ARC
  5
2C8
100
AcDbEntity
  8
RACCORDO
100
AcDbCircle
 62
250
  6
CONTINUOUS
 10
7.8082061343
 20
-26.4650601176
 40
10.6425347249
100
AcDbArc
 50
45.3250527724
 51
45.4677462598
  0
ARC
  5
2C9
100
AcDbEntity
  8
RACCORDO
100
AcDbCircle
 62
250
  6
CONTINUOUS
 10
7.965541988
 20
-26.2981286528
 40
10.4131965136
100
AcDbArc
 50
45.4407135627
 51
50.8937282864
  0
ARC
  5
2CA
100
AcDbEntity
  8
RACCORDO
100
AcDbCircle
 62
250
  6
CONTINUOUS
 10
8.0380445834
 20
-26.1815158592
 40
10.3717459694
100
AcDbArc
 50
50.7917352215
 51
51.0204687502
  0
ARC
  5
2CB
100
AcDbEntity
  8
RACCORDO
100
AcDbCircle
 62
250
  6
CONTINUOUS
 10
8.0575994935
 20
-26.1573425275
 40
10.3406534551
100
AcDbArc
 50
51.0204430219
 51
51.3350963548
  0
ARC
  5
2CC
100
AcDbEntity
  8
RACCORDO
100
AcDbCircle
 62
250
  6
CONTINUOUS
 10
8.1317072371
 20
-26.096943344
 40
10.1522709551
100
AcDbArc
 50
50.9052451309
 51
51.3436751684
  0
ARC
  5
2CD
100
AcDbEntity
  8
RACCORDO
100
AcDbCircle
 62
250
  6
CONTINUOUS
 10
8.1685451321
 20
-26.0508704874
 40
10.093281647
100
AcDbArc
 50
51.3436051428
 51
51.8922935007
  0
ARC
  5
2CE
100
AcDbEntity
  8
RACCORDO
100
AcDbCircle
 62
250
  6
CONTINUOUS
 10
10.4187539895
 20
-45.5987122333
 40
7.7220643559
100
AcDbArc
 50
16.5653143974
 51
16.8919775248
  0
ARC
  5
2CF
100
AcDbEntity
  8
RACCORDO
100
AcDbCircle
 62
250
  6
CONTINUOUS
 10
10.0001556809
 20
-42.3229185297
 40
5.6281952437
100
AcDbArc
 50
79.3525516816
 51
79.8682135369
  0
ARC
  5
2D0
100
AcDbEntity
  8
RACCORDO
100
AcDbCircle
 62
250
  6
CONTINUOUS
 10
10.0408495873
 20
-42.3697636001
 40
5.5524666212
100
AcDbArc
 50
78.8069002481
 51
79.8631752937
  0
ARC
  5
2D1
100
AcDbEntity
  8
RACCORDO
100
AcDbCircle
 62
250
  6
CONTINUOUS
 10
10.0329758945
 20
-42.1352164331
 40
5.4376467708
100
AcDbArc
 50
79.8607238263
 51
82.7021157646
  0
ARC
  5
2D2
100
AcDbEntity
  8
RACCORDO
100
AcDbCircle
 62
250
  6
CONTINUOUS
 10
10.0681306826
 20
-41.8774706525
 40
5.1775237502
100
AcDbArc
 50
82.7256766748
 51
83.4585743206
  0
ARC
  5
2D3
100
AcDbEntity
  8
0
100
AcDbCircle
 62
250
  6
CONTINUOUS
 10
12.9184359705
 20
-40.9412767429
 40
5.0137941813
100
AcDbArc
 50
178.7541990668
 51
180.0030263933
  0
ARC
  5
2D4
100
AcDbEntity
  8
ASSI
100
AcDbCircle
 62
250
  6
CONTINUOUS
 10
12.9184359705
 20
-40.9412767429
 40
5.0137941813
100
AcDbArc
 50
178.7541990668
 51
180.0030263933
  0
ARC
  5
2D5
100
AcDbEntity
  8
0
100
AcDbCircle
 62
250
  6
CONTINUOUS
 10
10.2820463147
 20
-41.8393595272
 40
4.3313421552
100
AcDbArc
 50
72.3931295005
 51
73.1473749383
  0
ARC
  5
2D6
100
AcDbEntity
  8
ASSI
100
AcDbCircle
 62
250
  6
CONTINUOUS
 10
10.2820463147
 20
-41.8393595272
 40
4.3313421552
100
AcDbArc
 50
72.3931295005
 51
73.1473749383
  0
ARC
  5
2D7
100
AcDbEntity
  8
ASSI
100
AcDbCircle
 62
7
  6
CONTINUOUS
 10
15.9342798166
 20
-44.6750550203
 40
4.2011838131
100
AcDbArc
 50
278.0602355434
 51
279.3372668107
  0
ARC
  5
2D8
100
AcDbEntity
  8
ASSI
100
AcDbCircle
 62
7
  6
CONTINUOUS
 10
15.9445514768
 20
-44.7378337244
 40
4.1375703699
100
AcDbArc
 50
279.337959305
 51
280.3656476892
  0
ARC
  5
2D9
100
AcDbEntity
  8
RACCORDO
100
AcDbCircle
 62
250
  6
CONTINUOUS
 10
16.3289936321
 20
-44.5850495316
 40
3.9741742772
100
AcDbArc
 50
282.4541616941
 51
286.7054362269
  0
ARC
  5
2DA
100
AcDbEntity
  8
ASSI
100
AcDbCircle
 62
7
  6
CONTINUOUS
 10
10.9928667887
 20
-38.8571780053
 40
3.3248605843
100
AcDbArc
 50
143.3555700921
 51
144.4592923129
  0
ARC
  5
2DB
100
AcDbEntity
  8
RACCORDO
100
AcDbCircle
 62
250
  6
CONTINUOUS
 10
11.2468181205
 20
-38.6275912797
 40
3.1860306945
100
AcDbArc
 50
135.490778362
 51
141.7497834847
  0
ARC
  5
2DC
100
AcDbEntity
  8
ASSI
100
AcDbCircle
 62
7
  6
CONTINUOUS
 10
10.8767762198
 20
-38.7653757278
 40
3.176921018
100
AcDbArc
 50
133.7096207255
 51
143.3711714101
  0
ARC
  5
2DD
100
AcDbEntity
  8
0
100
AcDbCircle
 62
7
  6
CONTINUOUS
 10
16.2445599849
 20
-45.2151087208
 40
2.24950007
100
AcDbArc
 50
296.5668573881
 51
303.2677348343
  0
ARC
  5
2DE
100
AcDbEntity
  8
RACCORDO
100
AcDbCircle
 62
250
  6
CONTINUOUS
 10
10.4187539895
 20
-25.1869553135
 40
7.7220643558
100
AcDbArc
 50
16.5653143974
 51
16.8919775248
  0
ARC
  5
2DF
100
AcDbEntity
  8
RACCORDO
100
AcDbCircle
 62
250
  6
CONTINUOUS
 10
10.0001556809
 20
-21.9111616099
 40
5.6281952437
100
AcDbArc
 50
79.3525516816
 51
79.8682135369
  0
ARC
  5
2E0
100
AcDbEntity
  8
RACCORDO
100
AcDbCircle
 62
250
  6
CONTINUOUS
 10
10.0408495873
 20
-21.9580066803
 40
5.5524666212
100
AcDbArc
 50
78.8069002481
 51
79.8631752937
  0
ARC
  5
2E1
100
AcDbEntity
  8
RACCORDO
100
AcDbCircle
 62
250
  6
CONTINUOUS
 10
10.0329758945
 20
-21.7234595133
 40
5.4376467708
100
AcDbArc
 50
79.8607238263
 51
82.7021157646
  0
ARC
  5
2E2
100
AcDbEntity
  8
RACCORDO
100
AcDbCircle
 62
250
  6
CONTINUOUS
 10
10.0681306826
 20
-21.4657137327
 40
5.1775237502
100
AcDbArc
 50
82.7256766748
 51
83.4585743206
  0
ARC
  5
2E3
100
AcDbEntity
  8
0
100
AcDbCircle
 62
250
  6
CONTINUOUS
 10
12.9184359705
 20
-20.5295198231
 40
5.0137941813
100
AcDbArc
 50
178.7541990668
 51
180.0030263933
  0
ARC
  5
2E4
100
AcDbEntity
  8
ASSI
100
AcDbCircle
 62
250
  6
CONTINUOUS
 10
12.9184359705
 20
-20.5295198231
 40
5.0137941813
100
AcDbArc
 50
178.7541990668
 51
180.0030263933
  0
ARC
  5
2E5
100
AcDbEntity
  8
0
100
AcDbCircle
 62
250
  6
CONTINUOUS
 10
10.2820463148
 20
-21.4276026073
 40
4.3313421551
100
AcDbArc
 50
72.3931295005
 51
73.1473749383
  0
ARC
  5
2E6
100
AcDbEntity
  8
ASSI
100
AcDbCircle
 62
250
  6
CONTINUOUS
 10
10.2820463148
 20
-21.4276026073
 40
4.3313421551
100
AcDbArc
 50
72.3931295005
 51
73.1473749383
  0
ARC
  5
2E7
100
AcDbEntity
  8
ASSI
100
AcDbCircle
 62
7
  6
CONTINUOUS
 10
15.9342798166
 20
-24.2632981005
 40
4.2011838131
100
AcDbArc
 50
278.0602355434
 51
279.3372668107
  0
ARC
  5
2E8
100
AcDbEntity
  8
ASSI
100
AcDbCircle
 62
7
  6
CONTINUOUS
 10
15.9445514768
 20
-24.3260768046
 40
4.1375703699
100
AcDbArc
 50
279.337959305
 51
280.3656476892
  0
ARC
  5
2E9
100
AcDbEntity
  8
RACCORDO
100
AcDbCircle
 62
250
  6
CONTINUOUS
 10
16.3289936321
 20
-24.1732926118
 40
3.9741742772
100
AcDbArc
 50
282.4541616941
 51
286.7054362269
  0
ARC
  5
2EA
100
AcDbEntity
  8
0
100
AcDbCircle
 62
7
  6
CONTINUOUS
 10
16.2445599849
 20
-24.803351801
 40
2.24950007
100
AcDbArc
 50
296.5668573881
 51
303.2677348343
  0
ARC
  5
2EB
100
AcDbEntity
  8
ASSI
100
AcDbCircle
 62
7
  6
CONTINUOUS
 10
1.8813623329
 20
-18.6767840747
 40
3.6557938233
100
AcDbArc
 50
277.755923093
 51
279.2686569025
  0
ARC
  5
2EC
100
AcDbEntity
  8
ASSI
100
AcDbCircle
 62
7
  6
CONTINUOUS
 10
1.8909558544
 20
-18.7359963619
 40
3.5958094435
100
AcDbArc
 50
279.269751515
 51
280.4276786419
  0
ARC
  5
2ED
100
AcDbEntity
  8
RACCORDO
100
AcDbCircle
 62
250
  6
CONTINUOUS
 10
2.1164732449
 20
-18.6016764654
 40
3.5431668167
100
AcDbArc
 50
280.497290813
 51
285.6860584714
  0
ARC
  5
2EE
100
AcDbEntity
  8
ASSI
100
AcDbCircle
 62
7
  6
CONTINUOUS
 10
1.9148786002
 20
-18.8605113067
 40
3.4690212305
100
AcDbArc
 50
280.4113084061
 51
286.6400503381
  0
ARC
  5
2EF
100
AcDbEntity
  8
ASSI
100
AcDbCircle
 62
7
  6
CONTINUOUS
 10
10.9928667887
 20
-18.4454210855
 40
3.3248605843
100
AcDbArc
 50
143.3555700921
 51
144.4592923129
  0
ARC
  5
2F0
100
AcDbEntity
  8
RACCORDO
100
AcDbCircle
 62
250
  6
CONTINUOUS
 10
11.2468181205
 20
-18.2158343599
 40
3.1860306945
100
AcDbArc
 50
135.490778362
 51
141.7497834847
  0
ARC
  5
2F1
100
AcDbEntity
  8
ASSI
100
AcDbCircle
 62
7
  6
CONTINUOUS
 10
10.8767762198
 20
-18.353618808
 40
3.176921018
100
AcDbArc
 50
133.7096207254
 51
143.3711714101
  0
ARC
  5
2F2
100
AcDbEntity
  8
0
100
AcDbCircle
 62
7
  6
CONTINUOUS
 10
-35.1700648063
 20
62.0182202622
 40
2.2834283375
100
AcDbArc
 50
352.2527066823
 51
359.9845510525
  0
ARC
  5
2F3
100
AcDbEntity
  8
RACCORDO
100
AcDbCircle
 62
250
  6
CONTINUOUS
 10
85.5429546771
 20
129.6864700789
 40
192.9215545581
100
AcDbArc
 50
240.9492484736
 51
243.0127864795
  0
ARC
  5
2F4
100
AcDbEntity
  8
RACCORDO
100
AcDbCircle
 62
250
  6
CONTINUOUS
 10
85.5429546771
 20
150.0982269987
 40
192.9215545581
100
AcDbArc
 50
240.9492484736
 51
243.0127864795
  0
SPLINE
  5
2F5
100
AcDbEntity
  8
0
100
AcDbSpline
 62
7
  6
CONTINUOUS
 70
0
 71
3
 72
22
 73
18
 74
0
 42
0.0000001
 43
0.0000001
 44
0.0000000001
 40
0.0
 40
0.0
 40
0.0
 40
0.0
 40
0.0611794471
 40
0.1254349261
 40
0.1922199401
 40
0.261003852
 40
0.4014286855
 40
0.471528671
 40
0.5404081396
 40
0.6073213604
 40
0.6716744529
 40
0.7330597936
 40
0.7913268962
 40
0.846621544
 40
0.8993883038
 40
0.950208728
 40
1.0
 40
1.0
 40
1.0
 40
1.0
 10
7.8741613235
 20
-40.8326138953
 30
0.0
 10
7.8741613235
 20
-41.0772486455
 30
0.0
 10
7.9077935335
 20
-41.5791959574
 30
0.0
 10
8.0466079645
 20
-42.3365793278
 30
0.0
 10
8.2717752273
 20
-43.1047037528
 30
0.0
 10
8.682569223
 20
-44.1303075949
 30
0.0
 10
9.2378145951
 20
-45.1075360197
 30
0.0
 10
9.9129563734
 20
-45.9990493771
 30
0.0
 10
10.4681423215
 20
-46.6086836908
 30
0.0
 10
11.0619165662
 20
-47.147183662
 30
0.0
 10
11.6839231607
 20
-47.6041985917
 30
0.0
 10
12.324205154
 20
-47.9703021031
 30
0.0
 10
12.9731211418
 20
-48.2374928698
 30
0.0
 10
13.6215582378
 20
-48.3975295003
 30
0.0
 10
14.2589540387
 20
-48.4422589924
 30
0.0
 10
14.8715357592
 20
-48.3642410304
 30
0.0
 10
15.2537593751
 20
-48.2260465192
 30
0.0
 10
15.4318195906
 20
-48.1369713996
 30
0.0
  0
SPLINE
  5
2F6
100
AcDbEntity
  8
0
100
AcDbSpline
 62
7
  6
CONTINUOUS
 70
0
 71
3
 72
12
 73
8
 74
0
 42
0.0000001
 43
0.0000001
 44
0.0000000001
 40
0.0
 40
0.0
 40
0.0
 40
0.0
 40
0.1165966395
 40
0.2341556754
 40
0.4753107755
 40
0.7293274771
 40
1.0
 40
1.0
 40
1.0
 40
1.0
 10
9.0498818569
 20
-38.0086453971
 30
0.0
 10
8.9528149242
 20
-38.0840850397
 30
0.0
 10
8.7685278173
 20
-38.2498765981
 30
0.0
 10
8.4451822222
 20
-38.6344814668
 30
0.0
 10
8.1328699037
 20
-39.2085420982
 30
0.0
 10
7.9172923995
 20
-39.9923790754
 30
0.0
 10
7.8741613235
 20
-40.5472261415
 30
0.0
 10
7.8741613235
 20
-40.8326138953
 30
0.0
  0
SPLINE
  5
2F7
100
AcDbEntity
  8
0
100
AcDbSpline
 62
250
  6
CONTINUOUS
 70
0
 71
3
 72
26
 73
22
 74
0
 42
0.0000001
 43
0.0000001
 44
0.0000000001
 40
0.0
 40
0.0
 40
0.0
 40
0.0
 40
0.0655377787
 40
0.1361605775
 40
0.2104726313
 40
0.2868900622
 40
0.3635791919
 40
0.4387014069
 40
0.510550737
 40
0.5777039079
 40
0.639207305
 40
0.6948075779
 40
0.7451988905
 40
0.7690342996
 40
0.7923404896
 40
0.8154867021
 40
0.838856682
 40
0.8628098812
 40
0.8876672224
 40
0.9409684375
 40
1.0
 40
1.0
 40
1.0
 40
1.0
 10
16.295954613
 20
-45.3812017141
 30
0.0
 10
16.295954613
 20
-45.0662770379
 30
0.0
 10
16.2361970844
 20
-44.4113265751
 30
0.0
 10
15.9976104527
 20
-43.4255285377
 30
0.0
 10
15.6147050593
 20
-42.4301829972
 30
0.0
 10
15.1022582807
 20
-41.4621678778
 30
0.0
 10
14.4787181366
 20
-40.5569487511
 30
0.0
 10
13.7672452652
 20
-39.7479072096
 30
0.0
 10
12.9938600454
 20
-39.0647146869
 30
0.0
 10
12.1863988137
 20
-38.5324109779
 30
0.0
 10
11.3728539068
 20
-38.1708952542
 30
0.0
 10
10.5811458158
 20
-37.994613535
 30
0.0
 10
9.9488276969
 20
-38.012779955
 30
0.0
 10
9.4938166554
 20
-38.1320054985
 30
0.0
 10
9.1830899642
 20
-38.2681024787
 30
0.0
 10
8.9005073744
 20
-38.4517321416
 30
0.0
 10
8.6489170995
 20
-38.6804986401
 30
0.0
 10
8.4307682503
 20
-38.9518811813
 30
0.0
 10
8.1818428585
 20
-39.3765065411
 30
0.0
 10
7.9693488215
 20
-40.0081612628
 30
0.0
 10
7.91200934
 20
-40.5486753878
 30
0.0
 10
7.9058269341
 20
-40.8322687608
 30
0.0
  0
SPLINE
  5
2F8
100
AcDbEntity
  8
0
100
AcDbSpline
 62
250
  6
CONTINUOUS
 70
0
 71
3
 72
15
 73
11
 74
0
 42
0.0000001
 43
0.0000001
 44
0.0000000001
 40
0.0
 40
0.0
 40
0.0
 40
0.0
 40
0.111224875
 40
0.2298545798
 40
0.3543612194
 40
0.4831142828
 40
0.6141403347
 40
0.7453433417
 40
0.8746272407
 40
1.0
 40
1.0
 40
1.0
 40
1.0
 10
16.8429048471
 20
-45.2976320079
 30
0.0
 10
16.8429048471
 20
-45.0289766589
 30
0.0
 10
16.8017053808
 20
-44.4733360045
 30
0.0
 10
16.6336022736
 20
-43.6322619888
 30
0.0
 10
16.3607639798
 20
-42.7746201431
 30
0.0
 10
15.9902805993
 20
-41.9219111061
 30
0.0
 10
15.5313730117
 20
-41.09487829
 30
0.0
 10
14.9952888284
 20
-40.3140607284
 30
0.0
 10
14.395348427
 20
-39.5989839973
 30
0.0
 10
13.9537152532
 20
-39.1688991943
 30
0.0
 10
13.7253161955
 20
-38.9700551029
 30
0.0
  0
SPLINE
  5
2F9
100
AcDbEntity
  8
0
100
AcDbSpline
 62
250
  6
CONTINUOUS
 70
0
 71
3
 72
9
 73
5
 74
0
 42
0.0000001
 43
0.0000001
 44
0.0000000001
 40
0.0
 40
0.0
 40
0.0
 40
0.0
 40
0.5261579437
 40
1.0
 40
1.0
 40
1.0
 40
1.0
 10
13.7253161955
 20
-38.9700551029
 30
0.0
 10
13.3959868786
 20
-38.6833411845
 30
0.0
 10
12.7253538444
 20
-38.1868087435
 30
0.0
 10
11.9670233824
 20
-37.8298607191
 30
0.0
 10
11.5922088311
 20
-37.7109216815
 30
0.0
  0
SPLINE
  5
2FA
100
AcDbEntity
  8
0
100
AcDbSpline
 62
250
  6
CONTINUOUS
 70
0
 71
3
 72
11
 73
7
 74
0
 42
0.0000001
 43
0.0000001
 44
0.0000000001
 40
0.0
 40
0.0
 40
0.0
 40
0.0
 40
0.2768918453
 40
0.531226455
 40
0.7691343388
 40
1.0
 40
1.0
 40
1.0
 40
1.0
 10
11.5377498523
 20
-37.6940328222
 30
0.0
 10
11.3078752035
 20
-37.6244044028
 30
0.0
 10
10.854134696
 20
-37.5271627568
 30
0.0
 10
10.1812498578
 20
-37.5261640877
 30
0.0
 10
9.5659837789
 20
-37.6800534249
 30
0.0
 10
9.2079870719
 20
-37.8857314214
 30
0.0
 10
9.0498876186
 20
-38.0086538536
 30
0.0
  0
SPLINE
  5
2FB
100
AcDbEntity
  8
0
100
AcDbSpline
 62
250
  6
CONTINUOUS
 70
0
 71
3
 72
27
 73
23
 74
0
 42
0.0000001
 43
0.0000001
 44
0.0000000001
 40
0.0
 40
0.0
 40
0.0
 40
0.0
 40
0.0597017034
 40
0.1136036183
 40
0.1386832616
 40
0.16279263
 40
0.1862468526
 40
0.2094043487
 40
0.2326520417
 40
0.2563705825
 40
0.2809008593
 40
0.3065255759
 40
0.3617078886
 40
0.4228232284
 40
0.489668177
 40
0.5613086036
 40
0.6363196755
 40
0.712978098
 40
0.7894196145
 40
0.8637806634
 40
0.9344467721
 40
1.0
 40
1.0
 40
1.0
 40
1.0
 10
16.295954613
 20
-45.3812017141
 30
0.0
 10
16.295954613
 20
-45.6702847432
 30
0.0
 10
16.2499961317
 20
-46.2221528189
 30
0.0
 10
16.0509281421
 20
-46.870948365
 30
0.0
 10
15.8103985188
 20
-47.3101048233
 30
0.0
 10
15.5976873168
 20
-47.5919429824
 30
0.0
 10
15.3504893539
 20
-47.8309971301
 30
0.0
 10
15.0713491916
 20
-48.0247478595
 30
0.0
 10
14.763031813
 20
-48.1705504182
 30
0.0
 10
14.4292039681
 20
-48.2673747555
 30
0.0
 10
14.0732919355
 20
-48.3142920268
 30
0.0
 10
13.5618430939
 20
-48.3098321057
 30
0.0
 10
12.88203598
 20
-48.1703233152
 30
0.0
 10
12.0633529447
 20
-47.8175011324
 30
0.0
 10
11.248593972
 20
-47.2904361789
 30
0.0
 10
10.467096979
 20
-46.6090236804
 30
0.0
 10
9.7471446543
 20
-45.7986308475
 30
0.0
 10
9.1155091577
 20
-44.8893992182
 30
0.0
 10
8.5959717176
 20
-43.9153602564
 30
0.0
 10
8.2075177511
 20
-42.9127399829
 30
0.0
 10
7.9653484927
 20
-41.9192267309
 30
0.0
 10
7.9046417962
 20
-41.2589584082
 30
0.0
 10
7.9046417962
 20
-40.9415415742
 30
0.0
  0
SPLINE
  5
2FC
100
AcDbEntity
  8
0
100
AcDbSpline
 62
250
  6
CONTINUOUS
 70
0
 71
3
 72
14
 73
10
 74
0
 42
0.0000001
 43
0.0000001
 44
0.0000000001
 40
0.0
 40
0.0
 40
0.0
 40
0.0
 40
0.2858173506
 40
0.4178807117
 40
0.5430371939
 40
0.6622936854
 40
0.7770308254
 40
0.8889507235
 40
1.0
 40
1.0
 40
1.0
 40
1.0
 10
16.8429048471
 20
-45.2976320079
 30
0.0
 10
16.8429048471
 20
-45.6156691979
 30
0.0
 10
16.8021332298
 20
-46.0833413292
 30
0.0
 10
16.6457054957
 20
-46.6682588788
 30
0.0
 10
16.4863456723
 20
-47.0570881093
 30
0.0
 10
16.2835195496
 20
-47.4031123061
 30
0.0
 10
16.0388559708
 20
-47.702416854
 30
0.0
 10
15.7552537323
 20
-47.9515457969
 30
0.0
 10
15.5423150825
 20
-48.0816623742
 30
0.0
 10
15.4317987484
 20
-48.1369355378
 30
0.0
  0
SPLINE
  5
2FD
100
AcDbEntity
  8
ASSI
100
AcDbSpline
 62
7
  6
CONTINUOUS
 70
0
 71
3
 72
22
 73
18
 74
0
 42
0.0000001
 43
0.0000001
 44
0.0000000001
 40
0.0
 40
0.0
 40
0.0
 40
0.0
 40
0.0611794471
 40
0.1254349261
 40
0.1922199401
 40
0.261003852
 40
0.4014286855
 40
0.471528671
 40
0.5404081396
 40
0.6073213604
 40
0.6716744529
 40
0.7330597936
 40
0.7913268962
 40
0.846621544
 40
0.8993883038
 40
0.950208728
 40
1.0
 40
1.0
 40
1.0
 40
1.0
 10
7.8741613235
 20
-40.8326138953
 30
0.0
 10
7.8741613235
 20
-41.0772486455
 30
0.0
 10
7.9077935335
 20
-41.5791959574
 30
0.0
 10
8.0466079645
 20
-42.3365793278
 30
0.0
 10
8.2717752273
 20
-43.1047037528
 30
0.0
 10
8.682569223
 20
-44.1303075949
 30
0.0
 10
9.2378145951
 20
-45.1075360197
 30
0.0
 10
9.9129563734
 20
-45.9990493771
 30
0.0
 10
10.4681423215
 20
-46.6086836908
 30
0.0
 10
11.0619165662
 20
-47.147183662
 30
0.0
 10
11.6839231607
 20
-47.6041985917
 30
0.0
 10
12.324205154
 20
-47.9703021031
 30
0.0
 10
12.9731211418
 20
-48.2374928698
 30
0.0
 10
13.6215582378
 20
-48.3975295003
 30
0.0
 10
14.2589540387
 20
-48.4422589924
 30
0.0
 10
14.8715357592
 20
-48.3642410304
 30
0.0
 10
15.2537593751
 20
-48.2260465192
 30
0.0
 10
15.4318195906
 20
-48.1369713996
 30
0.0
  0
SPLINE
  5
2FE
100
AcDbEntity
  8
ASSI
100
AcDbSpline
 62
7
  6
CONTINUOUS
 70
0
 71
3
 72
12
 73
8
 74
0
 42
0.0000001
 43
0.0000001
 44
0.0000000001
 40
0.0
 40
0.0
 40
0.0
 40
0.0
 40
0.1165966395
 40
0.2341556754
 40
0.4753107755
 40
0.7293274771
 40
1.0
 40
1.0
 40
1.0
 40
1.0
 10
9.0498818569
 20
-38.0086453971
 30
0.0
 10
8.9528149242
 20
-38.0840850397
 30
0.0
 10
8.7685278173
 20
-38.2498765981
 30
0.0
 10
8.4451822222
 20
-38.6344814668
 30
0.0
 10
8.1328699037
 20
-39.2085420982
 30
0.0
 10
7.9172923995
 20
-39.9923790754
 30
0.0
 10
7.8741613235
 20
-40.5472261415
 30
0.0
 10
7.8741613235
 20
-40.8326138953
 30
0.0
  0
SPLINE
  5
2FF
100
AcDbEntity
  8
ASSI
100
AcDbSpline
 62
250
  6
CONTINUOUS
 70
0
 71
3
 72
26
 73
22
 74
0
 42
0.0000001
 43
0.0000001
 44
0.0000000001
 40
0.0
 40
0.0
 40
0.0
 40
0.0
 40
0.0655377787
 40
0.1361605775
 40
0.2104726313
 40
0.2868900622
 40
0.3635791919
 40
0.4387014069
 40
0.510550737
 40
0.5777039079
 40
0.639207305
 40
0.6948075779
 40
0.7451988905
 40
0.7690342996
 40
0.7923404896
 40
0.8154867021
 40
0.838856682
 40
0.8628098812
 40
0.8876672224
 40
0.9409684375
 40
1.0
 40
1.0
 40
1.0
 40
1.0
 10
16.295954613
 20
-45.3812017141
 30
0.0
 10
16.295954613
 20
-45.0662770379
 30
0.0
 10
16.2361970844
 20
-44.4113265751
 30
0.0
 10
15.9976104527
 20
-43.4255285377
 30
0.0
 10
15.6147050593
 20
-42.4301829972
 30
0.0
 10
15.1022582807
 20
-41.4621678778
 30
0.0
 10
14.4787181366
 20
-40.5569487511
 30
0.0
 10
13.7672452652
 20
-39.7479072096
 30
0.0
 10
12.9938600454
 20
-39.0647146869
 30
0.0
 10
12.1863988137
 20
-38.5324109779
 30
0.0
 10
11.3728539068
 20
-38.1708952542
 30
0.0
 10
10.5811458158
 20
-37.994613535
 30
0.0
 10
9.9488276969
 20
-38.012779955
 30
0.0
 10
9.4938166554
 20
-38.1320054985
 30
0.0
 10
9.1830899642
 20
-38.2681024787
 30
0.0
 10
8.9005073744
 20
-38.4517321416
 30
0.0
 10
8.6489170995
 20
-38.6804986401
 30
0.0
 10
8.4307682503
 20
-38.9518811813
 30
0.0
 10
8.1818428585
 20
-39.3765065411
 30
0.0
 10
7.9693488215
 20
-40.0081612628
 30
0.0
 10
7.91200934
 20
-40.5486753878
 30
0.0
 10
7.9058269341
 20
-40.8322687608
 30
0.0
  0
SPLINE
  5
300
100
AcDbEntity
  8
ASSI
100
AcDbSpline
 62
250
  6
CONTINUOUS
 70
0
 71
3
 72
15
 73
11
 74
0
 42
0.0000001
 43
0.0000001
 44
0.0000000001
 40
0.0
 40
0.0
 40
0.0
 40
0.0
 40
0.111224875
 40
0.2298545798
 40
0.3543612194
 40
0.4831142828
 40
0.6141403347
 40
0.7453433417
 40
0.8746272407
 40
1.0
 40
1.0
 40
1.0
 40
1.0
 10
16.8429048471
 20
-45.2976320079
 30
0.0
 10
16.8429048471
 20
-45.0289766589
 30
0.0
 10
16.8017053808
 20
-44.4733360045
 30
0.0
 10
16.6336022736
 20
-43.6322619888
 30
0.0
 10
16.3607639798
 20
-42.7746201431
 30
0.0
 10
15.9902805993
 20
-41.9219111061
 30
0.0
 10
15.5313730117
 20
-41.09487829
 30
0.0
 10
14.9952888284
 20
-40.3140607284
 30
0.0
 10
14.395348427
 20
-39.5989839973
 30
0.0
 10
13.9537152532
 20
-39.1688991943
 30
0.0
 10
13.7253161955
 20
-38.9700551029
 30
0.0
  0
SPLINE
  5
301
100
AcDbEntity
  8
ASSI
100
AcDbSpline
 62
250
  6
CONTINUOUS
 70
0
 71
3
 72
9
 73
5
 74
0
 42
0.0000001
 43
0.0000001
 44
0.0000000001
 40
0.0
 40
0.0
 40
0.0
 40
0.0
 40
0.5261579437
 40
1.0
 40
1.0
 40
1.0
 40
1.0
 10
13.7253161955
 20
-38.9700551029
 30
0.0
 10
13.3959868786
 20
-38.6833411845
 30
0.0
 10
12.7253538444
 20
-38.1868087435
 30
0.0
 10
11.9670233824
 20
-37.8298607191
 30
0.0
 10
11.5922088311
 20
-37.7109216815
 30
0.0
  0
SPLINE
  5
302
100
AcDbEntity
  8
ASSI
100
AcDbSpline
 62
250
  6
CONTINUOUS
 70
0
 71
3
 72
11
 73
7
 74
0
 42
0.0000001
 43
0.0000001
 44
0.0000000001
 40
0.0
 40
0.0
 40
0.0
 40
0.0
 40
0.2768918453
 40
0.531226455
 40
0.7691343388
 40
1.0
 40
1.0
 40
1.0
 40
1.0
 10
11.5377498523
 20
-37.6940328222
 30
0.0
 10
11.3078752035
 20
-37.6244044028
 30
0.0
 10
10.854134696
 20
-37.5271627568
 30
0.0
 10
10.1812498578
 20
-37.5261640877
 30
0.0
 10
9.5659837789
 20
-37.6800534249
 30
0.0
 10
9.2079870719
 20
-37.8857314214
 30
0.0
 10
9.0498876186
 20
-38.0086538536
 30
0.0
  0
SPLINE
  5
303
100
AcDbEntity
  8
ASSI
100
AcDbSpline
 62
250
  6
CONTINUOUS
 70
0
 71
3
 72
27
 73
23
 74
0
 42
0.0000001
 43
0.0000001
 44
0.0000000001
 40
0.0
 40
0.0
 40
0.0
 40
0.0
 40
0.0597017034
 40
0.1136036183
 40
0.1386832616
 40
0.16279263
 40
0.1862468526
 40
0.2094043487
 40
0.2326520417
 40
0.2563705825
 40
0.2809008593
 40
0.3065255759
 40
0.3617078886
 40
0.4228232284
 40
0.489668177
 40
0.5613086036
 40
0.6363196755
 40
0.712978098
 40
0.7894196145
 40
0.8637806634
 40
0.9344467721
 40
1.0
 40
1.0
 40
1.0
 40
1.0
 10
16.295954613
 20
-45.3812017141
 30
0.0
 10
16.295954613
 20
-45.6702847432
 30
0.0
 10
16.2499961317
 20
-46.2221528189
 30
0.0
 10
16.0509281421
 20
-46.870948365
 30
0.0
 10
15.8103985188
 20
-47.3101048233
 30
0.0
 10
15.5976873168
 20
-47.5919429824
 30
0.0
 10
15.3504893539
 20
-47.8309971301
 30
0.0
 10
15.0713491916
 20
-48.0247478595
 30
0.0
 10
14.763031813
 20
-48.1705504182
 30
0.0
 10
14.4292039681
 20
-48.2673747555
 30
0.0
 10
14.0732919355
 20
-48.3142920268
 30
0.0
 10
13.5618430939
 20
-48.3098321057
 30
0.0
 10
12.88203598
 20
-48.1703233152
 30
0.0
 10
12.0633529447
 20
-47.8175011324
 30
0.0
 10
11.248593972
 20
-47.2904361789
 30
0.0
 10
10.467096979
 20
-46.6090236804
 30
0.0
 10
9.7471446543
 20
-45.7986308475
 30
0.0
 10
9.1155091577
 20
-44.8893992182
 30
0.0
 10
8.5959717176
 20
-43.9153602564
 30
0.0
 10
8.2075177511
 20
-42.9127399829
 30
0.0
 10
7.9653484927
 20
-41.9192267309
 30
0.0
 10
7.9046417962
 20
-41.2589584082
 30
0.0
 10
7.9046417962
 20
-40.9415415742
 30
0.0
  0
SPLINE
  5
304
100
AcDbEntity
  8
ASSI
100
AcDbSpline
 62
250
  6
CONTINUOUS
 70
0
 71
3
 72
14
 73
10
 74
0
 42
0.0000001
 43
0.0000001
 44
0.0000000001
 40
0.0
 40
0.0
 40
0.0
 40
0.0
 40
0.2858173506
 40
0.4178807117
 40
0.5430371939
 40
0.6622936854
 40
0.7770308254
 40
0.8889507235
 40
1.0
 40
1.0
 40
1.0
 40
1.0
 10
16.8429048471
 20
-45.2976320079
 30
0.0
 10
16.8429048471
 20
-45.6156691979
 30
0.0
 10
16.8021332298
 20
-46.0833413292
 30
0.0
 10
16.6457054957
 20
-46.6682588788
 30
0.0
 10
16.4863456723
 20
-47.0570881093
 30
0.0
 10
16.2835195496
 20
-47.4031123061
 30
0.0
 10
16.0388559708
 20
-47.702416854
 30
0.0
 10
15.7552537323
 20
-47.9515457969
 30
0.0
 10
15.5423150825
 20
-48.0816623742
 30
0.0
 10
15.4317987484
 20
-48.1369355378
 30
0.0
  0
SPLINE
  5
305
100
AcDbEntity
  8
0
100
AcDbSpline
 62
7
  6
CONTINUOUS
 70
0
 71
3
 72
22
 73
18
 74
0
 42
0.0000001
 43
0.0000001
 44
0.0000000001
 40
0.0
 40
0.0
 40
0.0
 40
0.0
 40
0.0611794471
 40
0.1254349261
 40
0.1922199401
 40
0.261003852
 40
0.4014286855
 40
0.471528671
 40
0.5404081396
 40
0.6073213604
 40
0.6716744529
 40
0.7330597936
 40
0.7913268962
 40
0.846621544
 40
0.8993883038
 40
0.950208728
 40
1.0
 40
1.0
 40
1.0
 40
1.0
 10
7.8741613235
 20
-20.4208569755
 30
0.0
 10
7.8741613235
 20
-20.6654917256
 30
0.0
 10
7.9077935335
 20
-21.1674390376
 30
0.0
 10
8.0466079645
 20
-21.924822408
 30
0.0
 10
8.2717752273
 20
-22.692946833
 30
0.0
 10
8.682569223
 20
-23.718550675
 30
0.0
 10
9.2378145951
 20
-24.6957790999
 30
0.0
 10
9.9129563734
 20
-25.5872924573
 30
0.0
 10
10.4681423215
 20
-26.196926771
 30
0.0
 10
11.0619165662
 20
-26.7354267422
 30
0.0
 10
11.6839231607
 20
-27.1924416719
 30
0.0
 10
12.324205154
 20
-27.5585451832
 30
0.0
 10
12.9731211418
 20
-27.82573595
 30
0.0
 10
13.6215582378
 20
-27.9857725804
 30
0.0
 10
14.2589540387
 20
-28.0305020725
 30
0.0
 10
14.8715357592
 20
-27.9524841106
 30
0.0
 10
15.2537593751
 20
-27.8142895994
 30
0.0
 10
15.4318195906
 20
-27.7252144797
 30
0.0
  0
SPLINE
  5
306
100
AcDbEntity
  8
0
100
AcDbSpline
 62
7
  6
CONTINUOUS
 70
0
 71
3
 72
12
 73
8
 74
0
 42
0.0000001
 43
0.0000001
 44
0.0000000001
 40
0.0
 40
0.0
 40
0.0
 40
0.0
 40
0.1165966395
 40
0.2341556754
 40
0.4753107755
 40
0.7293274771
 40
1.0
 40
1.0
 40
1.0
 40
1.0
 10
9.0498818569
 20
-17.5968884773
 30
0.0
 10
8.9528149242
 20
-17.6723281199
 30
0.0
 10
8.7685278173
 20
-17.8381196783
 30
0.0
 10
8.4451822222
 20
-18.2227245469
 30
0.0
 10
8.1328699037
 20
-18.7967851784
 30
0.0
 10
7.9172923995
 20
-19.5806221556
 30
0.0
 10
7.8741613235
 20
-20.1354692216
 30
0.0
 10
7.8741613235
 20
-20.4208569755
 30
0.0
  0
SPLINE
  5
307
100
AcDbEntity
  8
0
100
AcDbSpline
 62
250
  6
CONTINUOUS
 70
0
 71
3
 72
26
 73
22
 74
0
 42
0.0000001
 43
0.0000001
 44
0.0000000001
 40
0.0
 40
0.0
 40
0.0
 40
0.0
 40
0.0655377787
 40
0.1361605775
 40
0.2104726313
 40
0.2868900622
 40
0.3635791919
 40
0.4387014069
 40
0.510550737
 40
0.5777039079
 40
0.639207305
 40
0.6948075779
 40
0.7451988905
 40
0.7690342996
 40
0.7923404896
 40
0.8154867021
 40
0.838856682
 40
0.8628098812
 40
0.8876672224
 40
0.9409684375
 40
1.0
 40
1.0
 40
1.0
 40
1.0
 10
16.295954613
 20
-24.9694447943
 30
0.0
 10
16.295954613
 20
-24.6545201181
 30
0.0
 10
16.2361970844
 20
-23.9995696553
 30
0.0
 10
15.9976104527
 20
-23.0137716178
 30
0.0
 10
15.6147050593
 20
-22.0184260774
 30
0.0
 10
15.1022582807
 20
-21.050410958
 30
0.0
 10
14.4787181366
 20
-20.1451918313
 30
0.0
 10
13.7672452652
 20
-19.3361502898
 30
0.0
 10
12.9938600454
 20
-18.6529577671
 30
0.0
 10
12.1863988137
 20
-18.1206540581
 30
0.0
 10
11.3728539068
 20
-17.7591383344
 30
0.0
 10
10.5811458158
 20
-17.5828566152
 30
0.0
 10
9.9488276969
 20
-17.6010230352
 30
0.0
 10
9.4938166554
 20
-17.7202485787
 30
0.0
 10
9.1830899642
 20
-17.8563455589
 30
0.0
 10
8.9005073744
 20
-18.0399752218
 30
0.0
 10
8.6489170995
 20
-18.2687417203
 30
0.0
 10
8.4307682503
 20
-18.5401242614
 30
0.0
 10
8.1818428585
 20
-18.9647496213
 30
0.0
 10
7.9693488215
 20
-19.596404343
 30
0.0
 10
7.91200934
 20
-20.136918468
 30
0.0
 10
7.9058269341
 20
-20.420511841
 30
0.0
  0
SPLINE
  5
308
100
AcDbEntity
  8
0
100
AcDbSpline
 62
250
  6
CONTINUOUS
 70
0
 71
3
 72
15
 73
11
 74
0
 42
0.0000001
 43
0.0000001
 44
0.0000000001
 40
0.0
 40
0.0
 40
0.0
 40
0.0
 40
0.111224875
 40
0.2298545798
 40
0.3543612194
 40
0.4831142828
 40
0.6141403347
 40
0.7453433417
 40
0.8746272407
 40
1.0
 40
1.0
 40
1.0
 40
1.0
 10
16.8429048471
 20
-24.8858750881
 30
0.0
 10
16.8429048471
 20
-24.6172197391
 30
0.0
 10
16.8017053808
 20
-24.0615790847
 30
0.0
 10
16.6336022736
 20
-23.220505069
 30
0.0
 10
16.3607639798
 20
-22.3628632233
 30
0.0
 10
15.9902805993
 20
-21.5101541863
 30
0.0
 10
15.5313730117
 20
-20.6831213701
 30
0.0
 10
14.9952888284
 20
-19.9023038085
 30
0.0
 10
14.395348427
 20
-19.1872270775
 30
0.0
 10
13.9537152532
 20
-18.7571422745
 30
0.0
 10
13.7253161955
 20
-18.5582981831
 30
0.0
  0
SPLINE
  5
309
100
AcDbEntity
  8
0
100
AcDbSpline
 62
250
  6
CONTINUOUS
 70
0
 71
3
 72
9
 73
5
 74
0
 42
0.0000001
 43
0.0000001
 44
0.0000000001
 40
0.0
 40
0.0
 40
0.0
 40
0.0
 40
0.5261579437
 40
1.0
 40
1.0
 40
1.0
 40
1.0
 10
13.7253161955
 20
-18.5582981831
 30
0.0
 10
13.3959868786
 20
-18.2715842646
 30
0.0
 10
12.7253538444
 20
-17.7750518237
 30
0.0
 10
11.9670233824
 20
-17.4181037993
 30
0.0
 10
11.5922088311
 20
-17.2991647617
 30
0.0
  0
SPLINE
  5
30A
100
AcDbEntity
  8
0
100
AcDbSpline
 62
250
  6
CONTINUOUS
 70
0
 71
3
 72
11
 73
7
 74
0
 42
0.0000001
 43
0.0000001
 44
0.0000000001
 40
0.0
 40
0.0
 40
0.0
 40
0.0
 40
0.2768918453
 40
0.531226455
 40
0.7691343388
 40
1.0
 40
1.0
 40
1.0
 40
1.0
 10
11.5377498523
 20
-17.2822759024
 30
0.0
 10
11.3078752035
 20
-17.212647483
 30
0.0
 10
10.854134696
 20
-17.115405837
 30
0.0
 10
10.1812498578
 20
-17.1144071679
 30
0.0
 10
9.5659837789
 20
-17.2682965051
 30
0.0
 10
9.2079870719
 20
-17.4739745015
 30
0.0
 10
9.0498876186
 20
-17.5968969337
 30
0.0
  0
SPLINE
  5
30B
100
AcDbEntity
  8
0
100
AcDbSpline
 62
250
  6
CONTINUOUS
 70
0
 71
3
 72
27
 73
23
 74
0
 42
0.0000001
 43
0.0000001
 44
0.0000000001
 40
0.0
 40
0.0
 40
0.0
 40
0.0
 40
0.0597017034
 40
0.1136036183
 40
0.1386832616
 40
0.16279263
 40
0.1862468526
 40
0.2094043487
 40
0.2326520417
 40
0.2563705825
 40
0.2809008593
 40
0.3065255759
 40
0.3617078886
 40
0.4228232284
 40
0.489668177
 40
0.5613086036
 40
0.6363196755
 40
0.712978098
 40
0.7894196145
 40
0.8637806634
 40
0.9344467721
 40
1.0
 40
1.0
 40
1.0
 40
1.0
 10
16.295954613
 20
-24.9694447943
 30
0.0
 10
16.295954613
 20
-25.2585278234
 30
0.0
 10
16.2499961317
 20
-25.8103958991
 30
0.0
 10
16.0509281421
 20
-26.4591914451
 30
0.0
 10
15.8103985188
 20
-26.8983479035
 30
0.0
 10
15.5976873168
 20
-27.1801860625
 30
0.0
 10
15.3504893539
 20
-27.4192402103
 30
0.0
 10
15.0713491916
 20
-27.6129909396
 30
0.0
 10
14.763031813
 20
-27.7587934984
 30
0.0
 10
14.4292039681
 20
-27.8556178357
 30
0.0
 10
14.0732919355
 20
-27.902535107
 30
0.0
 10
13.5618430939
 20
-27.8980751858
 30
0.0
 10
12.88203598
 20
-27.7585663954
 30
0.0
 10
12.0633529447
 20
-27.4057442125
 30
0.0
 10
11.248593972
 20
-26.878679259
 30
0.0
 10
10.467096979
 20
-26.1972667606
 30
0.0
 10
9.7471446543
 20
-25.3868739276
 30
0.0
 10
9.1155091577
 20
-24.4776422983
 30
0.0
 10
8.5959717176
 20
-23.5036033366
 30
0.0
 10
8.2075177511
 20
-22.5009830631
 30
0.0
 10
7.9653484927
 20
-21.5074698111
 30
0.0
 10
7.9046417962
 20
-20.8472014884
 30
0.0
 10
7.9046417962
 20
-20.5297846544
 30
0.0
  0
SPLINE
  5
30C
100
AcDbEntity
  8
0
100
AcDbSpline
 62
250
  6
CONTINUOUS
 70
0
 71
3
 72
14
 73
10
 74
0
 42
0.0000001
 43
0.0000001
 44
0.0000000001
 40
0.0
 40
0.0
 40
0.0
 40
0.0
 40
0.2858173506
 40
0.4178807117
 40
0.5430371939
 40
0.6622936854
 40
0.7770308254
 40
0.8889507235
 40
1.0
 40
1.0
 40
1.0
 40
1.0
 10
16.8429048471
 20
-24.8858750881
 30
0.0
 10
16.8429048471
 20
-25.2039122781
 30
0.0
 10
16.8021332298
 20
-25.6715844094
 30
0.0
 10
16.6457054957
 20
-26.256501959
 30
0.0
 10
16.4863456723
 20
-26.6453311895
 30
0.0
 10
16.2835195496
 20
-26.9913553863
 30
0.0
 10
16.0388559708
 20
-27.2906599341
 30
0.0
 10
15.7552537323
 20
-27.5397888771
 30
0.0
 10
15.5423150825
 20
-27.6699054544
 30
0.0
 10
15.4317987484
 20
-27.725178618
 30
0.0
  0
SPLINE
  5
30D
100
AcDbEntity
  8
ASSI
100
AcDbSpline
 62
7
  6
CONTINUOUS
 70
0
 71
3
 72
22
 73
18
 74
0
 42
0.0000001
 43
0.0000001
 44
0.0000000001
 40
0.0
 40
0.0
 40
0.0
 40
0.0
 40
0.0611794471
 40
0.1254349261
 40
0.1922199401
 40
0.261003852
 40
0.4014286855
 40
0.471528671
 40
0.5404081396
 40
0.6073213604
 40
0.6716744529
 40
0.7330597936
 40
0.7913268962
 40
0.846621544
 40
0.8993883038
 40
0.950208728
 40
1.0
 40
1.0
 40
1.0
 40
1.0
 10
7.8741613235
 20
-20.4208569755
 30
0.0
 10
7.8741613235
 20
-20.6654917256
 30
0.0
 10
7.9077935335
 20
-21.1674390376
 30
0.0
 10
8.0466079645
 20
-21.924822408
 30
0.0
 10
8.2717752273
 20
-22.692946833
 30
0.0
 10
8.682569223
 20
-23.718550675
 30
0.0
 10
9.2378145951
 20
-24.6957790999
 30
0.0
 10
9.9129563734
 20
-25.5872924573
 30
0.0
 10
10.4681423215
 20
-26.196926771
 30
0.0
 10
11.0619165662
 20
-26.7354267422
 30
0.0
 10
11.6839231607
 20
-27.1924416719
 30
0.0
 10
12.324205154
 20
-27.5585451832
 30
0.0
 10
12.9731211418
 20
-27.82573595
 30
0.0
 10
13.6215582378
 20
-27.9857725804
 30
0.0
 10
14.2589540387
 20
-28.0305020725
 30
0.0
 10
14.8715357592
 20
-27.9524841106
 30
0.0
 10
15.2537593751
 20
-27.8142895994
 30
0.0
 10
15.4318195906
 20
-27.7252144797
 30
0.0
  0
SPLINE
  5
30E
100
AcDbEntity
  8
ASSI
100
AcDbSpline
 62
7
  6
CONTINUOUS
 70
0
 71
3
 72
12
 73
8
 74
0
 42
0.0000001
 43
0.0000001
 44
0.0000000001
 40
0.0
 40
0.0
 40
0.0
 40
0.0
 40
0.1165966395
 40
0.2341556754
 40
0.4753107755
 40
0.7293274771
 40
1.0
 40
1.0
 40
1.0
 40
1.0
 10
9.0498818569
 20
-17.5968884773
 30
0.0
 10
8.9528149242
 20
-17.6723281199
 30
0.0
 10
8.7685278173
 20
-17.8381196783
 30
0.0
 10
8.4451822222
 20
-18.2227245469
 30
0.0
 10
8.1328699037
 20
-18.7967851784
 30
0.0
 10
7.9172923995
 20
-19.5806221556
 30
0.0
 10
7.8741613235
 20
-20.1354692216
 30
0.0
 10
7.8741613235
 20
-20.4208569755
 30
0.0
  0
SPLINE
  5
30F
100
AcDbEntity
  8
ASSI
100
AcDbSpline
 62
250
  6
CONTINUOUS
 70
0
 71
3
 72
26
 73
22
 74
0
 42
0.0000001
 43
0.0000001
 44
0.0000000001
 40
0.0
 40
0.0
 40
0.0
 40
0.0
 40
0.0655377787
 40
0.1361605775
 40
0.2104726313
 40
0.2868900622
 40
0.3635791919
 40
0.4387014069
 40
0.510550737
 40
0.5777039079
 40
0.639207305
 40
0.6948075779
 40
0.7451988905
 40
0.7690342996
 40
0.7923404896
 40
0.8154867021
 40
0.838856682
 40
0.8628098812
 40
0.8876672224
 40
0.9409684375
 40
1.0
 40
1.0
 40
1.0
 40
1.0
 10
16.295954613
 20
-24.9694447943
 30
0.0
 10
16.295954613
 20
-24.6545201181
 30
0.0
 10
16.2361970844
 20
-23.9995696553
 30
0.0
 10
15.9976104527
 20
-23.0137716178
 30
0.0
 10
15.6147050593
 20
-22.0184260774
 30
0.0
 10
15.1022582807
 20
-21.050410958
 30
0.0
 10
14.4787181366
 20
-20.1451918313
 30
0.0
 10
13.7672452652
 20
-19.3361502898
 30
0.0
 10
12.9938600454
 20
-18.6529577671
 30
0.0
 10
12.1863988137
 20
-18.1206540581
 30
0.0
 10
11.3728539068
 20
-17.7591383344
 30
0.0
 10
10.5811458158
 20
-17.5828566152
 30
0.0
 10
9.9488276969
 20
-17.6010230352
 30
0.0
 10
9.4938166554
 20
-17.7202485787
 30
0.0
 10
9.1830899642
 20
-17.8563455589
 30
0.0
 10
8.9005073744
 20
-18.0399752218
 30
0.0
 10
8.6489170995
 20
-18.2687417203
 30
0.0
 10
8.4307682503
 20
-18.5401242614
 30
0.0
 10
8.1818428585
 20
-18.9647496213
 30
0.0
 10
7.9693488215
 20
-19.596404343
 30
0.0
 10
7.91200934
 20
-20.136918468
 30
0.0
 10
7.9058269341
 20
-20.420511841
 30
0.0
  0
SPLINE
  5
310
100
AcDbEntity
  8
ASSI
100
AcDbSpline
 62
250
  6
CONTINUOUS
 70
0
 71
3
 72
15
 73
11
 74
0
 42
0.0000001
 43
0.0000001
 44
0.0000000001
 40
0.0
 40
0.0
 40
0.0
 40
0.0
 40
0.111224875
 40
0.2298545798
 40
0.3543612194
 40
0.4831142828
 40
0.6141403347
 40
0.7453433417
 40
0.8746272407
 40
1.0
 40
1.0
 40
1.0
 40
1.0
 10
16.8429048471
 20
-24.8858750881
 30
0.0
 10
16.8429048471
 20
-24.6172197391
 30
0.0
 10
16.8017053808
 20
-24.0615790847
 30
0.0
 10
16.6336022736
 20
-23.220505069
 30
0.0
 10
16.3607639798
 20
-22.3628632233
 30
0.0
 10
15.9902805993
 20
-21.5101541863
 30
0.0
 10
15.5313730117
 20
-20.6831213701
 30
0.0
 10
14.9952888284
 20
-19.9023038085
 30
0.0
 10
14.395348427
 20
-19.1872270775
 30
0.0
 10
13.9537152532
 20
-18.7571422745
 30
0.0
 10
13.7253161955
 20
-18.5582981831
 30
0.0
  0
SPLINE
  5
311
100
AcDbEntity
  8
ASSI
100
AcDbSpline
 62
250
  6
CONTINUOUS
 70
0
 71
3
 72
9
 73
5
 74
0
 42
0.0000001
 43
0.0000001
 44
0.0000000001
 40
0.0
 40
0.0
 40
0.0
 40
0.0
 40
0.5261579437
 40
1.0
 40
1.0
 40
1.0
 40
1.0
 10
13.7253161955
 20
-18.5582981831
 30
0.0
 10
13.3959868786
 20
-18.2715842646
 30
0.0
 10
12.7253538444
 20
-17.7750518237
 30
0.0
 10
11.9670233824
 20
-17.4181037993
 30
0.0
 10
11.5922088311
 20
-17.2991647617
 30
0.0
  0
SPLINE
  5
312
100
AcDbEntity
  8
ASSI
100
AcDbSpline
 62
250
  6
CONTINUOUS
 70
0
 71
3
 72
11
 73
7
 74
0
 42
0.0000001
 43
0.0000001
 44
0.0000000001
 40
0.0
 40
0.0
 40
0.0
 40
0.0
 40
0.2768918453
 40
0.531226455
 40
0.7691343388
 40
1.0
 40
1.0
 40
1.0
 40
1.0
 10
11.5377498523
 20
-17.2822759024
 30
0.0
 10
11.3078752035
 20
-17.212647483
 30
0.0
 10
10.854134696
 20
-17.115405837
 30
0.0
 10
10.1812498578
 20
-17.1144071679
 30
0.0
 10
9.5659837789
 20
-17.2682965051
 30
0.0
 10
9.2079870719
 20
-17.4739745015
 30
0.0
 10
9.0498876186
 20
-17.5968969337
 30
0.0
  0
SPLINE
  5
313
100
AcDbEntity
  8
ASSI
100
AcDbSpline
 62
250
  6
CONTINUOUS
 70
0
 71
3
 72
27
 73
23
 74
0
 42
0.0000001
 43
0.0000001
 44
0.0000000001
 40
0.0
 40
0.0
 40
0.0
 40
0.0
 40
0.0597017034
 40
0.1136036183
 40
0.1386832616
 40
0.16279263
 40
0.1862468526
 40
0.2094043487
 40
0.2326520417
 40
0.2563705825
 40
0.2809008593
 40
0.3065255759
 40
0.3617078886
 40
0.4228232284
 40
0.489668177
 40
0.5613086036
 40
0.6363196755
 40
0.712978098
 40
0.7894196145
 40
0.8637806634
 40
0.9344467721
 40
1.0
 40
1.0
 40
1.0
 40
1.0
 10
16.295954613
 20
-24.9694447943
 30
0.0
 10
16.295954613
 20
-25.2585278234
 30
0.0
 10
16.2499961317
 20
-25.8103958991
 30
0.0
 10
16.0509281421
 20
-26.4591914451
 30
0.0
 10
15.8103985188
 20
-26.8983479035
 30
0.0
 10
15.5976873168
 20
-27.1801860625
 30
0.0
 10
15.3504893539
 20
-27.4192402103
 30
0.0
 10
15.0713491916
 20
-27.6129909396
 30
0.0
 10
14.763031813
 20
-27.7587934984
 30
0.0
 10
14.4292039681
 20
-27.8556178357
 30
0.0
 10
14.0732919355
 20
-27.902535107
 30
0.0
 10
13.5618430939
 20
-27.8980751858
 30
0.0
 10
12.88203598
 20
-27.7585663954
 30
0.0
 10
12.0633529447
 20
-27.4057442125
 30
0.0
 10
11.248593972
 20
-26.878679259
 30
0.0
 10
10.467096979
 20
-26.1972667606
 30
0.0
 10
9.7471446543
 20
-25.3868739276
 30
0.0
 10
9.1155091577
 20
-24.4776422983
 30
0.0
 10
8.5959717176
 20
-23.5036033366
 30
0.0
 10
8.2075177511
 20
-22.5009830631
 30
0.0
 10
7.9653484927
 20
-21.5074698111
 30
0.0
 10
7.9046417962
 20
-20.8472014884
 30
0.0
 10
7.9046417962
 20
-20.5297846544
 30
0.0
  0
SPLINE
  5
314
100
AcDbEntity
  8
ASSI
100
AcDbSpline
 62
250
  6
CONTINUOUS
 70
0
 71
3
 72
14
 73
10
 74
0
 42
0.0000001
 43
0.0000001
 44
0.0000000001
 40
0.0
 40
0.0
 40
0.0
 40
0.0
 40
0.2858173506
 40
0.4178807117
 40
0.5430371939
 40
0.6622936854
 40
0.7770308254
 40
0.8889507235
 40
1.0
 40
1.0
 40
1.0
 40
1.0
 10
16.8429048471
 20
-24.8858750881
 30
0.0
 10
16.8429048471
 20
-25.2039122781
 30
0.0
 10
16.8021332298
 20
-25.6715844094
 30
0.0
 10
16.6457054957
 20
-26.256501959
 30
0.0
 10
16.4863456723
 20
-26.6453311895
 30
0.0
 10
16.2835195496
 20
-26.9913553863
 30
0.0
 10
16.0388559708
 20
-27.2906599341
 30
0.0
 10
15.7552537323
 20
-27.5397888771
 30
0.0
 10
15.5423150825
 20
-27.6699054544
 30
0.0
 10
15.4317987484
 20
-27.725178618
 30
0.0
  0
SPLINE
  5
315
100
AcDbEntity
  8
RACCORDO
100
AcDbSpline
 62
250
  6
CONTINUOUS
 70
0
 71
3
 72
19
 73
15
 74
0
 42
0.0000001
 43
0.0000001
 44
0.0000000001
 40
0.0
 40
0.0
 40
0.0
 40
0.0
 40
0.0487252436
 40
0.0992780866
 40
0.152410136
 40
0.2085803631
 40
0.3302128915
 40
0.3955744673
 40
0.4632960288
 40
0.6030005304
 40
0.7433235135
 40
0.8116831065
 40
0.8777087205
 40
1.0
 40
1.0
 40
1.0
 40
1.0
 10
16.4526142824
 20
-48.1316226774
 30
0.0
 10
16.2589004154
 20
-48.2461983222
 30
0.0
 10
15.8375131611
 20
-48.4369976313
 30
0.0
 10
15.1467249819
 20
-48.5928084163
 30
0.0
 10
14.404971038
 20
-48.6205313327
 30
0.0
 10
13.3431764533
 20
-48.4837666418
 30
0.0
 10
12.2744267242
 20
-48.0890045494
 30
0.0
 10
11.2579321712
 20
-47.4938711988
 30
0.0
 10
10.2462606863
 20
-46.7385614037
 30
0.0
 10
9.1185113529
 20
-45.5786427375
 30
0.0
 10
8.2348403195
 20
-44.2206901867
 30
0.0
 10
7.711135599
 20
-43.0623124584
 30
0.0
 10
7.3403602324
 20
-41.9351817747
 30
0.0
 10
7.2079335223
 20
-41.0627415522
 30
0.0
 10
7.2079320899
 20
-40.4978793499
 30
0.0
  0
SPLINE
  5
316
100
AcDbEntity
  8
RACCORDO
100
AcDbSpline
 62
250
  6
CONTINUOUS
 70
0
 71
3
 72
11
 73
7
 74
0
 42
0.0000001
 43
0.0000001
 44
0.0000000001
 40
0.0
 40
0.0
 40
0.0
 40
0.0
 40
0.275786398
 40
0.5291828739
 40
0.7673906063
 40
1.0
 40
1.0
 40
1.0
 40
1.0
 10
-30.048519186
 20
-12.0640278167
 30
0.0
 10
-30.21362658
 20
-12.0109268048
 30
0.0
 10
-30.5388546953
 20
-11.9321543265
 30
0.0
 10
-31.0240921536
 20
-11.9073481935
 30
0.0
 10
-31.476995221
 20
-11.9844952277
 30
0.0
 10
-31.7514289581
 20
-12.1046635689
 30
0.0
 10
-31.8773271811
 20
-12.1791512927
 30
0.0
  0
SPLINE
  5
317
100
AcDbEntity
  8
RACCORDO
100
AcDbSpline
 62
250
  6
CONTINUOUS
 70
0
 71
3
 72
11
 73
7
 74
0
 42
0.0000001
 43
0.0000001
 44
0.0000000001
 40
0.0
 40
0.0
 40
0.0
 40
0.0
 40
0.2429567307
 40
0.4882348041
 40
0.7395096873
 40
1.0
 40
1.0
 40
1.0
 40
1.0
 10
2.4651324222
 20
-42.6631959177
 30
0.0
 10
2.6109649544
 20
-42.5810603993
 30
0.0
 10
2.8909418938
 20
-42.3913899254
 30
0.0
 10
3.2611107976
 20
-42.038209464
 30
0.0
 10
3.5778343121
 20
-41.6213021119
 30
0.0
 10
3.7470923444
 20
-41.3103852914
 30
0.0
 10
3.821983057
 20
-41.1473087444
 30
0.0
  0
SPLINE
  5
318
100
AcDbEntity
  8
RACCORDO
100
AcDbSpline
 62
250
  6
CONTINUOUS
 70
0
 71
3
 72
11
 73
7
 74
0
 42
0.0000001
 43
0.0000001
 44
0.0000000001
 40
0.0
 40
0.0
 40
0.0
 40
0.0
 40
0.2419573208
 40
0.4855193318
 40
0.7365600983
 40
1.0
 40
1.0
 40
1.0
 40
1.0
 10
16.6814048438
 20
-48.7504194706
 30
0.0
 10
16.8901607707
 20
-48.6316527622
 30
0.0
 10
17.2847421898
 20
-48.3470200863
 30
0.0
 10
17.7724191334
 20
-47.7946310758
 30
0.0
 10
18.1408978713
 20
-47.132455828
 30
0.0
 10
18.2968284127
 20
-46.6424205094
 30
0.0
 10
18.3542064149
 20
-46.3872924945
 30
0.0
  0
SPLINE
  5
319
100
AcDbEntity
  8
RACCORDO
100
AcDbSpline
 62
250
  6
CONTINUOUS
 70
0
 71
3
 72
9
 73
5
 74
0
 42
0.0000001
 43
0.0000001
 44
0.0000000001
 40
0.0
 40
0.0
 40
0.0
 40
0.0
 40
0.5133171539
 40
1.0
 40
1.0
 40
1.0
 40
1.0
 10
-2.0032351002
 20
-30.3312737549
 30
0.0
 10
-6.8535615602
 20
-27.8595485344
 30
0.0
 10
-16.1118428264
 20
-22.6570661187
 30
0.0
 10
-24.8549322234
 20
-16.6201773681
 30
0.0
 10
-28.9407642299
 20
-13.4665251819
 30
0.0
  0
SPLINE
  5
31A
100
AcDbEntity
  8
RACCORDO
100
AcDbSpline
 62
250
  6
CONTINUOUS
 70
0
 71
3
 72
29
 73
25
 74
0
 42
0.0000001
 43
0.0000001
 44
0.0000000001
 40
0.0
 40
0.0
 40
0.0
 40
0.0
 40
0.0612579486
 40
0.1171659615
 40
0.1684392796
 40
0.1928901209
 40
0.2168809756
 40
0.2407346857
 40
0.2647883696
 40
0.289364613
 40
0.3147517884
 40
0.3411864065
 40
0.3688402174
 40
0.397827065
 40
0.4281899789
 40
0.4599382741
 40
0.4930045112
 40
0.5626398146
 40
0.6359915854
 40
0.7115108157
 40
0.7874414257
 40
0.8619546021
 40
0.9332998278
 40
1.0
 40
1.0
 40
1.0
 40
1.0
 10
-2.0032351002
 20
-42.2274353174
 30
0.0
 10
-1.6603662584
 20
-42.4021574669
 30
0.0
 10
-0.97434938
 20
-42.6826679277
 30
0.0
 10
0.0743196443
 20
-42.8767976558
 30
0.0
 10
0.9107456148
 20
-42.8208989548
 30
0.0
 10
1.5132807295
 20
-42.6419958806
 30
0.0
 10
1.9257010441
 20
-42.4474398073
 30
0.0
 10
2.3006327947
 20
-42.1922565056
 30
0.0
 10
2.6335580165
 20
-41.8789470441
 30
0.0
 10
2.9211996779
 20
-41.5114576775
 30
0.0
 10
3.1602183296
 20
-41.09346989
 30
0.0
 10
3.3481208148
 20
-40.6294280388
 30
0.0
 10
3.483393441
 20
-40.1241278453
 30
0.0
 10
3.5642686603
 20
-39.5825323659
 30
0.0
 10
3.5909544857
 20
-39.0099634307
 30
0.0
 10
3.5618684221
 20
-38.4119382975
 30
0.0
 10
3.4491313358
 20
-37.5740305893
 30
0.0
 10
3.1693302752
 20
-36.4993464251
 30
0.0
 10
2.6430825772
 20
-35.2275797646
 30
0.0
 10
1.9429253503
 20
-33.9971085607
 30
0.0
 10
1.0976196138
 20
-32.8527028588
 30
0.0
 10
0.1409855743
 20
-31.8349826026
 30
0.0
 10
-0.88970869
 20
-30.9807144868
 30
0.0
 10
-1.6299070857
 20
-30.521521695
 30
0.0
 10
-2.0032351002
 20
-30.3312737549
 30
0.0
  0
SPLINE
  5
31B
100
AcDbEntity
  8
RACCORDO
100
AcDbSpline
 62
250
  6
CONTINUOUS
 70
0
 71
3
 72
9
 73
5
 74
0
 42
0.0000001
 43
0.0000001
 44
0.0000000001
 40
0.0
 40
0.0
 40
0.0
 40
0.0
 40
0.4893804334
 40
1.0
 40
1.0
 40
1.0
 40
1.0
 10
-28.7746501867
 20
-25.4905104291
 30
0.0
 10
-25.5878633905
 20
-27.9430103672
 30
0.0
 10
-18.8669316431
 20
-32.686836652
 30
0.0
 10
-11.8151836279
 20
-36.9195537246
 30
0.0
 10
-8.1476195647
 20
-38.95753975
 30
0.0
  0
SPLINE
  5
31C
100
AcDbEntity
  8
RACCORDO
100
AcDbSpline
 62
250
  6
CONTINUOUS
 70
0
 71
3
 72
13
 73
9
 74
0
 42
0.0000001
 43
0.0000001
 44
0.0000000001
 40
0.0
 40
0.0
 40
0.0
 40
0.0
 40
0.2772245493
 40
0.5310703785
 40
0.6513338184
 40
0.7685652981
 40
0.884251249
 40
1.0
 40
1.0
 40
1.0
 40
1.0
 10
7.2079320899
 20
-40.4978793499
 30
0.0
 10
7.207932661
 20
-40.1583994704
 30
0.0
 10
7.2676374845
 20
-39.5055016267
 30
0.0
 10
7.5237828994
 20
-38.7403048634
 30
0.0
 10
7.8300238353
 20
-38.2202125198
 30
0.0
 10
8.1022684526
 20
-37.8820396827
 30
0.0
 10
8.4183760646
 20
-37.5926684287
 30
0.0
 10
8.6553026973
 20
-37.4348094611
 30
0.0
 10
8.7788042352
 20
-37.3652524708
 30
0.0
  0
SPLINE
  5
31D
100
AcDbEntity
  8
RACCORDO
100
AcDbSpline
 62
250
  6
CONTINUOUS
 70
0
 71
3
 72
30
 73
26
 74
0
 42
0.0000001
 43
0.0000001
 44
0.0000000001
 40
0.0
 40
0.0
 40
0.0
 40
0.0
 40
0.0578884536
 40
0.0837329169
 40
0.1075873803
 40
0.1296690951
 40
0.1503280943
 40
0.1700507361
 40
0.1894395453
 40
0.2091505509
 40
0.2298055281
 40
0.2519202321
 40
0.2758739769
 40
0.3019014796
 40
0.3301125514
 40
0.3605103294
 40
0.3930210421
 40
0.4637048338
 40
0.5404599959
 40
0.6210547322
 40
0.7030495285
 40
0.784023503
 40
0.8617319957
 40
0.9342204909
 40
1.0
 40
1.0
 40
1.0
 40
1.0
 10
-28.9407642299
 20
-13.4665251819
 30
0.0
 10
-29.2088659163
 20
-13.259590697
 30
0.0
 10
-29.6200842518
 20
-12.9866491111
 30
0.0
 10
-30.1942108914
 20
-12.7258413501
 30
0.0
 10
-30.5962373556
 20
-12.6001146859
 30
0.0
 10
-30.9825430887
 20
-12.5384733869
 30
0.0
 10
-31.3499558312
 20
-12.5424468179
 30
0.0
 10
-31.6947710939
 20
-12.6133997609
 30
0.0
 10
-32.0126850405
 20
-12.7516232978
 30
0.0
 10
-32.2994572279
 20
-12.9557500874
 30
0.0
 10
-32.5519298203
 20
-13.2229485828
 30
0.0
 10
-32.768204602
 20
-13.5499282598
 30
0.0
 10
-32.9468101739
 20
-13.9334836253
 30
0.0
 10
-33.0868007265
 20
-14.3700612732
 30
0.0
 10
-33.1871740306
 20
-14.8557493161
 30
0.0
 10
-33.2473654598
 20
-15.3860789755
 30
0.0
 10
-33.2737157226
 20
-16.1678782934
 30
0.0
 10
-33.1969771851
 20
-17.2210003377
 30
0.0
 10
-32.9509756369
 20
-18.5345414626
 30
0.0
 10
-32.5566292476
 20
-19.8804555214
 30
0.0
 10
-32.028292892
 20
-21.2061046269
 30
0.0
 10
-31.3842871729
 20
-22.4607443154
 30
0.0
 10
-30.6470235973
 20
-23.5977643938
 30
0.0
 10
-29.8416787964
 20
-24.57507038
 30
0.0
 10
-29.2454074946
 20
-25.1273323162
 30
0.0
 10
-28.9407642299
 20
-25.3624810816
 30
0.0
  0
SPLINE
  5
31E
100
AcDbEntity
  8
RACCORDO
100
AcDbSpline
 62
250
  6
CONTINUOUS
 70
0
 71
3
 72
12
 73
8
 74
0
 42
0.0000001
 43
0.0000001
 44
0.0000000001
 40
0.0
 40
0.0
 40
0.0
 40
0.0
 40
0.2272156782
 40
0.3488475817
 40
0.4747887655
 40
0.7353338927
 40
1.0
 40
1.0
 40
1.0
 40
1.0
 10
18.2208538535
 20
-45.2887021383
 30
0.0
 10
18.2208466639
 20
-44.7679907747
 30
0.0
 10
18.1079894758
 20
-43.9661383698
 30
0.0
 10
17.7862930989
 20
-42.9258198418
 30
0.0
 10
17.3312867447
 20
-41.8517895142
 30
0.0
 10
16.5571998561
 20
-40.5665188887
 30
0.0
 10
15.768834444
 20
-39.6487182121
 30
0.0
 10
15.3367927938
 20
-39.2230108108
 30
0.0
  0
SPLINE
  5
31F
100
AcDbEntity
  8
RACCORDO
100
AcDbSpline
 62
250
  6
CONTINUOUS
 70
0
 71
3
 72
11
 73
7
 74
0
 42
0.0000001
 43
0.0000001
 44
0.0000000001
 40
0.0
 40
0.0
 40
0.0
 40
0.0
 40
0.2678652746
 40
0.5254043477
 40
0.7700297042
 40
1.0
 40
1.0
 40
1.0
 40
1.0
 10
14.5180725632
 20
-38.4949802017
 30
0.0
 10
14.2456174274
 20
-38.2769769919
 30
0.0
 10
13.6891538435
 20
-37.8759875014
 30
0.0
 10
12.8149534385
 20
-37.3798498473
 30
0.0
 10
11.9336121468
 20
-37.0093802975
 30
0.0
 10
11.3344664365
 20
-36.8469737112
 30
0.0
 10
11.0400507796
 20
-36.7916257436
 30
0.0
  0
SPLINE
  5
320
100
AcDbEntity
  8
RACCORDO
100
AcDbSpline
 62
250
  6
CONTINUOUS
 70
0
 71
3
 72
15
 73
11
 74
0
 42
0.0000001
 43
0.0000001
 44
0.0000000001
 40
0.0
 40
0.0
 40
0.0
 40
0.0
 40
0.1327319474
 40
0.2568301748
 40
0.3747529109
 40
0.4900842752
 40
0.6069494044
 40
0.7292061714
 40
0.8597101009
 40
1.0
 40
1.0
 40
1.0
 40
1.0
 10
10.6579622184
 20
-36.7336538844
 30
0.0
 10
10.3827135308
 20
-36.7020968758
 30
0.0
 10
9.8435406453
 20
-36.6839709321
 30
0.0
 10
9.0660314294
 20
-36.8109141986
 30
0.0
 10
8.3685861721
 20
-37.0944196511
 30
0.0
 10
7.7721954795
 20
-37.5297140815
 30
0.0
 10
7.2956730411
 20
-38.1051797888
 30
0.0
 10
6.9517179603
 20
-38.8028202498
 30
0.0
 10
6.7461452506
 20
-39.6020570304
 30
0.0
 10
6.7039153777
 20
-40.1687029895
 30
0.0
 10
6.7039157063
 20
-40.4615304964
 30
0.0
  0
SPLINE
  5
321
100
AcDbEntity
  8
RACCORDO
100
AcDbSpline
 62
250
  6
CONTINUOUS
 70
0
 71
3
 72
26
 73
22
 74
0
 42
0.0000001
 43
0.0000001
 44
0.0000000001
 40
0.0
 40
0.0
 40
0.0
 40
0.0
 40
0.0630643764
 40
0.1308294543
 40
0.2022029093
 40
0.2757302491
 40
0.3498098122
 40
0.4228674314
 40
0.4934891396
 40
0.5605505133
 40
0.6233157681
 40
0.6815661081
 40
0.7357048374
 40
0.7616134355
 40
0.7869776817
 40
0.8120406039
 40
0.8370673168
 40
0.8623317379
 40
0.8880974007
 40
0.9419220796
 40
1.0
 40
1.0
 40
1.0
 40
1.0
 10
6.7039157063
 20
-40.4615304964
 30
0.0
 10
6.703920611
 20
-40.8546851304
 30
0.0
 10
6.7852751798
 20
-41.6713460063
 30
0.0
 10
7.1116926212
 20
-42.893490509
 30
0.0
 10
7.6355523848
 20
-44.1161185603
 30
0.0
 10
8.3376479978
 20
-45.2914060793
 30
0.0
 10
9.1919018136
 20
-46.3746270111
 30
0.0
 10
10.1679502597
 20
-47.324052455
 30
0.0
 10
11.2307257111
 20
-48.1041016633
 30
0.0
 10
12.3421720192
 20
-48.6866976268
 30
0.0
 10
13.4637839988
 20
-49.0500314738
 30
0.0
 10
14.5556918613
 20
-49.1803240498
 30
0.0
 10
15.4223321591
 20
-49.0851111462
 30
0.0
 10
16.0500651662
 20
-48.8846550265
 30
0.0
 10
16.4806459004
 20
-48.6782469717
 30
0.0
 10
16.8728027851
 20
-48.4155066295
 30
0.0
 10
17.2220631249
 20
-48.0988341627
 30
0.0
 10
17.5242907067
 20
-47.7313052997
 30
0.0
 10
17.8646301906
 20
-47.1709019349
 30
0.0
 10
18.1521827774
 20
-46.3513757243
 30
0.0
 10
18.2208542547
 20
-45.6507703115
 30
0.0
 10
18.2208538535
 20
-45.2887021383
 30
0.0
  0
SPLINE
  5
322
100
AcDbEntity
  8
RACCORDO
100
AcDbSpline
 62
250
  6
CONTINUOUS
 70
0
 71
3
 72
9
 73
5
 74
0
 42
0.0000001
 43
0.0000001
 44
0.0000000001
 40
0.0
 40
0.0
 40
0.0
 40
0.0
 40
0.5135269976
 40
1.0
 40
1.0
 40
1.0
 40
1.0
 10
18.1052426087
 20
-45.243859061
 30
0.0
 10
18.1052419682
 20
-45.489201081
 30
0.0
 10
18.0728249479
 20
-45.967741714
 30
0.0
 10
17.9664534892
 20
-46.4360471787
 30
0.0
 10
17.895250491
 20
-46.6572883878
 30
0.0
  0
SPLINE
  5
323
100
AcDbEntity
  8
RACCORDO
100
AcDbSpline
 62
250
  6
CONTINUOUS
 70
0
 71
3
 72
23
 73
19
 74
0
 42
0.0000001
 43
0.0000001
 44
0.0000000001
 40
0.0
 40
0.0
 40
0.0
 40
0.0
 40
0.0522878041
 40
0.1023724853
 40
0.1519841922
 40
0.2029013229
 40
0.2565849196
 40
0.3139751248
 40
0.3754612712
 40
0.4409438437
 40
0.5099141696
 40
0.5815339982
 40
0.6547174878
 40
0.728214025
 40
0.8007016546
 40
0.8708829796
 40
0.9376027205
 40
1.0
 40
1.0
 40
1.0
 40
1.0
 10
17.8931729156
 20
-46.6637249401
 30
0.0
 10
17.8024909517
 20
-46.9438478442
 30
0.0
 10
17.562006298
 20
-47.4751934755
 30
0.0
 10
17.0153196078
 20
-48.1463914919
 30
0.0
 10
16.3148765233
 20
-48.6427461389
 30
0.0
 10
15.4914579596
 20
-48.9463452967
 30
0.0
 10
14.5775599653
 20
-49.0508558734
 30
0.0
 10
13.6041915645
 20
-48.9571055346
 30
0.0
 10
12.6011834554
 20
-48.6705349126
 30
0.0
 10
11.5982152121
 20
-48.200838481
 30
0.0
 10
10.6249050886
 20
-47.5624718699
 30
0.0
 10
9.7102682176
 20
-46.7749490254
 30
0.0
 10
8.8818415249
 20
-45.8627572021
 30
0.0
 10
8.164707406
 20
-44.8547831695
 30
0.0
 10
7.5806858743
 20
-43.7834275078
 30
0.0
 10
7.1476249667
 20
-42.6831872386
 30
0.0
 10
6.8788904961
 20
-41.5900418239
 30
0.0
 10
6.8127954808
 20
-40.8621157823
 30
0.0
 10
6.8127939206
 20
-40.5107536832
 30
0.0
  0
SPLINE
  5
324
100
AcDbEntity
  8
RACCORDO
100
AcDbSpline
 62
250
  6
CONTINUOUS
 70
0
 71
3
 72
15
 73
11
 74
0
 42
0.0000001
 43
0.0000001
 44
0.0000000001
 40
0.0
 40
0.0
 40
0.0
 40
0.0
 40
0.1393313608
 40
0.268482728
 40
0.3892672457
 40
0.5049647686
 40
0.619902335
 40
0.7385401904
 40
0.8644964467
 40
1.0
 40
1.0
 40
1.0
 40
1.0
 10
6.8127939206
 20
-40.5107536832
 30
0.0
 10
6.8127948121
 20
-40.2102926131
 30
0.0
 10
6.8578609404
 20
-39.629673186
 30
0.0
 10
7.0796617766
 20
-38.8142709316
 30
0.0
 10
7.4505337491
 20
-38.1102383434
 30
0.0
 10
7.963091817
 20
-37.5407347255
 30
0.0
 10
8.6018143936
 20
-37.1257570938
 30
0.0
 10
9.3441620199
 20
-36.877157041
 30
0.0
 10
10.1657994201
 20
-36.7973442728
 30
0.0
 10
10.7304332731
 20
-36.8525525707
 30
0.0
 10
11.0180806154
 20
-36.9039695043
 30
0.0
  0
SPLINE
  5
325
100
AcDbEntity
  8
RACCORDO
100
AcDbSpline
 62
250
  6
CONTINUOUS
 70
0
 71
3
 72
11
 73
7
 74
0
 42
0.0000001
 43
0.0000001
 44
0.0000000001
 40
0.0
 40
0.0
 40
0.0
 40
0.0
 40
0.2307443607
 40
0.4755242554
 40
0.732731281
 40
1.0
 40
1.0
 40
1.0
 40
1.0
 10
11.1186733715
 20
-36.9229129991
 30
0.0
 10
11.3961976091
 20
-36.9778183652
 30
0.0
 10
11.9601205587
 20
-37.134148746
 30
0.0
 10
12.790130482
 20
-37.4830918885
 30
0.0
 10
13.6139841691
 20
-37.945953552
 30
0.0
 10
14.1396905488
 20
-38.3184821895
 30
0.0
 10
14.3975302807
 20
-38.520708343
 30
0.0
  0
SPLINE
  5
326
100
AcDbEntity
  8
RACCORDO
100
AcDbSpline
 62
250
  6
CONTINUOUS
 70
0
 71
3
 72
9
 73
5
 74
0
 42
0.0000001
 43
0.0000001
 44
0.0000000001
 40
0.0
 40
0.0
 40
0.0
 40
0.0
 40
0.5059904575
 40
1.0
 40
1.0
 40
1.0
 40
1.0
 10
15.2908002747
 20
-39.3088364415
 30
0.0
 10
15.7701538575
 20
-39.782781538
 30
0.0
 10
16.6312838804
 20
-40.8105456958
 30
0.0
 10
17.2816640402
 20
-41.9855456103
 30
0.0
 10
17.5339460898
 20
-42.5934053516
 30
0.0
  0
SPLINE
  5
327
100
AcDbEntity
  8
RACCORDO
100
AcDbSpline
 62
250
  6
CONTINUOUS
 70
0
 71
3
 72
9
 73
5
 74
0
 42
0.0000001
 43
0.0000001
 44
0.0000000001
 40
0.0
 40
0.0
 40
0.0
 40
0.0
 40
0.2531736929
 40
1.0
 40
1.0
 40
1.0
 40
1.0
 10
17.5339460898
 20
-42.5934053516
 30
0.0
 10
17.5601297159
 20
-42.6564933604
 30
0.0
 10
17.6606043954
 20
-42.9068910143
 30
0.0
 10
17.7490976437
 20
-43.1621267906
 30
0.0
 10
17.8076443065
 20
-43.3549257461
 30
0.0
  0
SPLINE
  5
328
100
AcDbEntity
  8
RACCORDO
100
AcDbSpline
 62
250
  6
CONTINUOUS
 70
0
 71
3
 72
9
 73
5
 74
0
 42
0.0000001
 43
0.0000001
 44
0.0000000001
 40
0.0
 40
0.0
 40
0.0
 40
0.0
 40
0.2608700867
 40
1.0
 40
1.0
 40
1.0
 40
1.0
 10
17.8203167538
 20
-43.3970886138
 30
0.0
 10
17.8667308039
 20
-43.5531281894
 30
0.0
 10
18.0256415997
 20
-44.1565369047
 30
0.0
 10
18.1052407001
 20
-44.7826043173
 30
0.0
 10
18.1052426087
 20
-45.243859061
 30
0.0
  0
SPLINE
  5
329
100
AcDbEntity
  8
RACCORDO
100
AcDbSpline
 62
250
  6
CONTINUOUS
 70
0
 71
3
 72
12
 73
8
 74
0
 42
0.0000001
 43
0.0000001
 44
0.0000000001
 40
0.0
 40
0.0
 40
0.0
 40
0.0
 40
0.2794430264
 40
0.5371310284
 40
0.7752163626
 40
0.8888199507
 40
1.0
 40
1.0
 40
1.0
 40
1.0
 10
12.0854255234
 20
-36.7854036513
 30
0.0
 10
11.7474423928
 20
-36.6647940694
 30
0.0
 10
11.0787213711
 20
-36.4808251314
 30
0.0
 10
10.0809968227
 20
-36.3935508372
 30
0.0
 10
9.2969034089
 20
-36.4966331628
 30
0.0
 10
8.7322124063
 20
-36.6868981295
 30
0.0
 10
8.4724838622
 20
-36.8153525114
 30
0.0
 10
8.3492535103
 20
-36.8874593307
 30
0.0
  0
SPLINE
  5
32A
100
AcDbEntity
  8
RACCORDO
100
AcDbSpline
 62
250
  6
CONTINUOUS
 70
0
 71
3
 72
11
 73
7
 74
0
 42
0.0000001
 43
0.0000001
 44
0.0000000001
 40
0.0
 40
0.0
 40
0.0
 40
0.0
 40
0.2958961425
 40
0.558114449
 40
0.7887091895
 40
1.0
 40
1.0
 40
1.0
 40
1.0
 10
6.7039157063
 20
-40.4615304964
 30
0.0
 10
6.6926737765
 20
-40.456444361
 30
0.0
 10
6.6721844216
 20
-40.445068546
 30
0.0
 10
6.6472262154
 20
-40.4231650661
 30
0.0
 10
6.6311155345
 20
-40.3980308705
 30
0.0
 10
6.6272885267
 20
-40.3794541268
 30
0.0
 10
6.6272813485
 20
-40.3706432431
 30
0.0
  0
SPLINE
  5
32B
100
AcDbEntity
  8
RACCORDO
100
AcDbSpline
 62
250
  6
CONTINUOUS
 70
0
 71
3
 72
9
 73
5
 74
0
 42
0.0000001
 43
0.0000001
 44
0.0000000001
 40
0.0
 40
0.0
 40
0.0
 40
0.0
 40
0.493316161
 40
1.0
 40
1.0
 40
1.0
 40
1.0
 10
18.2208538535
 20
-45.2887021383
 30
0.0
 10
18.2511749428
 20
-45.3004538752
 30
0.0
 10
18.3172291995
 20
-45.3125882608
 30
0.0
 10
18.3838962741
 20
-45.3062735314
 30
0.0
 10
18.4161671938
 20
-45.2976627319
 30
0.0
  0
SPLINE
  5
32C
100
AcDbEntity
  8
RACCORDO
100
AcDbSpline
 62
250
  6
CONTINUOUS
 70
0
 71
3
 72
10
 73
6
 74
0
 42
0.0000001
 43
0.0000001
 44
0.0000000001
 40
0.0
 40
0.0
 40
0.0
 40
0.0
 40
0.5294122883
 40
0.7692499978
 40
1.0
 40
1.0
 40
1.0
 40
1.0
 10
-28.9407642299
 20
-25.3624810815
 30
0.0
 10
-28.9407645957
 20
-25.4065611959
 30
0.0
 10
-28.930372287
 20
-25.4721926456
 30
0.0
 10
-28.88897745
 20
-25.5452706352
 30
0.0
 10
-28.8611092522
 20
-25.5736170037
 30
0.0
 10
-28.8458934347
 20
-25.5853477391
 30
0.0
  0
SPLINE
  5
32D
100
AcDbEntity
  8
RACCORDO
100
AcDbSpline
 62
250
  6
CONTINUOUS
 70
0
 71
3
 72
11
 73
7
 74
0
 42
0.0000001
 43
0.0000001
 44
0.0000000001
 40
0.0
 40
0.0
 40
0.0
 40
0.0
 40
0.2291148332
 40
0.4817247789
 40
0.7441175156
 40
1.0
 40
1.0
 40
1.0
 40
1.0
 10
-28.9407642299
 20
-13.4665251819
 30
0.0
 10
-28.9407646318
 20
-13.4181591386
 30
0.0
 10
-28.9232773182
 20
-13.3162834897
 30
0.0
 10
-28.8587582084
 20
-13.1716985619
 30
0.0
 10
-28.7613914614
 20
-13.0398282786
 30
0.0
 10
-28.6782336374
 20
-12.9669884726
 30
0.0
 10
-28.6334651977
 20
-12.9367628404
 30
0.0
  0
SPLINE
  5
32E
100
AcDbEntity
  8
RACCORDO
100
AcDbSpline
 62
250
  6
CONTINUOUS
 70
0
 71
3
 72
11
 73
7
 74
0
 42
0.0000001
 43
0.0000001
 44
0.0000000001
 40
0.0
 40
0.0
 40
0.0
 40
0.0
 40
0.2296379333
 40
0.4825884927
 40
0.7446152624
 40
1.0
 40
1.0
 40
1.0
 40
1.0
 10
-2.0032351002
 20
-30.3312737549
 30
0.0
 10
-2.0032349102
 20
-30.288635547
 30
0.0
 10
-1.9921308795
 20
-30.1989523028
 30
0.0
 10
-1.9509011428
 20
-30.0663966698
 30
0.0
 10
-1.8872915962
 20
-29.9376650226
 30
0.0
 10
-1.8315825652
 20
-29.8587562579
 30
0.0
 10
-1.800836454
 20
-29.8226561741
 30
0.0
  0
SPLINE
  5
32F
100
AcDbEntity
  8
RACCORDO
100
AcDbSpline
 62
250
  6
CONTINUOUS
 70
0
 71
3
 72
11
 73
7
 74
0
 42
0.0000001
 43
0.0000001
 44
0.0000000001
 40
0.0
 40
0.0
 40
0.0
 40
0.0
 40
0.2971509878
 40
0.5590387273
 40
0.7890651795
 40
1.0
 40
1.0
 40
1.0
 40
1.0
 10
-2.0032351002
 20
-42.2274353174
 30
0.0
 10
-2.0032349631
 20
-42.2535437309
 30
0.0
 10
-1.9994424366
 20
-42.3028238941
 30
0.0
 10
-1.9800354992
 20
-42.3700256327
 30
0.0
 10
-1.9471764487
 20
-42.4234423127
 30
0.0
 10
-1.9158928797
 20
-42.4480393343
 30
0.0
 10
-1.8993830818
 20
-42.4564600187
 30
0.0
  0
SPLINE
  5
330
100
AcDbEntity
  8
RACCORDO
100
AcDbSpline
 62
250
  6
CONTINUOUS
 70
0
 71
3
 72
19
 73
15
 74
0
 42
0.0000001
 43
0.0000001
 44
0.0000000001
 40
0.0
 40
0.0
 40
0.0
 40
0.0
 40
0.0487252436
 40
0.0992780866
 40
0.152410136
 40
0.2085803631
 40
0.3302128915
 40
0.3955744673
 40
0.4632960288
 40
0.6030005304
 40
0.7433235135
 40
0.8116831065
 40
0.8777087205
 40
1.0
 40
1.0
 40
1.0
 40
1.0
 10
16.4526142824
 20
-27.7198657575
 30
0.0
 10
16.2589004154
 20
-27.8344414024
 30
0.0
 10
15.8375131611
 20
-28.0252407114
 30
0.0
 10
15.1467249819
 20
-28.1810514965
 30
0.0
 10
14.404971038
 20
-28.2087744129
 30
0.0
 10
13.3431764533
 20
-28.072009722
 30
0.0
 10
12.2744267242
 20
-27.6772476295
 30
0.0
 10
11.2579321712
 20
-27.082114279
 30
0.0
 10
10.2462606863
 20
-26.3268044839
 30
0.0
 10
9.1185113529
 20
-25.1668858177
 30
0.0
 10
8.2348403195
 20
-23.8089332669
 30
0.0
 10
7.711135599
 20
-22.6505555386
 30
0.0
 10
7.3403602324
 20
-21.5234248549
 30
0.0
 10
7.2079335223
 20
-20.6509846323
 30
0.0
 10
7.2079320899
 20
-20.0861224301
 30
0.0
  0
SPLINE
  5
331
100
AcDbEntity
  8
RACCORDO
100
AcDbSpline
 62
250
  6
CONTINUOUS
 70
0
 71
3
 72
11
 73
7
 74
0
 42
0.0000001
 43
0.0000001
 44
0.0000000001
 40
0.0
 40
0.0
 40
0.0
 40
0.0
 40
0.275786398
 40
0.5291828739
 40
0.7673906063
 40
1.0
 40
1.0
 40
1.0
 40
1.0
 10
-30.048519186
 20
8.3477291031
 30
0.0
 10
-30.21362658
 20
8.400830115
 30
0.0
 10
-30.5388546953
 20
8.4796025933
 30
0.0
 10
-31.0240921536
 20
8.5044087263
 30
0.0
 10
-31.476995221
 20
8.4272616921
 30
0.0
 10
-31.7514289581
 20
8.3070933509
 30
0.0
 10
-31.8773271811
 20
8.2326056271
 30
0.0
  0
SPLINE
  5
332
100
AcDbEntity
  8
RACCORDO
100
AcDbSpline
 62
250
  6
CONTINUOUS
 70
0
 71
3
 72
11
 73
7
 74
0
 42
0.0000001
 43
0.0000001
 44
0.0000000001
 40
0.0
 40
0.0
 40
0.0
 40
0.0
 40
0.2429567307
 40
0.4882348041
 40
0.7395096873
 40
1.0
 40
1.0
 40
1.0
 40
1.0
 10
2.4651324222
 20
-22.2514389978
 30
0.0
 10
2.6109649544
 20
-22.1693034795
 30
0.0
 10
2.8909418938
 20
-21.9796330055
 30
0.0
 10
3.2611107976
 20
-21.6264525442
 30
0.0
 10
3.5778343121
 20
-21.209545192
 30
0.0
 10
3.7470923444
 20
-20.8986283715
 30
0.0
 10
3.821983057
 20
-20.7355518246
 30
0.0
  0
SPLINE
  5
333
100
AcDbEntity
  8
RACCORDO
100
AcDbSpline
 62
250
  6
CONTINUOUS
 70
0
 71
3
 72
11
 73
7
 74
0
 42
0.0000001
 43
0.0000001
 44
0.0000000001
 40
0.0
 40
0.0
 40
0.0
 40
0.0
 40
0.2419573208
 40
0.4855193318
 40
0.7365600983
 40
1.0
 40
1.0
 40
1.0
 40
1.0
 10
16.6814048438
 20
-28.3386625508
 30
0.0
 10
16.8901607707
 20
-28.2198958424
 30
0.0
 10
17.2847421898
 20
-27.9352631665
 30
0.0
 10
17.7724191334
 20
-27.3828741559
 30
0.0
 10
18.1408978713
 20
-26.7206989082
 30
0.0
 10
18.2968284127
 20
-26.2306635896
 30
0.0
 10
18.3542064149
 20
-25.9755355747
 30
0.0
  0
SPLINE
  5
334
100
AcDbEntity
  8
RACCORDO
100
AcDbSpline
 62
250
  6
CONTINUOUS
 70
0
 71
3
 72
9
 73
5
 74
0
 42
0.0000001
 43
0.0000001
 44
0.0000000001
 40
0.0
 40
0.0
 40
0.0
 40
0.0
 40
0.5133171539
 40
1.0
 40
1.0
 40
1.0
 40
1.0
 10
-2.0032351002
 20
-9.919516835
 30
0.0
 10
-6.8535615602
 20
-7.4477916146
 30
0.0
 10
-16.1118428264
 20
-2.2453091989
 30
0.0
 10
-24.8549322234
 20
3.7915795518
 30
0.0
 10
-28.9407642299
 20
6.9452317379
 30
0.0
  0
SPLINE
  5
335
100
AcDbEntity
  8
RACCORDO
100
AcDbSpline
 62
250
  6
CONTINUOUS
 70
0
 71
3
 72
29
 73
25
 74
0
 42
0.0000001
 43
0.0000001
 44
0.0000000001
 40
0.0
 40
0.0
 40
0.0
 40
0.0
 40
0.0612579486
 40
0.1171659615
 40
0.1684392796
 40
0.1928901209
 40
0.2168809756
 40
0.2407346857
 40
0.2647883696
 40
0.289364613
 40
0.3147517884
 40
0.3411864065
 40
0.3688402174
 40
0.397827065
 40
0.4281899789
 40
0.4599382741
 40
0.4930045112
 40
0.5626398146
 40
0.6359915854
 40
0.7115108157
 40
0.7874414257
 40
0.8619546021
 40
0.9332998278
 40
1.0
 40
1.0
 40
1.0
 40
1.0
 10
-2.0032351002
 20
-21.8156783976
 30
0.0
 10
-1.6603662584
 20
-21.9904005471
 30
0.0
 10
-0.97434938
 20
-22.2709110079
 30
0.0
 10
0.0743196443
 20
-22.4650407359
 30
0.0
 10
0.9107456148
 20
-22.409142035
 30
0.0
 10
1.5132807295
 20
-22.2302389607
 30
0.0
 10
1.9257010441
 20
-22.0356828875
 30
0.0
 10
2.3006327947
 20
-21.7804995858
 30
0.0
 10
2.6335580165
 20
-21.4671901243
 30
0.0
 10
2.9211996779
 20
-21.0997007577
 30
0.0
 10
3.1602183296
 20
-20.6817129702
 30
0.0
 10
3.3481208148
 20
-20.217671119
 30
0.0
 10
3.483393441
 20
-19.7123709255
 30
0.0
 10
3.5642686603
 20
-19.1707754461
 30
0.0
 10
3.5909544857
 20
-18.5982065109
 30
0.0
 10
3.5618684221
 20
-18.0001813777
 30
0.0
 10
3.4491313358
 20
-17.1622736695
 30
0.0
 10
3.1693302752
 20
-16.0875895053
 30
0.0
 10
2.6430825772
 20
-14.8158228448
 30
0.0
 10
1.9429253503
 20
-13.5853516408
 30
0.0
 10
1.0976196138
 20
-12.4409459389
 30
0.0
 10
0.1409855743
 20
-11.4232256828
 30
0.0
 10
-0.88970869
 20
-10.568957567
 30
0.0
 10
-1.6299070857
 20
-10.1097647752
 30
0.0
 10
-2.0032351002
 20
-9.919516835
 30
0.0
  0
SPLINE
  5
336
100
AcDbEntity
  8
RACCORDO
100
AcDbSpline
 62
250
  6
CONTINUOUS
 70
0
 71
3
 72
9
 73
5
 74
0
 42
0.0000001
 43
0.0000001
 44
0.0000000001
 40
0.0
 40
0.0
 40
0.0
 40
0.0
 40
0.4893804334
 40
1.0
 40
1.0
 40
1.0
 40
1.0
 10
-28.7746501867
 20
-5.0787535093
 30
0.0
 10
-25.5878633905
 20
-7.5312534473
 30
0.0
 10
-18.8669316431
 20
-12.2750797322
 30
0.0
 10
-11.8151836279
 20
-16.5077968047
 30
0.0
 10
-8.1476195647
 20
-18.5457828301
 30
0.0
  0
SPLINE
  5
337
100
AcDbEntity
  8
RACCORDO
100
AcDbSpline
 62
250
  6
CONTINUOUS
 70
0
 71
3
 72
13
 73
9
 74
0
 42
0.0000001
 43
0.0000001
 44
0.0000000001
 40
0.0
 40
0.0
 40
0.0
 40
0.0
 40
0.2772245493
 40
0.5310703785
 40
0.6513338184
 40
0.7685652981
 40
0.884251249
 40
1.0
 40
1.0
 40
1.0
 40
1.0
 10
7.2079320899
 20
-20.0861224301
 30
0.0
 10
7.207932661
 20
-19.7466425506
 30
0.0
 10
7.2676374845
 20
-19.0937447068
 30
0.0
 10
7.5237828994
 20
-18.3285479436
 30
0.0
 10
7.8300238353
 20
-17.8084556
 30
0.0
 10
8.1022684526
 20
-17.4702827629
 30
0.0
 10
8.4183760646
 20
-17.1809115089
 30
0.0
 10
8.6553026973
 20
-17.0230525413
 30
0.0
 10
8.7788042352
 20
-16.953495551
 30
0.0
  0
SPLINE
  5
338
100
AcDbEntity
  8
RACCORDO
100
AcDbSpline
 62
250
  6
CONTINUOUS
 70
0
 71
3
 72
30
 73
26
 74
0
 42
0.0000001
 43
0.0000001
 44
0.0000000001
 40
0.0
 40
0.0
 40
0.0
 40
0.0
 40
0.0578884536
 40
0.0837329169
 40
0.1075873803
 40
0.1296690951
 40
0.1503280943
 40
0.1700507361
 40
0.1894395453
 40
0.2091505509
 40
0.2298055281
 40
0.2519202321
 40
0.2758739769
 40
0.3019014796
 40
0.3301125514
 40
0.3605103294
 40
0.3930210421
 40
0.4637048338
 40
0.5404599959
 40
0.6210547322
 40
0.7030495285
 40
0.784023503
 40
0.8617319957
 40
0.9342204909
 40
1.0
 40
1.0
 40
1.0
 40
1.0
 10
-28.9407642299
 20
6.9452317379
 30
0.0
 10
-29.2088659163
 20
7.1521662228
 30
0.0
 10
-29.6200842518
 20
7.4251078088
 30
0.0
 10
-30.1942108914
 20
7.6859155697
 30
0.0
 10
-30.5962373556
 20
7.8116422339
 30
0.0
 10
-30.9825430887
 20
7.873283533
 30
0.0
 10
-31.3499558312
 20
7.8693101019
 30
0.0
 10
-31.6947710939
 20
7.7983571589
 30
0.0
 10
-32.0126850405
 20
7.660133622
 30
0.0
 10
-32.2994572279
 20
7.4560068324
 30
0.0
 10
-32.5519298203
 20
7.1888083371
 30
0.0
 10
-32.768204602
 20
6.86182866
 30
0.0
 10
-32.9468101739
 20
6.4782732946
 30
0.0
 10
-33.0868007265
 20
6.0416956466
 30
0.0
 10
-33.1871740306
 20
5.5560076037
 30
0.0
 10
-33.2473654598
 20
5.0256779443
 30
0.0
 10
-33.2737157226
 20
4.2438786264
 30
0.0
 10
-33.1969771851
 20
3.1907565821
 30
0.0
 10
-32.9509756369
 20
1.8772154572
 30
0.0
 10
-32.5566292476
 20
0.5313013984
 30
0.0
 10
-32.028292892
 20
-0.7943477071
 30
0.0
 10
-31.3842871729
 20
-2.0489873956
 30
0.0
 10
-30.6470235973
 20
-3.186007474
 30
0.0
 10
-29.8416787964
 20
-4.1633134602
 30
0.0
 10
-29.2454074946
 20
-4.7155753964
 30
0.0
 10
-28.9407642299
 20
-4.9507241617
 30
0.0
  0
SPLINE
  5
339
100
AcDbEntity
  8
RACCORDO
100
AcDbSpline
 62
250
  6
CONTINUOUS
 70
0
 71
3
 72
12
 73
8
 74
0
 42
0.0000001
 43
0.0000001
 44
0.0000000001
 40
0.0
 40
0.0
 40
0.0
 40
0.0
 40
0.2272156782
 40
0.3488475817
 40
0.4747887655
 40
0.7353338927
 40
1.0
 40
1.0
 40
1.0
 40
1.0
 10
18.2208538535
 20
-24.8769452185
 30
0.0
 10
18.2208466639
 20
-24.3562338549
 30
0.0
 10
18.1079894758
 20
-23.55438145
 30
0.0
 10
17.7862930989
 20
-22.514062922
 30
0.0
 10
17.3312867447
 20
-21.4400325944
 30
0.0
 10
16.5571998561
 20
-20.1547619688
 30
0.0
 10
15.768834444
 20
-19.2369612923
 30
0.0
 10
15.3367927938
 20
-18.811253891
 30
0.0
  0
SPLINE
  5
33A
100
AcDbEntity
  8
RACCORDO
100
AcDbSpline
 62
250
  6
CONTINUOUS
 70
0
 71
3
 72
11
 73
7
 74
0
 42
0.0000001
 43
0.0000001
 44
0.0000000001
 40
0.0
 40
0.0
 40
0.0
 40
0.0
 40
0.2678652746
 40
0.5254043477
 40
0.7700297042
 40
1.0
 40
1.0
 40
1.0
 40
1.0
 10
14.5180725632
 20
-18.0832232819
 30
0.0
 10
14.2456174274
 20
-17.8652200721
 30
0.0
 10
13.6891538435
 20
-17.4642305816
 30
0.0
 10
12.8149534385
 20
-16.9680929275
 30
0.0
 10
11.9336121468
 20
-16.5976233776
 30
0.0
 10
11.3344664365
 20
-16.4352167914
 30
0.0
 10
11.0400507796
 20
-16.3798688238
 30
0.0
  0
SPLINE
  5
33B
100
AcDbEntity
  8
RACCORDO
100
AcDbSpline
 62
250
  6
CONTINUOUS
 70
0
 71
3
 72
15
 73
11
 74
0
 42
0.0000001
 43
0.0000001
 44
0.0000000001
 40
0.0
 40
0.0
 40
0.0
 40
0.0
 40
0.1327319474
 40
0.2568301748
 40
0.3747529109
 40
0.4900842752
 40
0.6069494044
 40
0.7292061714
 40
0.8597101009
 40
1.0
 40
1.0
 40
1.0
 40
1.0
 10
10.6579622184
 20
-16.3218969646
 30
0.0
 10
10.3827135308
 20
-16.290339956
 30
0.0
 10
9.8435406453
 20
-16.2722140122
 30
0.0
 10
9.0660314294
 20
-16.3991572788
 30
0.0
 10
8.3685861721
 20
-16.6826627312
 30
0.0
 10
7.7721954795
 20
-17.1179571616
 30
0.0
 10
7.2956730411
 20
-17.6934228689
 30
0.0
 10
6.9517179603
 20
-18.39106333
 30
0.0
 10
6.7461452506
 20
-19.1903001106
 30
0.0
 10
6.7039153777
 20
-19.7569460697
 30
0.0
 10
6.7039157063
 20
-20.0497735765
 30
0.0
  0
SPLINE
  5
33C
100
AcDbEntity
  8
RACCORDO
100
AcDbSpline
 62
250
  6
CONTINUOUS
 70
0
 71
3
 72
26
 73
22
 74
0
 42
0.0000001
 43
0.0000001
 44
0.0000000001
 40
0.0
 40
0.0
 40
0.0
 40
0.0
 40
0.0630643764
 40
0.1308294543
 40
0.2022029093
 40
0.2757302491
 40
0.3498098122
 40
0.4228674314
 40
0.4934891396
 40
0.5605505133
 40
0.6233157681
 40
0.6815661081
 40
0.7357048374
 40
0.7616134355
 40
0.7869776817
 40
0.8120406039
 40
0.8370673168
 40
0.8623317379
 40
0.8880974007
 40
0.9419220796
 40
1.0
 40
1.0
 40
1.0
 40
1.0
 10
6.7039157063
 20
-20.0497735765
 30
0.0
 10
6.703920611
 20
-20.4429282106
 30
0.0
 10
6.7852751798
 20
-21.2595890865
 30
0.0
 10
7.1116926212
 20
-22.4817335892
 30
0.0
 10
7.6355523848
 20
-23.7043616405
 30
0.0
 10
8.3376479978
 20
-24.8796491594
 30
0.0
 10
9.1919018136
 20
-25.9628700913
 30
0.0
 10
10.1679502597
 20
-26.9122955352
 30
0.0
 10
11.2307257111
 20
-27.6923447434
 30
0.0
 10
12.3421720192
 20
-28.274940707
 30
0.0
 10
13.4637839988
 20
-28.638274554
 30
0.0
 10
14.5556918613
 20
-28.7685671299
 30
0.0
 10
15.4223321591
 20
-28.6733542264
 30
0.0
 10
16.0500651662
 20
-28.4728981067
 30
0.0
 10
16.4806459004
 20
-28.2664900519
 30
0.0
 10
16.8728027851
 20
-28.0037497097
 30
0.0
 10
17.2220631249
 20
-27.6870772429
 30
0.0
 10
17.5242907067
 20
-27.3195483799
 30
0.0
 10
17.8646301906
 20
-26.759145015
 30
0.0
 10
18.1521827774
 20
-25.9396188044
 30
0.0
 10
18.2208542547
 20
-25.2390133917
 30
0.0
 10
18.2208538535
 20
-24.8769452185
 30
0.0
  0
SPLINE
  5
33D
100
AcDbEntity
  8
RACCORDO
100
AcDbSpline
 62
250
  6
CONTINUOUS
 70
0
 71
3
 72
9
 73
5
 74
0
 42
0.0000001
 43
0.0000001
 44
0.0000000001
 40
0.0
 40
0.0
 40
0.0
 40
0.0
 40
0.5135269976
 40
1.0
 40
1.0
 40
1.0
 40
1.0
 10
18.1052426087
 20
-24.8321021412
 30
0.0
 10
18.1052419682
 20
-25.0774441612
 30
0.0
 10
18.0728249479
 20
-25.5559847942
 30
0.0
 10
17.9664534892
 20
-26.0242902589
 30
0.0
 10
17.895250491
 20
-26.245531468
 30
0.0
  0
SPLINE
  5
33E
100
AcDbEntity
  8
RACCORDO
100
AcDbSpline
 62
250
  6
CONTINUOUS
 70
0
 71
3
 72
23
 73
19
 74
0
 42
0.0000001
 43
0.0000001
 44
0.0000000001
 40
0.0
 40
0.0
 40
0.0
 40
0.0
 40
0.0522878041
 40
0.1023724853
 40
0.1519841922
 40
0.2029013229
 40
0.2565849196
 40
0.3139751248
 40
0.3754612712
 40
0.4409438437
 40
0.5099141696
 40
0.5815339982
 40
0.6547174878
 40
0.728214025
 40
0.8007016546
 40
0.8708829796
 40
0.9376027205
 40
1.0
 40
1.0
 40
1.0
 40
1.0
 10
17.8931729156
 20
-26.2519680203
 30
0.0
 10
17.8024909517
 20
-26.5320909244
 30
0.0
 10
17.562006298
 20
-27.0634365557
 30
0.0
 10
17.0153196078
 20
-27.7346345721
 30
0.0
 10
16.3148765233
 20
-28.2309892191
 30
0.0
 10
15.4914579596
 20
-28.5345883769
 30
0.0
 10
14.5775599653
 20
-28.6390989536
 30
0.0
 10
13.6041915645
 20
-28.5453486147
 30
0.0
 10
12.6011834554
 20
-28.2587779928
 30
0.0
 10
11.5982152121
 20
-27.7890815612
 30
0.0
 10
10.6249050886
 20
-27.15071495
 30
0.0
 10
9.7102682176
 20
-26.3631921056
 30
0.0
 10
8.8818415249
 20
-25.4510002823
 30
0.0
 10
8.164707406
 20
-24.4430262497
 30
0.0
 10
7.5806858743
 20
-23.371670588
 30
0.0
 10
7.1476249667
 20
-22.2714303188
 30
0.0
 10
6.8788904961
 20
-21.178284904
 30
0.0
 10
6.8127954808
 20
-20.4503588624
 30
0.0
 10
6.8127939206
 20
-20.0989967634
 30
0.0
  0
SPLINE
  5
33F
100
AcDbEntity
  8
RACCORDO
100
AcDbSpline
 62
250
  6
CONTINUOUS
 70
0
 71
3
 72
15
 73
11
 74
0
 42
0.0000001
 43
0.0000001
 44
0.0000000001
 40
0.0
 40
0.0
 40
0.0
 40
0.0
 40
0.1393313608
 40
0.268482728
 40
0.3892672457
 40
0.5049647686
 40
0.619902335
 40
0.7385401904
 40
0.8644964467
 40
1.0
 40
1.0
 40
1.0
 40
1.0
 10
6.8127939206
 20
-20.0989967634
 30
0.0
 10
6.8127948121
 20
-19.7985356933
 30
0.0
 10
6.8578609404
 20
-19.2179162662
 30
0.0
 10
7.0796617766
 20
-18.4025140117
 30
0.0
 10
7.4505337491
 20
-17.6984814236
 30
0.0
 10
7.963091817
 20
-17.1289778057
 30
0.0
 10
8.6018143936
 20
-16.714000174
 30
0.0
 10
9.3441620199
 20
-16.4654001212
 30
0.0
 10
10.1657994201
 20
-16.385587353
 30
0.0
 10
10.7304332731
 20
-16.4407956509
 30
0.0
 10
11.0180806154
 20
-16.4922125845
 30
0.0
  0
SPLINE
  5
340
100
AcDbEntity
  8
RACCORDO
100
AcDbSpline
 62
250
  6
CONTINUOUS
 70
0
 71
3
 72
11
 73
7
 74
0
 42
0.0000001
 43
0.0000001
 44
0.0000000001
 40
0.0
 40
0.0
 40
0.0
 40
0.0
 40
0.2307443607
 40
0.4755242554
 40
0.732731281
 40
1.0
 40
1.0
 40
1.0
 40
1.0
 10
11.1186733715
 20
-16.5111560793
 30
0.0
 10
11.3961976091
 20
-16.5660614453
 30
0.0
 10
11.9601205587
 20
-16.7223918261
 30
0.0
 10
12.790130482
 20
-17.0713349687
 30
0.0
 10
13.6139841691
 20
-17.5341966321
 30
0.0
 10
14.1396905488
 20
-17.9067252697
 30
0.0
 10
14.3975302807
 20
-18.1089514231
 30
0.0
  0
SPLINE
  5
341
100
AcDbEntity
  8
RACCORDO
100
AcDbSpline
 62
250
  6
CONTINUOUS
 70
0
 71
3
 72
9
 73
5
 74
0
 42
0.0000001
 43
0.0000001
 44
0.0000000001
 40
0.0
 40
0.0
 40
0.0
 40
0.0
 40
0.5059904575
 40
1.0
 40
1.0
 40
1.0
 40
1.0
 10
15.2908002747
 20
-18.8970795216
 30
0.0
 10
15.7701538575
 20
-19.3710246182
 30
0.0
 10
16.6312838804
 20
-20.398788776
 30
0.0
 10
17.2816640402
 20
-21.5737886905
 30
0.0
 10
17.5339460898
 20
-22.1816484318
 30
0.0
  0
SPLINE
  5
342
100
AcDbEntity
  8
RACCORDO
100
AcDbSpline
 62
250
  6
CONTINUOUS
 70
0
 71
3
 72
9
 73
5
 74
0
 42
0.0000001
 43
0.0000001
 44
0.0000000001
 40
0.0
 40
0.0
 40
0.0
 40
0.0
 40
0.2531736929
 40
1.0
 40
1.0
 40
1.0
 40
1.0
 10
17.5339460898
 20
-22.1816484318
 30
0.0
 10
17.5601297159
 20
-22.2447364405
 30
0.0
 10
17.6606043954
 20
-22.4951340944
 30
0.0
 10
17.7490976437
 20
-22.7503698708
 30
0.0
 10
17.8076443065
 20
-22.9431688262
 30
0.0
  0
SPLINE
  5
343
100
AcDbEntity
  8
RACCORDO
100
AcDbSpline
 62
250
  6
CONTINUOUS
 70
0
 71
3
 72
9
 73
5
 74
0
 42
0.0000001
 43
0.0000001
 44
0.0000000001
 40
0.0
 40
0.0
 40
0.0
 40
0.0
 40
0.2608700867
 40
1.0
 40
1.0
 40
1.0
 40
1.0
 10
17.8203167538
 20
-22.985331694
 30
0.0
 10
17.8667308039
 20
-23.1413712696
 30
0.0
 10
18.0256415997
 20
-23.7447799849
 30
0.0
 10
18.1052407001
 20
-24.3708473975
 30
0.0
 10
18.1052426087
 20
-24.8321021412
 30
0.0
  0
SPLINE
  5
344
100
AcDbEntity
  8
RACCORDO
100
AcDbSpline
 62
250
  6
CONTINUOUS
 70
0
 71
3
 72
12
 73
8
 74
0
 42
0.0000001
 43
0.0000001
 44
0.0000000001
 40
0.0
 40
0.0
 40
0.0
 40
0.0
 40
0.2794430264
 40
0.5371310284
 40
0.7752163626
 40
0.8888199507
 40
1.0
 40
1.0
 40
1.0
 40
1.0
 10
12.0854255234
 20
-16.3736467315
 30
0.0
 10
11.7474423928
 20
-16.2530371496
 30
0.0
 10
11.0787213711
 20
-16.0690682116
 30
0.0
 10
10.0809968227
 20
-15.9817939174
 30
0.0
 10
9.2969034089
 20
-16.0848762429
 30
0.0
 10
8.7322124063
 20
-16.2751412097
 30
0.0
 10
8.4724838622
 20
-16.4035955916
 30
0.0
 10
8.3492535103
 20
-16.4757024109
 30
0.0
  0
SPLINE
  5
345
100
AcDbEntity
  8
RACCORDO
100
AcDbSpline
 62
250
  6
CONTINUOUS
 70
0
 71
3
 72
11
 73
7
 74
0
 42
0.0000001
 43
0.0000001
 44
0.0000000001
 40
0.0
 40
0.0
 40
0.0
 40
0.0
 40
0.2958961425
 40
0.558114449
 40
0.7887091895
 40
1.0
 40
1.0
 40
1.0
 40
1.0
 10
6.7039157063
 20
-20.0497735765
 30
0.0
 10
6.6926737765
 20
-20.0446874412
 30
0.0
 10
6.6721844216
 20
-20.0333116262
 30
0.0
 10
6.6472262154
 20
-20.0114081463
 30
0.0
 10
6.6311155345
 20
-19.9862739507
 30
0.0
 10
6.6272885267
 20
-19.9676972069
 30
0.0
 10
6.6272813485
 20
-19.9588863232
 30
0.0
  0
SPLINE
  5
346
100
AcDbEntity
  8
RACCORDO
100
AcDbSpline
 62
250
  6
CONTINUOUS
 70
0
 71
3
 72
9
 73
5
 74
0
 42
0.0000001
 43
0.0000001
 44
0.0000000001
 40
0.0
 40
0.0
 40
0.0
 40
0.0
 40
0.493316161
 40
1.0
 40
1.0
 40
1.0
 40
1.0
 10
18.2208538535
 20
-24.8769452185
 30
0.0
 10
18.2511749428
 20
-24.8886969554
 30
0.0
 10
18.3172291995
 20
-24.900831341
 30
0.0
 10
18.3838962741
 20
-24.8945166116
 30
0.0
 10
18.4161671938
 20
-24.8859058121
 30
0.0
  0
SPLINE
  5
347
100
AcDbEntity
  8
RACCORDO
100
AcDbSpline
 62
250
  6
CONTINUOUS
 70
0
 71
3
 72
10
 73
6
 74
0
 42
0.0000001
 43
0.0000001
 44
0.0000000001
 40
0.0
 40
0.0
 40
0.0
 40
0.0
 40
0.5294122883
 40
0.7692499978
 40
1.0
 40
1.0
 40
1.0
 40
1.0
 10
-28.9407642299
 20
-4.9507241617
 30
0.0
 10
-28.9407645957
 20
-4.9948042761
 30
0.0
 10
-28.930372287
 20
-5.0604357258
 30
0.0
 10
-28.88897745
 20
-5.1335137154
 30
0.0
 10
-28.8611092522
 20
-5.1618600839
 30
0.0
 10
-28.8458934347
 20
-5.1735908193
 30
0.0
  0
SPLINE
  5
348
100
AcDbEntity
  8
RACCORDO
100
AcDbSpline
 62
250
  6
CONTINUOUS
 70
0
 71
3
 72
11
 73
7
 74
0
 42
0.0000001
 43
0.0000001
 44
0.0000000001
 40
0.0
 40
0.0
 40
0.0
 40
0.0
 40
0.2291148332
 40
0.4817247789
 40
0.7441175156
 40
1.0
 40
1.0
 40
1.0
 40
1.0
 10
-28.9407642299
 20
6.9452317379
 30
0.0
 10
-28.9407646318
 20
6.9935977812
 30
0.0
 10
-28.9232773182
 20
7.0954734301
 30
0.0
 10
-28.8587582084
 20
7.2400583579
 30
0.0
 10
-28.7613914614
 20
7.3719286412
 30
0.0
 10
-28.6782336374
 20
7.4447684472
 30
0.0
 10
-28.6334651977
 20
7.4749940794
 30
0.0
  0
SPLINE
  5
349
100
AcDbEntity
  8
RACCORDO
100
AcDbSpline
 62
250
  6
CONTINUOUS
 70
0
 71
3
 72
11
 73
7
 74
0
 42
0.0000001
 43
0.0000001
 44
0.0000000001
 40
0.0
 40
0.0
 40
0.0
 40
0.0
 40
0.2296379333
 40
0.4825884927
 40
0.7446152624
 40
1.0
 40
1.0
 40
1.0
 40
1.0
 10
-2.0032351002
 20
-9.919516835
 30
0.0
 10
-2.0032349102
 20
-9.8768786272
 30
0.0
 10
-1.9921308795
 20
-9.787195383
 30
0.0
 10
-1.9509011428
 20
-9.65463975
 30
0.0
 10
-1.8872915962
 20
-9.5259081028
 30
0.0
 10
-1.8315825652
 20
-9.4469993381
 30
0.0
 10
-1.800836454
 20
-9.4108992542
 30
0.0
  0
SPLINE
  5
34A
100
AcDbEntity
  8
RACCORDO
100
AcDbSpline
 62
250
  6
CONTINUOUS
 70
0
 71
3
 72
11
 73
7
 74
0
 42
0.0000001
 43
0.0000001
 44
0.0000000001
 40
0.0
 40
0.0
 40
0.0
 40
0.0
 40
0.2971509878
 40
0.5590387273
 40
0.7890651795
 40
1.0
 40
1.0
 40
1.0
 40
1.0
 10
-2.0032351002
 20
-21.8156783976
 30
0.0
 10
-2.0032349631
 20
-21.8417868111
 30
0.0
 10
-1.9994424366
 20
-21.8910669743
 30
0.0
 10
-1.9800354992
 20
-21.9582687129
 30
0.0
 10
-1.9471764487
 20
-22.0116853929
 30
0.0
 10
-1.9158928797
 20
-22.0362824145
 30
0.0
 10
-1.8993830818
 20
-22.0447030988
 30
0.0
  0
SPLINE
  5
34B
100
AcDbEntity
  8
ASSI
100
AcDbSpline
 62
7
  6
CONTINUOUS
 70
0
 71
3
 72
15
 73
11
 74
0
 42
0.0000001
 43
0.0000001
 44
0.0000000001
 40
0.0
 40
0.0
 40
0.0
 40
0.0
 40
0.1023590152
 40
0.2063520101
 40
0.3152254733
 40
0.4316179953
 40
0.5574198758
 40
0.6937904848
 40
0.8413100097
 40
1.0
 40
1.0
 40
1.0
 40
1.0
 10
-32.1620245224
 20
8.358202096
 30
0.0
 10
-32.053993517
 20
8.4205784908
 30
0.0
 10
-31.8224021553
 20
8.5240347952
 30
0.0
 10
-31.4443256916
 20
8.6051449818
 30
0.0
 10
-31.0408494522
 20
8.6121963483
 30
0.0
 10
-30.6162800643
 20
8.5464861374
 30
0.0
 10
-30.1741730962
 20
8.4098304829
 30
0.0
 10
-29.7180133197
 20
8.2041769909
 30
0.0
 10
-29.2515674384
 20
7.9317119179
 30
0.0
 10
-28.9471693589
 20
7.7149474773
 30
0.0
 10
-28.7940032799
 20
7.5968691796
 30
0.0
  0
SPLINE
  5
34C
100
AcDbEntity
  8
0
100
AcDbSpline
 62
7
  6
CONTINUOUS
 70
0
 71
3
 72
12
 73
8
 74
0
 42
0.0000001
 43
0.0000001
 44
0.0000000001
 40
0.0
 40
0.0
 40
0.0
 40
0.0
 40
0.2516515514
 40
0.513991448
 40
0.7688092114
 40
0.8882395763
 40
1.0
 40
1.0
 40
1.0
 40
1.0
 10
28.3348427014
 20
-62.3328089126
 30
0.0
 10
28.6105628221
 20
-62.4233967546
 30
0.0
 10
29.196039784
 20
-62.5438671191
 30
0.0
 10
30.0868291996
 20
-62.5581054404
 30
0.0
 10
30.8160336595
 20
-62.4341437054
 30
0.0
 10
31.3471186122
 20
-62.2519374458
 30
0.0
 10
31.5879061842
 20
-62.1352994665
 30
0.0
 10
31.6995255738
 20
-62.0708518298
 30
0.0
  0
SPLINE
  5
34D
100
AcDbEntity
  8
ASSI
100
AcDbSpline
 62
7
  6
CONTINUOUS
 70
0
 71
3
 72
15
 73
11
 74
0
 42
0.0000001
 43
0.0000001
 44
0.0000000001
 40
0.0
 40
0.0
 40
0.0
 40
0.0
 40
0.1011081475
 40
0.2069734922
 40
0.3197390269
 40
0.4405773158
 40
0.5697579262
 40
0.706810695
 40
0.8507039106
 40
1.0
 40
1.0
 40
1.0
 40
1.0
 10
7.9908396556
 20
-16.3544224077
 30
0.0
 10
8.2028096839
 20
-16.2320331778
 30
0.0
 10
8.6679037099
 20
-16.032390542
 30
0.0
 10
9.4333704653
 20
-15.8870033704
 30
0.0
 10
10.2595839178
 20
-15.8901450252
 30
0.0
 10
11.1286324091
 20
-16.038746078
 30
0.0
 10
12.0230138668
 20
-16.3273987942
 30
0.0
 10
12.9245191568
 20
-16.7488886434
 30
0.0
 10
13.8143860583
 20
-17.2938106502
 30
0.0
 10
14.3793587138
 20
-17.7257384239
 30
0.0
 10
14.6555501718
 20
-17.958855255
 30
0.0
  0
SPLINE
  5
34E
100
AcDbEntity
  8
ASSI
100
AcDbSpline
 62
7
  6
CONTINUOUS
 70
0
 71
3
 72
11
 73
7
 74
0
 42
0.0000001
 43
0.0000001
 44
0.0000000001
 40
0.0
 40
0.0
 40
0.0
 40
0.0
 40
0.2552335013
 40
0.5122130931
 40
0.7628647343
 40
1.0
 40
1.0
 40
1.0
 40
1.0
 10
14.6555501718
 20
-17.958855255
 30
0.0
 10
15.1056253093
 20
-18.3387369885
 30
0.0
 10
15.9502810287
 20
-19.1731679172
 30
0.0
 10
17.0075777693
 20
-20.5888744862
 30
0.0
 10
17.8124531787
 20
-22.1154196297
 30
0.0
 10
18.1596947889
 20
-23.1945710197
 30
0.0
 10
18.2715171255
 20
-23.7302243048
 30
0.0
  0
SPLINE
  5
34F
100
AcDbEntity
  8
ASSI
100
AcDbSpline
 62
7
  6
CONTINUOUS
 70
0
 71
3
 72
9
 73
5
 74
0
 42
0.0000001
 43
0.0000001
 44
0.0000000001
 40
0.0
 40
0.0
 40
0.0
 40
0.0
 40
0.2579248153
 40
1.0
 40
1.0
 40
1.0
 40
1.0
 10
18.2715171255
 20
-23.7302243048
 30
0.0
 10
18.2960424533
 20
-23.8477059528
 30
0.0
 10
18.3804709237
 20
-24.3052924057
 30
0.0
 10
18.4208423396
 20
-24.7714842138
 30
0.0
 10
18.4208423396
 20
-25.1167771817
 30
0.0
  0
SPLINE
  5
350
100
AcDbEntity
  8
0
100
AcDbSpline
 62
7
  6
CONTINUOUS
 70
0
 71
3
 72
11
 73
7
 74
0
 42
0.0000001
 43
0.0000001
 44
0.0000000001
 40
0.0
 40
0.0
 40
0.0
 40
0.0
 40
0.2277123015
 40
0.4759660347
 40
0.7366269121
 40
1.0
 40
1.0
 40
1.0
 40
1.0
 10
24.7382522153
 20
-61.7259711778
 30
0.0
 10
24.439460531
 20
-61.553452604
 30
0.0
 10
23.7752083458
 20
-61.2600783698
 30
0.0
 10
22.6900224649
 20
-60.9826551787
 30
0.0
 10
21.5226705305
 20
-60.859035426
 30
0.0
 10
20.7260969114
 20
-60.8841401491
 30
0.0
 10
20.3291228015
 20
-60.9248127562
 30
0.0
  0
SPLINE
  5
351
100
AcDbEntity
  8
0
100
AcDbSpline
 62
7
  6
CONTINUOUS
 70
0
 71
3
 72
13
 73
9
 74
0
 42
0.0000001
 43
0.0000001
 44
0.0000000001
 40
0.0
 40
0.0
 40
0.0
 40
0.0
 40
0.2676221454
 40
0.3972662354
 40
0.523970688
 40
0.6476515606
 40
0.768247827
 40
1.0
 40
1.0
 40
1.0
 40
1.0
 10
20.1459125887
 20
-60.9024593086
 30
0.0
 10
14.853218871
 20
-58.8469423972
 30
0.0
 10
7.0969488791
 20
-55.5232677541
 30
0.0
 10
-2.8531187495
 20
-50.5614642034
 30
0.0
 10
-9.9211882317
 20
-46.6774577653
 30
0.0
 10
-16.6568855086
 20
-42.6006039458
 30
0.0
 10
-25.0604687633
 20
-36.9957825527
 30
0.0
 10
-30.9940201774
 20
-32.4233114584
 30
0.0
 10
-34.7248260118
 20
-29.2207825325
 30
0.0
  0
SPLINE
  5
352
100
AcDbEntity
  8
ASSI
100
AcDbSpline
 62
7
  6
CONTINUOUS
 70
0
 71
3
 72
23
 73
19
 74
0
 42
0.0000001
 43
0.0000001
 44
0.0000000001
 40
0.0
 40
0.0
 40
0.0
 40
0.0
 40
0.0631578702
 40
0.1299529322
 40
0.1996445952
 40
0.2713466386
 40
0.344094879
 40
0.4168924742
 40
0.4887572763
 40
0.5587652456
 40
0.626096624
 40
0.6900854119
 40
0.7502738208
 40
0.8064727544
 40
0.8588237852
 40
0.9078531736
 40
0.9544888462
 40
1.0
 40
1.0
 40
1.0
 40
1.0
 10
-1.9589500259
 20
-29.7376670238
 30
0.0
 10
-1.6567544237
 20
-29.8941037649
 30
0.0
 10
-1.0547761492
 20
-30.2552516612
 30
0.0
 10
-0.195486365
 20
-30.9051431591
 30
0.0
 10
0.6303181251
 20
-31.6667520228
 30
0.0
 10
1.404413754
 20
-32.5243726145
 30
0.0
 10
2.109614516
 20
-33.4605003663
 30
0.0
 10
2.7298983342
 20
-34.4560022005
 30
0.0
 10
3.2509400371
 20
-35.4904645644
 30
0.0
 10
3.6604818047
 20
-36.5425615033
 30
0.0
 10
3.9487069925
 20
-37.5904690274
 30
0.0
 10
4.1085064053
 20
-38.6123379943
 30
0.0
 10
4.1356499832
 20
-39.5867791712
 30
0.0
 10
4.028726774
 20
-40.4933067855
 30
0.0
 10
3.7890360745
 20
-41.3125075661
 30
0.0
 10
3.4202976566
 20
-42.0260030063
 30
0.0
 10
2.9300248881
 20
-42.6156783642
 30
0.0
 10
2.5281111689
 20
-42.9164043614
 30
0.0
 10
2.3157583379
 20
-43.0390144178
 30
0.0
  0
SPLINE
  5
353
100
AcDbEntity
  8
ASSI
100
AcDbSpline
 62
7
  6
CONTINUOUS
 70
0
 71
3
 72
9
 73
5
 74
0
 42
0.0000001
 43
0.0000001
 44
0.0000000001
 40
0.0
 40
0.0
 40
0.0
 40
0.0
 40
0.5128153729
 40
1.0
 40
1.0
 40
1.0
 40
1.0
 10
-1.9589500259
 20
-29.7376670238
 30
0.0
 10
-6.7798007858
 20
-27.2420708723
 30
0.0
 10
-15.9938145738
 20
-22.0029345954
 30
0.0
 10
-24.7096287272
 20
-15.9636005461
 30
0.0
 10
-28.7940032799
 20
-12.8148877402
 30
0.0
  0
SPLINE
  5
354
100
AcDbEntity
  8
ASSI
100
AcDbSpline
 62
7
  6
CONTINUOUS
 70
0
 71
3
 72
13
 73
9
 74
0
 42
0.0000001
 43
0.0000001
 44
0.0000000001
 40
0.0
 40
0.0
 40
0.0
 40
0.0
 40
0.2736400273
 40
0.5267221382
 40
0.6476119475
 40
0.7659506812
 40
0.8829778466
 40
1.0
 40
1.0
 40
1.0
 40
1.0
 10
18.4208423396
 20
-45.5285341015
 30
0.0
 10
18.4208423396
 20
-45.9138298556
 30
0.0
 10
18.3492373023
 20
-46.6586059983
 30
0.0
 10
18.0473286504
 20
-47.5304011011
 30
0.0
 10
17.6898816701
 20
-48.1267226219
 30
0.0
 10
17.3726069774
 20
-48.5175767237
 30
0.0
 10
17.005870954
 20
-48.8543060255
 30
0.0
 10
16.7319220357
 20
-49.0399650502
 30
0.0
 10
16.5892281299
 20
-49.1223554018
 30
0.0
  0
SPLINE
  5
355
100
AcDbEntity
  8
ASSI
100
AcDbSpline
 62
7
  6
CONTINUOUS
 70
0
 71
3
 72
13
 73
9
 74
0
 42
0.0000001
 43
0.0000001
 44
0.0000000001
 40
0.0
 40
0.0
 40
0.0
 40
0.0
 40
0.2736400273
 40
0.5267221382
 40
0.6476119475
 40
0.7659506812
 40
0.8829778466
 40
1.0
 40
1.0
 40
1.0
 40
1.0
 10
18.4208423396
 20
-25.1167771817
 30
0.0
 10
18.4208423396
 20
-25.5020729358
 30
0.0
 10
18.3492373023
 20
-26.2468490785
 30
0.0
 10
18.0473286504
 20
-27.1186441813
 30
0.0
 10
17.6898816701
 20
-27.7149657021
 30
0.0
 10
17.3726069774
 20
-28.1058198038
 30
0.0
 10
17.005870954
 20
-28.4425491057
 30
0.0
 10
16.7319220357
 20
-28.6282081303
 30
0.0
 10
16.5892281299
 20
-28.7105984819
 30
0.0
  0
SPLINE
  5
356
100
AcDbEntity
  8
ASSI
100
AcDbSpline
 62
7
  6
CONTINUOUS
 70
0
 71
3
 72
23
 73
19
 74
0
 42
0.0000001
 43
0.0000001
 44
0.0000000001
 40
0.0
 40
0.0
 40
0.0
 40
0.0
 40
0.0631578702
 40
0.1299529322
 40
0.1996445952
 40
0.2713466386
 40
0.344094879
 40
0.4168924742
 40
0.4887572763
 40
0.5587652456
 40
0.626096624
 40
0.6900854119
 40
0.7502738208
 40
0.8064727544
 40
0.8588237852
 40
0.9078531736
 40
0.9544888462
 40
1.0
 40
1.0
 40
1.0
 40
1.0
 10
-1.9589500259
 20
-9.325910104
 30
0.0
 10
-1.6567544237
 20
-9.4823468451
 30
0.0
 10
-1.0547761492
 20
-9.8434947414
 30
0.0
 10
-0.195486365
 20
-10.4933862393
 30
0.0
 10
0.6303181251
 20
-11.2549951029
 30
0.0
 10
1.404413754
 20
-12.1126156947
 30
0.0
 10
2.109614516
 20
-13.0487434465
 30
0.0
 10
2.7298983342
 20
-14.0442452807
 30
0.0
 10
3.2509400371
 20
-15.0787076446
 30
0.0
 10
3.6604818047
 20
-16.1308045834
 30
0.0
 10
3.9487069925
 20
-17.1787121076
 30
0.0
 10
4.1085064053
 20
-18.2005810745
 30
0.0
 10
4.1356499832
 20
-19.1750222514
 30
0.0
 10
4.028726774
 20
-20.0815498656
 30
0.0
 10
3.7890360745
 20
-20.9007506463
 30
0.0
 10
3.4202976566
 20
-21.6142460865
 30
0.0
 10
2.9300248881
 20
-22.2039214443
 30
0.0
 10
2.5281111689
 20
-22.5046474416
 30
0.0
 10
2.3157583379
 20
-22.627257498
 30
0.0
  0
SPLINE
  5
357
100
AcDbEntity
  8
ASSI
100
AcDbSpline
 62
7
  6
CONTINUOUS
 70
0
 71
3
 72
9
 73
5
 74
0
 42
0.0000001
 43
0.0000001
 44
0.0000000001
 40
0.0
 40
0.0
 40
0.0
 40
0.0
 40
0.5128153729
 40
1.0
 40
1.0
 40
1.0
 40
1.0
 10
-1.9589500259
 20
-9.325910104
 30
0.0
 10
-6.7798007858
 20
-6.8303139524
 30
0.0
 10
-15.9938145738
 20
-1.5911776756
 30
0.0
 10
-24.7096287272
 20
4.4481563738
 30
0.0
 10
-28.7940032799
 20
7.5968691796
 30
0.0
  0
SPLINE
  5
358
100
AcDbEntity
  8
0
100
AcDbSpline
 62
7
  6
CONTINUOUS
 70
0
 71
3
 72
9
 73
5
 74
0
 42
0.0000001
 43
0.0000001
 44
0.0000000001
 40
0.0
 40
0.0
 40
0.0
 40
0.0
 40
0.5037111775
 40
1.0
 40
1.0
 40
1.0
 40
1.0
 10
-34.7635408245
 20
61.5132014721
 30
0.0
 10
-34.7383030585
 20
61.5953208756
 30
0.0
 10
-34.699724843
 20
61.7621621376
 30
0.0
 10
-34.6866318608
 20
61.9329604069
 30
0.0
 10
-34.6866323514
 20
62.0176045694
 30
0.0
  0
SPLINE
  5
359
100
AcDbEntity
  8
ASSI
100
AcDbSpline
 62
7
  6
CONTINUOUS
 70
0
 71
3
 72
15
 73
11
 74
0
 42
0.0000001
 43
0.0000001
 44
0.0000000001
 40
0.0
 40
0.0
 40
0.0
 40
0.0
 40
0.1011081475
 40
0.2069734922
 40
0.3197390269
 40
0.4405773158
 40
0.5697579262
 40
0.706810695
 40
0.8507039106
 40
1.0
 40
1.0
 40
1.0
 40
1.0
 10
7.9908396556
 20
-36.7661793275
 30
0.0
 10
8.2028096839
 20
-36.6437900976
 30
0.0
 10
8.6679037099
 20
-36.4441474619
 30
0.0
 10
9.4333704653
 20
-36.2987602903
 30
0.0
 10
10.2595839178
 20
-36.301901945
 30
0.0
 10
11.1286324091
 20
-36.4505029978
 30
0.0
 10
12.0230138668
 20
-36.7391557141
 30
0.0
 10
12.9245191568
 20
-37.1606455632
 30
0.0
 10
13.8143860583
 20
-37.70556757
 30
0.0
 10
14.3793587138
 20
-38.1374953437
 30
0.0
 10
14.6555501718
 20
-38.3706121748
 30
0.0
  0
SPLINE
  5
35A
100
AcDbEntity
  8
ASSI
100
AcDbSpline
 62
7
  6
CONTINUOUS
 70
0
 71
3
 72
11
 73
7
 74
0
 42
0.0000001
 43
0.0000001
 44
0.0000000001
 40
0.0
 40
0.0
 40
0.0
 40
0.0
 40
0.2552335013
 40
0.5122130931
 40
0.7628647343
 40
1.0
 40
1.0
 40
1.0
 40
1.0
 10
14.6555501718
 20
-38.3706121748
 30
0.0
 10
15.1056253093
 20
-38.7504939083
 30
0.0
 10
15.9502810287
 20
-39.584924837
 30
0.0
 10
17.0075777693
 20
-41.0006314061
 30
0.0
 10
17.8124531787
 20
-42.5271765495
 30
0.0
 10
18.1596947889
 20
-43.6063279396
 30
0.0
 10
18.2715171255
 20
-44.1419812246
 30
0.0
  0
SPLINE
  5
35B
100
AcDbEntity
  8
ASSI
100
AcDbSpline
 62
7
  6
CONTINUOUS
 70
0
 71
3
 72
9
 73
5
 74
0
 42
0.0000001
 43
0.0000001
 44
0.0000000001
 40
0.0
 40
0.0
 40
0.0
 40
0.0
 40
0.2579248153
 40
1.0
 40
1.0
 40
1.0
 40
1.0
 10
18.2715171255
 20
-44.1419812246
 30
0.0
 10
18.2960424533
 20
-44.2594628727
 30
0.0
 10
18.3804709237
 20
-44.7170493256
 30
0.0
 10
18.4208423396
 20
-45.1832411337
 30
0.0
 10
18.4208423396
 20
-45.5285341015
 30
0.0
  0
SPLINE
  5
35C
100
AcDbEntity
  8
ASSI
100
AcDbSpline
 62
7
  6
CONTINUOUS
 70
0
 71
3
 72
15
 73
11
 74
0
 42
0.0000001
 43
0.0000001
 44
0.0000000001
 40
0.0
 40
0.0
 40
0.0
 40
0.0
 40
0.1023590152
 40
0.2063520101
 40
0.3152254733
 40
0.4316179953
 40
0.5574198758
 40
0.6937904848
 40
0.8413100097
 40
1.0
 40
1.0
 40
1.0
 40
1.0
 10
-32.1620245224
 20
-12.0535548238
 30
0.0
 10
-32.053993517
 20
-11.991178429
 30
0.0
 10
-31.8224021553
 20
-11.8877221246
 30
0.0
 10
-31.4443256916
 20
-11.8066119381
 30
0.0
 10
-31.0408494522
 20
-11.7995605715
 30
0.0
 10
-30.6162800643
 20
-11.8652707824
 30
0.0
 10
-30.1741730962
 20
-12.001926437
 30
0.0
 10
-29.7180133197
 20
-12.2075799289
 30
0.0
 10
-29.2515674384
 20
-12.4800450019
 30
0.0
 10
-28.9471693589
 20
-12.6968094425
 30
0.0
 10
-28.7940032799
 20
-12.8148877402
 30
0.0
  0
SPLINE
  5
35D
100
AcDbEntity
  8
0
100
AcDbSpline
 62
7
  6
CONTINUOUS
 70
0
 71
3
 72
12
 73
8
 74
0
 42
0.0000001
 43
0.0000001
 44
0.0000000001
 40
0.0
 40
0.0
 40
0.0
 40
0.0
 40
0.2895825839
 40
0.548624757
 40
0.781631212
 40
0.8918352423
 40
1.0
 40
1.0
 40
1.0
 40
1.0
 10
-36.748410845
 20
68.0783295283
 30
0.0
 10
-36.8713190306
 20
68.0073638824
 30
0.0
 10
-37.0942563242
 20
67.8538138469
 30
0.0
 10
-37.3605836008
 20
67.5740388004
 30
0.0
 10
-37.5035942399
 20
67.3104211452
 30
0.0
 10
-37.5592897318
 20
67.0954162879
 30
0.0
 10
-37.5685099887
 20
66.9881722195
 30
0.0
 10
-37.5685093134
 20
66.9351606682
 30
0.0
  0
SPLINE
  5
35E
100
AcDbEntity
  8
0
100
AcDbSpline
 62
7
  6
CONTINUOUS
 70
0
 71
3
 72
9
 73
5
 74
0
 42
0.0000001
 43
0.0000001
 44
0.0000000001
 40
0.0
 40
0.0
 40
0.0
 40
0.0
 40
0.4491821089
 40
1.0
 40
1.0
 40
1.0
 40
1.0
 10
28.2761283481
 20
28.3532115975
 30
0.0
 10
28.2761283481
 20
28.3610001608
 30
0.0
 10
28.2829290525
 20
28.3783844179
 30
0.0
 10
28.2971418611
 20
28.389263391
 30
0.0
 10
28.3054130241
 20
28.3940390568
 30
0.0
  0
SPLINE
  5
35F
100
AcDbEntity
  8
0
100
AcDbSpline
 62
7
  6
CONTINUOUS
 70
0
 71
3
 72
8
 73
4
 74
0
 42
0.0000001
 43
0.0000001
 44
0.0000000001
 40
0.0
 40
0.0
 40
0.0
 40
0.0
 40
1.0
 40
1.0
 40
1.0
 40
1.0
 10
-34.7673799631
 20
61.4879813106
 30
0.0
 10
-34.7673768278
 20
61.4964848749
 30
0.0
 10
-34.766038913
 20
61.5050731163
 30
0.0
 10
-34.7635408245
 20
61.5132014721
 30
0.0
  0
SPLINE
  5
360
100
AcDbEntity
  8
0
100
AcDbSpline
 62
7
  6
CONTINUOUS
 70
0
 71
3
 72
11
 73
7
 74
0
 42
0.0000001
 43
0.0000001
 44
0.0000000001
 40
0.0
 40
0.0
 40
0.0
 40
0.0
 40
0.2177903219
 40
0.4509221417
 40
0.7103047431
 40
1.0
 40
1.0
 40
1.0
 40
1.0
 10
37.4649584671
 20
-58.6821727052
 30
0.0
 10
37.4649584671
 20
-58.6916956509
 30
0.0
 10
37.4614394239
 20
-58.7115443196
 30
0.0
 10
37.4463928814
 20
-58.7391996301
 30
0.0
 10
37.4226071092
 20
-58.7641989238
 30
0.0
 10
37.4027049382
 20
-58.7779075425
 30
0.0
 10
37.3917351624
 20
-58.7842413535
 30
0.0
  0
SPLINE
  5
361
100
AcDbEntity
  8
0
100
AcDbSpline
 62
7
  6
CONTINUOUS
 70
0
 71
3
 72
11
 73
7
 74
0
 42
0.0000001
 43
0.0000001
 44
0.0000000001
 40
0.0
 40
0.0
 40
0.0
 40
0.0
 40
0.2177814642
 40
0.4509426406
 40
0.7102332255
 40
1.0
 40
1.0
 40
1.0
 40
1.0
 10
-33.2785646999
 20
65.8736467243
 30
0.0
 10
-33.2785646999
 20
65.8926919312
 30
0.0
 10
-33.285597666
 20
65.9323924874
 30
0.0
 10
-33.3156931717
 20
65.9876951086
 30
0.0
 10
-33.3632547696
 20
66.0377039123
 30
0.0
 10
-33.4030639017
 20
66.0651132116
 30
0.0
 10
-33.4250089734
 20
66.077784021
 30
0.0
  0
SPLINE
  5
362
100
AcDbEntity
  8
0
100
AcDbSpline
 62
7
  6
CONTINUOUS
 70
0
 71
3
 72
11
 73
7
 74
0
 42
0.0000001
 43
0.0000001
 44
0.0000000001
 40
0.0
 40
0.0
 40
0.0
 40
0.0
 40
0.2278550815
 40
0.4749219948
 40
0.7348612182
 40
1.0
 40
1.0
 40
1.0
 40
1.0
 10
26.0110444215
 20
29.6371238142
 30
0.0
 10
25.6475991335
 20
29.8469725684
 30
0.0
 10
24.8468366521
 20
30.2112581189
 30
0.0
 10
23.5401665246
 20
30.5797333331
 30
0.0
 10
22.1284083026
 20
30.7808514191
 30
0.0
 10
21.1585147874
 20
30.7971618186
 30
0.0
 10
20.6706668272
 20
30.775054807
 30
0.0
  0
SPLINE
  5
363
100
AcDbEntity
  8
0
100
AcDbSpline
 62
7
  6
CONTINUOUS
 70
0
 71
3
 72
11
 73
7
 74
0
 42
0.0000001
 43
0.0000001
 44
0.0000000001
 40
0.0
 40
0.0
 40
0.0
 40
0.0
 40
0.217776992
 40
0.4509583864
 40
0.7102062846
 40
1.0
 40
1.0
 40
1.0
 40
1.0
 10
-37.0413040638
 20
64.8121327817
 30
0.0
 10
-37.0413040638
 20
64.8502227116
 30
0.0
 10
-37.0272463188
 20
64.9296298172
 30
0.0
 10
-36.9670391531
 20
65.0402227844
 30
0.0
 10
-36.8719275366
 20
65.1402512546
 30
0.0
 10
-36.7923054129
 20
65.1950632016
 30
0.0
 10
-36.748410845
 20
65.220407375
 30
0.0
  0
SPLINE
  5
364
100
AcDbEntity
  8
0
100
AcDbSpline
 62
7
  6
CONTINUOUS
 70
0
 71
3
 72
12
 73
8
 74
0
 42
0.0000001
 43
0.0000001
 44
0.0000000001
 40
0.0
 40
0.0
 40
0.0
 40
0.0
 40
0.2320357158
 40
0.3527019992
 40
0.4764060574
 40
0.7326184091
 40
1.0
 40
1.0
 40
1.0
 40
1.0
 10
-32.9074789936
 20
61.710404712
 30
0.0
 10
-29.2511510877
 20
58.5913205129
 30
0.0
 10
-23.4436848388
 20
54.1354519131
 30
0.0
 10
-15.2276484064
 20
48.6674708159
 30
0.0
 10
-6.3532699539
 20
43.2999756687
 30
0.0
 10
5.5418402531
 20
37.0833890559
 30
0.0
 10
15.51249444
 20
32.7908601695
 30
0.0
 10
20.6706668272
 20
30.775054807
 30
0.0
  0
SPLINE
  5
365
100
AcDbEntity
  8
0
100
AcDbSpline
 62
7
  6
CONTINUOUS
 70
0
 71
3
 72
14
 73
10
 74
0
 42
0.0000001
 43
0.0000001
 44
0.0000000001
 40
0.0
 40
0.0
 40
0.0
 40
0.0
 40
0.1080564629
 40
0.2181401171
 40
0.3321162842
 40
0.4515124884
 40
0.5774726696
 40
0.7107345947
 40
1.0
 40
1.0
 40
1.0
 40
1.0
 10
-32.8866365518
 20
62.01760457
 30
0.0
 10
-32.8866325111
 20
62.1463552568
 30
0.0
 10
-32.9089909951
 20
62.4067954885
 30
0.0
 10
-33.008783684
 20
62.7914686685
 30
0.0
 10
-33.1734910504
 20
63.1678527201
 30
0.0
 10
-33.401035372
 20
63.532128706
 30
0.0
 10
-33.688887333
 20
63.8810462705
 30
0.0
 10
-34.1618096597
 20
64.3337109964
 30
0.0
 10
-34.5798237648
 20
64.621531723
 30
0.0
 10
-34.878306311
 20
64.7938718043
 30
0.0
  0
SPLINE
  5
366
100
AcDbEntity
  8
0
100
AcDbSpline
 62
7
  6
CONTINUOUS
 70
0
 71
3
 72
11
 73
7
 74
0
 42
0.0000001
 43
0.0000001
 44
0.0000000001
 40
0.0
 40
0.0
 40
0.0
 40
0.0
 40
0.2328385133
 40
0.4731636818
 40
0.7273759339
 40
1.0
 40
1.0
 40
1.0
 40
1.0
 10
-37.5685093134
 20
-23.6930400558
 30
0.0
 10
-37.5685084224
 20
-23.7629795334
 30
0.0
 10
-37.5522605623
 20
-23.9055844277
 30
0.0
 10
-37.4803365028
 20
-24.1135242462
 30
0.0
 10
-37.3627842668
 20
-24.3132526204
 30
0.0
 10
-37.2595859523
 20
-24.4342711717
 30
0.0
 10
-37.202104591
 20
-24.4925969169
 30
0.0
  0
SPLINE
  5
367
100
AcDbEntity
  8
ASSI
100
AcDbSpline
 62
7
  6
CONTINUOUS
 70
0
 71
3
 72
9
 73
5
 74
0
 42
0.0000001
 43
0.0000001
 44
0.0000000001
 40
0.0
 40
0.0
 40
0.0
 40
0.0
 40
0.252770165
 40
1.0
 40
1.0
 40
1.0
 40
1.0
 10
16.6926177985
 20
-48.8072175398
 30
0.0
 10
16.7351398178
 20
-48.7993996386
 30
0.0
 10
16.9028629052
 20
-48.7658205983
 30
0.0
 10
17.068455145
 20
-48.7214833359
 30
0.0
 10
17.1900704048
 20
-48.6821788142
 30
0.0
  0
SPLINE
  5
368
100
AcDbEntity
  8
ASSI
100
AcDbSpline
 62
7
  6
CONTINUOUS
 70
0
 71
3
 72
9
 73
5
 74
0
 42
0.0000001
 43
0.0000001
 44
0.0000000001
 40
0.0
 40
0.0
 40
0.0
 40
0.0
 40
0.252770165
 40
1.0
 40
1.0
 40
1.0
 40
1.0
 10
16.6926177985
 20
-28.39546062
 30
0.0
 10
16.7351398178
 20
-28.3876427188
 30
0.0
 10
16.9028629052
 20
-28.3540636785
 30
0.0
 10
17.068455145
 20
-28.3097264161
 30
0.0
 10
17.1900704048
 20
-28.2704218944
 30
0.0
  0
SPLINE
  5
369
100
AcDbEntity
  8
0
100
AcDbSpline
 62
7
  6
CONTINUOUS
 70
0
 71
3
 72
11
 73
7
 74
0
 42
0.0000001
 43
0.0000001
 44
0.0000000001
 40
0.0
 40
0.0
 40
0.0
 40
0.0
 40
0.2204404728
 40
0.4583239333
 40
0.7176969263
 40
1.0
 40
1.0
 40
1.0
 40
1.0
 10
-34.7669310779
 20
-28.0952841067
 30
0.0
 10
-34.8132806539
 20
-27.9477566622
 30
0.0
 10
-34.9493345388
 20
-27.6526056419
 30
0.0
 10
-35.255776682
 20
-27.2492326449
 30
0.0
 10
-35.6618136381
 20
-26.8791905942
 30
0.0
 10
-35.9795995211
 20
-26.6682445586
 30
0.0
 10
-36.1510985172
 20
-26.5692231877
 30
0.0
  0
SPLINE
  5
36A
100
AcDbEntity
  8
0
100
AcDbSpline
 62
7
  6
CONTINUOUS
 70
0
 71
3
 72
9
 73
5
 74
0
 42
0.0000001
 43
0.0000001
 44
0.0000000001
 40
0.0
 40
0.0
 40
0.0
 40
0.0
 40
0.5080050777
 40
1.0
 40
1.0
 40
1.0
 40
1.0
 10
-37.0412301506
 20
-24.514627924
 30
0.0
 10
-37.0620867151
 20
-24.5238295798
 30
0.0
 10
-37.1079205175
 20
-24.5305666418
 30
0.0
 10
-37.1535553196
 20
-24.5206286577
 30
0.0
 10
-37.1726749137
 20
-24.5095892437
 30
0.0
  0
SPLINE
  5
36B
100
AcDbEntity
  8
0
100
AcDbSpline
 62
7
  6
CONTINUOUS
 70
0
 71
3
 72
9
 73
5
 74
0
 42
0.0000001
 43
0.0000001
 44
0.0000000001
 40
0.0
 40
0.0
 40
0.0
 40
0.0
 40
0.5508178911
 40
1.0
 40
1.0
 40
1.0
 40
1.0
 10
28.3054130241
 20
-62.3158165858
 30
0.0
 10
28.2971418611
 20
-62.31104092
 30
0.0
 10
28.2829290525
 20
-62.3001619469
 30
0.0
 10
28.2761283481
 20
-62.2827776898
 30
0.0
 10
28.2761283481
 20
-62.2749891265
 30
0.0
  0
SPLINE
  5
36C
100
AcDbEntity
  8
0
100
AcDbSpline
 62
7
  6
CONTINUOUS
 70
0
 71
3
 72
11
 73
7
 74
0
 42
0.0000001
 43
0.0000001
 44
0.0000000001
 40
0.0
 40
0.0
 40
0.0
 40
0.0
 40
0.2372193404
 40
0.5
 40
0.7627806596
 40
1.0
 40
1.0
 40
1.0
 40
1.0
 10
26.7497781055
 20
-62.0708518298
 30
0.0
 10
26.6493987801
 20
-62.1288095943
 30
0.0
 10
26.4159481548
 20
-62.213398615
 30
0.0
 10
26.0426713244
 20
-62.2539268121
 30
0.0
 10
25.6693944939
 20
-62.213398615
 30
0.0
 10
25.4359438686
 20
-62.1288095943
 30
0.0
 10
25.3355645432
 20
-62.0708518298
 30
0.0
  0
SPLINE
  5
36D
100
AcDbEntity
  8
0
100
AcDbSpline
 62
7
  6
CONTINUOUS
 70
0
 71
3
 72
11
 73
7
 74
0
 42
0.0000001
 43
0.0000001
 44
0.0000000001
 40
0.0
 40
0.0
 40
0.0
 40
0.0
 40
0.2897937154
 40
0.5490416136
 40
0.782223008
 40
1.0
 40
1.0
 40
1.0
 40
1.0
 10
-36.748410845
 20
-26.2243425357
 30
0.0
 10
-36.7923054129
 20
-26.1989983623
 30
0.0
 10
-36.8719275366
 20
-26.1441864153
 30
0.0
 10
-36.9670391531
 20
-26.0441579451
 30
0.0
 10
-37.0272463188
 20
-25.9335649779
 30
0.0
 10
-37.0413040638
 20
-25.8541578723
 30
0.0
 10
-37.0413040638
 20
-25.8160679423
 30
0.0
  0
SPLINE
  5
36E
100
AcDbEntity
  8
0
100
AcDbSpline
 62
7
  6
CONTINUOUS
 70
0
 71
3
 72
11
 73
7
 74
0
 42
0.0000001
 43
0.0000001
 44
0.0000000001
 40
0.0
 40
0.0
 40
0.0
 40
0.0
 40
0.2372259409
 40
0.5
 40
0.7627740591
 40
1.0
 40
1.0
 40
1.0
 40
1.0
 10
27.5275955648
 20
30.4762394828
 30
0.0
 10
27.577786606
 20
30.5052191609
 30
0.0
 10
27.6945120535
 20
30.5475140009
 30
0.0
 10
27.8811489554
 20
30.5677741496
 30
0.0
 10
28.0677858574
 20
30.5475140009
 30
0.0
 10
28.1845113049
 20
30.5052191609
 30
0.0
 10
28.234702346
 20
30.4762394828
 30
0.0
  0
SPLINE
  5
36F
100
AcDbEntity
  8
0
100
AcDbSpline
 62
7
  6
CONTINUOUS
 70
0
 71
3
 72
11
 73
7
 74
0
 42
0.0000001
 43
0.0000001
 44
0.0000000001
 40
0.0
 40
0.0
 40
0.0
 40
0.0
 40
0.2896952569
 40
0.5490778583
 40
0.7822096781
 40
1.0
 40
1.0
 40
1.0
 40
1.0
 10
33.7854905783
 20
33.2729204471
 30
0.0
 10
33.7745208026
 20
33.2665866361
 30
0.0
 10
33.7546186315
 20
33.2528780174
 30
0.0
 10
33.7308328593
 20
33.2278787237
 30
0.0
 10
33.7157863169
 20
33.2002234132
 30
0.0
 10
33.7122672736
 20
33.1803747444
 30
0.0
 10
33.7122672736
 20
33.1708517988
 30
0.0
  0
SPLINE
  5
370
100
AcDbEntity
  8
0
100
AcDbSpline
 62
7
  6
CONTINUOUS
 70
0
 71
3
 72
9
 73
5
 74
0
 42
0.0000001
 43
0.0000001
 44
0.0000000001
 40
0.0
 40
0.0
 40
0.0
 40
0.0
 40
0.5338743508
 40
1.0
 40
1.0
 40
1.0
 40
1.0
 10
-34.7248260118
 20
-29.2207825325
 30
0.0
 10
-34.7374267097
 20
-29.2099660759
 30
0.0
 10
-34.7586123045
 20
-29.1860907833
 30
0.0
 10
-34.7673853089
 20
-29.1547184798
 30
0.0
 10
-34.7673799631
 20
-29.1402194134
 30
0.0
  0
SPLINE
  5
371
100
AcDbEntity
  8
0
100
AcDbSpline
 62
7
  6
CONTINUOUS
 70
0
 71
3
 72
11
 73
7
 74
0
 42
0.0000001
 43
0.0000001
 44
0.0000000001
 40
0.0
 40
0.0
 40
0.0
 40
0.0
 40
0.2372383085
 40
0.5
 40
0.7627616915
 40
1.0
 40
1.0
 40
1.0
 40
1.0
 10
34.3511760033
 20
33.5995401218
 30
0.0
 10
34.3762728346
 20
33.6140307176
 30
0.0
 10
34.4346359685
 20
33.6351769922
 30
0.0
 10
34.5279526986
 20
33.6453085239
 30
0.0
 10
34.6212694287
 20
33.6351769922
 30
0.0
 10
34.6796325626
 20
33.6140307176
 30
0.0
 10
34.7047293939
 20
33.5995401218
 30
0.0
  0
SPLINE
  5
372
100
AcDbEntity
  8
0
100
AcDbSpline
 62
7
  6
CONTINUOUS
 70
0
 71
3
 72
11
 73
7
 74
0
 42
0.0000001
 43
0.0000001
 44
0.0000000001
 40
0.0
 40
0.0
 40
0.0
 40
0.0
 40
0.2896952569
 40
0.5490778583
 40
0.7822096781
 40
1.0
 40
1.0
 40
1.0
 40
1.0
 10
37.3917351624
 20
32.0480966671
 30
0.0
 10
37.4027049382
 20
32.0417628561
 30
0.0
 10
37.4226071092
 20
32.0280542374
 30
0.0
 10
37.4463928814
 20
32.0030549437
 30
0.0
 10
37.4614394239
 20
31.9753996332
 30
0.0
 10
37.4649584671
 20
31.9555509644
 30
0.0
 10
37.4649584671
 20
31.9460280188
 30
0.0
  0
SPLINE
  5
373
100
AcDbEntity
  8
0
100
AcDbSpline
 62
7
  6
CONTINUOUS
 70
0
 71
3
 72
9
 73
5
 74
0
 42
0.0000001
 43
0.0000001
 44
0.0000000001
 40
0.0
 40
0.0
 40
0.0
 40
0.0
 40
0.257705489
 40
1.0
 40
1.0
 40
1.0
 40
1.0
 10
20.3291228015
 20
-60.9248127562
 30
0.0
 10
20.313273758
 20
-60.9264365949
 30
0.0
 10
20.2515294086
 20
-60.929216029
 30
0.0
 10
20.1886903038
 20
-60.9190728369
 30
0.0
 10
20.1459125887
 20
-60.9024593086
 30
0.0
  0
SPLINE
  5
374
100
AcDbEntity
  8
0
100
AcDbSpline
 62
7
  6
CONTINUOUS
 70
0
 71
3
 72
11
 73
7
 74
0
 42
0.0000001
 43
0.0000001
 44
0.0000000001
 40
0.0
 40
0.0
 40
0.0
 40
0.0
 40
0.2372383085
 40
0.5
 40
0.7627616915
 40
1.0
 40
1.0
 40
1.0
 40
1.0
 10
-31.0562012565
 20
71.3649400046
 30
0.0
 10
-31.0311044252
 20
71.3794306004
 30
0.0
 10
-30.9727412912
 20
71.400576875
 30
0.0
 10
-30.8794245612
 20
71.4107084067
 30
0.0
 10
-30.7861078311
 20
71.400576875
 30
0.0
 10
-30.7277446972
 20
71.3794306004
 30
0.0
 10
-30.7026478659
 20
71.3649400046
 30
0.0
  0
SPLINE
  5
375
100
AcDbEntity
  8
0
100
AcDbSpline
 62
7
  6
CONTINUOUS
 70
0
 71
3
 72
11
 73
7
 74
0
 42
0.0000001
 43
0.0000001
 44
0.0000000001
 40
0.0
 40
0.0
 40
0.0
 40
0.0
 40
0.2896952569
 40
0.5490778583
 40
0.7822096781
 40
1.0
 40
1.0
 40
1.0
 40
1.0
 10
-28.0156420974
 20
69.8134965499
 30
0.0
 10
-28.0046723216
 20
69.8071627389
 30
0.0
 10
-27.9847701505
 20
69.7934541202
 30
0.0
 10
-27.9609843783
 20
69.7684548265
 30
0.0
 10
-27.9459378359
 20
69.740799516
 30
0.0
 10
-27.9424187927
 20
69.7209508473
 30
0.0
 10
-27.9424187927
 20
69.7114279016
 30
0.0
  0
SPLINE
  5
376
100
AcDbEntity
  8
ASSI
100
AcDbSpline
 62
7
  6
CONTINUOUS
 70
0
 71
3
 72
24
 73
20
 74
0
 42
0.0000001
 43
0.0000001
 44
0.0000000001
 40
0.0
 40
0.0
 40
0.0
 40
0.0
 40
0.060040061
 40
0.1249469024
 40
0.1940416863
 40
0.2664374364
 40
0.341096677
 40
0.4168652959
 40
0.4925106742
 40
0.566761892
 40
0.6383610806
 40
0.7061272022
 40
0.7690349278
 40
0.8263111958
 40
0.8775523996
 40
0.9228746378
 40
0.9630974857
 40
0.9818349744
 40
1.0
 40
1.0
 40
1.0
 40
1.0
 10
-28.7940032799
 20
-5.4666552491
 30
0.0
 10
-29.0411890271
 20
-5.2760956132
 30
0.0
 10
-29.5292291746
 20
-4.8447264831
 30
0.0
 10
-30.2097074715
 20
-4.0980609936
 30
0.0
 10
-30.8562536001
 20
-3.2400308422
 30
0.0
 10
-31.4561499184
 20
-2.2885582105
 30
0.0
 10
-31.9978507869
 20
-1.2635026593
 30
0.0
 10
-32.4708267548
 20
-0.1865779331
 30
0.0
 10
-32.8658368655
 20
0.919055376
 30
0.0
 10
-33.1750708822
 20
2.0292332571
 30
0.0
 10
-33.3923523864
 20
3.1193731871
 30
0.0
 10
-33.5133193266
 20
4.1651994477
 30
0.0
 10
-33.535526023
 20
5.1436076815
 30
0.0
 10
-33.4584827525
 20
6.0335257145
 30
0.0
 10
-33.2830044597
 20
6.8168731641
 30
0.0
 10
-33.0112174076
 20
7.4783760114
 30
0.0
 10
-32.6969769642
 20
7.9278334473
 30
0.0
 10
-32.402683212
 20
8.2019151623
 30
0.0
 10
-32.2438008441
 20
8.3109849836
 30
0.0
 10
-32.1620245224
 20
8.358202096
 30
0.0
  0
SPLINE
  5
377
100
AcDbEntity
  8
0
100
AcDbSpline
 62
7
  6
CONTINUOUS
 70
0
 71
3
 72
11
 73
7
 74
0
 42
0.0000001
 43
0.0000001
 44
0.0000000001
 40
0.0
 40
0.0
 40
0.0
 40
0.0
 40
0.2177903219
 40
0.4509221417
 40
0.7103047431
 40
1.0
 40
1.0
 40
1.0
 40
1.0
 10
33.7122672736
 20
33.1708517988
 30
0.0
 10
33.7122672736
 20
33.1613288531
 30
0.0
 10
33.7157863169
 20
33.1414801843
 30
0.0
 10
33.7308328593
 20
33.1138248739
 30
0.0
 10
33.7546186315
 20
33.0888255802
 30
0.0
 10
33.7745208026
 20
33.0751169615
 30
0.0
 10
33.7854905783
 20
33.0687831504
 30
0.0
  0
SPLINE
  5
378
100
AcDbEntity
  8
ASSI
100
AcDbSpline
 62
7
  6
CONTINUOUS
 70
0
 71
3
 72
9
 73
5
 74
0
 42
0.0000001
 43
0.0000001
 44
0.0000000001
 40
0.0
 40
0.0
 40
0.0
 40
0.0
 40
0.4871846271
 40
1.0
 40
1.0
 40
1.0
 40
1.0
 10
-28.7940032799
 20
-5.4666552491
 30
0.0
 10
-24.7096287272
 20
-8.6153680549
 30
0.0
 10
-15.9938145738
 20
-14.6547021043
 30
0.0
 10
-6.7798007858
 20
-19.8938383811
 30
0.0
 10
-1.9589500259
 20
-22.3894345327
 30
0.0
  0
SPLINE
  5
379
100
AcDbEntity
  8
ASSI
100
AcDbSpline
 62
7
  6
CONTINUOUS
 70
0
 71
3
 72
21
 73
17
 74
0
 42
0.0000001
 43
0.0000001
 44
0.0000000001
 40
0.0
 40
0.0
 40
0.0
 40
0.0
 40
0.0481978011
 40
0.0982262378
 40
0.1508813987
 40
0.2066565372
 40
0.3278152087
 40
0.3931027968
 40
0.460852131
 40
0.6008770016
 40
0.6717290089
 40
0.7419258298
 40
0.8105977167
 40
0.8769346788
 40
0.9402391373
 40
1.0
 40
1.0
 40
1.0
 40
1.0
 10
16.5892281299
 20
-49.1223554018
 30
0.0
 10
16.3712555261
 20
-49.2482110882
 30
0.0
 10
15.8972899657
 20
-49.4561006625
 30
0.0
 10
15.1215424689
 20
-49.6192238301
 30
0.0
 10
14.2897550964
 20
-49.6363192425
 30
0.0
 10
13.0992304566
 20
-49.4607676493
 30
0.0
 10
11.9044784437
 20
-48.9927723489
 30
0.0
 10
10.7703173811
 20
-48.300041605
 30
0.0
 10
9.6409649175
 20
-47.4251413198
 30
0.0
 10
8.635779955
 20
-46.3572688893
 30
0.0
 10
7.7923795209
 20
-45.1540134751
 30
0.0
 10
7.2526491456
 20
-44.1988658575
 30
0.0
 10
6.8198661973
 20
-43.2165626277
 30
0.0
 10
6.5027768204
 20
-42.2284924704
 30
0.0
 10
6.3079182721
 20
-41.2566098649
 30
0.0
 10
6.2609068917
 20
-40.6133726894
 30
0.0
 10
6.2609068917
 20
-40.3012906295
 30
0.0
  0
SPLINE
  5
37A
100
AcDbEntity
  8
0
100
AcDbSpline
 62
7
  6
CONTINUOUS
 70
0
 71
3
 72
11
 73
7
 74
0
 42
0.0000001
 43
0.0000001
 44
0.0000000001
 40
0.0
 40
0.0
 40
0.0
 40
0.0
 40
0.2328385133
 40
0.4731636818
 40
0.7273759339
 40
1.0
 40
1.0
 40
1.0
 40
1.0
 10
-37.5685093134
 20
66.9351606682
 30
0.0
 10
-37.5685084224
 20
66.8652211906
 30
0.0
 10
-37.5522605623
 20
66.7226162963
 30
0.0
 10
-37.4803365028
 20
66.5146764778
 30
0.0
 10
-37.3627842668
 20
66.3149481036
 30
0.0
 10
-37.2595859523
 20
66.1939295524
 30
0.0
 10
-37.202104591
 20
66.1356038071
 30
0.0
  0
SPLINE
  5
37B
100
AcDbEntity
  8
ASSI
100
AcDbSpline
 62
7
  6
CONTINUOUS
 70
0
 71
3
 72
14
 73
10
 74
0
 42
0.0000001
 43
0.0000001
 44
0.0000000001
 40
0.0
 40
0.0
 40
0.0
 40
0.0
 40
0.1104712162
 40
0.2229898442
 40
0.338932129
 40
0.4594425895
 40
0.5853915742
 40
0.7173534342
 40
1.0
 40
1.0
 40
1.0
 40
1.0
 10
2.3157583379
 20
-43.0390144178
 30
0.0
 10
2.1734721336
 20
-43.1211688184
 30
0.0
 10
1.8726085537
 20
-43.2644636248
 30
0.0
 10
1.3878607189
 20
-43.4092145727
 30
0.0
 10
0.872429138
 20
-43.4837089443
 30
0.0
 10
0.3319213333
 20
-43.4873289709
 30
0.0
 10
-0.2283022405
 20
-43.4202192806
 30
0.0
 10
-1.0115929634
 20
-43.2333622393
 30
0.0
 10
-1.5856329758
 20
-42.994445432
 30
0.0
 10
-1.9589500259
 20
-42.8011914525
 30
0.0
  0
SPLINE
  5
37C
100
AcDbEntity
  8
0
100
AcDbSpline
 62
7
  6
CONTINUOUS
 70
0
 71
3
 72
13
 73
9
 74
0
 42
0.0000001
 43
0.0000001
 44
0.0000000001
 40
0.0
 40
0.0
 40
0.0
 40
0.0
 40
0.1080945691
 40
0.2182318026
 40
0.3322593081
 40
0.4517103192
 40
0.7105998248
 40
1.0
 40
1.0
 40
1.0
 40
1.0
 10
-34.6866323514
 20
62.0176045694
 30
0.0
 10
-34.6866329
 20
62.1122650714
 30
0.0
 10
-34.7030763758
 20
62.3037589314
 30
0.0
 10
-34.7764376969
 20
62.5866029271
 30
0.0
 10
-34.8975515892
 20
62.863369599
 30
0.0
 10
-35.1266927652
 20
63.2301697862
 30
0.0
 10
-35.5336369964
 20
63.6583985391
 30
0.0
 10
-35.9316223564
 20
63.9322547518
 30
0.0
 10
-36.1510985172
 20
64.0589775363
 30
0.0
  0
SPLINE
  5
37D
100
AcDbEntity
  8
0
100
AcDbSpline
 62
7
  6
CONTINUOUS
 70
0
 71
3
 72
11
 73
7
 74
0
 42
0.0000001
 43
0.0000001
 44
0.0000000001
 40
0.0
 40
0.0
 40
0.0
 40
0.0
 40
0.2277123015
 40
0.4759660347
 40
0.7366269121
 40
1.0
 40
1.0
 40
1.0
 40
1.0
 10
24.7382522153
 20
28.9022295462
 30
0.0
 10
24.439460531
 20
29.07474812
 30
0.0
 10
23.7752083458
 20
29.3681223542
 30
0.0
 10
22.6900224649
 20
29.6455455453
 30
0.0
 10
21.5226705305
 20
29.7691652981
 30
0.0
 10
20.7260969114
 20
29.7440605749
 30
0.0
 10
20.3291228015
 20
29.7033879678
 30
0.0
  0
SPLINE
  5
37E
100
AcDbEntity
  8
0
100
AcDbSpline
 62
7
  6
CONTINUOUS
 70
0
 71
3
 72
13
 73
9
 74
0
 42
0.0000001
 43
0.0000001
 44
0.0000000001
 40
0.0
 40
0.0
 40
0.0
 40
0.0
 40
0.231752173
 40
0.3523484394
 40
0.476029312
 40
0.6027337646
 40
0.7323778546
 40
1.0
 40
1.0
 40
1.0
 40
1.0
 10
-34.7248260118
 20
61.4074181915
 30
0.0
 10
-30.9940201774
 20
58.2048892656
 30
0.0
 10
-25.0604687633
 20
53.6324181713
 30
0.0
 10
-16.6568855086
 20
48.0275967782
 30
0.0
 10
-9.9211882317
 20
43.9507429587
 30
0.0
 10
-2.8531187495
 20
40.0667365206
 30
0.0
 10
7.0969488791
 20
35.1049329699
 30
0.0
 10
14.853218871
 20
31.7812583268
 30
0.0
 10
20.1459125887
 20
29.7257414154
 30
0.0
  0
SPLINE
  5
37F
100
AcDbEntity
  8
0
100
AcDbSpline
 62
7
  6
CONTINUOUS
 70
0
 71
3
 72
9
 73
5
 74
0
 42
0.0000001
 43
0.0000001
 44
0.0000000001
 40
0.0
 40
0.0
 40
0.0
 40
0.0
 40
0.5
 40
1.0
 40
1.0
 40
1.0
 40
1.0
 10
-37.0312535575
 20
66.1186114803
 30
0.0
 10
-37.0522411146
 20
66.1064935279
 30
0.0
 10
-37.1019642356
 20
66.0969122229
 30
0.0
 10
-37.1516873566
 20
66.1064935279
 30
0.0
 10
-37.1726749137
 20
66.1186114803
 30
0.0
  0
SPLINE
  5
380
100
AcDbEntity
  8
ASSI
100
AcDbSpline
 62
7
  6
CONTINUOUS
 70
0
 71
3
 72
24
 73
20
 74
0
 42
0.0000001
 43
0.0000001
 44
0.0000000001
 40
0.0
 40
0.0
 40
0.0
 40
0.0
 40
0.060040061
 40
0.1249469024
 40
0.1940416863
 40
0.2664374364
 40
0.341096677
 40
0.4168652959
 40
0.4925106742
 40
0.566761892
 40
0.6383610806
 40
0.7061272022
 40
0.7690349278
 40
0.8263111958
 40
0.8775523996
 40
0.9228746378
 40
0.9630974857
 40
0.9818349744
 40
1.0
 40
1.0
 40
1.0
 40
1.0
 10
-28.7940032799
 20
-25.8784121689
 30
0.0
 10
-29.0411890271
 20
-25.687852533
 30
0.0
 10
-29.5292291746
 20
-25.2564834029
 30
0.0
 10
-30.2097074715
 20
-24.5098179134
 30
0.0
 10
-30.8562536001
 20
-23.651787762
 30
0.0
 10
-31.4561499184
 20
-22.7003151304
 30
0.0
 10
-31.9978507869
 20
-21.6752595792
 30
0.0
 10
-32.4708267548
 20
-20.5983348529
 30
0.0
 10
-32.8658368655
 20
-19.4927015438
 30
0.0
 10
-33.1750708822
 20
-18.3825236627
 30
0.0
 10
-33.3923523864
 20
-17.2923837327
 30
0.0
 10
-33.5133193266
 20
-16.2465574722
 30
0.0
 10
-33.535526023
 20
-15.2681492383
 30
0.0
 10
-33.4584827525
 20
-14.3782312053
 30
0.0
 10
-33.2830044597
 20
-13.5948837557
 30
0.0
 10
-33.0112174076
 20
-12.9333809085
 30
0.0
 10
-32.6969769642
 20
-12.4839234725
 30
0.0
 10
-32.402683212
 20
-12.2098417575
 30
0.0
 10
-32.2438008441
 20
-12.1007719362
 30
0.0
 10
-32.1620245224
 20
-12.0535548238
 30
0.0
  0
SPLINE
  5
381
100
AcDbEntity
  8
0
100
AcDbSpline
 62
7
  6
CONTINUOUS
 70
0
 71
3
 72
11
 73
7
 74
0
 42
0.0000001
 43
0.0000001
 44
0.0000000001
 40
0.0
 40
0.0
 40
0.0
 40
0.0
 40
0.2372193404
 40
0.5
 40
0.7627806596
 40
1.0
 40
1.0
 40
1.0
 40
1.0
 10
26.7497781055
 20
28.5573488942
 30
0.0
 10
26.6493987801
 20
28.4993911297
 30
0.0
 10
26.4159481548
 20
28.414802109
 30
0.0
 10
26.0426713244
 20
28.3742739119
 30
0.0
 10
25.6693944939
 20
28.414802109
 30
0.0
 10
25.4359438686
 20
28.4993911297
 30
0.0
 10
25.3355645432
 20
28.5573488942
 30
0.0
  0
SPLINE
  5
382
100
AcDbEntity
  8
ASSI
100
AcDbSpline
 62
7
  6
CONTINUOUS
 70
0
 71
3
 72
9
 73
5
 74
0
 42
0.0000001
 43
0.0000001
 44
0.0000000001
 40
0.0
 40
0.0
 40
0.0
 40
0.0
 40
0.4871846271
 40
1.0
 40
1.0
 40
1.0
 40
1.0
 10
-28.7940032799
 20
-25.8784121689
 30
0.0
 10
-24.7096287272
 20
-29.0271249748
 30
0.0
 10
-15.9938145738
 20
-35.0664590241
 30
0.0
 10
-6.7798007858
 20
-40.3055953009
 30
0.0
 10
-1.9589500259
 20
-42.8011914525
 30
0.0
  0
SPLINE
  5
383
100
AcDbEntity
  8
0
100
AcDbSpline
 62
7
  6
CONTINUOUS
 70
0
 71
3
 72
11
 73
7
 74
0
 42
0.0000001
 43
0.0000001
 44
0.0000000001
 40
0.0
 40
0.0
 40
0.0
 40
0.0
 40
0.2897937154
 40
0.5490416136
 40
0.782223008
 40
1.0
 40
1.0
 40
1.0
 40
1.0
 10
-36.748410845
 20
64.4038581883
 30
0.0
 10
-36.7923054129
 20
64.4292023617
 30
0.0
 10
-36.8719275366
 20
64.4840143087
 30
0.0
 10
-36.9670391531
 20
64.5840427789
 30
0.0
 10
-37.0272463188
 20
64.6946357461
 30
0.0
 10
-37.0413040638
 20
64.7740428517
 30
0.0
 10
-37.0413040638
 20
64.8121327817
 30
0.0
  0
SPLINE
  5
384
100
AcDbEntity
  8
ASSI
100
AcDbSpline
 62
7
  6
CONTINUOUS
 70
0
 71
3
 72
14
 73
10
 74
0
 42
0.0000001
 43
0.0000001
 44
0.0000000001
 40
0.0
 40
0.0
 40
0.0
 40
0.0
 40
0.1104712162
 40
0.2229898442
 40
0.338932129
 40
0.4594425895
 40
0.5853915742
 40
0.7173534342
 40
1.0
 40
1.0
 40
1.0
 40
1.0
 10
2.3157583379
 20
-22.627257498
 30
0.0
 10
2.1734721336
 20
-22.7094118986
 30
0.0
 10
1.8726085537
 20
-22.852706705
 30
0.0
 10
1.3878607189
 20
-22.9974576529
 30
0.0
 10
0.872429138
 20
-23.0719520245
 30
0.0
 10
0.3319213333
 20
-23.0755720511
 30
0.0
 10
-0.2283022405
 20
-23.0084623607
 30
0.0
 10
-1.0115929634
 20
-22.8216053195
 30
0.0
 10
-1.5856329758
 20
-22.5826885122
 30
0.0
 10
-1.9589500259
 20
-22.3894345327
 30
0.0
  0
SPLINE
  5
385
100
AcDbEntity
  8
0
100
AcDbSpline
 62
7
  6
CONTINUOUS
 70
0
 71
3
 72
11
 73
7
 74
0
 42
0.0000001
 43
0.0000001
 44
0.0000000001
 40
0.0
 40
0.0
 40
0.0
 40
0.0
 40
0.2177903219
 40
0.4509221417
 40
0.7103047431
 40
1.0
 40
1.0
 40
1.0
 40
1.0
 10
-27.9424187927
 20
69.7114279016
 30
0.0
 10
-27.9424187927
 20
69.701904956
 30
0.0
 10
-27.9459378359
 20
69.6820562872
 30
0.0
 10
-27.9609843783
 20
69.6544009767
 30
0.0
 10
-27.9847701505
 20
69.629401683
 30
0.0
 10
-28.0046723216
 20
69.6156930643
 30
0.0
 10
-28.0156420974
 20
69.6093592533
 30
0.0
  0
SPLINE
  5
386
100
AcDbEntity
  8
0
100
AcDbSpline
 62
7
  6
CONTINUOUS
 70
0
 71
3
 72
9
 73
5
 74
0
 42
0.0000001
 43
0.0000001
 44
0.0000000001
 40
0.0
 40
0.0
 40
0.0
 40
0.0
 40
0.5508178911
 40
1.0
 40
1.0
 40
1.0
 40
1.0
 10
28.3054130241
 20
28.3123841382
 30
0.0
 10
28.2971418611
 20
28.317159804
 30
0.0
 10
28.2829290525
 20
28.3280387771
 30
0.0
 10
28.2761283481
 20
28.3454230342
 30
0.0
 10
28.2761283481
 20
28.3532115975
 30
0.0
  0
SPLINE
  5
387
100
AcDbEntity
  8
0
100
AcDbSpline
 62
7
  6
CONTINUOUS
 70
0
 71
3
 72
11
 73
7
 74
0
 42
0.0000001
 43
0.0000001
 44
0.0000000001
 40
0.0
 40
0.0
 40
0.0
 40
0.0
 40
0.2897667745
 40
0.5490573594
 40
0.7822185358
 40
1.0
 40
1.0
 40
1.0
 40
1.0
 10
-33.4250089734
 20
65.6695094277
 30
0.0
 10
-33.4030639017
 20
65.682180237
 30
0.0
 10
-33.3632547696
 20
65.7095895364
 30
0.0
 10
-33.3156931717
 20
65.75959834
 30
0.0
 10
-33.285597666
 20
65.8149009613
 30
0.0
 10
-33.2785646999
 20
65.8546015174
 30
0.0
 10
-33.2785646999
 20
65.8736467243
 30
0.0
  0
SPLINE
  5
388
100
AcDbEntity
  8
ASSI
100
AcDbSpline
 62
7
  6
CONTINUOUS
 70
0
 71
3
 72
13
 73
9
 74
0
 42
0.0000001
 43
0.0000001
 44
0.0000000001
 40
0.0
 40
0.0
 40
0.0
 40
0.0
 40
0.2788046317
 40
0.5333867235
 40
0.653578661
 40
0.7704037045
 40
0.885336663
 40
1.0
 40
1.0
 40
1.0
 40
1.0
 10
6.2609068917
 20
-40.3012906295
 30
0.0
 10
6.2609068917
 20
-39.9183093788
 30
0.0
 10
6.3263002633
 20
-39.1828848083
 30
0.0
 10
6.607587358
 20
-38.3196445628
 30
0.0
 10
6.9448453874
 20
-37.7322258371
 30
0.0
 10
7.2445361462
 20
-37.3505434375
 30
0.0
 10
7.5928132933
 20
-37.0236729018
 30
0.0
 10
7.8544361933
 20
-36.8449372294
 30
0.0
 10
7.9908396556
 20
-36.7661793275
 30
0.0
  0
SPLINE
  5
389
100
AcDbEntity
  8
0
100
AcDbSpline
 62
7
  6
CONTINUOUS
 70
0
 71
3
 72
12
 73
8
 74
0
 42
0.0000001
 43
0.0000001
 44
0.0000000001
 40
0.0
 40
0.0
 40
0.0
 40
0.0
 40
0.2516515514
 40
0.513991448
 40
0.7688092114
 40
0.8882395763
 40
1.0
 40
1.0
 40
1.0
 40
1.0
 10
28.3348427014
 20
28.2953918114
 30
0.0
 10
28.6105628221
 20
28.2048039694
 30
0.0
 10
29.196039784
 20
28.0843336049
 30
0.0
 10
30.0868291996
 20
28.0700952836
 30
0.0
 10
30.8160336595
 20
28.1940570186
 30
0.0
 10
31.3471186122
 20
28.3762632782
 30
0.0
 10
31.5879061842
 20
28.4929012575
 30
0.0
 10
31.6995255738
 20
28.5573488942
 30
0.0
  0
SPLINE
  5
38A
100
AcDbEntity
  8
0
100
AcDbSpline
 62
7
  6
CONTINUOUS
 70
0
 71
3
 72
11
 73
7
 74
0
 42
0.0000001
 43
0.0000001
 44
0.0000000001
 40
0.0
 40
0.0
 40
0.0
 40
0.0
 40
0.2177903219
 40
0.4509221417
 40
0.7103047431
 40
1.0
 40
1.0
 40
1.0
 40
1.0
 10
37.4649584671
 20
31.9460280188
 30
0.0
 10
37.4649584671
 20
31.9365050731
 30
0.0
 10
37.4614394239
 20
31.9166564044
 30
0.0
 10
37.4463928814
 20
31.8890010939
 30
0.0
 10
37.4226071092
 20
31.8640018002
 30
0.0
 10
37.4027049382
 20
31.8502931815
 30
0.0
 10
37.3917351624
 20
31.8439593705
 30
0.0
  0
SPLINE
  5
38B
100
AcDbEntity
  8
0
100
AcDbSpline
 62
7
  6
CONTINUOUS
 70
0
 71
3
 72
9
 73
5
 74
0
 42
0.0000001
 43
0.0000001
 44
0.0000000001
 40
0.0
 40
0.0
 40
0.0
 40
0.0
 40
0.5338743508
 40
1.0
 40
1.0
 40
1.0
 40
1.0
 10
-34.7248260118
 20
61.4074181915
 30
0.0
 10
-34.7374267097
 20
61.4182346481
 30
0.0
 10
-34.7586123045
 20
61.4421099407
 30
0.0
 10
-34.7673853089
 20
61.4734822442
 30
0.0
 10
-34.7673799631
 20
61.4879813106
 30
0.0
  0
SPLINE
  5
38C
100
AcDbEntity
  8
ASSI
100
AcDbSpline
 62
7
  6
CONTINUOUS
 70
0
 71
3
 72
21
 73
17
 74
0
 42
0.0000001
 43
0.0000001
 44
0.0000000001
 40
0.0
 40
0.0
 40
0.0
 40
0.0
 40
0.0481978011
 40
0.0982262378
 40
0.1508813987
 40
0.2066565372
 40
0.3278152087
 40
0.3931027968
 40
0.460852131
 40
0.6008770016
 40
0.6717290089
 40
0.7419258298
 40
0.8105977167
 40
0.8769346788
 40
0.9402391373
 40
1.0
 40
1.0
 40
1.0
 40
1.0
 10
16.5892281299
 20
-28.7105984819
 30
0.0
 10
16.3712555261
 20
-28.8364541683
 30
0.0
 10
15.8972899657
 20
-29.0443437427
 30
0.0
 10
15.1215424689
 20
-29.2074669103
 30
0.0
 10
14.2897550964
 20
-29.2245623227
 30
0.0
 10
13.0992304566
 20
-29.0490107294
 30
0.0
 10
11.9044784437
 20
-28.5810154291
 30
0.0
 10
10.7703173811
 20
-27.8882846852
 30
0.0
 10
9.6409649175
 20
-27.0133844
 30
0.0
 10
8.635779955
 20
-25.9455119695
 30
0.0
 10
7.7923795209
 20
-24.7422565552
 30
0.0
 10
7.2526491456
 20
-23.7871089377
 30
0.0
 10
6.8198661973
 20
-22.8048057079
 30
0.0
 10
6.5027768204
 20
-21.8167355506
 30
0.0
 10
6.3079182721
 20
-20.8448529451
 30
0.0
 10
6.2609068917
 20
-20.2016157695
 30
0.0
 10
6.2609068917
 20
-19.8895337097
 30
0.0
  0
SPLINE
  5
38D
100
AcDbEntity
  8
0
100
AcDbSpline
 62
7
  6
CONTINUOUS
 70
0
 71
3
 72
9
 73
5
 74
0
 42
0.0000001
 43
0.0000001
 44
0.0000000001
 40
0.0
 40
0.0
 40
0.0
 40
0.0
 40
0.257705489
 40
1.0
 40
1.0
 40
1.0
 40
1.0
 10
20.3291228015
 20
29.7033879678
 30
0.0
 10
20.313273758
 20
29.7017641291
 30
0.0
 10
20.2515294086
 20
29.698984695
 30
0.0
 10
20.1886903038
 20
29.7091278871
 30
0.0
 10
20.1459125887
 20
29.7257414154
 30
0.0
  0
SPLINE
  5
38E
100
AcDbEntity
  8
0
100
AcDbSpline
 62
7
  6
CONTINUOUS
 70
0
 71
3
 72
11
 73
7
 74
0
 42
0.0000001
 43
0.0000001
 44
0.0000000001
 40
0.0
 40
0.0
 40
0.0
 40
0.0
 40
0.2372383085
 40
0.5
 40
0.7627616915
 40
1.0
 40
1.0
 40
1.0
 40
1.0
 10
-28.5813275223
 20
69.2827395786
 30
0.0
 10
-28.6064243536
 20
69.2682489828
 30
0.0
 10
-28.6647874875
 20
69.2471027082
 30
0.0
 10
-28.7581042176
 20
69.2369711765
 30
0.0
 10
-28.8514209477
 20
69.2471027082
 30
0.0
 10
-28.9097840816
 20
69.2682489828
 30
0.0
 10
-28.9348809129
 20
69.2827395786
 30
0.0
  0
SPLINE
  5
38F
100
AcDbEntity
  8
ASSI
100
AcDbSpline
 62
7
  6
CONTINUOUS
 70
0
 71
3
 72
13
 73
9
 74
0
 42
0.0000001
 43
0.0000001
 44
0.0000000001
 40
0.0
 40
0.0
 40
0.0
 40
0.0
 40
0.2788046317
 40
0.5333867235
 40
0.653578661
 40
0.7704037045
 40
0.885336663
 40
1.0
 40
1.0
 40
1.0
 40
1.0
 10
6.2609068917
 20
-19.8895337097
 30
0.0
 10
6.2609068917
 20
-19.506552459
 30
0.0
 10
6.3263002633
 20
-18.7711278885
 30
0.0
 10
6.607587358
 20
-17.907887643
 30
0.0
 10
6.9448453874
 20
-17.3204689173
 30
0.0
 10
7.2445361462
 20
-16.9387865177
 30
0.0
 10
7.5928132933
 20
-16.611915982
 30
0.0
 10
7.8544361933
 20
-16.4331803096
 30
0.0
 10
7.9908396556
 20
-16.3544224077
 30
0.0
  0
ENDSEC
  0
SECTION
  2
OBJECTS
  0
DICTIONARY
  5
C
100
AcDbDictionary
280
0
281
1
  3
ACAD_GROUP
350
D
  3
ACAD_MLINESTYLE
350
17
  3
ACAD_LAYOUT
350
1A
  3
ACAD_PLOTSETTINGS
350
19
  3
ACAD_PLOTSTYLENAME
350
E
  0
DICTIONARY
  5
D
102
{ACAD_REACTORS
330
C
102
}
100
AcDbDictionary
280
0
281
1
  0
ACDBDICTIONARYWDFLT
  5
E
102
{ACAD_REACTORS
330
C
102
}
100
AcDbDictionary
281
1
  3
Normal
350
F
100
AcDbDictionaryWithDefault
340
F
  0
DICTIONARY
  5
17
102
{ACAD_REACTORS
330
C
102
}
100
AcDbDictionary
280
0
281
1
  3
Standard
350
18
  0
DICTIONARY
  5
19
102
{ACAD_REACTORS
330
C
102
}
100
AcDbDictionary
281
1
  0
DICTIONARY
  5
1A
102
{ACAD_REACTORS
330
C
102
}
100
AcDbDictionary
281
1
  3
Model
350
390
  3
Layout1
350
391
  0
ACDBPLACEHOLDER
  5
F
102
{ACAD_REACTORS
330
E
102
}
  0
MLINESTYLE
  5
18
102
{ACAD_REACTORS
330
17
102
}
100
AcDbMlineStyle
  2
STANDARD
 70
0
  3

 62
256
 51
90.0
 52
90.0
 71
2
 49
0.5
 62
256
  6
BYLAYER
 49
-0.5
 62
256
  6
BYLAYER
  0
LAYOUT
  5
390
102
{ACAD_REACTORS
330
1A
102
}
100
AcDbPlotSettings
  1

  2
none_device
  4
ISO_A4_(297.00_x_210.00_MM)
  6

 40
0.0
 41
0.0
 42
0.0
 43
0.0
 44
297.0
 45
210.0
 46
0.0
 47
0.0
 48
0.0
 49
0.0
140
0.0
141
0.0
142
1.0
143
1.0
 70
1024
 72
1
 73
0
 74
0
  7

 75
0
147
1.0
148
0.0
149
0.0
100
AcDbLayout
  1
Model
 70
0
 71
0
 10
0.0
 20
0.0
 11
297.0
 21
210.0
 12
0.0
 22
0.0
 32
0.0
 14
0.0
 24
0.0
 34
0.0
 15
0.0
 25
0.0
 35
0.0
146
0.0
 13
0.0
 23
0.0
 33
0.0
 16
1.0
 26
0.0
 36
0.0
 17
0.0
 27
1.0
 37
0.0
 76
0
330
222
345
0
346
0
  0
LAYOUT
  5
391
102
{ACAD_REACTORS
330
1A
102
}
100
AcDbPlotSettings
  1

  2
none_device
  4
ISO_A4_(297.00_x_210.00_MM)
  6

 40
0.0
 41
0.0
 42
0.0
 43
0.0
 44
297.0
 45
210.0
 46
0.0
 47
0.0
 48
0.0
 49
0.0
140
0.0
141
0.0
142
1.0
143
1.0
 70
0
 72
1
 73
0
 74
0
  7

 75
0
147
1.0
148
0.0
149
0.0
100
AcDbLayout
  1
Layout1
 70
0
 71
1
 10
0.0
 20
0.0
 11
297.0
 21
210.0
 12
0.0
 22
0.0
 32
0.0
 14
0.0
 24
0.0
 34
0.0
 15
0.0
 25
0.0
 35
0.0
146
0.0
 13
0.0
 23
0.0
 33
0.0
 16
1.0
 26
0.0
 36
0.0
 17
0.0
 27
1.0
 37
0.0
 76
0
330
223
345
0
346
0
  0
ENDSEC
  0
EOF
