  0
SECTION
  2
HEADER
  9
$ACADVER
  1
AC1032
  9
$ACADMAINTVER
 90
      155
  9
$DWGCODEPAGE
  3
ANSI_1252
  9
$REQUIREDVERSIONS
160
                 0
  9
$INSBASE
 10
0.0
 20
0.0
 30
0.0
  9
$EXTMIN
 10
1.000000000000000E+20
 20
1.000000000000000E+20
 30
1.000000000000000E+20
  9
$EXTMAX
 10
-1.000000000000000E+20
 20
-1.000000000000000E+20
 30
-1.000000000000000E+20
  9
$LIMMIN
 10
0.0
 20
0.0
  9
$LIMMAX
 10
12.0
 20
9.0
  9
$ORTHOMODE
 70
     0
  9
$REGENMODE
 70
     1
  9
$FILLMODE
 70
     1
  9
$QTEXTMODE
 70
     0
  9
$MIRRTEXT
 70
     0
  9
$LTSCALE
 40
1.0
  9
$ATTMODE
 70
     1
  9
$TEXTSIZE
 40
0.2
  9
$TRACEWID
 40
0.05
  9
$TEXTSTYLE
  7
Standard
  9
$CLAYER
  8
0
  9
$CELTYPE
  6
ByLayer
  9
$CECOLOR
 62
   256
  9
$CELTSCALE
 40
1.0
  9
$DISPSILH
 70
     0
  9
$DIMSCALE
 40
1.0
  9
$DIMASZ
 40
0.18
  9
$DIMEXO
 40
0.0625
  9
$DIMDLI
 40
0.38
  9
$DIMRND
 40
0.0
  9
$DIMDLE
 40
0.0
  9
$DIMEXE
 40
0.18
  9
$DIMTP
 40
0.0
  9
$DIMTM
 40
0.0
  9
$DIMTXT
 40
0.18
  9
$DIMCEN
 40
0.09
  9
$DIMTSZ
 40
0.0
  9
$DIMTOL
 70
     0
  9
$DIMLIM
 70
     0
  9
$DIMTIH
 70
     1
  9
$DIMTOH
 70
     1
  9
$DIMSE1
 70
     0
  9
$DIMSE2
 70
     0
  9
$DIMTAD
 70
     0
  9
$DIMZIN
 70
     0
  9
$DIMBLK
  1

  9
$DIMASO
 70
     1
  9
$DIMSHO
 70
     1
  9
$DIMPOST
  1

  9
$DIMAPOST
  1

  9
$DIMALT
 70
     0
  9
$DIMALTD
 70
     2
  9
$DIMALTF
 40
25.4
  9
$DIMLFAC
 40
1.0
  9
$DIMTOFL
 70
     0
  9
$DIMTVP
 40
0.0
  9
$DIMTIX
 70
     0
  9
$DIMSOXD
 70
     0
  9
$DIMSAH
 70
     0
  9
$DIMBLK1
  1

  9
$DIMBLK2
  1

  9
$DIMSTYLE
  2
Standard
  9
$DIMCLRD
 70
     0
  9
$DIMCLRE
 70
     0
  9
$DIMCLRT
 70
     0
  9
$DIMTFAC
 40
1.0
  9
$DIMGAP
 40
0.09
  9
$DIMJUST
 70
     0
  9
$DIMSD1
 70
     0
  9
$DIMSD2
 70
     0
  9
$DIMTOLJ
 70
     1
  9
$DIMTZIN
 70
     0
  9
$DIMALTZ
 70
     0
  9
$DIMALTTZ
 70
     0
  9
$DIMUPT
 70
     0
  9
$DIMDEC
 70
     4
  9
$DIMTDEC
 70
     4
  9
$DIMALTU
 70
     2
  9
$DIMALTTD
 70
     2
  9
$DIMTXSTY
  7
Standard
  9
$DIMAUNIT
 70
     0
  9
$DIMADEC
 70
     0
  9
$DIMALTRND
 40
0.0
  9
$DIMAZIN
 70
     0
  9
$DIMDSEP
 70
    46
  9
$DIMATFIT
 70
     3
  9
$DIMFRAC
 70
     0
  9
$DIMLDRBLK
  1

  9
$DIMLUNIT
 70
     2
  9
$DIMLWD
 70
    -2
  9
$DIMLWE
 70
    -2
  9
$DIMTMOVE
 70
     0
  9
$DIMFXL
 40
1.0
  9
$DIMFXLON
 70
     0
  9
$DIMJOGANG
 40
0.7853981633974483
  9
$DIMTFILL
 70
     0
  9
$DIMTFILLCLR
 70
     0
  9
$DIMARCSYM
 70
     0
  9
$DIMLTYPE
  6

  9
$DIMLTEX1
  6

  9
$DIMLTEX2
  6

  9
$DIMTXTDIRECTION
 70
     0
  9
$LUNITS
 70
     2
  9
$LUPREC
 70
     4
  9
$SKETCHINC
 40
0.1
  9
$FILLETRAD
 40
0.0
  9
$AUNITS
 70
     0
  9
$AUPREC
 70
     0
  9
$MENU
  1
.
  9
$ELEVATION
 40
0.0
  9
$PELEVATION
 40
0.0
  9
$THICKNESS
 40
0.0
  9
$LIMCHECK
 70
     0
  9
$CHAMFERA
 40
0.0
  9
$CHAMFERB
 40
0.0
  9
$CHAMFERC
 40
0.0
  9
$CHAMFERD
 40
0.0
  9
$SKPOLY
 70
     0
  9
$TDCREATE
 40
2460336.445972223
  9
$TDUCREATE
 40
2460336.404305556
  9
$TDUPDATE
 40
2460336.445972223
  9
$TDUUPDATE
 40
2460336.404305556
  9
$TDINDWG
 40
0.0000000000
  9
$TDUSRTIMER
 40
0.0000000000
  9
$USRTIMER
 70
     1
  9
$ANGBASE
 50
0.0
  9
$ANGDIR
 70
     0
  9
$PDMODE
 70
     0
  9
$PDSIZE
 40
0.0
  9
$PLINEWID
 40
0.0
  9
$SPLFRAME
 70
     0
  9
$SPLINETYPE
 70
     6
  9
$SPLINESEGS
 70
     8
  9
$HANDSEED
  5
142
  9
$SURFTAB1
 70
     6
  9
$SURFTAB2
 70
     6
  9
$SURFTYPE
 70
     6
  9
$SURFU
 70
     6
  9
$SURFV
 70
     6
  9
$UCSBASE
  2

  9
$UCSNAME
  2

  9
$UCSORG
 10
0.0
 20
0.0
 30
0.0
  9
$UCSXDIR
 10
1.0
 20
0.0
 30
0.0
  9
$UCSYDIR
 10
0.0
 20
1.0
 30
0.0
  9
$UCSORTHOREF
  2

  9
$UCSORTHOVIEW
 70
     0
  9
$UCSORGTOP
 10
0.0
 20
0.0
 30
0.0
  9
$UCSORGBOTTOM
 10
0.0
 20
0.0
 30
0.0
  9
$UCSORGLEFT
 10
0.0
 20
0.0
 30
0.0
  9
$UCSORGRIGHT
 10
0.0
 20
0.0
 30
0.0
  9
$UCSORGFRONT
 10
0.0
 20
0.0
 30
0.0
  9
$UCSORGBACK
 10
0.0
 20
0.0
 30
0.0
  9
$PUCSBASE
  2

  9
$PUCSNAME
  2

  9
$PUCSORG
 10
0.0
 20
0.0
 30
0.0
  9
$PUCSXDIR
 10
1.0
 20
0.0
 30
0.0
  9
$PUCSYDIR
 10
0.0
 20
1.0
 30
0.0
  9
$PUCSORTHOREF
  2

  9
$PUCSORTHOVIEW
 70
     0
  9
$PUCSORGTOP
 10
0.0
 20
0.0
 30
0.0
  9
$PUCSORGBOTTOM
 10
0.0
 20
0.0
 30
0.0
  9
$PUCSORGLEFT
 10
0.0
 20
0.0
 30
0.0
  9
$PUCSORGRIGHT
 10
0.0
 20
0.0
 30
0.0
  9
$PUCSORGFRONT
 10
0.0
 20
0.0
 30
0.0
  9
$PUCSORGBACK
 10
0.0
 20
0.0
 30
0.0
  9
$USERI1
 70
     0
  9
$USERI2
 70
     0
  9
$USERI3
 70
     0
  9
$USERI4
 70
     0
  9
$USERI5
 70
     0
  9
$USERR1
 40
0.0
  9
$USERR2
 40
0.0
  9
$USERR3
 40
0.0
  9
$USERR4
 40
0.0
  9
$USERR5
 40
0.0
  9
$WORLDVIEW
 70
     1
  9
$SHADEDGE
 70
     3
  9
$SHADEDIF
 70
    70
  9
$TILEMODE
 70
     1
  9
$MAXACTVP
 70
    64
  9
$PINSBASE
 10
0.0
 20
0.0
 30
0.0
  9
$PLIMCHECK
 70
     0
  9
$PEXTMIN
 10
1.000000000000000E+20
 20
1.000000000000000E+20
 30
1.000000000000000E+20
  9
$PEXTMAX
 10
-1.000000000000000E+20
 20
-1.000000000000000E+20
 30
-1.000000000000000E+20
  9
$PLIMMIN
 10
0.0
 20
0.0
  9
$PLIMMAX
 10
12.0
 20
9.0
  9
$UNITMODE
 70
     0
  9
$VISRETAIN
 70
     1
  9
$PLINEGEN
 70
     0
  9
$PSLTSCALE
 70
     1
  9
$TREEDEPTH
 70
  3020
  9
$CMLSTYLE
  2
Standard
  9
$CMLJUST
 70
     0
  9
$CMLSCALE
 40
1.0
  9
$PROXYGRAPHICS
 70
     1
  9
$MEASUREMENT
 70
     0
  9
$CELWEIGHT
370
    -1
  9
$ENDCAPS
280
     0
  9
$JOINSTYLE
280
     0
  9
$LWDISPLAY
290
     1
  9
$INSUNITS
 70
     4
  9
$HYPERLINKBASE
  1

  9
$STYLESHEET
  1

  9
$XEDIT
290
     1
  9
$CEPSNTYPE
380
     0
  9
$PSTYLEMODE
290
     1
  9
$FINGERPRINTGUID
  2
{B41EB42D-A839-A544-84FD-069E7448778B}
  9
$VERSIONGUID
  2
{0D626A42-12D2-4342-9C42-A6ED55D2830A}
  9
$EXTNAMES
290
     1
  9
$PSVPSCALE
 40
0.0
  9
$OLESTARTUP
290
     0
  9
$SORTENTS
280
   127
  9
$INDEXCTL
280
     0
  9
$HIDETEXT
280
     1
  9
$XCLIPFRAME
280
     2
  9
$HALOGAP
280
     0
  9
$OBSCOLOR
 70
   257
  9
$OBSLTYPE
280
     0
  9
$INTERSECTIONDISPLAY
280
     0
  9
$INTERSECTIONCOLOR
 70
   257
  9
$DIMASSOC
280
     2
  9
$PROJECTNAME
  1

  9
$CAMERADISPLAY
290
     0
  9
$LENSLENGTH
 40
50.0
  9
$CAMERAHEIGHT
 40
0.0
  9
$STEPSPERSEC
 40
2.0
  9
$STEPSIZE
 40
6.0
  9
$3DDWFPREC
 40
2.0
  9
$PSOLWIDTH
 40
0.25
  9
$PSOLHEIGHT
 40
4.0
  9
$LOFTANG1
 40
1.570796326794896
  9
$LOFTANG2
 40
1.570796326794896
  9
$LOFTMAG1
 40
0.0
  9
$LOFTMAG2
 40
0.0
  9
$LOFTPARAM
 70
     7
  9
$LOFTNORMALS
280
     1
  9
$LATITUDE
 40
37.795
  9
$LONGITUDE
 40
-122.394
  9
$NORTHDIRECTION
 40
0.0
  9
$TIMEZONE
 70
 -8000
  9
$LIGHTGLYPHDISPLAY
280
     1
  9
$TILEMODELIGHTSYNCH
280
     1
  9
$CMATERIAL
347
11
  9
$SOLIDHIST
280
     0
  9
$SHOWHIST
280
     1
  9
$DWFFRAME
280
     2
  9
$DGNFRAME
280
     0
  9
$REALWORLDSCALE
290
     1
  9
$INTERFERECOLOR
 62
     1
  9
$INTERFEREOBJVS
345
33
  9
$INTERFEREVPVS
346
30
  9
$CSHADOW
280
     0
  9
$SHADOWPLANELOCATION
 40
0.0
  0
ENDSEC
  0
SECTION
  2
CLASSES
  0
CLASS
  1
ACDBDICTIONARYWDFLT
  2
AcDbDictionaryWithDefault
  3
ObjectDBX Classes
 90
        0
 91
        1
280
     0
281
     0
  0
CLASS
  1
MATERIAL
  2
AcDbMaterial
  3
ObjectDBX Classes
 90
     1153
 91
        3
280
     0
281
     0
  0
CLASS
  1
VISUALSTYLE
  2
AcDbVisualStyle
  3
ObjectDBX Classes
 90
     4095
 91
       24
280
     0
281
     0
  0
CLASS
  1
SCALE
  2
AcDbScale
  3
ObjectDBX Classes
 90
     1153
 91
       17
280
     0
281
     0
  0
CLASS
  1
TABLESTYLE
  2
AcDbTableStyle
  3
ObjectDBX Classes
 90
     4095
 91
        1
280
     0
281
     0
  0
CLASS
  1
MLEADERSTYLE
  2
AcDbMLeaderStyle
  3
ACDB_MLEADERSTYLE_CLASS
 90
     4095
 91
        1
280
     0
281
     0
  0
CLASS
  1
ACDBSECTIONVIEWSTYLE
  2
AcDbSectionViewStyle
  3
ObjectDBX Classes
 90
     1025
 91
        1
280
     0
281
     0
  0
CLASS
  1
ACDBDETAILVIEWSTYLE
  2
AcDbDetailViewStyle
  3
ObjectDBX Classes
 90
     1025
 91
        1
280
     0
281
     0
  0
CLASS
  1
DICTIONARYVAR
  2
AcDbDictionaryVar
  3
ObjectDBX Classes
 90
        0
 91
        5
280
     0
281
     0
  0
CLASS
  1
CELLSTYLEMAP
  2
AcDbCellStyleMap
  3
ObjectDBX Classes
 90
     1152
 91
        1
280
     0
281
     0
  0
ENDSEC
  0
SECTION
  2
TABLES
  0
TABLE
  2
VPORT
  5
8
330
0
100
AcDbSymbolTable
 70
     1
  0
VPORT
  5
57
330
8
100
AcDbSymbolTableRecord
100
AcDbViewportTableRecord
  2
*Active
 70
     0
 10
0.0
 20
0.0
 11
1.0
 21
1.0
 12
0.0
 22
0.0
 13
0.0
 23
0.0
 14
1.0
 24
1.0
 15
0.0
 25
0.0
 16
0.0
 26
0.0
 36
1.0
 17
297.0000022993394
 27
209.9999940135265
 37
0.0
 40
428.399987787594
 41
1.414285765552017
 42
50.0
 43
0.0
 44
0.0
 50
0.0
 51
0.0
 71
     0
 72
   100
 73
     1
 74
     0
 75
     1
 76
     0
 77
     0
 78
     0
281
     0
 65
     1
110
0.0
120
0.0
130
0.0
111
1.0
121
0.0
131
0.0
112
0.0
122
1.0
132
0.0
 79
     0
146
0.0
 60
     3
 61
     5
292
     1
282
     1
141
0.0
142
0.0
 63
   250
421
  3355443
  0
ENDTAB
  0
TABLE
  2
LTYPE
  5
5
330
0
100
AcDbSymbolTable
 70
     1
  0
LTYPE
  5
5B
330
5
100
AcDbSymbolTableRecord
100
AcDbLinetypeTableRecord
  2
ByBlock
 70
     0
  3

 72
    65
 73
     0
 40
0.0
  0
LTYPE
  5
5C
330
5
100
AcDbSymbolTableRecord
100
AcDbLinetypeTableRecord
  2
ByLayer
 70
     0
  3

 72
    65
 73
     0
 40
0.0
  0
LTYPE
  5
5D
330
5
100
AcDbSymbolTableRecord
100
AcDbLinetypeTableRecord
  2
Continuous
 70
     0
  3
Solid line
 72
    65
 73
     0
 40
0.0
  0
ENDTAB
  0
TABLE
  2
LAYER
  5
2
330
0
100
AcDbSymbolTable
 70
     2
  0
LAYER
  5
54
330
2
100
AcDbSymbolTableRecord
100
AcDbLayerTableRecord
  2
0
 70
     0
 62
     7
  6
Continuous
370
    -3
390
F
347
21
348
0
  0
LAYER
  5
78
330
2
100
AcDbSymbolTableRecord
100
AcDbLayerTableRecord
  2
Livello 1
 70
     0
 62
     7
  6
Continuous
370
     0
390
F
347
21
348
0
  0
ENDTAB
  0
TABLE
  2
STYLE
  5
3
330
0
100
AcDbSymbolTable
 70
     2
  0
STYLE
  5
55
330
3
100
AcDbSymbolTableRecord
100
AcDbTextStyleTableRecord
  2
Standard
 70
     0
 40
0.0
 41
1.0
 50
0.0
 71
     0
 42
0.2
  3
txt
  4

  0
STYLE
  5
5A
330
3
100
AcDbSymbolTableRecord
100
AcDbTextStyleTableRecord
  2
Annotative
 70
     0
 40
0.0
 41
1.0
 50
0.0
 71
     0
 42
0.2
  3
txt
  4

1001
AcadAnnotative
1000
AnnotativeData
1002
{
1070
     1
1070
     1
1002
}
  0
ENDTAB
  0
TABLE
  2
VIEW
  5
6
330
0
100
AcDbSymbolTable
 70
     0
  0
ENDTAB
  0
TABLE
  2
UCS
  5
7
330
0
100
AcDbSymbolTable
 70
     0
  0
ENDTAB
  0
TABLE
  2
APPID
  5
9
330
0
100
AcDbSymbolTable
 70
     2
  0
APPID
  5
56
330
9
100
AcDbSymbolTableRecord
100
AcDbRegAppTableRecord
  2
ACAD
 70
     0
  0
APPID
  5
5E
330
9
100
AcDbSymbolTableRecord
100
AcDbRegAppTableRecord
  2
AcadAnnotative
 70
     0
  0
ENDTAB
  0
TABLE
  2
DIMSTYLE
  5
A
330
0
100
AcDbSymbolTable
 70
     2
100
AcDbDimStyleTable
 71
     0
  0
DIMSTYLE
105
58
330
A
100
AcDbSymbolTableRecord
100
AcDbDimStyleTableRecord
  2
Standard
 70
     0
340
55
  0
DIMSTYLE
105
59
330
A
100
AcDbSymbolTableRecord
100
AcDbDimStyleTableRecord
  2
Annotative
 70
     0
340
55
1001
AcadAnnotative
1000
AnnotativeData
1002
{
1070
     1
1070
     1
1002
}
  0
ENDTAB
  0
TABLE
  2
BLOCK_RECORD
  5
1
330
0
100
AcDbSymbolTable
 70
     1
  0
BLOCK_RECORD
  5
70
330
1
100
AcDbSymbolTableRecord
100
AcDbBlockTableRecord
  2
*Model_Space
340
73
 70
     0
280
     1
281
     0
  0
BLOCK_RECORD
  5
6C
330
1
100
AcDbSymbolTableRecord
100
AcDbBlockTableRecord
  2
*Paper_Space
340
6F
 70
     0
280
     1
281
     0
  0
BLOCK_RECORD
  5
74
330
1
100
AcDbSymbolTableRecord
100
AcDbBlockTableRecord
  2
*Paper_Space0
340
77
 70
     0
280
     1
281
     0
  0
ENDTAB
  0
ENDSEC
  0
SECTION
  2
BLOCKS
  0
BLOCK
  5
71
330
70
100
AcDbEntity
  8
0
100
AcDbBlockBegin
  2
*Model_Space
 70
     0
 10
0.0
 20
0.0
 30
0.0
  3
*Model_Space
  1

  0
ENDBLK
  5
72
330
70
100
AcDbEntity
  8
0
100
AcDbBlockEnd
  0
BLOCK
  5
6D
330
6C
100
AcDbEntity
 67
     1
  8
0
100
AcDbBlockBegin
  2
*Paper_Space
 70
     0
 10
0.0
 20
0.0
 30
0.0
  3
*Paper_Space
  1

  0
ENDBLK
  5
6E
330
6C
100
AcDbEntity
 67
     1
  8
0
100
AcDbBlockEnd
  0
BLOCK
  5
75
330
74
100
AcDbEntity
 67
     1
  8
0
100
AcDbBlockBegin
  2
*Paper_Space0
 70
     0
 10
0.0
 20
0.0
 30
0.0
  3
*Paper_Space0
  1

  0
ENDBLK
  5
76
330
74
100
AcDbEntity
 67
     1
  8
0
100
AcDbBlockEnd
  0
ENDSEC
  0
SECTION
  2
ENTITIES
  0
LINE
  5
79
330
70
100
AcDbEntity
  8
Livello 1
 62
   250
420
  2300182
370
    18
100
AcDbLine
 10
106.6464835006279
 20
136.8233129371212
 30
0.0
 11
91.64651622600329
 21
136.8233129371212
 31
0.0
  0
LINE
  5
7A
330
70
100
AcDbEntity
  8
Livello 1
 62
   250
420
  2300182
370
    18
100
AcDbLine
 10
110.6464869752409
 20
141.7221956534529
 30
0.0
 11
87.64650736842854
 21
141.7221956534529
 31
0.0
  0
LINE
  5
7B
330
70
100
AcDbEntity
  8
Livello 1
 62
   250
420
  2300182
370
    18
100
AcDbLine
 10
110.6464869752409
 20
141.9524895207185
 30
0.0
 11
87.64650736842854
 21
141.9524895207185
 31
0.0
  0
LINE
  5
7C
330
70
100
AcDbEntity
  8
Livello 1
 62
   250
420
  2300182
370
    18
100
AcDbLine
 10
84.61060848240094
 20
153.2322058400557
 30
0.0
 11
113.6823912442302
 21
153.2322058400557
 31
0.0
  0
LINE
  5
7D
330
70
100
AcDbEntity
  8
Livello 1
 62
   250
420
  2300182
370
    18
100
AcDbLine
 10
85.10068946406283
 20
153.7222060772921
 30
0.0
 11
113.19231564553
 21
153.7222060772921
 31
0.0
  0
LINE
  5
7E
330
70
100
AcDbEntity
  8
Livello 1
 62
   250
420
  2300182
370
    18
100
AcDbLine
 10
113.6823912442302
 20
154.2222078573591
 30
0.0
 11
84.61060848240094
 21
154.2222078573591
 31
0.0
  0
LINE
  5
7F
330
70
100
AcDbEntity
  8
Livello 1
 62
   250
420
  2300182
370
    18
100
AcDbLine
 10
97.46508871396924
 20
290.5145023891227
 30
0.0
 11
97.4861899238164
 21
290.5360988314458
 31
0.0
  0
LINE
  5
80
330
70
100
AcDbEntity
  8
Livello 1
 62
   250
420
  2300182
370
    18
100
AcDbLine
 10
84.61060848240094
 20
159.2221933602595
 30
0.0
 11
113.6823912442302
 21
159.2221933602595
 31
0.0
  0
LINE
  5
81
330
70
100
AcDbEntity
  8
Livello 1
 62
   250
420
  2300182
370
    18
100
AcDbLine
 10
85.11070715577853
 20
159.7221843744032
 30
0.0
 11
113.1822925708526
 21
159.7221843744032
 31
0.0
  0
LINE
  5
82
330
70
100
AcDbEntity
  8
Livello 1
 62
   250
420
  2300182
370
    18
100
AcDbLine
 10
113.171989582167
 20
160.6961021021599
 30
0.0
 11
85.12101014446411
 21
160.6961021021599
 31
0.0
  0
LINE
  5
83
330
70
100
AcDbEntity
  8
Livello 1
 62
   250
420
  2300182
370
    18
100
AcDbLine
 10
97.69139918957998
 20
288.241320728721
 30
0.0
 11
97.67029797973282
 21
288.2201764551802
 31
0.0
  0
LINE
  5
84
330
70
100
AcDbEntity
  8
Livello 1
 62
   250
420
  2300182
370
    18
100
AcDbLine
 10
97.89138698249873
 20
288.0413975313425
 30
0.0
 11
97.87029653857496
 21
288.0202963214954
 31
0.0
  0
LINE
  5
85
330
70
100
AcDbEntity
  8
Livello 1
 62
   250
420
  2300182
370
    18
100
AcDbLine
 10
97.69139918957998
 20
168.2032127807573
 30
0.0
 11
100.6016005370512
 21
168.2032127807573
 31
0.0
  0
LINE
  5
86
330
70
100
AcDbEntity
  8
Livello 1
 62
   250
420
  2300182
370
    18
100
AcDbLine
 10
100.4016881055962
 20
168.4030929144422
 30
0.0
 11
97.89138698249873
 21
168.4030929144422
 31
0.0
  0
LINE
  5
87
330
70
100
AcDbEntity
  8
Livello 1
 62
   250
420
  2300182
370
    18
100
AcDbLine
 10
97.87029653857496
 20
168.4241941242893
 30
0.0
 11
100.4228108472901
 21
168.4241941242893
 31
0.0
  0
LWPOLYLINE
  5
88
330
70
100
AcDbEntity
  8
Livello 1
 62
   250
420
  2300182
370
    18
100
AcDbPolyline
 90
        5
 70
     0
 43
0.0
 10
84.69358145397853
 20
164.4440107146398
 10
84.76399597592001
 20
164.3848842633742
 10
84.93018953531313
 20
164.1540951636327
 10
85.03299333777766
 20
163.8301054650917
 10
85.04181062903523
 20
163.722015594242
  0
LINE
  5
89
330
70
100
AcDbEntity
  8
Livello 1
 62
   250
420
  2300182
370
    18
100
AcDbLine
 10
97.39650978196598
 20
168.7470856986444
 30
0.0
 11
100.8964899446652
 21
168.7470856986444
 31
0.0
  0
LINE
  5
8A
330
70
100
AcDbEntity
  8
Livello 1
 62
   250
420
  2300182
370
    18
100
AcDbLine
 10
97.69139918957998
 20
168.2032127807573
 30
0.0
 11
97.67029797973282
 21
168.2243032246811
 31
0.0
  0
LINE
  5
8B
330
70
100
AcDbEntity
  8
Livello 1
 62
   250
420
  2300182
370
    18
100
AcDbLine
 10
97.89138698249873
 20
168.4030929144422
 30
0.0
 11
97.87029653857496
 21
168.4241941242893
 31
0.0
  0
LINE
  5
8C
330
70
100
AcDbEntity
  8
Livello 1
 62
   250
420
  2300182
370
    18
100
AcDbLine
 10
97.46508871396924
 20
165.9300203544322
 30
0.0
 11
97.4861899238164
 21
165.9082839551049
 31
0.0
  0
LINE
  5
8D
330
70
100
AcDbEntity
  8
Livello 1
 62
   250
420
  2300182
370
    18
100
AcDbLine
 10
85.04181062903523
 20
163.722015594242
 30
0.0
 11
85.12101014446411
 21
160.6961021021599
 31
0.0
  0
LINE
  5
8E
330
70
100
AcDbEntity
  8
Livello 1
 62
   250
420
  2300182
370
    18
100
AcDbLine
 10
84.61060848240094
 20
144.6184981938258
 30
0.0
 11
84.61060848240094
 21
153.2322058400557
 31
0.0
  0
LINE
  5
8F
330
70
100
AcDbEntity
  8
Livello 1
 62
   250
420
  2300182
370
    18
100
AcDbLine
 10
84.61060848240094
 20
154.2222078573591
 30
0.0
 11
84.61060848240094
 21
159.2221933602595
 31
0.0
  0
LINE
  5
90
330
70
100
AcDbEntity
  8
Livello 1
 62
   250
420
  2300182
370
    18
100
AcDbLine
 10
85.01260267887435
 20
144.0300974167919
 30
0.0
 11
85.01260267887435
 21
153.2322058400557
 31
0.0
  0
LINE
  5
91
330
70
100
AcDbEntity
  8
Livello 1
 62
   250
420
  2300182
370
    18
100
AcDbLine
 10
85.01260267887435
 20
154.2222078573591
 30
0.0
 11
85.01260267887435
 21
159.2221933602595
 31
0.0
  0
LINE
  5
92
330
70
100
AcDbEntity
  8
Livello 1
 62
   250
420
  2300182
370
    18
100
AcDbLine
 10
87.64650736842854
 20
141.9524895207185
 30
0.0
 11
87.64650736842854
 21
141.7221956534529
 31
0.0
  0
LINE
  5
93
330
70
100
AcDbEntity
  8
Livello 1
 62
   250
420
  2300182
370
    18
100
AcDbLine
 10
90.78051611432202
 20
144.0300974167919
 30
0.0
 11
90.78051611432202
 21
153.2322058400557
 31
0.0
  0
LINE
  5
94
330
70
100
AcDbEntity
  8
Livello 1
 62
   250
420
  2300182
370
    18
100
AcDbLine
 10
90.78051611432202
 20
154.2222078573591
 30
0.0
 11
90.78051611432202
 21
159.2221933602595
 31
0.0
  0
LINE
  5
95
330
70
100
AcDbEntity
  8
Livello 1
 62
   250
420
  2300182
370
    18
100
AcDbLine
 10
97.4861899238164
 20
290.5360988314458
 30
0.0
 11
97.48078543027391
 21
290.7359789651307
 31
0.0
  0
LINE
  5
96
330
70
100
AcDbEntity
  8
Livello 1
 62
   250
420
  2300182
370
    18
100
AcDbLine
 10
93.37858104490623
 20
144.0300974167919
 30
0.0
 11
93.37858104490623
 21
159.7221843744032
 31
0.0
  0
LINE
  5
97
330
70
100
AcDbEntity
  8
Livello 1
 62
   250
420
  2300182
370
    18
100
AcDbLine
 10
97.39650978196598
 20
166.7470893442995
 30
0.0
 11
97.39650978196598
 21
168.7470856986444
 31
0.0
  0
LINE
  5
98
330
70
100
AcDbEntity
  8
Livello 1
 62
   250
420
  2300182
370
    18
100
AcDbLine
 10
97.39650978196598
 20
287.6972970879064
 30
0.0
 11
97.39650978196598
 21
289.6973042081746
 31
0.0
  0
LINE
  5
99
330
70
100
AcDbEntity
  8
Livello 1
 62
   250
420
  2300182
370
    18
100
AcDbLine
 10
97.57011029665241
 20
239.8156159543148
 30
0.0
 11
97.57011029665241
 21
216.6289175551635
 31
0.0
  0
LINE
  5
9A
330
70
100
AcDbEntity
  8
Livello 1
 62
   250
420
  2300182
370
    18
100
AcDbLine
 10
97.67029797973282
 20
166.1297928288831
 30
0.0
 11
97.67029797973282
 21
168.2243032246811
 31
0.0
  0
LINE
  5
9B
330
70
100
AcDbEntity
  8
Livello 1
 62
   250
420
  2300182
370
    18
100
AcDbLine
 10
97.67029797973282
 20
288.2201764551802
 30
0.0
 11
97.67029797973282
 21
290.314600723591
 31
0.0
  0
LINE
  5
9C
330
70
100
AcDbEntity
  8
Livello 1
 62
   250
420
  2300182
370
    18
100
AcDbLine
 10
97.69139918957998
 20
166.1082071524834
 30
0.0
 11
97.69139918957998
 21
168.2032127807573
 31
0.0
  0
LINE
  5
9D
330
70
100
AcDbEntity
  8
Livello 1
 62
   250
420
  2300182
370
    18
100
AcDbLine
 10
97.69139918957998
 20
288.241320728721
 30
0.0
 11
97.69139918957998
 21
290.3362832933013
 31
0.0
  0
LINE
  5
9E
330
70
100
AcDbEntity
  8
Livello 1
 62
   250
420
  2300182
370
    18
100
AcDbLine
 10
97.77009808957116
 20
240.4208115718393
 30
0.0
 11
97.77009808957116
 21
216.0236788739455
 31
0.0
  0
LINE
  5
9F
330
70
100
AcDbEntity
  8
Livello 1
 62
   250
420
  2300182
370
    18
100
AcDbLine
 10
97.89138698249873
 20
165.6989082769889
 30
0.0
 11
97.89138698249873
 21
168.4030929144422
 31
0.0
  0
LINE
  5
A0
330
70
100
AcDbEntity
  8
Livello 1
 62
   250
420
  2300182
370
    18
100
AcDbLine
 10
97.89138698249873
 20
288.0413975313425
 30
0.0
 11
97.89138698249873
 21
290.3362832933013
 31
0.0
  0
LINE
  5
A1
330
70
100
AcDbEntity
  8
Livello 1
 62
   250
420
  2300182
370
    18
100
AcDbLine
 10
100.8068851642785
 20
290.5360988314458
 30
0.0
 11
100.8122142963573
 21
290.7359789651307
 31
0.0
  0
LINE
  5
A2
330
70
100
AcDbEntity
  8
Livello 1
 62
   250
420
  2300182
370
    18
100
AcDbLine
 10
100.4016881055962
 20
290.3362832933013
 30
0.0
 11
100.4016881055962
 21
288.0413975313425
 31
0.0
  0
LINE
  5
A3
330
70
100
AcDbEntity
  8
Livello 1
 62
   250
420
  2300182
370
    18
100
AcDbLine
 10
100.4016881055962
 20
168.4030929144422
 30
0.0
 11
100.4016881055962
 21
165.6989082769889
 31
0.0
  0
LINE
  5
A4
330
70
100
AcDbEntity
  8
Livello 1
 62
   250
420
  2300182
370
    18
100
AcDbLine
 10
100.52290163706
 20
216.0236788739455
 30
0.0
 11
100.52290163706
 21
240.4208115718393
 31
0.0
  0
LINE
  5
A5
330
70
100
AcDbEntity
  8
Livello 1
 62
   250
420
  2300182
370
    18
100
AcDbLine
 10
100.6016005370512
 20
290.3362832933013
 30
0.0
 11
100.6016005370512
 21
288.241320728721
 31
0.0
  0
LINE
  5
A6
330
70
100
AcDbEntity
  8
Livello 1
 62
   250
420
  2300182
370
    18
100
AcDbLine
 10
100.6016005370512
 20
168.2032127807573
 30
0.0
 11
100.6016005370512
 21
166.1082071524834
 31
0.0
  0
LINE
  5
A7
330
70
100
AcDbEntity
  8
Livello 1
 62
   250
420
  2300182
370
    18
100
AcDbLine
 10
100.6227017468984
 20
290.314600723591
 30
0.0
 11
100.6227017468984
 21
288.2201764551802
 31
0.0
  0
LINE
  5
A8
330
70
100
AcDbEntity
  8
Livello 1
 62
   250
420
  2300182
370
    18
100
AcDbLine
 10
100.6227017468984
 20
168.2243032246811
 30
0.0
 11
100.6227017468984
 21
166.129900488117
 31
0.0
  0
LINE
  5
A9
330
70
100
AcDbEntity
  8
Livello 1
 62
   250
420
  2300182
370
    18
100
AcDbLine
 10
100.7228894299788
 20
216.6289175551635
 30
0.0
 11
100.7228894299788
 21
239.8156159543148
 31
0.0
  0
LINE
  5
AA
330
70
100
AcDbEntity
  8
Livello 1
 62
   250
420
  2300182
370
    18
100
AcDbLine
 10
100.8964899446652
 20
289.6973042081746
 30
0.0
 11
100.8964899446652
 21
287.6972970879064
 31
0.0
  0
LINE
  5
AB
330
70
100
AcDbEntity
  8
Livello 1
 62
   250
420
  2300182
370
    18
100
AcDbLine
 10
100.8964899446652
 20
168.7470856986444
 30
0.0
 11
100.8964899446652
 21
166.7470893442995
 31
0.0
  0
LINE
  5
AC
330
70
100
AcDbEntity
  8
Livello 1
 62
   250
420
  2300182
370
    18
100
AcDbLine
 10
104.9144832772653
 20
144.0300974167919
 30
0.0
 11
104.9144832772653
 21
159.7221843744032
 31
0.0
  0
LINE
  5
AD
330
70
100
AcDbEntity
  8
Livello 1
 62
   250
420
  2300182
370
    18
100
AcDbLine
 10
97.77009808957116
 20
216.6289175551635
 30
0.0
 11
97.57011029665241
 21
216.6289175551635
 31
0.0
  0
LINE
  5
AE
330
70
100
AcDbEntity
  8
Livello 1
 62
   250
420
  2300182
370
    18
100
AcDbLine
 10
100.52290163706
 20
216.6289175551635
 30
0.0
 11
100.7228894299788
 21
216.6289175551635
 31
0.0
  0
LINE
  5
AF
330
70
100
AcDbEntity
  8
Livello 1
 62
   250
420
  2300182
370
    18
100
AcDbLine
 10
100.52290163706
 20
218.7534002816832
 30
0.0
 11
97.77009808957116
 21
218.7534002816832
 31
0.0
  0
LINE
  5
B0
330
70
100
AcDbEntity
  8
Livello 1
 62
   250
420
  2300182
370
    18
100
AcDbLine
 10
100.52290163706
 20
219.6224040859906
 30
0.0
 11
97.77009808957116
 21
219.6224040859906
 31
0.0
  0
LINE
  5
B1
330
70
100
AcDbEntity
  8
Livello 1
 62
   250
420
  2300182
370
    18
100
AcDbLine
 10
107.5125912715431
 20
144.0300974167919
 30
0.0
 11
107.5125912715431
 21
153.2322058400557
 31
0.0
  0
LINE
  5
B2
330
70
100
AcDbEntity
  8
Livello 1
 62
   250
420
  2300182
370
    18
100
AcDbLine
 10
107.5125912715431
 20
154.2222078573591
 30
0.0
 11
107.5125912715431
 21
159.2221933602595
 31
0.0
  0
LINE
  5
B3
330
70
100
AcDbEntity
  8
Livello 1
 62
   250
420
  2300182
370
    18
100
AcDbLine
 10
110.6464869752409
 20
141.9524895207185
 30
0.0
 11
110.6464869752409
 21
141.7221956534529
 31
0.0
  0
LINE
  5
B4
330
70
100
AcDbEntity
  8
Livello 1
 62
   250
420
  2300182
370
    18
100
AcDbLine
 10
113.2805100899524
 20
144.0300974167919
 30
0.0
 11
113.2805100899524
 21
153.2322058400557
 31
0.0
  0
LINE
  5
B5
330
70
100
AcDbEntity
  8
Livello 1
 62
   250
420
  2300182
370
    18
100
AcDbLine
 10
113.2805100899524
 20
154.2222078573591
 30
0.0
 11
113.2805100899524
 21
159.2221933602595
 31
0.0
  0
LINE
  5
B6
330
70
100
AcDbEntity
  8
Livello 1
 62
   250
420
  2300182
370
    18
100
AcDbLine
 10
113.6823912442302
 20
144.6184981938258
 30
0.0
 11
113.6823912442302
 21
153.2322058400557
 31
0.0
  0
LINE
  5
B7
330
70
100
AcDbEntity
  8
Livello 1
 62
   250
420
  2300182
370
    18
100
AcDbLine
 10
113.6823912442302
 20
154.2222078573591
 30
0.0
 11
113.6823912442302
 21
159.2221933602595
 31
0.0
  0
LINE
  5
B8
330
70
100
AcDbEntity
  8
Livello 1
 62
   250
420
  2300182
370
    18
100
AcDbLine
 10
113.171989582167
 20
160.6961021021599
 30
0.0
 11
113.2513021397915
 21
163.722015594242
 31
0.0
  0
LWPOLYLINE
  5
B9
330
70
100
AcDbEntity
  8
Livello 1
 62
   250
420
  2300182
370
    18
100
AcDbPolyline
 90
        5
 70
     0
 43
0.0
 10
113.2513021397915
 20
163.722015594242
 10
113.2611098960011
 20
163.8381153120949
 10
113.3666913067006
 20
164.161502118926
 10
113.5362007704983
 20
164.3921835594336
 10
113.5991060608743
 20
164.4439030554059
  0
LINE
  5
BA
330
70
100
AcDbEntity
  8
Livello 1
 62
   250
420
  2300182
370
    18
100
AcDbLine
 10
97.77009808957116
 20
236.822086359794
 30
0.0
 11
100.52290163706
 21
236.822086359794
 31
0.0
  0
LINE
  5
BB
330
70
100
AcDbEntity
  8
Livello 1
 62
   250
420
  2300182
370
    18
100
AcDbLine
 10
97.77009808957116
 20
237.6910040367144
 30
0.0
 11
100.52290163706
 21
237.6910040367144
 31
0.0
  0
LINE
  5
BC
330
70
100
AcDbEntity
  8
Livello 1
 62
   250
420
  2300182
370
    18
100
AcDbLine
 10
97.77009808957116
 20
239.8156159543148
 30
0.0
 11
97.57011029665241
 21
239.8156159543148
 31
0.0
  0
LINE
  5
BD
330
70
100
AcDbEntity
  8
Livello 1
 62
   250
420
  2300182
370
    18
100
AcDbLine
 10
100.52290163706
 20
239.8156159543148
 30
0.0
 11
100.7228894299788
 21
239.8156159543148
 31
0.0
  0
LINE
  5
BE
330
70
100
AcDbEntity
  8
Livello 1
 62
   250
420
  2300182
370
    18
100
AcDbLine
 10
100.4016881055962
 20
168.4030929144422
 30
0.0
 11
100.4228108472901
 21
168.4241941242893
 31
0.0
  0
LINE
  5
BF
330
70
100
AcDbEntity
  8
Livello 1
 62
   250
420
  2300182
370
    18
100
AcDbLine
 10
100.6016005370512
 20
168.2032127807573
 30
0.0
 11
100.6227017468984
 21
168.2243032246811
 31
0.0
  0
LINE
  5
C0
330
70
100
AcDbEntity
  8
Livello 1
 62
   250
420
  2300182
370
    18
100
AcDbLine
 10
100.8280186718958
 20
165.9300203544322
 30
0.0
 11
100.8068851642785
 21
165.9082839551049
 31
0.0
  0
LINE
  5
C1
330
70
100
AcDbEntity
  8
Livello 1
 62
   250
420
  2300182
370
    18
100
AcDbLine
 10
100.4016881055962
 20
288.0413975313425
 30
0.0
 11
100.4228108472901
 21
288.0202963214954
 31
0.0
  0
LINE
  5
C2
330
70
100
AcDbEntity
  8
Livello 1
 62
   250
420
  2300182
370
    18
100
AcDbLine
 10
100.6016005370512
 20
288.241320728721
 30
0.0
 11
100.6227017468984
 21
288.2201764551802
 31
0.0
  0
LINE
  5
C3
330
70
100
AcDbEntity
  8
Livello 1
 62
   250
420
  2300182
370
    18
100
AcDbLine
 10
100.8280186718958
 20
290.5145023891227
 30
0.0
 11
100.8068851642785
 21
290.5360988314458
 31
0.0
  0
LINE
  5
C4
330
70
100
AcDbEntity
  8
Livello 1
 62
   250
420
  2300182
370
    18
100
AcDbLine
 10
100.8964899446652
 20
287.6972970879064
 30
0.0
 11
97.39650978196598
 21
287.6972970879064
 31
0.0
  0
LINE
  5
C5
330
70
100
AcDbEntity
  8
Livello 1
 62
   250
420
  2300182
370
    18
100
AcDbLine
 10
100.4228108472901
 20
288.0202963214954
 30
0.0
 11
97.87029653857496
 21
288.0202963214954
 31
0.0
  0
LINE
  5
C6
330
70
100
AcDbEntity
  8
Livello 1
 62
   250
420
  2300182
370
    18
100
AcDbLine
 10
97.89138698249873
 20
288.0413975313425
 30
0.0
 11
100.4016881055962
 21
288.0413975313425
 31
0.0
  0
LINE
  5
C7
330
70
100
AcDbEntity
  8
Livello 1
 62
   250
420
  2300182
370
    18
100
AcDbLine
 10
97.69139918957998
 20
288.241320728721
 30
0.0
 11
100.6016005370512
 21
288.241320728721
 31
0.0
  0
LINE
  5
C8
330
70
100
AcDbEntity
  8
Livello 1
 62
   250
420
  2300182
370
    18
100
AcDbLine
 10
97.69139918957998
 20
290.3362832933013
 30
0.0
 11
97.89138698249873
 21
290.3362832933013
 31
0.0
  0
LINE
  5
C9
330
70
100
AcDbEntity
  8
Livello 1
 62
   250
420
  2300182
370
    18
100
AcDbLine
 10
100.4016881055962
 20
290.3362832933013
 30
0.0
 11
100.6016005370512
 21
290.3362832933013
 31
0.0
  0
SPLINE
  5
CA
330
70
100
AcDbEntity
  8
Livello 1
 62
   250
420
  2300182
370
    18
100
AcDbSpline
210
0.0
220
0.0
230
1.0
 70
     8
 71
     3
 72
     8
 73
     4
 74
     0
 42
0.0000000001
 43
0.0000000001
 40
0.0
 40
0.0
 40
0.0
 40
0.0
 40
1.0
 40
1.0
 40
1.0
 40
1.0
 10
84.61060848240094
 20
144.6184981938258
 30
0.0
 10
85.20250280157535
 20
143.3423917623957
 30
0.0
 10
86.30461576211526
 20
142.3745890791253
 30
0.0
 10
87.64650736842854
 20
141.9524895207185
 30
0.0
  0
SPLINE
  5
CB
330
70
100
AcDbEntity
  8
Livello 1
 62
   250
420
  2300182
370
    18
100
AcDbSpline
210
0.0
220
0.0
230
1.0
 70
     8
 71
     3
 72
     8
 73
     4
 74
     0
 42
0.0000000001
 43
0.0000000001
 40
0.0
 40
0.0
 40
0.0
 40
0.0
 40
1.0
 40
1.0
 40
1.0
 40
1.0
 10
87.64650736842854
 20
141.7221956534529
 30
0.0
 10
87.64650736842854
 20
139.3463070838971
 30
0.0
 10
89.31860599404133
 20
137.2984992637711
 30
0.0
 10
91.64651622600329
 20
136.8233129371212
 30
0.0
  0
ELLIPSE
  5
CC
330
70
100
AcDbEntity
  8
Livello 1
 62
   250
420
  2300182
370
    18
100
AcDbEllipse
 10
67.32669631546406
 20
196.4024066857898
 30
0.0
 11
-0.7265696101225921
 21
3.42376865769101
 31
0.0
210
0.0
220
0.0
230
1.0
 40
0.9999924263387878
 41
0.0
 42
6.283185307179586
  0
CIRCLE
  5
CD
330
70
100
AcDbEntity
  8
Livello 1
 62
   250
420
  2300182
370
    18
100
AcDbCircle
 10
67.32669631546406
 20
196.4023959198664
 30
0.0
 40
2.500002171639684
  0
SPLINE
  5
CE
330
70
100
AcDbEntity
  8
Livello 1
 62
   250
420
  2300182
370
    18
100
AcDbSpline
210
0.0
220
0.0
230
1.0
 70
     8
 71
     3
 72
     8
 73
     4
 74
     0
 42
0.0000000001
 43
0.0000000001
 40
0.0
 40
0.0
 40
0.0
 40
0.0
 40
1.0
 40
1.0
 40
1.0
 40
1.0
 10
85.12101014446411
 20
160.6961021021599
 30
0.0
 10
85.13518886557058
 20
160.1541993482535
 30
0.0
 10
85.57859956933071
 20
159.7221843744032
 30
0.0
 10
86.12071225874327
 20
159.7221843744032
 30
0.0
  0
SPLINE
  5
CF
330
70
100
AcDbEntity
  8
Livello 1
 62
   250
420
  2300182
370
    18
100
AcDbSpline
210
0.0
220
0.0
230
1.0
 70
     8
 71
     3
 72
    11
 73
     7
 74
     0
 42
0.0000000001
 43
0.0000000001
 40
0.0
 40
0.0
 40
0.0
 40
0.0
 40
1.0
 40
1.0
 40
1.0
 40
2.0
 40
2.0
 40
2.0
 40
2.0
 10
85.11060487950631
 20
159.7221843744032
 30
0.0
 10
84.97799561813268
 20
159.7221843744032
 30
0.0
 10
84.85081776511
 20
159.6695820727128
 30
0.0
 10
84.75708425310271
 20
159.575821645897
 30
0.0
 10
84.66331306036357
 20
159.4820181553877
 30
0.0
 10
84.61060848240094
 20
159.3547972386715
 30
0.0
 10
84.61060848240094
 20
159.2221933602595
 30
0.0
  0
SPLINE
  5
D0
330
70
100
AcDbEntity
  8
Livello 1
 62
   250
420
  2300182
370
    18
100
AcDbSpline
210
0.0
220
0.0
230
1.0
 70
     8
 71
     3
 72
     8
 73
     4
 74
     0
 42
0.0000000001
 43
0.0000000001
 40
0.0
 40
0.0
 40
0.0
 40
0.0
 40
1.0
 40
1.0
 40
1.0
 40
1.0
 10
84.61060848240094
 20
154.2222078573591
 30
0.0
 10
84.61060848240094
 20
153.9498945910969
 30
0.0
 10
84.82859151626845
 20
153.7277182300685
 30
0.0
 10
85.10079712329675
 20
153.722313736526
 30
0.0
  0
SPLINE
  5
D1
330
70
100
AcDbEntity
  8
Livello 1
 62
   250
420
  2300182
370
    18
100
AcDbSpline
210
0.0
220
0.0
230
1.0
 70
     8
 71
     3
 72
    11
 73
     7
 74
     0
 42
0.0000000001
 43
0.0000000001
 40
0.0
 40
0.0
 40
0.0
 40
0.0
 40
1.0
 40
1.0
 40
1.0
 40
2.0
 40
2.0
 40
2.0
 40
2.0
 10
85.10058180482891
 20
153.7222060772921
 30
0.0
 10
84.97069093911161
 20
153.7222060772921
 30
0.0
 10
84.84598386550727
 20
153.6706050064771
 30
0.0
 10
84.75408594343821
 20
153.5786963184847
 30
0.0
 10
84.66229029764139
 20
153.4867983964156
 30
0.0
 10
84.61060848240094
 20
153.3622043650069
 30
0.0
 10
84.61060848240094
 20
153.2322058400557
 30
0.0
  0
SPLINE
  5
D2
330
70
100
AcDbEntity
  8
Livello 1
 62
   250
420
  2300182
370
    18
100
AcDbSpline
210
0.0
220
0.0
230
1.0
 70
     8
 71
     3
 72
     8
 73
     4
 74
     0
 42
0.0000000001
 43
0.0000000001
 40
0.0
 40
0.0
 40
0.0
 40
0.0
 40
1.0
 40
1.0
 40
1.0
 40
1.0
 10
91.20508106918549
 20
153.722313736526
 30
0.0
 10
91.20791250703744
 20
153.722313736526
 30
0.0
 10
91.21069011527241
 20
153.7222060772921
 30
0.0
 10
91.21352155312434
 20
153.7222060772921
 30
0.0
  0
SPLINE
  5
D3
330
70
100
AcDbEntity
  8
Livello 1
 62
   250
420
  2300182
370
    18
100
AcDbSpline
210
0.0
220
0.0
230
1.0
 70
     8
 71
     3
 72
     8
 73
     4
 74
     0
 42
0.0000000001
 43
0.0000000001
 40
0.0
 40
0.0
 40
0.0
 40
0.0
 40
1.0
 40
1.0
 40
1.0
 40
1.0
 10
85.4372053144697
 20
153.722313736526
 30
0.0
 10
85.43998830566637
 20
153.722313736526
 30
0.0
 10
85.44281436055662
 20
153.7222060772921
 30
0.0
 10
85.44559735175329
 20
153.7222060772921
 30
0.0
  0
SPLINE
  5
D4
330
70
100
AcDbEntity
  8
Livello 1
 62
   250
420
  2300182
370
    18
100
AcDbSpline
210
0.0
220
0.0
230
1.0
 70
     8
 71
     3
 72
     8
 73
     4
 74
     0
 42
0.0000000001
 43
0.0000000001
 40
0.0
 40
0.0
 40
0.0
 40
0.0
 40
1.0
 40
1.0
 40
1.0
 40
1.0
 10
97.89138698249873
 20
168.4030929144422
 30
0.0
 10
97.78100396996665
 20
168.4029852552083
 30
0.0
 10
97.69150684881388
 20
168.3135957932894
 30
0.0
 10
97.69139918957998
 20
168.2032127807573
 30
0.0
  0
SPLINE
  5
D5
330
70
100
AcDbEntity
  8
Livello 1
 62
   250
420
  2300182
370
    18
100
AcDbSpline
210
0.0
220
0.0
230
1.0
 70
     8
 71
     3
 72
    11
 73
     7
 74
     0
 42
0.0000000001
 43
0.0000000001
 40
0.0
 40
0.0
 40
0.0
 40
0.0
 40
1.0
 40
1.0
 40
1.0
 40
2.0
 40
2.0
 40
2.0
 40
2.0
 10
97.4861899238164
 20
165.9083916143389
 30
0.0
 10
97.54009490223715
 20
165.9069059169108
 30
0.0
 10
97.59229886476209
 20
165.9274042350481
 30
0.0
 10
97.63089470012028
 20
165.9650096054543
 30
0.0
 10
97.66959819471239
 20
166.0026149758604
 30
0.0
 10
97.69139918957998
 20
166.0543021740626
 30
0.0
 10
97.69139918957998
 20
166.1082071524834
 30
0.0
  0
SPLINE
  5
D6
330
70
100
AcDbEntity
  8
Livello 1
 62
   250
420
  2300182
370
    18
100
AcDbSpline
210
0.0
220
0.0
230
1.0
 70
     8
 71
     3
 72
    11
 73
     7
 74
     0
 42
0.0000000001
 43
0.0000000001
 40
0.0
 40
0.0
 40
0.0
 40
0.0
 40
1.0
 40
1.0
 40
1.0
 40
2.0
 40
2.0
 40
2.0
 40
2.0
 10
97.54449816490424
 20
215.8253275013822
 30
0.0
 10
97.60151449518513
 20
215.8180066734761
 30
0.0
 10
97.65901529201862
 20
215.8355120649105
 30
0.0
 10
97.70219741074157
 20
215.8735157744821
 30
0.0
 10
97.74541182723467
 20
215.9113902929731
 30
0.0
 10
97.77009808957116
 20
215.9662103748821
 30
0.0
 10
97.77009808957116
 20
216.0236788739455
 30
0.0
  0
SPLINE
  5
D7
330
70
100
AcDbEntity
  8
Livello 1
 62
   250
420
  2300182
370
    18
100
AcDbSpline
210
0.0
220
0.0
230
1.0
 70
     8
 71
     3
 72
    11
 73
     7
 74
     0
 42
0.0000000001
 43
0.0000000001
 40
0.0
 40
0.0
 40
0.0
 40
0.0
 40
1.0
 40
1.0
 40
1.0
 40
2.0
 40
2.0
 40
2.0
 40
2.0
 10
97.46498105473532
 20
165.9300203544322
 30
0.0
 10
97.51899369239
 20
165.928502359234
 30
0.0
 10
97.57120842083832
 20
165.9488930181373
 30
0.0
 10
97.60991191543043
 20
165.9866060477774
 30
0.0
 10
97.64860464409913
 20
166.0242114181836
 30
0.0
 10
97.67040563896674
 20
166.0758878504624
 30
0.0
 10
97.67029797973282
 20
166.129900488117
 30
0.0
  0
SPLINE
  5
D8
330
70
100
AcDbEntity
  8
Livello 1
 62
   250
420
  2300182
370
    18
100
AcDbSpline
210
0.0
220
0.0
230
1.0
 70
     9
 71
     3
 72
    17
 73
    13
 74
     0
 42
0.0000000001
 43
0.0000000001
 40
0.0
 40
0.0
 40
0.0
 40
0.0
 40
1.0
 40
1.0
 40
1.0
 40
2.0
 40
2.0
 40
2.0
 40
3.0
 40
3.0
 40
3.0
 40
4.0
 40
4.0
 40
4.0
 40
4.0
 10
70.82670070149092
 20
260.0419868666844
 30
0.0
 10
70.82670070149092
 20
261.9750084116112
 30
0.0
 10
69.25969902002503
 20
263.5420100930772
 30
0.0
 10
67.32668824102152
 20
263.5420100930772
 30
0.0
 10
65.39370975978818
 20
263.5420100930772
 30
0.0
 10
63.8267080783223
 20
261.9750084116112
 30
0.0
 10
63.8267080783223
 20
260.0420945259183
 30
0.0
 10
63.8267080783223
 20
258.1090945128382
 30
0.0
 10
65.39370975978818
 20
256.5421143632191
 30
0.0
 10
67.32668824102152
 20
256.5420067039852
 30
0.0
 10
69.25969902002503
 20
256.5420067039852
 30
0.0
 10
70.82670070149092
 20
258.109008385451
 30
0.0
 10
70.82670070149092
 20
260.0419868666844
 30
0.0
  0
SPLINE
  5
D9
330
70
100
AcDbEntity
  8
Livello 1
 62
   250
420
  2300182
370
    18
100
AcDbSpline
210
0.0
220
0.0
230
1.0
 70
     9
 71
     3
 72
    17
 73
    13
 74
     0
 42
0.0000000001
 43
0.0000000001
 40
0.0
 40
0.0
 40
0.0
 40
0.0
 40
1.0
 40
1.0
 40
1.0
 40
2.0
 40
2.0
 40
2.0
 40
3.0
 40
3.0
 40
3.0
 40
4.0
 40
4.0
 40
4.0
 40
4.0
 10
69.82671867320359
 20
260.0419868666844
 30
0.0
 10
69.82671867320359
 20
261.4228026690193
 30
0.0
 10
68.70738561819914
 20
262.5419850010963
 30
0.0
 10
67.32668824102152
 20
262.5419850010963
 30
0.0
 10
65.94598548088221
 20
262.5419850010963
 30
0.0
 10
64.82669010660963
 20
261.4228026690193
 30
0.0
 10
64.82669010660963
 20
260.0420945259183
 30
0.0
 10
64.82669010660963
 20
258.6612787235834
 30
0.0
 10
65.94598548088221
 20
257.5420963915064
 30
0.0
 10
67.32668824102152
 20
257.5419887322725
 30
0.0
 10
68.70738561819914
 20
257.5419887322725
 30
0.0
 10
69.82671867320359
 20
258.6612787235834
 30
0.0
 10
69.82671867320359
 20
260.0419868666844
 30
0.0
  0
SPLINE
  5
DA
330
70
100
AcDbEntity
  8
Livello 1
 62
   250
420
  2300182
370
    18
100
AcDbSpline
210
0.0
220
0.0
230
1.0
 70
     8
 71
     3
 72
    11
 73
     7
 74
     0
 42
0.0000000001
 43
0.0000000001
 40
0.0
 40
0.0
 40
0.0
 40
0.0
 40
1.0
 40
1.0
 40
1.0
 40
2.0
 40
2.0
 40
2.0
 40
2.0
 10
97.89138698249873
 20
290.3362832933013
 30
0.0
 10
97.89138698249873
 20
290.4442009093768
 30
0.0
 10
97.84778499276354
 20
290.5474891783939
 30
0.0
 10
97.77049642873663
 20
290.6228075784402
 30
0.0
 10
97.69319709878635
 20
290.6979967874058
 30
0.0
 10
97.58870304634935
 20
290.7389072962932
 30
0.0
 10
97.48078543027391
 20
290.7359789651307
 30
0.0
  0
SPLINE
  5
DB
330
70
100
AcDbEntity
  8
Livello 1
 62
   250
420
  2300182
370
    18
100
AcDbSpline
210
0.0
220
0.0
230
1.0
 70
     8
 71
     3
 72
     8
 73
     4
 74
     0
 42
0.0000000001
 43
0.0000000001
 40
0.0
 40
0.0
 40
0.0
 40
0.0
 40
1.0
 40
1.0
 40
1.0
 40
1.0
 10
97.69139918957998
 20
288.241320728721
 30
0.0
 10
97.69150684881388
 20
288.1309054184186
 30
0.0
 10
97.78100396996665
 20
288.0413975313425
 30
0.0
 10
97.89138698249873
 20
288.0413975313425
 30
0.0
  0
SPLINE
  5
DC
330
70
100
AcDbEntity
  8
Livello 1
 62
   250
420
  2300182
370
    18
100
AcDbSpline
210
0.0
220
0.0
230
1.0
 70
     8
 71
     3
 72
    11
 73
     7
 74
     0
 42
0.0000000001
 43
0.0000000001
 40
0.0
 40
0.0
 40
0.0
 40
0.0
 40
1.0
 40
1.0
 40
1.0
 40
2.0
 40
2.0
 40
2.0
 40
2.0
 10
97.77009808957116
 20
240.4208115718393
 30
0.0
 10
97.77009808957116
 20
240.4783016027494
 30
0.0
 10
97.74541182723467
 20
240.5329924935777
 30
0.0
 10
97.70219741074157
 20
240.5709746713026
 30
0.0
 10
97.65901529201862
 20
240.6090214445678
 30
0.0
 10
97.60151449518513
 20
240.6265053041555
 30
0.0
 10
97.54449816490424
 20
240.6192060080961
 30
0.0
  0
SPLINE
  5
DD
330
70
100
AcDbEntity
  8
Livello 1
 62
   250
420
  2300182
370
    18
100
AcDbSpline
210
0.0
220
0.0
230
1.0
 70
     8
 71
     3
 72
    11
 73
     7
 74
     0
 42
0.0000000001
 43
0.0000000001
 40
0.0
 40
0.0
 40
0.0
 40
0.0
 40
1.0
 40
1.0
 40
1.0
 40
2.0
 40
2.0
 40
2.0
 40
2.0
 10
97.67029797973282
 20
290.314600723591
 30
0.0
 10
97.67040563896674
 20
290.3686025953224
 30
0.0
 10
97.64860464409913
 20
290.4202790276011
 30
0.0
 10
97.60991191543043
 20
290.4578951639307
 30
0.0
 10
97.57120842083832
 20
290.4955974276474
 30
0.0
 10
97.51899369239
 20
290.5159880865507
 30
0.0
 10
97.46498105473532
 20
290.5145023891227
 30
0.0
  0
SPLINE
  5
DE
330
70
100
AcDbEntity
  8
Livello 1
 62
   250
420
  2300182
370
    18
100
AcDbSpline
210
0.0
220
0.0
230
1.0
 70
     8
 71
     3
 72
    11
 73
     7
 74
     0
 42
0.0000000001
 43
0.0000000001
 40
0.0
 40
0.0
 40
0.0
 40
0.0
 40
1.0
 40
1.0
 40
1.0
 40
2.0
 40
2.0
 40
2.0
 40
2.0
 10
97.69139918957998
 20
290.3362832933013
 30
0.0
 10
97.69150684881388
 20
290.3901990376455
 30
0.0
 10
97.66970585394631
 20
290.4419185336178
 30
0.0
 10
97.63100235935418
 20
290.479577733641
 30
0.0
 10
97.59240652399601
 20
290.5171938699705
 30
0.0
 10
97.54009490223715
 20
290.5375845288739
 30
0.0
 10
97.4861899238164
 20
290.5360988314458
 30
0.0
  0
SPLINE
  5
DF
330
70
100
AcDbEntity
  8
Livello 1
 62
   250
420
  2300182
370
    18
100
AcDbSpline
210
0.0
220
0.0
230
1.0
 70
     8
 71
     3
 72
     8
 73
     4
 74
     0
 42
0.0000000001
 43
0.0000000001
 40
0.0
 40
0.0
 40
0.0
 40
0.0
 40
1.0
 40
1.0
 40
1.0
 40
1.0
 10
99.14649986331561
 20
161.7149890919226
 30
0.0
 10
102.254611180491
 20
161.7113932735099
 30
0.0
 10
105.3568012398012
 20
161.9826084155861
 30
0.0
 10
108.4171118571188
 20
162.5255016344446
 30
0.0
  0
SPLINE
  5
E0
330
70
100
AcDbEntity
  8
Livello 1
 62
   250
420
  2300182
370
    18
100
AcDbSpline
210
0.0
220
0.0
230
1.0
 70
     8
 71
     3
 72
     8
 73
     4
 74
     0
 42
0.0000000001
 43
0.0000000001
 40
0.0
 40
0.0
 40
0.0
 40
0.0
 40
1.0
 40
1.0
 40
1.0
 40
1.0
 10
108.4351017151058
 20
162.5288175388491
 30
0.0
 10
108.8122966070471
 20
162.596093794122
 30
0.0
 10
109.1887055865808
 20
162.6678056098322
 30
0.0
 10
109.5642102285497
 20
162.7441144748305
 30
0.0
  0
SPLINE
  5
E1
330
70
100
AcDbEntity
  8
Livello 1
 62
   250
420
  2300182
370
    18
100
AcDbSpline
210
0.0
220
0.0
230
1.0
 70
     8
 71
     3
 72
     8
 73
     4
 74
     0
 42
0.0000000001
 43
0.0000000001
 40
0.0
 40
0.0
 40
0.0
 40
0.0
 40
1.0
 40
1.0
 40
1.0
 40
1.0
 10
110.6464869752409
 20
141.9524895207185
 30
0.0
 10
111.9884916237498
 20
142.3745890791253
 30
0.0
 10
113.0906099672514
 20
143.3423917623957
 30
0.0
 10
113.6823912442302
 20
144.6184981938258
 30
0.0
  0
SPLINE
  5
E2
330
70
100
AcDbEntity
  8
Livello 1
 62
   250
420
  2300182
370
    18
100
AcDbSpline
210
0.0
220
0.0
230
1.0
 70
     8
 71
     3
 72
     8
 73
     4
 74
     0
 42
0.0000000001
 43
0.0000000001
 40
0.0
 40
0.0
 40
0.0
 40
0.0
 40
1.0
 40
1.0
 40
1.0
 40
1.0
 10
106.6464835006279
 20
136.8233129371212
 30
0.0
 10
108.9745067747854
 20
137.2984992637711
 30
0.0
 10
110.6464869752409
 20
139.3463070838971
 30
0.0
 10
110.6464869752409
 20
141.7221956534529
 30
0.0
  0
ELLIPSE
  5
E3
330
70
100
AcDbEntity
  8
Livello 1
 62
   250
420
  2300182
370
    18
100
AcDbEllipse
 10
130.9663087941288
 20
196.4024066857898
 30
0.0
 11
-1.565258404819647
 21
3.130506698679111
 31
0.0
210
0.0
220
0.0
230
1.0
 40
0.9999961550381511
 41
0.0
 42
6.283185307179586
  0
CIRCLE
  5
E4
330
70
100
AcDbEntity
  8
Livello 1
 62
   250
420
  2300182
370
    18
100
AcDbCircle
 10
130.9663087941288
 20
196.4023959198664
 30
0.0
 40
2.500010246082227
  0
SPLINE
  5
E5
330
70
100
AcDbEntity
  8
Livello 1
 62
   250
420
  2300182
370
    18
100
AcDbSpline
210
0.0
220
0.0
230
1.0
 70
     8
 71
     3
 72
     8
 73
     4
 74
     0
 42
0.0000000001
 43
0.0000000001
 40
0.0
 40
0.0
 40
0.0
 40
0.0
 40
1.0
 40
1.0
 40
1.0
 40
1.0
 10
112.1723951271218
 20
159.7221843744032
 30
0.0
 10
112.7145131994961
 20
159.7221843744032
 30
0.0
 10
113.1578108610606
 20
160.1541993482535
 30
0.0
 10
113.171989582167
 20
160.6961021021599
 30
0.0
  0
SPLINE
  5
E6
330
70
100
AcDbEntity
  8
Livello 1
 62
   250
420
  2300182
370
    18
100
AcDbSpline
210
0.0
220
0.0
230
1.0
 70
     8
 71
     3
 72
     8
 73
     4
 74
     0
 42
0.0000000001
 43
0.0000000001
 40
0.0
 40
0.0
 40
0.0
 40
0.0
 40
1.0
 40
1.0
 40
1.0
 40
1.0
 10
113.19231564553
 20
153.722313736526
 30
0.0
 10
113.4645858480987
 20
153.7277182300685
 30
0.0
 10
113.6823912442302
 20
153.9500022503308
 30
0.0
 10
113.6823912442302
 20
154.2222078573591
 30
0.0
  0
SPLINE
  5
E7
330
70
100
AcDbEntity
  8
Livello 1
 62
   250
420
  2300182
370
    18
100
AcDbSpline
210
0.0
220
0.0
230
1.0
 70
     8
 71
     3
 72
    11
 73
     7
 74
     0
 42
0.0000000001
 43
0.0000000001
 40
0.0
 40
0.0
 40
0.0
 40
0.0
 40
1.0
 40
1.0
 40
1.0
 40
2.0
 40
2.0
 40
2.0
 40
2.0
 10
113.6823912442302
 20
159.2221933602595
 30
0.0
 10
113.6823912442302
 20
159.3547972386715
 30
0.0
 10
113.6296920492293
 20
159.4820181553877
 30
0.0
 10
113.5359854520305
 20
159.575821645897
 30
0.0
 10
113.4421819615212
 20
159.6695820727128
 30
0.0
 10
113.3150041084985
 20
159.7221843744032
 30
0.0
 10
113.1824002300865
 20
159.7221843744032
 30
0.0
  0
SPLINE
  5
E8
330
70
100
AcDbEntity
  8
Livello 1
 62
   250
420
  2300182
370
    18
100
AcDbSpline
210
0.0
220
0.0
230
1.0
 70
     8
 71
     3
 72
    11
 73
     7
 74
     0
 42
0.0000000001
 43
0.0000000001
 40
0.0
 40
0.0
 40
0.0
 40
0.0
 40
1.0
 40
1.0
 40
1.0
 40
2.0
 40
2.0
 40
2.0
 40
2.0
 10
113.6823912442302
 20
153.2322058400557
 30
0.0
 10
113.6823912442302
 20
153.3622043650069
 30
0.0
 10
113.630811705262
 20
153.4867983964156
 30
0.0
 10
113.5389137831929
 20
153.5786963184847
 30
0.0
 10
113.4469835633537
 20
153.6706050064771
 30
0.0
 10
113.3224218297152
 20
153.7222060772921
 30
0.0
 10
113.1923802410704
 20
153.7222060772921
 30
0.0
  0
SPLINE
  5
E9
330
70
100
AcDbEntity
  8
Livello 1
 62
   250
420
  2300182
370
    18
100
AcDbSpline
210
0.0
220
0.0
230
1.0
 70
     8
 71
     3
 72
     8
 73
     4
 74
     0
 42
0.0000000001
 43
0.0000000001
 40
0.0
 40
0.0
 40
0.0
 40
0.0
 40
1.0
 40
1.0
 40
1.0
 40
1.0
 10
107.0794889394302
 20
153.7222060772921
 30
0.0
 10
107.0823096113587
 20
153.7222060772921
 30
0.0
 10
107.0850979855171
 20
153.722313736526
 30
0.0
 10
107.0879186574457
 20
153.722313736526
 30
0.0
  0
SPLINE
  5
EA
330
70
100
AcDbEntity
  8
Livello 1
 62
   250
420
  2300182
370
    18
100
AcDbSpline
210
0.0
220
0.0
230
1.0
 70
     8
 71
     3
 72
     8
 73
     4
 74
     0
 42
0.0000000001
 43
0.0000000001
 40
0.0
 40
0.0
 40
0.0
 40
0.0
 40
1.0
 40
1.0
 40
1.0
 40
1.0
 10
112.8475046511501
 20
153.7222060772921
 30
0.0
 10
112.8502930253085
 20
153.7222060772921
 30
0.0
 10
112.853113697237
 20
153.722313736526
 30
0.0
 10
112.8559020713954
 20
153.722313736526
 30
0.0
  0
SPLINE
  5
EB
330
70
100
AcDbEntity
  8
Livello 1
 62
   250
420
  2300182
370
    18
100
AcDbSpline
210
0.0
220
0.0
230
1.0
 70
     8
 71
     3
 72
     8
 73
     4
 74
     0
 42
0.0000000001
 43
0.0000000001
 40
0.0
 40
0.0
 40
0.0
 40
0.0
 40
1.0
 40
1.0
 40
1.0
 40
1.0
 10
100.6016005370512
 20
168.2032127807573
 30
0.0
 10
100.6016005370512
 20
168.3135957932894
 30
0.0
 10
100.5121034158984
 20
168.4029852552083
 30
0.0
 10
100.4016881055962
 20
168.4030929144422
 30
0.0
  0
SPLINE
  5
EC
330
70
100
AcDbEntity
  8
Livello 1
 62
   250
420
  2300182
370
    18
100
AcDbSpline
210
0.0
220
0.0
230
1.0
 70
     8
 71
     3
 72
    11
 73
     7
 74
     0
 42
0.0000000001
 43
0.0000000001
 40
0.0
 40
0.0
 40
0.0
 40
0.0
 40
1.0
 40
1.0
 40
1.0
 40
2.0
 40
2.0
 40
2.0
 40
2.0
 10
100.6016005370512
 20
166.1082071524834
 30
0.0
 10
100.6017081962851
 20
166.0543021740626
 30
0.0
 10
100.6235091911527
 20
166.0026149758604
 30
0.0
 10
100.6621050265109
 20
165.9650096054543
 30
0.0
 10
100.700808521103
 20
165.9274042350481
 30
0.0
 10
100.7530124836279
 20
165.9069059169108
 30
0.0
 10
100.8068851642785
 20
165.9083916143389
 30
0.0
  0
SPLINE
  5
ED
330
70
100
AcDbEntity
  8
Livello 1
 62
   250
420
  2300182
370
    18
100
AcDbSpline
210
0.0
220
0.0
230
1.0
 70
     8
 71
     3
 72
    11
 73
     7
 74
     0
 42
0.0000000001
 43
0.0000000001
 40
0.0
 40
0.0
 40
0.0
 40
0.0
 40
1.0
 40
1.0
 40
1.0
 40
2.0
 40
2.0
 40
2.0
 40
2.0
 10
100.52290163706
 20
216.0236788739455
 30
0.0
 10
100.52290163706
 20
215.9662103748821
 30
0.0
 10
100.5476955586304
 20
215.9113902929731
 30
0.0
 10
100.5909099751235
 20
215.8735157744821
 30
0.0
 10
100.6340920938465
 20
215.8355120649105
 30
0.0
 10
100.6914959973694
 20
215.8180066734761
 30
0.0
 10
100.7486092209608
 20
215.8253275013822
 30
0.0
  0
SPLINE
  5
EE
330
70
100
AcDbEntity
  8
Livello 1
 62
   250
420
  2300182
370
    18
100
AcDbSpline
210
0.0
220
0.0
230
1.0
 70
     8
 71
     3
 72
    11
 73
     7
 74
     0
 42
0.0000000001
 43
0.0000000001
 40
0.0
 40
0.0
 40
0.0
 40
0.0
 40
1.0
 40
1.0
 40
1.0
 40
2.0
 40
2.0
 40
2.0
 40
2.0
 10
100.6227017468984
 20
166.129900488117
 30
0.0
 10
100.6227017468984
 20
166.0758878504624
 30
0.0
 10
100.6445027417659
 20
166.0242114181836
 30
0.0
 10
100.683206236358
 20
165.9866060477774
 30
0.0
 10
100.7217913057928
 20
165.9488930181373
 30
0.0
 10
100.7741136934751
 20
165.928502359234
 30
0.0
 10
100.8280186718958
 20
165.9300203544322
 30
0.0
  0
SPLINE
  5
EF
330
70
100
AcDbEntity
  8
Livello 1
 62
   250
420
  2300182
370
    18
100
AcDbSpline
210
0.0
220
0.0
230
1.0
 70
     9
 71
     3
 72
    20
 73
    16
 74
     0
 42
0.0000000001
 43
0.0000000001
 40
0.0
 40
0.0
 40
0.0
 40
0.0
 40
1.0
 40
1.0
 40
1.0
 40
2.0
 40
2.0
 40
2.0
 40
3.0
 40
3.0
 40
3.0
 40
4.0
 40
4.0
 40
4.0
 40
5.0
 40
5.0
 40
5.0
 40
5.0
 10
164.684112338115
 20
228.2222021591988
 30
0.0
 10
164.684112338115
 20
264.4176026425002
 30
0.0
 10
135.3419972399275
 20
293.7597177406877
 30
0.0
 10
99.14660752254951
 20
293.7597823362281
 30
0.0
 10
62.95128778367352
 20
293.7597823362281
 30
0.0
 10
33.60910270698401
 20
264.417817960968
 30
0.0
 10
33.60899773923094
 20
228.2223959458198
 30
0.0
 10
33.60889277147788
 20
192.0271031217524
 30
0.0
 10
62.95090021043144
 20
162.6848157687906
 30
0.0
 10
99.14628454484777
 20
162.6847081095567
 30
0.0
 10
135.3416096666854
 20
162.6844927910888
 30
0.0
 10
164.6838970196471
 20
192.0265002300424
 30
0.0
 10
164.684112338115
 20
228.2219007133438
 30
0.0
 10
164.684112338115
 20
228.2219007133438
 30
0.0
 10
164.684112338115
 20
228.2222021591988
 30
0.0
 10
164.684112338115
 20
228.2222021591988
 30
0.0
  0
SPLINE
  5
F0
330
70
100
AcDbEntity
  8
Livello 1
 62
   250
420
  2300182
370
    18
100
AcDbSpline
210
0.0
220
0.0
230
1.0
 70
     9
 71
     3
 72
    20
 73
    16
 74
     0
 42
0.0000000001
 43
0.0000000001
 40
0.0
 40
0.0
 40
0.0
 40
0.0
 40
1.0
 40
1.0
 40
1.0
 40
2.0
 40
2.0
 40
2.0
 40
3.0
 40
3.0
 40
3.0
 40
4.0
 40
4.0
 40
4.0
 40
5.0
 40
5.0
 40
5.0
 40
5.0
 10
164.4840814815027
 20
228.2222021591988
 30
0.0
 10
164.4840814815027
 20
264.3072088640447
 30
0.0
 10
135.2315065681615
 20
293.5597945433093
 30
0.0
 10
99.14660752254951
 20
293.5597945433093
 30
0.0
 10
63.06170847693748
 20
293.5599022025432
 30
0.0
 10
33.80898822363054
 20
264.3072949914319
 30
0.0
 10
33.8089182451285
 20
228.2223959458198
 30
0.0
 10
33.80881058589459
 20
192.1374969002078
 30
0.0
 10
63.06139088219744
 20
162.8848035617093
 30
0.0
 10
99.14628454484777
 20
162.8846959024754
 30
0.0
 10
135.2311835904598
 20
162.8844805840076
 30
0.0
 10
164.4839092267284
 20
192.1370016677318
 30
0.0
 10
164.4840814815027
 20
228.2219007133438
 30
0.0
 10
164.4840814815027
 20
228.2219007133438
 30
0.0
 10
164.4840814815027
 20
228.2222021591988
 30
0.0
 10
164.4840814815027
 20
228.2222021591988
 30
0.0
  0
SPLINE
  5
F1
330
70
100
AcDbEntity
  8
Livello 1
 62
   250
420
  2300182
370
    18
100
AcDbSpline
210
0.0
220
0.0
230
1.0
 70
     8
 71
     3
 72
    11
 73
     7
 74
     0
 42
0.0000000001
 43
0.0000000001
 40
0.0
 40
0.0
 40
0.0
 40
0.0
 40
1.0
 40
1.0
 40
1.0
 40
2.0
 40
2.0
 40
2.0
 40
2.0
 10
100.4016881055962
 20
165.6989082769889
 30
0.0
 10
134.3633855695721
 20
166.3806926735198
 30
0.0
 10
161.5704888681631
 20
194.0484052384888
 30
0.0
 10
161.6821099618852
 20
228.0167883408908
 30
0.0
 10
161.7936987578372
 20
261.9850853159057
 30
0.0
 10
134.7690886266539
 20
289.8309954448491
 30
0.0
 10
100.8124942103654
 20
290.7359789651307
 30
0.0
  0
SPLINE
  5
F2
330
70
100
AcDbEntity
  8
Livello 1
 62
   250
420
  2300182
370
    18
100
AcDbSpline
210
0.0
220
0.0
230
1.0
 70
     8
 71
     3
 72
    11
 73
     7
 74
     0
 42
0.0000000001
 43
0.0000000001
 40
0.0
 40
0.0
 40
0.0
 40
0.0
 40
1.0
 40
1.0
 40
1.0
 40
2.0
 40
2.0
 40
2.0
 40
2.0
 10
97.48078543027391
 20
290.7359789651307
 30
0.0
 10
63.5243040561811
 20
289.831210763317
 30
0.0
 10
36.49941131950877
 20
261.9854082936074
 30
0.0
 10
36.61088976474593
 20
228.0168960001247
 30
0.0
 10
36.72250816698718
 20
194.0484913658759
 30
0.0
 10
63.92961415705904
 20
166.3806926735198
 30
0.0
 10
97.89138698249873
 20
165.6989082769889
 30
0.0
  0
SPLINE
  5
F3
330
70
100
AcDbEntity
  8
Livello 1
 62
   250
420
  2300182
370
    18
100
AcDbSpline
210
0.0
220
0.0
230
1.0
 70
     8
 71
     3
 72
    11
 73
     7
 74
     0
 42
0.0000000001
 43
0.0000000001
 40
0.0
 40
0.0
 40
0.0
 40
0.0
 40
1.0
 40
1.0
 40
1.0
 40
2.0
 40
2.0
 40
2.0
 40
2.0
 10
100.8068851642785
 20
165.9082839551049
 30
0.0
 10
134.5754096648425
 20
166.808110598082
 30
0.0
 10
161.4824020829747
 20
194.4415767607429
 30
0.0
 10
161.4825097422086
 20
228.2220944999649
 30
0.0
 10
161.4826174014425
 20
262.0025261117997
 30
0.0
 10
134.5756895788506
 20
289.6361968270051
 30
0.0
 10
100.8071973760569
 20
290.5360988314458
 30
0.0
  0
SPLINE
  5
F4
330
70
100
AcDbEntity
  8
Livello 1
 62
   250
420
  2300182
370
    18
100
AcDbSpline
210
0.0
220
0.0
230
1.0
 70
     8
 71
     3
 72
    11
 73
     7
 74
     0
 42
0.0000000001
 43
0.0000000001
 40
0.0
 40
0.0
 40
0.0
 40
0.0
 40
1.0
 40
1.0
 40
1.0
 40
2.0
 40
2.0
 40
2.0
 40
2.0
 10
97.4861899238164
 20
290.5360988314458
 30
0.0
 10
63.7175954447504
 20
289.6364121454728
 30
0.0
 10
36.81049267590345
 20
262.0028060258079
 30
0.0
 10
36.81049267590345
 20
228.2222021591988
 30
0.0
 10
36.81049267590345
 20
194.4416844199768
 30
0.0
 10
63.7175954447504
 20
166.808110598082
 30
0.0
 10
97.4861899238164
 20
165.9082839551049
 30
0.0
  0
SPLINE
  5
F5
330
70
100
AcDbEntity
  8
Livello 1
 62
   250
420
  2300182
370
    18
100
AcDbSpline
210
0.0
220
0.0
230
1.0
 70
     8
 71
     3
 72
    11
 73
     7
 74
     0
 42
0.0000000001
 43
0.0000000001
 40
0.0
 40
0.0
 40
0.0
 40
0.0
 40
1.0
 40
1.0
 40
1.0
 40
2.0
 40
2.0
 40
2.0
 40
2.0
 10
100.8280186718958
 20
165.9300203544322
 30
0.0
 10
134.5762924705606
 20
166.8409897281194
 30
0.0
 10
161.4614192982848
 20
194.4614721871702
 30
0.0
 10
161.4614192982848
 20
228.2220944999649
 30
0.0
 10
161.4614838938251
 20
261.9826952809128
 30
0.0
 10
134.5767123415728
 20
289.6032961651209
 30
0.0
 10
100.8284062451379
 20
290.5145023891227
 30
0.0
  0
SPLINE
  5
F6
330
70
100
AcDbEntity
  8
Livello 1
 62
   250
420
  2300182
370
    18
100
AcDbSpline
210
0.0
220
0.0
230
1.0
 70
     8
 71
     3
 72
    11
 73
     7
 74
     0
 42
0.0000000001
 43
0.0000000001
 40
0.0
 40
0.0
 40
0.0
 40
0.0
 40
1.0
 40
1.0
 40
1.0
 40
2.0
 40
2.0
 40
2.0
 40
2.0
 10
97.46498105473532
 20
290.5145023891227
 30
0.0
 10
63.7167126390323
 20
289.6034899517419
 30
0.0
 10
36.83158850278891
 20
261.9829105993806
 30
0.0
 10
36.83158850278891
 20
228.2222021591988
 30
0.0
 10
36.83158850278891
 20
194.4615798464041
 30
0.0
 10
63.7167126390323
 20
166.8409897281194
 30
0.0
 10
97.46498105473532
 20
165.9300203544322
 30
0.0
  0
SPLINE
  5
F7
330
70
100
AcDbEntity
  8
Livello 1
 62
   250
420
  2300182
370
    18
100
AcDbSpline
210
0.0
220
0.0
230
1.0
 70
     8
 71
     3
 72
    11
 73
     7
 74
     0
 42
0.0000000001
 43
0.0000000001
 40
0.0
 40
0.0
 40
0.0
 40
0.0
 40
1.0
 40
1.0
 40
1.0
 40
2.0
 40
2.0
 40
2.0
 40
2.0
 10
100.8964899446652
 20
166.7470893442995
 30
0.0
 10
134.1669935950661
 20
167.6941891568883
 30
0.0
 10
160.6463958338618
 20
194.9380796157077
 30
0.0
 10
160.6464927271723
 20
228.2220944999649
 30
0.0
 10
160.6466003864063
 20
261.5060232568349
 30
0.0
 10
134.1673165727678
 20
288.7499890771181
 30
0.0
 10
100.8969098156774
 20
289.6973042081746
 30
0.0
  0
SPLINE
  5
F8
330
70
100
AcDbEntity
  8
Livello 1
 62
   250
420
  2300182
370
    18
100
AcDbSpline
210
0.0
220
0.0
230
1.0
 70
     8
 71
     3
 72
    11
 73
     7
 74
     0
 42
0.0000000001
 43
0.0000000001
 40
0.0
 40
0.0
 40
0.0
 40
0.0
 40
1.0
 40
1.0
 40
1.0
 40
2.0
 40
2.0
 40
2.0
 40
2.0
 10
97.39650978196598
 20
289.6973042081746
 30
0.0
 10
64.12600613156508
 20
288.7502043955859
 30
0.0
 10
37.64650430797797
 20
261.5061955116091
 30
0.0
 10
37.64650430797797
 20
228.2222021591988
 30
0.0
 10
37.64650430797797
 20
194.9381872749416
 30
0.0
 10
64.12600613156508
 20
167.6941891568883
 30
0.0
 10
97.39650978196598
 20
166.7470893442995
 30
0.0
  0
ELLIPSE
  5
F9
330
70
100
AcDbEntity
  8
Livello 1
 62
   250
420
  2300182
370
    18
100
AcDbEllipse
 10
99.14650120905601
 20
228.222234456969
 30
0.0
 11
-13.65950657277384
 21
6.198248870341304
 31
0.0
210
0.0
220
0.0
230
0.9999999999999998
 40
0.9999971389166654
 41
0.0
 42
6.283185307179586
  0
ELLIPSE
  5
FA
330
70
100
AcDbEntity
  8
Livello 1
 62
   250
420
  2300182
370
    18
100
AcDbEllipse
 10
99.14649986331561
 20
228.2222290740073
 30
0.0
 11
-12.47237608510788
 21
5.166220046414256
 31
0.0
210
0.0
220
0.0
230
1.0
 40
0.9999971804915842
 41
0.0
 42
6.283185307179586
  0
ELLIPSE
  5
FB
330
70
100
AcDbEntity
  8
Livello 1
 62
   250
420
  2300182
370
    18
100
AcDbEllipse
 10
99.14649044313263
 20
228.2222506058541
 30
0.0
 11
-5.61615752812667
 21
12.24759918792591
 31
0.0
210
0.0
220
0.0
230
0.9999999999999998
 40
0.9999952550074812
 41
0.0
 42
6.283185307179586
  0
ELLIPSE
  5
FC
330
70
100
AcDbEntity
  8
Livello 1
 62
   250
420
  2300182
370
    18
100
AcDbEllipse
 10
99.14650120905601
 20
228.2222290740073
 30
0.0
 11
-12.32794283408254
 21
3.444156393309974
 31
0.0
210
0.0
220
0.0
230
0.9999999999999998
 40
0.9999959430564187
 41
0.0
 42
6.283185307179586
  0
ELLIPSE
  5
FD
330
70
100
AcDbEntity
  8
Livello 1
 62
   250
420
  2300182
370
    18
100
AcDbEllipse
 10
99.14650120905601
 20
228.2222236910456
 30
0.0
 11
-12.10494953161606
 21
3.117766882010347
 31
0.0
210
0.0
220
0.0
230
1.0
 40
0.999996434211007
 41
0.0
 42
6.283185307179586
  0
SPLINE
  5
FE
330
70
100
AcDbEntity
  8
Livello 1
 62
   250
420
  2300182
370
    18
100
AcDbSpline
210
0.0
220
0.0
230
1.0
 70
     8
 71
     3
 72
     8
 73
     4
 74
     0
 42
0.0000000001
 43
0.0000000001
 40
0.0
 40
0.0
 40
0.0
 40
0.0
 40
1.0
 40
1.0
 40
1.0
 40
1.0
 10
97.76868775360689
 20
215.9996923966294
 30
0.0
 10
98.68428647435237
 20
215.8964041276123
 30
0.0
 10
99.60871325227882
 20
215.8964041276123
 30
0.0
 10
100.5244196322582
 20
215.9996923966294
 30
0.0
  0
SPLINE
  5
FF
330
70
100
AcDbEntity
  8
Livello 1
 62
   250
420
  2300182
370
    18
100
AcDbSpline
210
0.0
220
0.0
230
1.0
 70
     8
 71
     3
 72
     8
 73
     4
 74
     0
 42
0.0000000001
 43
0.0000000001
 40
0.0
 40
0.0
 40
0.0
 40
0.0
 40
1.0
 40
1.0
 40
1.0
 40
1.0
 10
100.5244196322582
 20
240.4447980491553
 30
0.0
 10
99.60871325227882
 20
240.5479786589385
 30
0.0
 10
98.68428647435237
 20
240.5479786589385
 30
0.0
 10
97.76868775360689
 20
240.4447980491553
 30
0.0
  0
SPLINE
  5
100
330
70
100
AcDbEntity
  8
Livello 1
 62
   250
420
  2300182
370
    18
100
AcDbSpline
210
0.0
220
0.0
230
1.0
 70
     8
 71
     3
 72
    11
 73
     7
 74
     0
 42
0.0000000001
 43
0.0000000001
 40
0.0
 40
0.0
 40
0.0
 40
0.0
 40
1.0
 40
1.0
 40
1.0
 40
2.0
 40
2.0
 40
2.0
 40
2.0
 10
100.7228894299788
 20
216.6289175551635
 30
0.0
 10
106.5220940217636
 20
217.4174999117372
 30
0.0
 10
110.8465178318532
 20
222.3696954807032
 30
0.0
 10
110.8465178318532
 20
228.2222021591988
 30
0.0
 10
110.8465178318532
 20
234.0746873058476
 30
0.0
 10
106.5220940217636
 20
239.0270120658943
 30
0.0
 10
100.7229970892127
 20
239.8155082950808
 30
0.0
  0
SPLINE
  5
101
330
70
100
AcDbEntity
  8
Livello 1
 62
   250
420
  2300182
370
    18
100
AcDbSpline
210
0.0
220
0.0
230
1.0
 70
     8
 71
     3
 72
    11
 73
     7
 74
     0
 42
0.0000000001
 43
0.0000000001
 40
0.0
 40
0.0
 40
0.0
 40
0.0
 40
1.0
 40
1.0
 40
1.0
 40
2.0
 40
2.0
 40
2.0
 40
2.0
 10
97.57011029665241
 20
239.8156159543148
 30
0.0
 10
91.77101336410151
 20
239.0270120658943
 30
0.0
 10
87.44648727773961
 20
234.0747949650816
 30
0.0
 10
87.44648727773961
 20
228.2222021591988
 30
0.0
 10
87.44648727773961
 20
222.3696954807032
 30
0.0
 10
91.77101336410151
 20
217.4174999117372
 30
0.0
 10
97.57011029665241
 20
216.6289175551635
 30
0.0
  0
SPLINE
  5
102
330
70
100
AcDbEntity
  8
Livello 1
 62
   250
420
  2300182
370
    18
100
AcDbSpline
210
0.0
220
0.0
230
1.0
 70
     8
 71
     3
 72
    11
 73
     7
 74
     0
 42
0.0000000001
 43
0.0000000001
 40
0.0
 40
0.0
 40
0.0
 40
0.0
 40
1.0
 40
1.0
 40
1.0
 40
2.0
 40
2.0
 40
2.0
 40
2.0
 10
100.7486092209608
 20
240.6192060080961
 30
0.0
 10
100.6914959973694
 20
240.6265053041555
 30
0.0
 10
100.6340920938465
 20
240.6090214445678
 30
0.0
 10
100.5909099751235
 20
240.5709746713026
 30
0.0
 10
100.5476955586304
 20
240.5329924935777
 30
0.0
 10
100.52290163706
 20
240.4783016027494
 30
0.0
 10
100.52290163706
 20
240.4208115718393
 30
0.0
  0
SPLINE
  5
103
330
70
100
AcDbEntity
  8
Livello 1
 62
   250
420
  2300182
370
    18
100
AcDbSpline
210
0.0
220
0.0
230
1.0
 70
     8
 71
     3
 72
    11
 73
     7
 74
     0
 42
0.0000000001
 43
0.0000000001
 40
0.0
 40
0.0
 40
0.0
 40
0.0
 40
1.0
 40
1.0
 40
1.0
 40
2.0
 40
2.0
 40
2.0
 40
2.0
 10
100.8122142963573
 20
290.7359789651307
 30
0.0
 10
100.7042966802818
 20
290.7389072962932
 30
0.0
 10
100.5999102870787
 20
290.6979967874058
 30
0.0
 10
100.5226217230518
 20
290.6228075784402
 30
0.0
 10
100.4452900953314
 20
290.5474891783939
 30
0.0
 10
100.4016881055962
 20
290.4442009093768
 30
0.0
 10
100.4016881055962
 20
290.3362832933013
 30
0.0
  0
SPLINE
  5
104
330
70
100
AcDbEntity
  8
Livello 1
 62
   250
420
  2300182
370
    18
100
AcDbSpline
210
0.0
220
0.0
230
1.0
 70
     8
 71
     3
 72
     8
 73
     4
 74
     0
 42
0.0000000001
 43
0.0000000001
 40
0.0
 40
0.0
 40
0.0
 40
0.0
 40
1.0
 40
1.0
 40
1.0
 40
1.0
 10
100.4016881055962
 20
288.0413975313425
 30
0.0
 10
100.5121034158984
 20
288.0413975313425
 30
0.0
 10
100.6016005370512
 20
288.1309054184186
 30
0.0
 10
100.6016005370512
 20
288.241320728721
 30
0.0
  0
SPLINE
  5
105
330
70
100
AcDbEntity
  8
Livello 1
 62
   250
420
  2300182
370
    18
100
AcDbSpline
210
0.0
220
0.0
230
1.0
 70
     8
 71
     3
 72
    11
 73
     7
 74
     0
 42
0.0000000001
 43
0.0000000001
 40
0.0
 40
0.0
 40
0.0
 40
0.0
 40
1.0
 40
1.0
 40
1.0
 40
2.0
 40
2.0
 40
2.0
 40
2.0
 10
100.8280186718958
 20
290.5145023891227
 30
0.0
 10
100.7741136934751
 20
290.5159880865507
 30
0.0
 10
100.7217913057928
 20
290.4955974276474
 30
0.0
 10
100.683206236358
 20
290.4578951639307
 30
0.0
 10
100.6445027417659
 20
290.4202790276011
 30
0.0
 10
100.6227017468984
 20
290.3686025953224
 30
0.0
 10
100.6227017468984
 20
290.314600723591
 30
0.0
  0
SPLINE
  5
106
330
70
100
AcDbEntity
  8
Livello 1
 62
   250
420
  2300182
370
    18
100
AcDbSpline
210
0.0
220
0.0
230
1.0
 70
     8
 71
     3
 72
    11
 73
     7
 74
     0
 42
0.0000000001
 43
0.0000000001
 40
0.0
 40
0.0
 40
0.0
 40
0.0
 40
1.0
 40
1.0
 40
1.0
 40
2.0
 40
2.0
 40
2.0
 40
2.0
 10
100.8068851642785
 20
290.5360988314458
 30
0.0
 10
100.752904824394
 20
290.5375845288739
 30
0.0
 10
100.7007008618691
 20
290.5171938699705
 30
0.0
 10
100.661997367277
 20
290.479577733641
 30
0.0
 10
100.6233046386083
 20
290.4419185336178
 30
0.0
 10
100.6016005370512
 20
290.3901990376455
 30
0.0
 10
100.6016005370512
 20
290.3362832933013
 30
0.0
  0
SPLINE
  5
107
330
70
100
AcDbEntity
  8
Livello 1
 62
   250
420
  2300182
370
    18
100
AcDbSpline
210
0.0
220
0.0
230
1.0
 70
     9
 71
     3
 72
    17
 73
    13
 74
     0
 42
0.0000000001
 43
0.0000000001
 40
0.0
 40
0.0
 40
0.0
 40
0.0
 40
1.0
 40
1.0
 40
1.0
 40
2.0
 40
2.0
 40
2.0
 40
3.0
 40
3.0
 40
3.0
 40
4.0
 40
4.0
 40
4.0
 40
4.0
 10
134.4662970312706
 20
260.0419868666844
 30
0.0
 10
134.4662970312706
 20
261.9750084116112
 30
0.0
 10
132.8992953498047
 20
263.5420100930772
 30
0.0
 10
130.9663168685713
 20
263.5420100930772
 30
0.0
 10
129.0333060895678
 20
263.5420100930772
 30
0.0
 10
127.4663044081019
 20
261.9750084116112
 30
0.0
 10
127.4663044081019
 20
260.0420945259183
 30
0.0
 10
127.4663044081019
 20
258.1090945128382
 30
0.0
 10
129.0333060895678
 20
256.5421143632191
 30
0.0
 10
130.9663168685713
 20
256.5420067039852
 30
0.0
 10
132.8992953498047
 20
256.5420067039852
 30
0.0
 10
134.4662970312706
 20
258.109008385451
 30
0.0
 10
134.4662970312706
 20
260.0419868666844
 30
0.0
  0
SPLINE
  5
108
330
70
100
AcDbEntity
  8
Livello 1
 62
   250
420
  2300182
370
    18
100
AcDbSpline
210
0.0
220
0.0
230
1.0
 70
     9
 71
     3
 72
    17
 73
    13
 74
     0
 42
0.0000000001
 43
0.0000000001
 40
0.0
 40
0.0
 40
0.0
 40
0.0
 40
1.0
 40
1.0
 40
1.0
 40
2.0
 40
2.0
 40
2.0
 40
3.0
 40
3.0
 40
3.0
 40
4.0
 40
4.0
 40
4.0
 40
4.0
 10
133.4663150029832
 20
260.0419868666844
 30
0.0
 10
133.4663150029832
 20
261.4228026690193
 30
0.0
 10
132.3470142457489
 20
262.5419850010963
 30
0.0
 10
130.9663168685713
 20
262.5419850010963
 30
0.0
 10
129.5856194913937
 20
262.5419850010963
 30
0.0
 10
128.4662864363893
 20
261.4228026690193
 30
0.0
 10
128.4662864363893
 20
260.0420945259183
 30
0.0
 10
128.4662864363893
 20
258.6612787235834
 30
0.0
 10
129.5856194913937
 20
257.5420963915064
 30
0.0
 10
130.9663168685713
 20
257.5419887322725
 30
0.0
 10
132.3470142457489
 20
257.5419887322725
 30
0.0
 10
133.4663150029832
 20
258.6612787235834
 30
0.0
 10
133.4663150029832
 20
260.0419868666844
 30
0.0
  0
LINE
  5
109
330
70
100
AcDbEntity
  8
Livello 1
 62
   250
420
  2300182
370
    18
100
AcDbLine
 10
100.7486092209608
 20
215.8253275013822
 30
0.0
 11
100.7228894299788
 21
216.6289175551635
 31
0.0
  0
LINE
  5
10A
330
70
100
AcDbEntity
  8
Livello 1
 62
   250
420
  2300182
370
    18
100
AcDbLine
 10
100.7228894299788
 20
239.8156159543148
 30
0.0
 11
100.7486092209608
 21
240.6192060080961
 31
0.0
  0
LINE
  5
10B
330
70
100
AcDbEntity
  8
Livello 1
 62
   250
420
  2300182
370
    18
100
AcDbLine
 10
97.57011029665241
 20
216.6289175551635
 30
0.0
 11
97.54449816490424
 21
215.8253275013822
 31
0.0
  0
LINE
  5
10C
330
70
100
AcDbEntity
  8
Livello 1
 62
   250
420
  2300182
370
    18
100
AcDbLine
 10
97.54449816490424
 20
240.6192060080961
 30
0.0
 11
97.57011029665241
 21
239.8156159543148
 31
0.0
  0
SPLINE
  5
10D
330
70
100
AcDbEntity
  8
Livello 1
 62
   250
420
  2300182
370
    18
100
AcDbSpline
210
0.0
220
0.0
230
1.0
 70
     8
 71
     3
 72
    11
 73
     7
 74
     0
 42
0.0000000001
 43
0.0000000001
 40
0.0
 40
0.0
 40
0.0
 40
0.0
 40
1.0
 40
1.0
 40
1.0
 40
2.0
 40
2.0
 40
2.0
 40
2.0
 10
113.6823912442302
 20
144.6184981938258
 30
0.0
 10
113.6726911472546
 20
144.6018110125691
 30
0.0
 10
113.6628080295812
 20
144.5851991927762
 30
0.0
 10
113.6529033800611
 20
144.5686196707534
 30
0.0
 10
113.5405071398549
 20
144.3814971562874
 30
0.0
 10
113.4155147692807
 20
144.2015878104936
 30
0.0
 10
113.2805100899524
 20
144.0300974167919
 30
0.0
  0
SPLINE
  5
10E
330
70
100
AcDbEntity
  8
Livello 1
 62
   250
420
  2300182
370
    18
100
AcDbSpline
210
0.0
220
0.0
230
1.0
 70
     8
 71
     3
 72
    17
 73
    13
 74
     0
 42
0.0000000001
 43
0.0000000001
 40
0.0
 40
0.0
 40
0.0
 40
0.0
 40
1.0
 40
1.0
 40
1.0
 40
2.0
 40
2.0
 40
2.0
 40
3.0
 40
3.0
 40
3.0
 40
4.0
 40
4.0
 40
4.0
 40
4.0
 10
90.78051611432202
 20
154.2222078573591
 30
0.0
 10
90.78051611432202
 20
154.1583121020311
 30
0.0
 10
90.79120667624968
 20
154.0937919231465
 30
0.0
 10
90.81269545933892
 20
154.0331151789125
 30
0.0
 10
90.8333983300206
 20
153.9744839601229
 30
0.0
 10
90.8641996368434
 20
153.9194808575162
 30
0.0
 10
90.90441036071032
 20
153.8722076879045
 30
0.0
 10
90.94251096359249
 20
153.827303021439
 30
0.0
 10
90.98911664595389
 20
153.7894177370246
 30
0.0
 10
91.04199886165249
 20
153.7632027135666
 30
0.0
 10
91.09258793566871
 20
153.7380104528307
 30
0.0
 10
91.14909826755019
 20
153.7235841154862
 30
0.0
 10
91.20508106918549
 20
153.722313736526
 30
0.0
  0
SPLINE
  5
10F
330
70
100
AcDbEntity
  8
Livello 1
 62
   250
420
  2300182
370
    18
100
AcDbSpline
210
0.0
220
0.0
230
1.0
 70
     8
 71
     3
 72
    17
 73
    13
 74
     0
 42
0.0000000001
 43
0.0000000001
 40
0.0
 40
0.0
 40
0.0
 40
0.0
 40
1.0
 40
1.0
 40
1.0
 40
2.0
 40
2.0
 40
2.0
 40
3.0
 40
3.0
 40
3.0
 40
4.0
 40
4.0
 40
4.0
 40
4.0
 10
107.0879186574457
 20
153.722313736526
 30
0.0
 10
107.1440091183149
 20
153.7235841154862
 30
0.0
 10
107.2003794931923
 20
153.7380104528307
 30
0.0
 10
107.2511085242126
 20
153.7632027135666
 30
0.0
 10
107.3039907399112
 20
153.7894177370246
 30
0.0
 10
107.3505964222726
 20
153.827303021439
 30
0.0
 10
107.3886970251548
 20
153.8722076879045
 30
0.0
 10
107.4289077490217
 20
153.9194808575162
 30
0.0
 10
107.4597090558445
 20
153.9744839601229
 30
0.0
 10
107.4804226924495
 20
154.0331151789125
 30
0.0
 10
107.5019007096154
 20
154.0937919231465
 30
0.0
 10
107.5125912715431
 20
154.1583121020311
 30
0.0
 10
107.5125912715431
 20
154.2222078573591
 30
0.0
  0
SPLINE
  5
110
330
70
100
AcDbEntity
  8
Livello 1
 62
   250
420
  2300182
370
    18
100
AcDbSpline
210
0.0
220
0.0
230
1.0
 70
     8
 71
     3
 72
    11
 73
     7
 74
     0
 42
0.0000000001
 43
0.0000000001
 40
0.0
 40
0.0
 40
0.0
 40
0.0
 40
1.0
 40
1.0
 40
1.0
 40
2.0
 40
2.0
 40
2.0
 40
2.0
 10
112.8475046511501
 20
159.7221843744032
 30
0.0
 10
112.8928076567811
 20
159.7221843744032
 30
0.0
 10
112.9384874697308
 20
159.7137869541579
 30
0.0
 10
112.9813143129819
 20
159.6978103238451
 30
0.0
 10
113.0253038759591
 20
159.6812953973627
 30
0.0
 10
113.0663005122336
 20
159.6568136875706
 30
0.0
 10
113.1020003141995
 20
159.6266906339215
 30
0.0
  0
SPLINE
  5
111
330
70
100
AcDbEntity
  8
Livello 1
 62
   250
420
  2300182
370
    18
100
AcDbSpline
210
0.0
220
0.0
230
1.0
 70
     8
 71
     3
 72
    11
 73
     7
 74
     0
 42
0.0000000001
 43
0.0000000001
 40
0.0
 40
0.0
 40
0.0
 40
0.0
 40
1.0
 40
1.0
 40
1.0
 40
2.0
 40
2.0
 40
2.0
 40
2.0
 10
113.1020003141995
 20
159.6266906339215
 30
0.0
 10
113.1584137527705
 20
159.5794174643098
 30
0.0
 10
113.2031031007682
 20
159.5173949796519
 30
0.0
 10
113.2333015158811
 20
159.4493112801246
 30
0.0
 10
113.264985628422
 20
159.377696357725
 30
0.0
 10
113.2805100899524
 20
159.2994819242864
 30
0.0
 10
113.2805100899524
 20
159.2221933602595
 30
0.0
  0
SPLINE
  5
112
330
70
100
AcDbEntity
  8
Livello 1
 62
   250
420
  2300182
370
    18
100
AcDbSpline
210
0.0
220
0.0
230
1.0
 70
     8
 71
     3
 72
    11
 73
     7
 74
     0
 42
0.0000000001
 43
0.0000000001
 40
0.0
 40
0.0
 40
0.0
 40
0.0
 40
1.0
 40
1.0
 40
1.0
 40
2.0
 40
2.0
 40
2.0
 40
2.0
 10
85.01260267887435
 20
159.2221933602595
 30
0.0
 10
85.01260267887435
 20
159.2994819242864
 30
0.0
 10
85.02808945967288
 20
159.377696357725
 30
0.0
 10
85.05980048702227
 20
159.4493112801246
 30
0.0
 10
85.08989662586294
 20
159.5173949796519
 30
0.0
 10
85.13469901605629
 20
159.5794174643098
 30
0.0
 10
85.19099941243164
 20
159.6266906339215
 30
0.0
  0
SPLINE
  5
113
330
70
100
AcDbEntity
  8
Livello 1
 62
   250
420
  2300182
370
    18
100
AcDbSpline
210
0.0
220
0.0
230
1.0
 70
     8
 71
     3
 72
    11
 73
     7
 74
     0
 42
0.0000000001
 43
0.0000000001
 40
0.0
 40
0.0
 40
0.0
 40
0.0
 40
1.0
 40
1.0
 40
1.0
 40
2.0
 40
2.0
 40
2.0
 40
2.0
 10
85.19099941243164
 20
159.6266906339215
 30
0.0
 10
85.22680687363145
 20
159.6568136875706
 30
0.0
 10
85.26769585067201
 20
159.6812953973627
 30
0.0
 10
85.3117930728832
 20
159.6978103238451
 30
0.0
 10
85.3545122569003
 20
159.7137869541579
 30
0.0
 10
85.40019745281174
 20
159.7221843744032
 30
0.0
 10
85.44559735175329
 20
159.7221843744032
 30
0.0
  0
SPLINE
  5
114
330
70
100
AcDbEntity
  8
Livello 1
 62
   250
420
  2300182
370
    18
100
AcDbSpline
210
0.0
220
0.0
230
1.0
 70
     8
 71
     3
 72
    11
 73
     7
 74
     0
 42
0.0000000001
 43
0.0000000001
 40
0.0
 40
0.0
 40
0.0
 40
0.0
 40
1.0
 40
1.0
 40
1.0
 40
2.0
 40
2.0
 40
2.0
 40
2.0
 10
113.2805100899524
 20
154.2222078573591
 30
0.0
 10
113.2805100899524
 20
154.1449085274089
 30
0.0
 10
113.264985628422
 20
154.0668017532042
 30
0.0
 10
113.2333015158811
 20
153.9951868308046
 30
0.0
 10
113.2031031007682
 20
153.9271031312773
 30
0.0
 10
113.1584137527705
 20
153.8650160510791
 30
0.0
 10
113.1020003141995
 20
153.8177105836973
 30
0.0
  0
SPLINE
  5
115
330
70
100
AcDbEntity
  8
Livello 1
 62
   250
420
  2300182
370
    18
100
AcDbSpline
210
0.0
220
0.0
230
1.0
 70
     8
 71
     3
 72
    11
 73
     7
 74
     0
 42
0.0000000001
 43
0.0000000001
 40
0.0
 40
0.0
 40
0.0
 40
0.0
 40
1.0
 40
1.0
 40
1.0
 40
2.0
 40
2.0
 40
2.0
 40
2.0
 10
113.1020003141995
 20
153.8177105836973
 30
0.0
 10
113.0672909771856
 20
153.7885995268469
 30
0.0
 10
113.0278123361094
 20
153.7646884109946
 30
0.0
 10
112.9852977046367
 20
153.7482057822823
 30
0.0
 10
112.9439888565839
 20
153.7323045134332
 30
0.0
 10
112.8998916343727
 20
153.723304201478
 30
0.0
 10
112.8559020713954
 20
153.722313736526
 30
0.0
  0
SPLINE
  5
116
330
70
100
AcDbEntity
  8
Livello 1
 62
   250
420
  2300182
370
    18
100
AcDbSpline
210
0.0
220
0.0
230
1.0
 70
     8
 71
     3
 72
    17
 73
    13
 74
     0
 42
0.0000000001
 43
0.0000000001
 40
0.0
 40
0.0
 40
0.0
 40
0.0
 40
1.0
 40
1.0
 40
1.0
 40
2.0
 40
2.0
 40
2.0
 40
3.0
 40
3.0
 40
3.0
 40
4.0
 40
4.0
 40
4.0
 40
4.0
 10
107.5125912715431
 20
159.2221933602595
 30
0.0
 10
107.5125912715431
 20
159.2869934531524
 30
0.0
 10
107.501588497837
 20
159.3522995444447
 30
0.0
 10
107.4796044822718
 20
159.4136114781588
 30
0.0
 10
107.4584063791141
 20
159.4728025249647
 30
0.0
 10
107.4269052872709
 20
159.5283008600474
 30
0.0
 10
107.3856933325286
 20
159.575821645897
 30
0.0
 10
107.346785285392
 20
159.6206940145924
 30
0.0
 10
107.2990922447681
 20
159.658503937543
 30
0.0
 10
107.2452949255812
 20
159.6841914307549
 30
0.0
 10
107.1936077273791
 20
159.7088130975511
 30
0.0
 10
107.1362145897795
 20
159.7221843744032
 30
0.0
 10
107.0794889394302
 20
159.7221843744032
 30
0.0
  0
SPLINE
  5
117
330
70
100
AcDbEntity
  8
Livello 1
 62
   250
420
  2300182
370
    18
100
AcDbSpline
210
0.0
220
0.0
230
1.0
 70
     8
 71
     3
 72
    11
 73
     7
 74
     0
 42
0.0000000001
 43
0.0000000001
 40
0.0
 40
0.0
 40
0.0
 40
0.0
 40
1.0
 40
1.0
 40
1.0
 40
2.0
 40
2.0
 40
2.0
 40
2.0
 10
85.4372053144697
 20
153.722313736526
 30
0.0
 10
85.39321036853072
 20
153.723304201478
 30
0.0
 10
85.34911314631953
 20
153.7323045134332
 30
0.0
 10
85.30769663903278
 20
153.7482057822823
 30
0.0
 10
85.26518739052182
 20
153.7646884109946
 30
0.0
 10
85.22571413240722
 20
153.7885995268469
 30
0.0
 10
85.19099941243164
 20
153.8177105836973
 30
0.0
  0
SPLINE
  5
118
330
70
100
AcDbEntity
  8
Livello 1
 62
   250
420
  2300182
370
    18
100
AcDbSpline
210
0.0
220
0.0
230
1.0
 70
     8
 71
     3
 72
    11
 73
     7
 74
     0
 42
0.0000000001
 43
0.0000000001
 40
0.0
 40
0.0
 40
0.0
 40
0.0
 40
1.0
 40
1.0
 40
1.0
 40
2.0
 40
2.0
 40
2.0
 40
2.0
 10
85.19099941243164
 20
153.8177105836973
 30
0.0
 10
85.13469901605629
 20
153.8650160510791
 30
0.0
 10
85.08989662586294
 20
153.9271031312773
 30
0.0
 10
85.05980048702227
 20
153.9951868308046
 30
0.0
 10
85.02808945967288
 20
154.0668017532042
 30
0.0
 10
85.01260267887435
 20
154.1449085274089
 30
0.0
 10
85.01260267887435
 20
154.2222078573591
 30
0.0
  0
SPLINE
  5
119
330
70
100
AcDbEntity
  8
Livello 1
 62
   250
420
  2300182
370
    18
100
AcDbSpline
210
0.0
220
0.0
230
1.0
 70
     8
 71
     3
 72
    11
 73
     7
 74
     0
 42
0.0000000001
 43
0.0000000001
 40
0.0
 40
0.0
 40
0.0
 40
0.0
 40
1.0
 40
1.0
 40
1.0
 40
2.0
 40
2.0
 40
2.0
 40
2.0
 10
85.01260267887435
 20
144.0300974167919
 30
0.0
 10
84.95650683504342
 20
144.1012924681793
 30
0.0
 10
84.90221428338058
 20
144.1738870896076
 30
0.0
 10
84.84979500238782
 20
144.2479028129235
 30
0.0
 10
84.76480880313607
 20
144.3678890291207
 30
0.0
 10
84.68490411972505
 20
144.4915033615008
 30
0.0
 10
84.61060848240094
 20
144.6184981938258
 30
0.0
  0
SPLINE
  5
11A
330
70
100
AcDbEntity
  8
Livello 1
 62
   250
420
  2300182
370
    18
100
AcDbSpline
210
0.0
220
0.0
230
1.0
 70
     8
 71
     3
 72
    29
 73
    25
 74
     0
 42
0.0000000001
 43
0.0000000001
 40
0.0
 40
0.0
 40
0.0
 40
0.0
 40
1.0
 40
1.0
 40
1.0
 40
2.0
 40
2.0
 40
2.0
 40
3.0
 40
3.0
 40
3.0
 40
4.0
 40
4.0
 40
4.0
 40
5.0
 40
5.0
 40
5.0
 40
6.0
 40
6.0
 40
6.0
 40
7.0
 40
7.0
 40
7.0
 40
8.0
 40
8.0
 40
8.0
 40
8.0
 10
90.78051611432202
 20
144.0300974167919
 30
0.0
 10
90.5880106381603
 20
143.7854848714158
 30
0.0
 10
90.36039748581918
 20
143.5658062046142
 30
0.0
 10
90.10681692625801
 20
143.3834960579041
 30
0.0
 10
89.88361241954569
 20
143.2230192038318
 30
0.0
 10
89.64020027462771
 20
143.0916103429163
 30
0.0
 10
89.38520937910226
 20
142.9900015579482
 30
0.0
 10
89.14641581531919
 20
142.8947877314746
 30
0.0
 10
88.89738924135258
 20
142.8257889284591
 30
0.0
 10
88.64441157350134
 20
142.7804859228281
 30
0.0
 10
88.39778580045102
 20
142.7364963598508
 30
0.0
 10
88.14731120978825
 20
142.7150183426849
 30
0.0
 10
87.89680432135533
 20
142.7150183426849
 30
0.0
 10
87.64629743292241
 20
142.7150183426849
 30
0.0
 10
87.39589820372341
 20
142.7363887006169
 30
0.0
 10
87.14919706920934
 20
142.7803890295176
 30
0.0
 10
86.89618710358791
 20
142.8256059077614
 30
0.0
 10
86.64709055111925
 20
142.8946800722407
 30
0.0
 10
86.40829698733618
 20
142.9897970054038
 30
0.0
 10
86.15320381553853
 20
143.0913950244485
 30
0.0
 10
85.90978628765885
 20
143.222803885364
 30
0.0
 10
85.68651180244449
 20
143.3833130372065
 30
0.0
 10
85.43279666884092
 20
143.5656016520697
 30
0.0
 10
85.20521581426999
 20
143.7854095099521
 30
0.0
 10
85.01260267887435
 20
144.0300974167919
 30
0.0
  0
SPLINE
  5
11B
330
70
100
AcDbEntity
  8
Livello 1
 62
   250
420
  2300182
370
    18
100
AcDbSpline
210
0.0
220
0.0
230
1.0
 70
     8
 71
     3
 72
    26
 73
    22
 74
     0
 42
0.0000000001
 43
0.0000000001
 40
0.0
 40
0.0
 40
0.0
 40
0.0
 40
1.0
 40
1.0
 40
1.0
 40
2.0
 40
2.0
 40
2.0
 40
3.0
 40
3.0
 40
3.0
 40
4.0
 40
4.0
 40
4.0
 40
5.0
 40
5.0
 40
5.0
 40
6.0
 40
6.0
 40
6.0
 40
7.0
 40
7.0
 40
7.0
 40
7.0
 10
93.37858104490623
 20
144.0300974167919
 30
0.0
 10
93.1415907732912
 20
144.1805942598804
 30
0.0
 10
92.89799022471388
 20
144.3232965744335
 30
0.0
 10
92.64018942318328
 20
144.4350899229299
 30
0.0
 10
92.51611215609733
 20
144.4888872421167
 30
0.0
 10
92.38868668683664
 20
144.535600583712
 30
0.0
 10
92.2573208896147
 20
144.5686196707534
 30
0.0
 10
92.13349123876676
 20
144.599690125661
 30
0.0
 10
92.00620572651017
 20
144.6187135122936
 30
0.0
 10
91.87860800247523
 20
144.6184981938258
 30
0.0
 10
91.76071037541595
 20
144.6183905345919
 30
0.0
 10
91.64248977065492
 20
144.6019832673434
 30
0.0
 10
91.52950140466211
 20
144.5686196707534
 30
0.0
 10
91.42419990797078
 20
144.5374953862289
 30
0.0
 10
91.32351699241436
 20
144.4917079140452
 30
0.0
 10
91.22960584267111
 20
144.4350899229299
 30
0.0
 10
91.14070084730489
 20
144.3814002629769
 30
0.0
 10
91.0580077897355
 20
144.3181073993588
 30
0.0
 10
90.98160203142668
 20
144.2479028129235
 30
0.0
 10
90.90871673006688
 20
144.1809172375821
 30
0.0
 10
90.84158043179808
 20
144.1077089585206
 30
0.0
 10
90.78051611432202
 20
144.0300974167919
 30
0.0
  0
SPLINE
  5
11C
330
70
100
AcDbEntity
  8
Livello 1
 62
   250
420
  2300182
370
    18
100
AcDbSpline
210
0.0
220
0.0
230
1.0
 70
     8
 71
     3
 72
    29
 73
    25
 74
     0
 42
0.0000000001
 43
0.0000000001
 40
0.0
 40
0.0
 40
0.0
 40
0.0
 40
1.0
 40
1.0
 40
1.0
 40
2.0
 40
2.0
 40
2.0
 40
3.0
 40
3.0
 40
3.0
 40
4.0
 40
4.0
 40
4.0
 40
5.0
 40
5.0
 40
5.0
 40
6.0
 40
6.0
 40
6.0
 40
7.0
 40
7.0
 40
7.0
 40
8.0
 40
8.0
 40
8.0
 40
8.0
 10
104.9144832772653
 20
144.0300974167919
 30
0.0
 10
104.4938048207461
 20
143.762908730064
 30
0.0
 10
104.0368129046277
 20
143.5521873115241
 30
0.0
 10
103.5666973278952
 20
143.3833130372065
 30
0.0
 10
103.096204943844
 20
143.2142988058848
 30
0.0
 10
102.6126104310254
 20
143.0871963143258
 30
0.0
 10
102.1232023195755
 20
142.9899046646377
 30
0.0
 10
101.6336865488917
 20
142.8924945897922
 30
0.0
 10
101.1384971365806
 20
142.8247984635071
 30
0.0
 10
100.6414021558292
 20
142.7803890295176
 30
0.0
 10
100.1442964091544
 20
142.7361087866087
 30
0.0
 10
99.64518820072889
 20
142.7150183426849
 30
0.0
 10
99.14618765153726
 20
142.7150183426849
 30
0.0
 10
98.64721940011577
 20
142.7150829382253
 30
0.0
 10
98.14820808500073
 20
142.7361087866087
 30
0.0
 10
97.65111310424934
 20
142.7804859228281
 30
0.0
 10
97.15400735757457
 20
142.824906122741
 30
0.0
 10
96.65889330672721
 20
142.8924945897922
 30
0.0
 10
96.16940983381356
 20
142.9899046646377
 30
0.0
 10
95.68021704083147
 20
143.0873039735597
 30
0.0
 10
95.19659023024273
 20
143.2144064651187
 30
0.0
 10
94.72619473950205
 20
143.3833883986702
 30
0.0
 10
94.25607916276954
 20
143.5522949707579
 30
0.0
 10
93.79920567180844
 20
143.763016389298
 30
0.0
 10
93.37858104490623
 20
144.0300974167919
 30
0.0
  0
SPLINE
  5
11D
330
70
100
AcDbEntity
  8
Livello 1
 62
   250
420
  2300182
370
    18
100
AcDbSpline
210
0.0
220
0.0
230
1.0
 70
     8
 71
     3
 72
    26
 73
    22
 74
     0
 42
0.0000000001
 43
0.0000000001
 40
0.0
 40
0.0
 40
0.0
 40
0.0
 40
1.0
 40
1.0
 40
1.0
 40
2.0
 40
2.0
 40
2.0
 40
3.0
 40
3.0
 40
3.0
 40
4.0
 40
4.0
 40
4.0
 40
5.0
 40
5.0
 40
5.0
 40
6.0
 40
6.0
 40
6.0
 40
7.0
 40
7.0
 40
7.0
 40
7.0
 10
107.5125912715431
 20
144.0300974167919
 30
0.0
 10
107.4513869970629
 20
144.1077089585206
 30
0.0
 10
107.3842829965643
 20
144.1809172375821
 30
0.0
 10
107.3115053544384
 20
144.2479028129235
 30
0.0
 10
107.2350995961296
 20
144.3181073993588
 30
0.0
 10
107.1524065385602
 20
144.3814002629769
 30
0.0
 10
107.0635015431939
 20
144.4350899229299
 30
0.0
 10
106.9695903934507
 20
144.4917079140452
 30
0.0
 10
106.8688105845838
 20
144.5374953862289
 30
0.0
 10
106.763605981203
 20
144.5686196707534
 30
0.0
 10
106.6506176152101
 20
144.6019832673434
 30
0.0
 10
106.5323970104491
 20
144.6183905345919
 30
0.0
 10
106.4144993833898
 20
144.6184981938258
 30
0.0
 10
106.2869016593549
 20
144.6187135122936
 30
0.0
 10
106.1596161470983
 20
144.599690125661
 30
0.0
 10
106.0358941554843
 20
144.5686196707534
 30
0.0
 10
105.9044852945688
 20
144.535600583712
 30
0.0
 10
105.7769952297678
 20
144.4889949013506
 30
0.0
 10
105.6528856649116
 20
144.4350899229299
 30
0.0
 10
105.3951171611512
 20
144.3232965744335
 30
0.0
 10
105.1514843148037
 20
144.1805942598804
 30
0.0
 10
104.9144832772653
 20
144.0300974167919
 30
0.0
  0
SPLINE
  5
11E
330
70
100
AcDbEntity
  8
Livello 1
 62
   250
420
  2300182
370
    18
100
AcDbSpline
210
0.0
220
0.0
230
1.0
 70
     8
 71
     3
 72
    29
 73
    25
 74
     0
 42
0.0000000001
 43
0.0000000001
 40
0.0
 40
0.0
 40
0.0
 40
0.0
 40
1.0
 40
1.0
 40
1.0
 40
2.0
 40
2.0
 40
2.0
 40
3.0
 40
3.0
 40
3.0
 40
4.0
 40
4.0
 40
4.0
 40
5.0
 40
5.0
 40
5.0
 40
6.0
 40
6.0
 40
6.0
 40
7.0
 40
7.0
 40
7.0
 40
8.0
 40
8.0
 40
8.0
 40
8.0
 10
113.2805100899524
 20
144.0300974167919
 30
0.0
 10
113.0878861886334
 20
143.7854095099521
 30
0.0
 10
112.8603160999859
 20
143.5656016520697
 30
0.0
 10
112.6065955834206
 20
143.3833130372065
 30
0.0
 10
112.3832888004361
 20
143.222803885364
 30
0.0
 10
112.1397959110926
 20
143.0913950244485
 30
0.0
 10
111.8848157814906
 20
142.9897970054038
 30
0.0
 10
111.6459091755119
 20
142.8946800722407
 30
0.0
 10
111.3968826015453
 20
142.8256059077614
 30
0.0
 10
111.143904933694
 20
142.7803890295176
 30
0.0
 10
110.8972145651034
 20
142.7363887006169
 30
0.0
 10
110.6467022937087
 20
142.7150183426849
 30
0.0
 10
110.396297681548
 20
142.7150183426849
 30
0.0
 10
110.1457961760768
 20
142.7150183426849
 30
0.0
 10
109.8952839046822
 20
142.7364963598508
 30
0.0
 10
109.648690429402
 20
142.7804859228281
 30
0.0
 10
109.3956804637806
 20
142.8257889284591
 30
0.0
 10
109.1466969535076
 20
142.8947877314746
 30
0.0
 10
108.9077903475289
 20
142.9900015579482
 30
0.0
 10
108.6529071112374
 20
143.0916103429163
 30
0.0
 10
108.4094895833577
 20
143.2230192038318
 30
0.0
 10
108.1861828003731
 20
143.3834960579041
 30
0.0
 10
107.9326130067354
 20
143.5658062046142
 30
0.0
 10
107.7050967477048
 20
143.7854848714158
 30
0.0
 10
107.5125912715431
 20
144.0300974167919
 30
0.0
  0
SPLINE
  5
11F
330
70
100
AcDbEntity
  8
Livello 1
 62
   250
420
  2300182
370
    18
100
AcDbSpline
210
0.0
220
0.0
230
1.0
 70
     8
 71
     3
 72
    17
 73
    13
 74
     0
 42
0.0000000001
 43
0.0000000001
 40
0.0
 40
0.0
 40
0.0
 40
0.0
 40
1.0
 40
1.0
 40
1.0
 40
2.0
 40
2.0
 40
2.0
 40
3.0
 40
3.0
 40
3.0
 40
4.0
 40
4.0
 40
4.0
 40
4.0
 10
91.20490881441124
 20
153.7222060772921
 30
0.0
 10
91.14931358601801
 20
153.7222060772921
 30
0.0
 10
91.09311546591488
 20
153.7090178211376
 30
0.0
 10
91.04238643489457
 20
153.6848913868175
 30
0.0
 10
90.9896118784299
 20
153.6598067853155
 30
0.0
 10
90.94300619606851
 20
153.6227935406959
 30
0.0
 10
90.90479793395241
 20
153.5786963184847
 30
0.0
 10
90.86451184862175
 20
153.5322090612806
 30
0.0
 10
90.83361364848844
 20
153.4778088503838
 30
0.0
 10
90.81279235264945
 20
153.4198128210743
 30
0.0
 10
90.7913143354836
 20
153.3596959048567
 30
0.0
 10
90.78051611432202
 20
153.2957032562182
 30
0.0
 10
90.78051611432202
 20
153.2322058400557
 30
0.0
  0
SPLINE
  5
120
330
70
100
AcDbEntity
  8
Livello 1
 62
   250
420
  2300182
370
    18
100
AcDbSpline
210
0.0
220
0.0
230
1.0
 70
     8
 71
     3
 72
    17
 73
    13
 74
     0
 42
0.0000000001
 43
0.0000000001
 40
0.0
 40
0.0
 40
0.0
 40
0.0
 40
1.0
 40
1.0
 40
1.0
 40
2.0
 40
2.0
 40
2.0
 40
3.0
 40
3.0
 40
3.0
 40
4.0
 40
4.0
 40
4.0
 40
4.0
 10
91.21352155312434
 20
159.7221843744032
 30
0.0
 10
91.15678513685166
 20
159.7221843744032
 30
0.0
 10
91.09939199925205
 20
159.7088130975511
 30
0.0
 10
91.04781246028384
 20
159.6841914307549
 30
0.0
 10
90.99390748186307
 20
159.658503937543
 30
0.0
 10
90.94628980270288
 20
159.6206940145924
 30
0.0
 10
90.9073063941026
 20
159.575821645897
 30
0.0
 10
90.86620209859422
 20
159.5283008600474
 30
0.0
 10
90.83470100675096
 20
159.4728025249647
 30
0.0
 10
90.81350290359329
 20
159.4136114781588
 30
0.0
 10
90.79148659025786
 20
159.3522995444447
 30
0.0
 10
90.78051611432202
 20
159.2869934531524
 30
0.0
 10
90.78051611432202
 20
159.2221933602595
 30
0.0
  0
SPLINE
  5
121
330
70
100
AcDbEntity
  8
Livello 1
 62
   250
420
  2300182
370
    18
100
AcDbSpline
210
0.0
220
0.0
230
1.0
 70
     8
 71
     3
 72
    17
 73
    13
 74
     0
 42
0.0000000001
 43
0.0000000001
 40
0.0
 40
0.0
 40
0.0
 40
0.0
 40
1.0
 40
1.0
 40
1.0
 40
2.0
 40
2.0
 40
2.0
 40
3.0
 40
3.0
 40
3.0
 40
4.0
 40
4.0
 40
4.0
 40
4.0
 10
107.0881985714539
 20
153.7222060772921
 30
0.0
 10
107.1436861406132
 20
153.7222060772921
 30
0.0
 10
107.1999919199502
 20
153.7090178211376
 30
0.0
 10
107.2505809939664
 20
153.6848913868175
 30
0.0
 10
107.3033986141247
 20
153.6598067853155
 30
0.0
 10
107.3501011897966
 20
153.6227935406959
 30
0.0
 10
107.3883094519127
 20
153.5786963184847
 30
0.0
 10
107.4285955372433
 20
153.5322090612806
 30
0.0
 10
107.4593968440661
 20
153.4778088503838
 30
0.0
 10
107.4802073739817
 20
153.4198128210743
 30
0.0
 10
107.5017930503815
 20
153.3596959048567
 30
0.0
 10
107.5125912715431
 20
153.2957032562182
 30
0.0
 10
107.5125912715431
 20
153.2322058400557
 30
0.0
  0
SPLINE
  5
122
330
70
100
AcDbEntity
  8
Livello 1
 62
   250
420
  2300182
370
    18
100
AcDbSpline
210
0.0
220
0.0
230
1.0
 70
     8
 71
     3
 72
    11
 73
     7
 74
     0
 42
0.0000000001
 43
0.0000000001
 40
0.0
 40
0.0
 40
0.0
 40
0.0
 40
1.0
 40
1.0
 40
1.0
 40
2.0
 40
2.0
 40
2.0
 40
2.0
 10
112.8561819854036
 20
153.7222060772921
 30
0.0
 10
112.9006021853165
 20
153.7222060772921
 30
0.0
 10
112.9453991925482
 20
153.7139916777445
 30
0.0
 10
112.9873109323109
 20
153.6982949614398
 30
0.0
 10
113.0303853917999
 20
153.6821030126591
 30
0.0
 10
113.0704992223563
 20
153.6581165353431
 30
0.0
 10
113.1055961326123
 20
153.6286932667143
 30
0.0
  0
SPLINE
  5
123
330
70
100
AcDbEntity
  8
Livello 1
 62
   250
420
  2300182
370
    18
100
AcDbSpline
210
0.0
220
0.0
230
1.0
 70
     8
 71
     3
 72
    11
 73
     7
 74
     0
 42
0.0000000001
 43
0.0000000001
 40
0.0
 40
0.0
 40
0.0
 40
0.0
 40
1.0
 40
1.0
 40
1.0
 40
2.0
 40
2.0
 40
2.0
 40
2.0
 10
113.1055961326123
 20
153.6286932667143
 30
0.0
 10
113.1608145536868
 20
153.5823029028208
 30
0.0
 10
113.2046964574302
 20
153.5215184993529
 30
0.0
 10
113.2341843215992
 20
153.4546944128624
 30
0.0
 10
113.2652978402004
 20
153.384597485661
 30
0.0
 10
113.2805100899524
 20
153.3080194725779
 30
0.0
 10
113.2805100899524
 20
153.2322058400557
 30
0.0
  0
SPLINE
  5
124
330
70
100
AcDbEntity
  8
Livello 1
 62
   250
420
  2300182
370
    18
100
AcDbSpline
210
0.0
220
0.0
230
1.0
 70
     8
 71
     3
 72
    11
 73
     7
 74
     0
 42
0.0000000001
 43
0.0000000001
 40
0.0
 40
0.0
 40
0.0
 40
0.0
 40
1.0
 40
1.0
 40
1.0
 40
2.0
 40
2.0
 40
2.0
 40
2.0
 10
85.43688771972965
 20
153.7222060772921
 30
0.0
 10
85.39250520054858
 20
153.7222060772921
 30
0.0
 10
85.34770281035525
 20
153.7139916777445
 30
0.0
 10
85.3057964535542
 20
153.6982949614398
 30
0.0
 10
85.26261433483126
 20
153.6821030126591
 30
0.0
 10
85.22250588723659
 20
153.6581165353431
 30
0.0
 10
85.18750587029114
 20
153.6286932667143
 30
0.0
  0
SPLINE
  5
125
330
70
100
AcDbEntity
  8
Livello 1
 62
   250
420
  2300182
370
    18
100
AcDbSpline
210
0.0
220
0.0
230
1.0
 70
     8
 71
     3
 72
    11
 73
     7
 74
     0
 42
0.0000000001
 43
0.0000000001
 40
0.0
 40
0.0
 40
0.0
 40
0.0
 40
1.0
 40
1.0
 40
1.0
 40
2.0
 40
2.0
 40
2.0
 40
2.0
 10
85.18750587029114
 20
153.6286932667143
 30
0.0
 10
85.13219055590608
 20
153.5823029028208
 30
0.0
 10
85.08841092843494
 20
153.5215184993529
 30
0.0
 10
85.05881540503196
 20
153.4546944128624
 30
0.0
 10
85.02780416270303
 20
153.384597485661
 30
0.0
 10
85.01260267887435
 20
153.3080194725779
 30
0.0
 10
85.01260267887435
 20
153.2322058400557
 30
0.0
  0
LINE
  5
126
330
70
100
AcDbEntity
  8
Livello 1
 62
   250
420
  2300182
370
    18
100
AcDbLine
 10
97.79468745859713
 20
165.8963983756808
 30
0.0
 11
97.69139918957998
 21
166.1082071524834
 31
0.0
  0
LINE
  5
127
330
70
100
AcDbEntity
  8
Livello 1
 62
   250
420
  2300182
370
    18
100
AcDbLine
 10
97.89138698249873
 20
165.6989082769889
 30
0.0
 11
97.79468745859713
 21
165.8963983756808
 31
0.0
  0
LINE
  5
128
330
70
100
AcDbEntity
  8
Livello 1
 62
   250
420
  2300182
370
    18
100
AcDbLine
 10
97.89138698249873
 20
165.6989082769889
 30
0.0
 11
97.69591011148097
 21
165.7998065110132
 31
0.0
  0
LINE
  5
129
330
70
100
AcDbEntity
  8
Livello 1
 62
   250
420
  2300182
370
    18
100
AcDbLine
 10
100.8068851642785
 20
165.9082839551049
 30
0.0
 11
100.5971972743841
 21
165.7998065110132
 31
0.0
  0
LINE
  5
12A
330
70
100
AcDbEntity
  8
Livello 1
 62
   250
420
  2300182
370
    18
100
AcDbLine
 10
97.69591011148097
 20
165.7998065110132
 30
0.0
 11
97.4861899238164
 21
165.9082839551049
 31
0.0
  0
SPLINE
  5
12B
330
70
100
AcDbEntity
  8
Livello 1
 62
   250
420
  2300182
370
    18
100
AcDbSpline
210
0.0
220
0.0
230
1.0
 70
     8
 71
     3
 72
    38
 73
    34
 74
     0
 42
0.0000000001
 43
0.0000000001
 40
0.0
 40
0.0
 40
0.0
 40
0.0
 40
1.0
 40
1.0
 40
1.0
 40
2.0
 40
2.0
 40
2.0
 40
3.0
 40
3.0
 40
3.0
 40
4.0
 40
4.0
 40
4.0
 40
5.0
 40
5.0
 40
5.0
 40
6.0
 40
6.0
 40
6.0
 40
7.0
 40
7.0
 40
7.0
 40
8.0
 40
8.0
 40
8.0
 40
9.0
 40
9.0
 40
9.0
 40
10.0
 40
10.0
 40
10.0
 40
11.0
 40
11.0
 40
11.0
 40
11.0
 10
113.2513021397915
 20
163.722015594242
 30
0.0
 10
113.2510868213237
 20
163.7143933204809
 30
0.0
 10
113.2431092720907
 20
163.7096993778822
 30
0.0
 10
113.2357023167974
 20
163.7055006677596
 30
0.0
 10
113.2187029237624
 20
163.6959082300178
 30
0.0
 10
113.2046964574302
 20
163.6885012747246
 30
0.0
 10
113.1896995261459
 20
163.6815141904435
 30
0.0
 10
113.1658853036041
 20
163.6704037575036
 30
0.0
 10
113.1396056846057
 20
163.660100768818
 30
0.0
 10
113.1136059796155
 20
163.6501853533746
 30
0.0
 10
113.0779061776496
 20
163.6367171832119
 30
0.0
 10
113.0429169266275
 20
163.62401339361
 30
0.0
 10
113.0074970386698
 20
163.6116971772503
 30
0.0
 10
112.9625170107405
 20
163.5960004609456
 30
0.0
 10
112.9171063458755
 20
163.5809066363508
 30
0.0
 10
112.8715987877001
 20
163.5661896190748
 30
0.0
 10
112.8166064510167
 20
163.5484150795556
 30
0.0
 10
112.76160334841
 20
163.5312003680527
 30
0.0
 10
112.7063956932589
 20
163.5141902090943
 30
0.0
 10
112.5682150665302
 20
163.471794002779
 30
0.0
 10
112.4291839318536
 20
163.4314002582144
 30
0.0
 10
112.289905180939
 20
163.3923091903802
 30
0.0
 10
112.1143990978123
 20
163.3428828360903
 30
0.0
 10
111.9383977822096
 20
163.2955020072447
 30
0.0
 10
111.7621165525987
 20
163.2496068758271
 30
0.0
 10
111.5511905815143
 20
163.1946145391438
 30
0.0
 10
111.3398016757241
 20
163.1417969189856
 30
0.0
 10
111.1280036648449
 20
163.0906157191828
 30
0.0
 10
110.8835956720132
 20
163.0315969271512
 30
0.0
 10
110.6386924467055
 20
162.9750112338059
 30
0.0
 10
110.3933047548452
 20
162.9203957044413
 30
0.0
 10
110.1175033294042
 20
162.8590191751869
 30
0.0
 10
109.8410990122532
 20
162.8003125949336
 30
0.0
 10
109.5642102285497
 20
162.7441144748305
 30
0.0
  0
LINE
  5
12C
330
70
100
AcDbEntity
  8
Livello 1
 62
   250
420
  2300182
370
    18
100
AcDbLine
 10
108.4351017151058
 20
162.5288175388491
 30
0.0
 11
108.4171118571188
 21
162.5255016344446
 31
0.0
  0
SPLINE
  5
12D
330
70
100
AcDbEntity
  8
Livello 1
 62
   250
420
  2300182
370
    18
100
AcDbSpline
210
0.0
220
0.0
230
1.0
 70
     8
 71
     3
 72
    53
 73
    49
 74
     0
 42
0.0000000001
 43
0.0000000001
 40
0.0
 40
0.0
 40
0.0
 40
0.0
 40
1.0
 40
1.0
 40
1.0
 40
2.0
 40
2.0
 40
2.0
 40
3.0
 40
3.0
 40
3.0
 40
4.0
 40
4.0
 40
4.0
 40
5.0
 40
5.0
 40
5.0
 40
6.0
 40
6.0
 40
6.0
 40
7.0
 40
7.0
 40
7.0
 40
8.0
 40
8.0
 40
8.0
 40
9.0
 40
9.0
 40
9.0
 40
10.0
 40
10.0
 40
10.0
 40
11.0
 40
11.0
 40
11.0
 40
12.0
 40
12.0
 40
12.0
 40
13.0
 40
13.0
 40
13.0
 40
14.0
 40
14.0
 40
14.0
 40
15.0
 40
15.0
 40
15.0
 40
16.0
 40
16.0
 40
16.0
 40
16.0
 10
99.14649986331561
 20
161.7149890919226
 30
0.0
 10
98.22648711397963
 20
161.7149890919226
 30
0.0
 10
97.30630210986939
 20
161.738491102686
 30
0.0
 10
96.38738748471935
 20
161.7856889108339
 30
0.0
 10
95.50361283351884
 20
161.8310888097755
 30
0.0
 10
94.62100090204463
 20
161.8983973628186
 30
0.0
 10
93.74060675078903
 20
161.987582272193
 30
0.0
 10
92.92759651404024
 20
162.0699954157542
 30
0.0
 10
92.11649184573174
 20
162.1712058615568
 30
0.0
 10
91.30830474266231
 20
162.2915042895324
 30
0.0
 10
90.9384952741675
 20
162.3464966262157
 30
0.0
 10
90.56941788846334
 20
162.4055907797111
 30
0.0
 10
90.20100799000942
 20
162.4687006226315
 30
0.0
 10
89.85990585623783
 20
162.527191884417
 30
0.0
 10
89.51951427341006
 20
162.5892143690749
 30
0.0
 10
89.17971481636881
 20
162.654789608452
 30
0.0
 10
88.87040445437204
 20
162.7145189514275
 30
0.0
 10
88.56161623965972
 20
162.7773058166461
 30
0.0
 10
88.25350089515939
 20
162.8432147996483
 30
0.0
 10
87.97861457320662
 20
162.901985975442
 30
0.0
 10
87.70429346223192
 20
162.96340556839
 30
0.0
 10
87.43060754073729
 20
163.0275058762624
 30
0.0
 10
87.19280444190623
 20
163.0832087638896
 30
0.0
 10
86.95549119258947
 20
163.1409894747312
 30
0.0
 10
86.71891540902503
 20
163.2012140501828
 30
0.0
 10
86.52058556830855
 20
163.251695464965
 30
0.0
 10
86.3227132793362
 20
163.30389942749
 30
0.0
 10
86.125298542108
 20
163.3582996383867
 30
0.0
 10
85.96848748495048
 20
163.4015140548799
 30
0.0
 10
85.81189174626079
 20
163.4461065095671
 30
0.0
 10
85.65620572809768
 20
163.4930997651705
 30
0.0
 10
85.59401098866551
 20
163.511789408178
 30
0.0
 10
85.53199388696933
 20
163.5309850495849
 30
0.0
 10
85.47001446600502
 20
163.550600562004
 30
0.0
 10
85.41868254327479
 20
163.5669001700186
 30
0.0
 10
85.36749596051034
 20
163.5835873512753
 30
0.0
 10
85.31679922726022
 20
163.6009097220121
 30
0.0
 10
85.27690071517167
 20
163.6145932106426
 30
0.0
 10
85.2373897763252
 20
163.6285996769748
 30
0.0
 10
85.19710369099456
 20
163.6434889490251
 30
0.0
 10
85.16771810309773
 20
163.6543840634972
 30
0.0
 10
85.13790726122691
 20
163.6658174741389
 30
0.0
 10
85.11109472902061
 20
163.6780906268051
 30
0.0
 10
85.09430527149172
 20
163.6857882620299
 30
0.0
 10
85.07871083145927
 20
163.6937873431097
 30
0.0
 10
85.05931063750796
 20
163.7043056502631
 30
0.0
 10
85.05098319576472
 20
163.7087196788536
 30
0.0
 10
85.04198826677118
 20
163.7136935354604
 30
0.0
 10
85.04181062903523
 20
163.722015594242
 30
0.0
  0
LINE
  5
12E
330
70
100
AcDbEntity
  8
Livello 1
 62
   250
420
  2300182
370
    18
100
AcDbLine
 10
100.6227017468984
 20
166.1297928288831
 30
0.0
 11
100.6016005370512
 21
166.1082071524834
 31
0.0
  0
LINE
  5
12F
330
70
100
AcDbEntity
  8
Livello 1
 62
   250
420
  2300182
370
    18
100
AcDbLine
 10
97.67029797973282
 20
166.1297928288831
 30
0.0
 11
97.69139918957998
 21
166.1082071524834
 31
0.0
  0
LINE
  5
130
330
70
100
AcDbEntity
  8
Livello 1
 62
   250
420
  2300182
370
    18
100
AcDbLine
 10
97.67029797973282
 20
290.314600723591
 30
0.0
 11
97.69139918957998
 21
290.3362832933013
 31
0.0
  0
LINE
  5
131
330
70
100
AcDbEntity
  8
Livello 1
 62
   250
420
  2300182
370
    18
100
AcDbLine
 10
100.6227017468984
 20
290.314600723591
 30
0.0
 11
100.6016005370512
 21
290.3362832933013
 31
0.0
  0
LINE
  5
132
330
70
100
AcDbEntity
  8
Livello 1
 62
   250
420
  2300182
370
    18
100
AcDbLine
 10
100.6016005370512
 20
166.1082071524834
 30
0.0
 11
100.498312268034
 21
165.8963983756808
 31
0.0
  0
LINE
  5
133
330
70
100
AcDbEntity
  8
Livello 1
 62
   250
420
  2300182
370
    18
100
AcDbLine
 10
100.498312268034
 20
165.8963983756808
 30
0.0
 11
100.4016881055962
 21
165.6989082769889
 31
0.0
  0
LINE
  5
134
330
70
100
AcDbEntity
  8
Livello 1
 62
   250
420
  2300182
370
    18
100
AcDbLine
 10
100.5971972743841
 20
165.7998065110132
 30
0.0
 11
100.4016881055962
 21
165.6989082769889
 31
0.0
  0
SPLINE
  5
135
330
70
100
AcDbEntity
  8
Livello 1
 62
   250
420
  2300182
370
    18
100
AcDbSpline
210
0.0
220
0.0
230
1.0
 70
     8
 71
     3
 72
     8
 73
     4
 74
     0
 42
0.0000000001
 43
0.0000000001
 40
0.0
 40
0.0
 40
0.0
 40
0.0
 40
1.0
 40
1.0
 40
1.0
 40
1.0
 10
97.87029653857496
 20
168.4241941242893
 30
0.0
 10
97.75980586680898
 20
168.4241941242893
 30
0.0
 10
97.67029797973282
 20
168.3346862372132
 30
0.0
 10
97.67029797973282
 20
168.2243032246811
 30
0.0
  0
SPLINE
  5
136
330
70
100
AcDbEntity
  8
Livello 1
 62
   250
420
  2300182
370
    18
100
AcDbSpline
210
0.0
220
0.0
230
1.0
 70
     8
 71
     3
 72
     8
 73
     4
 74
     0
 42
0.0000000001
 43
0.0000000001
 40
0.0
 40
0.0
 40
0.0
 40
0.0
 40
1.0
 40
1.0
 40
1.0
 40
1.0
 10
100.6227017468984
 20
168.2243032246811
 30
0.0
 10
100.6227017468984
 20
168.3346862372132
 30
0.0
 10
100.5332046257456
 20
168.4241941242893
 30
0.0
 10
100.4228108472901
 20
168.4241941242893
 30
0.0
  0
SPLINE
  5
137
330
70
100
AcDbEntity
  8
Livello 1
 62
   250
420
  2300182
370
    18
100
AcDbSpline
210
0.0
220
0.0
230
1.0
 70
     8
 71
     3
 72
     8
 73
     4
 74
     0
 42
0.0000000001
 43
0.0000000001
 40
0.0
 40
0.0
 40
0.0
 40
0.0
 40
1.0
 40
1.0
 40
1.0
 40
1.0
 10
100.4228108472901
 20
288.0202963214954
 30
0.0
 10
100.5332046257456
 20
288.0202963214954
 30
0.0
 10
100.6227017468984
 20
288.1098042085715
 30
0.0
 10
100.6227017468984
 20
288.2201764551802
 30
0.0
  0
SPLINE
  5
138
330
70
100
AcDbEntity
  8
Livello 1
 62
   250
420
  2300182
370
    18
100
AcDbSpline
210
0.0
220
0.0
230
1.0
 70
     8
 71
     3
 72
     8
 73
     4
 74
     0
 42
0.0000000001
 43
0.0000000001
 40
0.0
 40
0.0
 40
0.0
 40
0.0
 40
1.0
 40
1.0
 40
1.0
 40
1.0
 10
97.67029797973282
 20
288.2201764551802
 30
0.0
 10
97.67029797973282
 20
288.1098042085715
 30
0.0
 10
97.75980586680898
 20
288.0202963214954
 30
0.0
 10
97.87029653857496
 20
288.0202963214954
 30
0.0
  0
ENDSEC
  0
SECTION
  2
OBJECTS
  0
DICTIONARY
  5
C
330
0
100
AcDbDictionary
281
     1
  3
ACAD_COLOR
350
63
  3
ACAD_DETAILVIEWSTYLE
350
6A
  3
ACAD_GROUP
350
D
  3
ACAD_LAYOUT
350
62
  3
ACAD_MATERIAL
350
10
  3
ACAD_MLEADERSTYLE
350
66
  3
ACAD_MLINESTYLE
350
5F
  3
ACAD_PLOTSETTINGS
350
61
  3
ACAD_PLOTSTYLENAME
350
E
  3
ACAD_SCALELIST
350
42
  3
ACAD_SECTIONVIEWSTYLE
350
68
  3
ACAD_TABLESTYLE
350
64
  3
ACAD_VISUALSTYLE
350
29
  3
ACDB_RECOMPOSE_DATA
350
141
  3
AcDbVariableDictionary
350
139
  0
DICTIONARY
  5
63
102
{ACAD_REACTORS
330
C
102
}
330
C
100
AcDbDictionary
281
     1
  0
DICTIONARY
  5
6A
102
{ACAD_REACTORS
330
C
102
}
330
C
100
AcDbDictionary
281
     1
  3
Imperial24
350
6B
  0
DICTIONARY
  5
D
102
{ACAD_REACTORS
330
C
102
}
330
C
100
AcDbDictionary
281
     1
  0
DICTIONARY
  5
62
102
{ACAD_REACTORS
330
C
102
}
330
C
100
AcDbDictionary
281
     1
  3
Layout1
350
6F
  3
Layout2
350
77
  3
Model
350
73
  0
DICTIONARY
  5
10
102
{ACAD_REACTORS
330
C
102
}
330
C
100
AcDbDictionary
281
     1
  3
ByBlock
350
19
  3
ByLayer
350
11
  3
Global
350
21
  0
DICTIONARY
  5
66
102
{ACAD_REACTORS
330
C
102
}
330
C
100
AcDbDictionary
281
     1
  3
Standard
350
67
  0
DICTIONARY
  5
5F
102
{ACAD_REACTORS
330
C
102
}
330
C
100
AcDbDictionary
281
     1
  3
Standard
350
60
  0
DICTIONARY
  5
61
102
{ACAD_REACTORS
330
C
102
}
330
C
100
AcDbDictionary
281
     1
  0
ACDBDICTIONARYWDFLT
  5
E
102
{ACAD_REACTORS
330
C
102
}
330
C
100
AcDbDictionary
281
     1
  3
Normal
350
F
100
AcDbDictionaryWithDefault
340
F
  0
DICTIONARY
  5
42
102
{ACAD_REACTORS
330
C
102
}
330
C
100
AcDbDictionary
281
     1
  3
A0
350
43
  3
A1
350
44
  3
A2
350
45
  3
A3
350
46
  3
A4
350
47
  3
A5
350
48
  3
A6
350
49
  3
A7
350
4A
  3
A8
350
4B
  3
A9
350
4C
  3
B0
350
4D
  3
B1
350
4E
  3
B2
350
4F
  3
B3
350
50
  3
B4
350
51
  3
B5
350
52
  3
B6
350
53
  0
DICTIONARY
  5
68
102
{ACAD_REACTORS
330
C
102
}
330
C
100
AcDbDictionary
281
     1
  3
Imperial24
350
69
  0
DICTIONARY
  5
64
102
{ACAD_REACTORS
330
C
102
}
330
C
100
AcDbDictionary
281
     1
  3
Standard
350
65
  0
DICTIONARY
  5
29
102
{ACAD_REACTORS
330
C
102
}
330
C
100
AcDbDictionary
281
     1
  3
2dWireframe
350
2F
  3
Basic
350
2E
  3
Brighten
350
35
  3
ColorChange
350
39
  3
Conceptual
350
32
  3
Dim
350
34
  3
EdgeColorOff
350
41
  3
Facepattern
350
38
  3
Flat
350
2A
  3
FlatWithEdges
350
2B
  3
Gouraud
350
2C
  3
GouraudWithEdges
350
2D
  3
Hidden
350
31
  3
JitterOff
350
3F
  3
Linepattern
350
37
  3
OverhangOff
350
40
  3
Realistic
350
33
  3
Shaded
350
3E
  3
Shaded with edges
350
3D
  3
Shades of Gray
350
3A
  3
Sketchy
350
3B
  3
Thicken
350
36
  3
Wireframe
350
30
  3
X-Ray
350
3C
  0
XRECORD
  5
141
102
{ACAD_REACTORS
330
C
102
}
330
C
100
AcDbXrecord
280
     1
 90
        1
330
65
  0
DICTIONARY
  5
139
102
{ACAD_REACTORS
330
C
102
}
330
C
100
AcDbDictionary
281
     1
  3
CANNOSCALE
350
13E
  3
CMLEADERSTYLE
350
13B
  3
CTABLESTYLE
350
13A
  3
CVIEWDETAILSTYLE
350
13C
  3
CVIEWSECTIONSTYLE
350
13D
  0
ACDBDETAILVIEWSTYLE
  5
6B
102
{ACAD_REACTORS
330
6A
102
}
330
6A
100
AcDbModelDocViewStyle
 70
     0
  3
Imperial24
290
     1
300
Imperial24
 90
        0
100
AcDbDetailViewStyle
 70
     0
 71
     0
 90
        3
 71
     1
340
55
 62
   256
 40
0.24
340
0
 62
   256
 40
0.24
300

 40
0.36
280
     3
 71
     2
340
5D
 90
       25
 62
   256
 71
     3
340
55
 62
   256
 40
0.24
 90
        1
 40
0.75
 90
        1
300
%<\AcVar ViewType \f "%tc1">% %<\AcVar ViewDetailId>%\PSCALE %<\AcVar ViewScale \f "%sn">%
 71
     4
340
5D
 90
       25
 62
   256
340
5D
 90
       25
 62
   256
280
     0
  0
LAYOUT
  5
6F
102
{ACAD_REACTORS
330
62
102
}
330
62
100
AcDbPlotSettings
  1

  2

  4

  6

 40
0.0
 41
0.0
 42
0.0
 43
0.0
 44
0.0
 45
0.0
 46
0.0
 47
0.0
 48
0.0
 49
0.0
140
0.0
141
0.0
142
1.0
143
1.0
 70
   688
 72
     0
 73
     0
 74
     5
  7

 75
    16
147
1.0
 76
     0
 77
     2
 78
   300
148
0.0
149
0.0
100
AcDbLayout
  1
Layout1
 70
     1
 71
     1
 10
0.0
 20
0.0
 11
12.0
 21
9.0
 12
0.0
 22
0.0
 32
0.0
 14
0.0
 24
0.0
 34
0.0
 15
0.0
 25
0.0
 35
0.0
146
0.0
 13
0.0
 23
0.0
 33
0.0
 16
1.0
 26
0.0
 36
0.0
 17
0.0
 27
1.0
 37
0.0
 76
     0
330
6C
  0
LAYOUT
  5
77
102
{ACAD_REACTORS
330
62
102
}
330
62
100
AcDbPlotSettings
  1

  2

  4

  6

 40
0.0
 41
0.0
 42
0.0
 43
0.0
 44
0.0
 45
0.0
 46
0.0
 47
0.0
 48
0.0
 49
0.0
140
0.0
141
0.0
142
1.0
143
1.0
 70
   688
 72
     0
 73
     0
 74
     5
  7

 75
    16
147
1.0
 76
     0
 77
     2
 78
   300
148
0.0
149
0.0
100
AcDbLayout
  1
Layout2
 70
     1
 71
     2
 10
0.0
 20
0.0
 11
12.0
 21
9.0
 12
0.0
 22
0.0
 32
0.0
 14
0.0
 24
0.0
 34
0.0
 15
0.0
 25
0.0
 35
0.0
146
0.0
 13
0.0
 23
0.0
 33
0.0
 16
1.0
 26
0.0
 36
0.0
 17
0.0
 27
1.0
 37
0.0
 76
     0
330
74
  0
LAYOUT
  5
73
102
{ACAD_REACTORS
330
62
102
}
330
62
100
AcDbPlotSettings
  1

  2

  4

  6

 40
0.0
 41
0.0
 42
0.0
 43
0.0
 44
0.0
 45
0.0
 46
0.0
 47
0.0
 48
0.0
 49
0.0
140
0.0
141
0.0
142
1.0
143
1.0
 70
  1712
 72
     0
 73
     0
 74
     0
  7

 75
     0
147
1.0
 76
     0
 77
     2
 78
   300
148
0.0
149
0.0
100
AcDbLayout
  1
Model
 70
     1
 71
     0
 10
0.0
 20
0.0
 11
12.0
 21
9.0
 12
0.0
 22
0.0
 32
0.0
 14
0.0
 24
0.0
 34
0.0
 15
0.0
 25
0.0
 35
0.0
146
0.0
 13
0.0
 23
0.0
 33
0.0
 16
1.0
 26
0.0
 36
0.0
 17
0.0
 27
1.0
 37
0.0
 76
     0
330
70
  0
MATERIAL
  5
19
102
{ACAD_XDICTIONARY
360
1A
102
}
102
{ACAD_REACTORS
330
10
102
}
330
10
100
AcDbMaterial
  1
ByBlock
 72
     0
 43
0.0208333333333333
 43
0.0
 43
0.0
 43
0.0
 43
0.0
 43
0.0208333333333333
 43
0.0
 43
0.0
 43
0.0
 43
0.0
 43
1.0
 43
0.0
 43
0.0
 43
0.0
 43
0.0
 43
1.0
 77
     0
 47
0.0208333333333333
 47
0.0
 47
0.0
 47
0.0
 47
0.0
 47
0.0208333333333333
 47
0.0
 47
0.0
 47
0.0
 47
0.0
 47
1.0
 47
0.0
 47
0.0
 47
0.0
 47
0.0
 47
1.0
171
     0
 49
0.0208333333333333
 49
0.0
 49
0.0
 49
0.0
 49
0.0
 49
0.0208333333333333
 49
0.0
 49
0.0
 49
0.0
 49
0.0
 49
1.0
 49
0.0
 49
0.0
 49
0.0
 49
0.0
 49
1.0
175
     0
142
0.0208333333333333
142
0.0
142
0.0
142
0.0
142
0.0
142
0.0208333333333333
142
0.0
142
0.0
142
0.0
142
0.0
142
1.0
142
0.0
142
0.0
142
0.0
142
0.0
142
1.0
179
     0
144
0.0208333333333333
144
0.0
144
0.0
144
0.0
144
0.0
144
0.0208333333333333
144
0.0
144
0.0
144
0.0
144
0.0
144
1.0
144
0.0
144
0.0
144
0.0
144
0.0
144
1.0
147
0.0208333333333333
147
0.0
147
0.0
147
0.0
147
0.0
147
0.0208333333333333
147
0.0
147
0.0
147
0.0
147
0.0
147
1.0
147
0.0
147
0.0
147
0.0
147
0.0
147
1.0
  0
MATERIAL
  5
11
102
{ACAD_XDICTIONARY
360
12
102
}
102
{ACAD_REACTORS
330
10
102
}
330
10
100
AcDbMaterial
  1
ByLayer
 72
     0
 43
0.0208333333333333
 43
0.0
 43
0.0
 43
0.0
 43
0.0
 43
0.0208333333333333
 43
0.0
 43
0.0
 43
0.0
 43
0.0
 43
1.0
 43
0.0
 43
0.0
 43
0.0
 43
0.0
 43
1.0
 77
     0
 47
0.0208333333333333
 47
0.0
 47
0.0
 47
0.0
 47
0.0
 47
0.0208333333333333
 47
0.0
 47
0.0
 47
0.0
 47
0.0
 47
1.0
 47
0.0
 47
0.0
 47
0.0
 47
0.0
 47
1.0
171
     0
 49
0.0208333333333333
 49
0.0
 49
0.0
 49
0.0
 49
0.0
 49
0.0208333333333333
 49
0.0
 49
0.0
 49
0.0
 49
0.0
 49
1.0
 49
0.0
 49
0.0
 49
0.0
 49
0.0
 49
1.0
175
     0
142
0.0208333333333333
142
0.0
142
0.0
142
0.0
142
0.0
142
0.0208333333333333
142
0.0
142
0.0
142
0.0
142
0.0
142
1.0
142
0.0
142
0.0
142
0.0
142
0.0
142
1.0
179
     0
144
0.0208333333333333
144
0.0
144
0.0
144
0.0
144
0.0
144
0.0208333333333333
144
0.0
144
0.0
144
0.0
144
0.0
144
1.0
144
0.0
144
0.0
144
0.0
144
0.0
144
1.0
147
0.0208333333333333
147
0.0
147
0.0
147
0.0
147
0.0
147
0.0208333333333333
147
0.0
147
0.0
147
0.0
147
0.0
147
1.0
147
0.0
147
0.0
147
0.0
147
0.0
147
1.0
  0
MATERIAL
  5
21
102
{ACAD_XDICTIONARY
360
22
102
}
102
{ACAD_REACTORS
330
10
102
}
330
10
100
AcDbMaterial
  1
Global
 72
     0
 43
0.0208333333333333
 43
0.0
 43
0.0
 43
0.0
 43
0.0
 43
0.0208333333333333
 43
0.0
 43
0.0
 43
0.0
 43
0.0
 43
1.0
 43
0.0
 43
0.0
 43
0.0
 43
0.0
 43
1.0
 77
     0
 47
0.0208333333333333
 47
0.0
 47
0.0
 47
0.0
 47
0.0
 47
0.0208333333333333
 47
0.0
 47
0.0
 47
0.0
 47
0.0
 47
1.0
 47
0.0
 47
0.0
 47
0.0
 47
0.0
 47
1.0
171
     0
 49
0.0208333333333333
 49
0.0
 49
0.0
 49
0.0
 49
0.0
 49
0.0208333333333333
 49
0.0
 49
0.0
 49
0.0
 49
0.0
 49
1.0
 49
0.0
 49
0.0
 49
0.0
 49
0.0
 49
1.0
175
     0
142
0.0208333333333333
142
0.0
142
0.0
142
0.0
142
0.0
142
0.0208333333333333
142
0.0
142
0.0
142
0.0
142
0.0
142
1.0
142
0.0
142
0.0
142
0.0
142
0.0
142
1.0
179
     0
144
0.0208333333333333
144
0.0
144
0.0
144
0.0
144
0.0
144
0.0208333333333333
144
0.0
144
0.0
144
0.0
144
0.0
144
1.0
144
0.0
144
0.0
144
0.0
144
0.0
144
1.0
147
0.0208333333333333
147
0.0
147
0.0
147
0.0
147
0.0
147
0.0208333333333333
147
0.0
147
0.0
147
0.0
147
0.0
147
1.0
147
0.0
147
0.0
147
0.0
147
0.0
147
1.0
  0
MLEADERSTYLE
  5
67
102
{ACAD_REACTORS
330
66
102
}
330
66
100
AcDbMLeaderStyle
179
     2
170
     2
171
     1
172
     0
 90
        2
 40
0.0
 41
0.0
173
     1
 91
-1056964608
340
5B
 92
       -2
290
     1
 42
0.09
291
     1
 43
0.36
  3
Standard
 44
0.18
300

342
55
174
     1
178
     6
175
     1
176
     0
 93
-1056964608
 45
0.18
292
     0
297
     0
 46
0.18
 94
-1056964608
 47
1.0
 49
1.0
140
1.0
293
     1
141
0.0
294
     1
177
     0
142
1.0
295
     1
296
     0
143
0.125
271
     0
272
     9
273
     9
298
     1
  0
MLINESTYLE
  5
60
102
{ACAD_REACTORS
330
5F
102
}
330
5F
100
AcDbMlineStyle
  2
STANDARD
 70
     0
  3

 62
   256
 51
90.0
 52
90.0
 71
     2
 49
0.5
 62
   256
  6
BYLAYER
 49
-0.5
 62
   256
  6
BYLAYER
  0
ACDBPLACEHOLDER
  5
F
102
{ACAD_REACTORS
330
E
102
}
330
E
  0
SCALE
  5
43
102
{ACAD_REACTORS
330
42
102
}
330
42
100
AcDbScale
 70
     0
300
1:1
140
1.0
141
1.0
290
     1
  0
SCALE
  5
44
102
{ACAD_REACTORS
330
42
102
}
330
42
100
AcDbScale
 70
     0
300
1/128" = 1'-0"
140
0.0078125
141
12.0
290
     0
  0
SCALE
  5
45
102
{ACAD_REACTORS
330
42
102
}
330
42
100
AcDbScale
 70
     0
300
1/64" = 1'-0"
140
0.015625
141
12.0
290
     0
  0
SCALE
  5
46
102
{ACAD_REACTORS
330
42
102
}
330
42
100
AcDbScale
 70
     0
300
1/32" = 1'-0"
140
0.03125
141
12.0
290
     0
  0
SCALE
  5
47
102
{ACAD_REACTORS
330
42
102
}
330
42
100
AcDbScale
 70
     0
300
1/16" = 1'-0"
140
0.0625
141
12.0
290
     0
  0
SCALE
  5
48
102
{ACAD_REACTORS
330
42
102
}
330
42
100
AcDbScale
 70
     0
300
3/32" = 1'-0"
140
0.09375
141
12.0
290
     0
  0
SCALE
  5
49
102
{ACAD_REACTORS
330
42
102
}
330
42
100
AcDbScale
 70
     0
300
1/8" = 1'-0"
140
0.125
141
12.0
290
     0
  0
SCALE
  5
4A
102
{ACAD_REACTORS
330
42
102
}
330
42
100
AcDbScale
 70
     0
300
3/16" = 1'-0"
140
0.1875
141
12.0
290
     0
  0
SCALE
  5
4B
102
{ACAD_REACTORS
330
42
102
}
330
42
100
AcDbScale
 70
     0
300
1/4" = 1'-0"
140
0.25
141
12.0
290
     0
  0
SCALE
  5
4C
102
{ACAD_REACTORS
330
42
102
}
330
42
100
AcDbScale
 70
     0
300
3/8" = 1'-0"
140
0.375
141
12.0
290
     0
  0
SCALE
  5
4D
102
{ACAD_REACTORS
330
42
102
}
330
42
100
AcDbScale
 70
     0
300
1/2" = 1'-0"
140
0.5
141
12.0
290
     0
  0
SCALE
  5
4E
102
{ACAD_REACTORS
330
42
102
}
330
42
100
AcDbScale
 70
     0
300
3/4" = 1'-0"
140
0.75
141
12.0
290
     0
  0
SCALE
  5
4F
102
{ACAD_REACTORS
330
42
102
}
330
42
100
AcDbScale
 70
     0
300
1" = 1'-0"
140
1.0
141
12.0
290
     0
  0
SCALE
  5
50
102
{ACAD_REACTORS
330
42
102
}
330
42
100
AcDbScale
 70
     0
300
1-1/2" = 1'-0"
140
1.5
141
12.0
290
     0
  0
SCALE
  5
51
102
{ACAD_REACTORS
330
42
102
}
330
42
100
AcDbScale
 70
     0
300
3" = 1'-0"
140
3.0
141
12.0
290
     0
  0
SCALE
  5
52
102
{ACAD_REACTORS
330
42
102
}
330
42
100
AcDbScale
 70
     0
300
6" = 1'-0"
140
6.0
141
12.0
290
     0
  0
SCALE
  5
53
102
{ACAD_REACTORS
330
42
102
}
330
42
100
AcDbScale
 70
     0
300
1'-0" = 1'-0"
140
12.0
141
12.0
290
     0
  0
ACDBSECTIONVIEWSTYLE
  5
69
102
{ACAD_REACTORS
330
68
102
}
330
68
100
AcDbModelDocViewStyle
 70
     0
  3
Imperial24
290
     1
300
Imperial24
 90
        0
100
AcDbSectionViewStyle
 70
     0
 71
     0
 90
       78
 71
     1
340
55
 62
   256
 40
0.24
340
0
340
0
 62
   256
 40
0.24
300
I, O, Q, S, X, Z
 40
0.48
 90
        3
 40
0.18
 90
        1
 71
     2
340
5D
 90
       25
 62
   256
340
5D
 90
       50
 62
   256
 40
0.24
 40
0.0
 40
0.24
 71
     3
340
55
 62
   256
 40
0.24
 90
        1
 40
0.75
 90
        1
300
%<\AcVar ViewType \f "%tc1">% %<\AcVar ViewSectionStartId>%-%<\AcVar ViewSectionEndId>%\PSCALE %<\AcVar ViewScale \f "%sn">%
 71
     4
 62
   256
 62
   257
300
ANSI31
 40
1.0
 90
        0
290
     0
290
     0
 90
        6
 40
0.0
 40
1.570796326794896
 40
0.2617993877991494
 40
1.308996938995747
 40
-0.2617993877991494
 40
1.832595714594046
  0
TABLESTYLE
  5
65
102
{ACAD_XDICTIONARY
360
13F
102
}
102
{ACAD_REACTORS
330
64
102
}
330
64
100
AcDbTableStyle
280
     0
  3
Standard
 70
     0
 71
     0
 40
0.06
 41
0.06
280
     0
281
     0
  7
Standard
140
0.18
170
     2
 62
     0
 63
     7
283
     0
 90
      512
 91
        0
  1

274
    -2
284
     1
 64
     0
275
    -2
285
     1
 65
     0
276
    -2
286
     1
 66
     0
277
    -2
287
     1
 67
     0
278
    -2
288
     1
 68
     0
279
    -2
289
     1
 69
     0
  7
Standard
140
0.25
170
     5
 62
     0
 63
     7
283
     0
 90
      512
 91
        0
  1

274
    -2
284
     1
 64
     0
275
    -2
285
     1
 65
     0
276
    -2
286
     1
 66
     0
277
    -2
287
     1
 67
     0
278
    -2
288
     1
 68
     0
279
    -2
289
     1
 69
     0
  7
Standard
140
0.18
170
     5
 62
     0
 63
     7
283
     0
 90
      512
 91
        0
  1

274
    -2
284
     1
 64
     0
275
    -2
285
     1
 65
     0
276
    -2
286
     1
 66
     0
277
    -2
287
     1
 67
     0
278
    -2
288
     1
 68
     0
279
    -2
289
     1
 69
     0
  0
VISUALSTYLE
  5
2F
102
{ACAD_REACTORS
330
29
102
}
330
29
100
AcDbVisualStyle
  2
2dWireframe
 70
     4
177
     3
291
     0
 70
    58
 90
        0
176
     1
 90
        2
176
     1
 90
        0
176
     1
 90
        0
176
     1
 40
0.6
176
     1
 40
30.0
176
     1
 62
     7
420
 16777215
176
     1
 90
        1
176
     1
 90
        4
176
     1
 62
     7
176
     1
 62
   257
176
     1
 90
        1
176
     1
 90
        1
176
     1
 40
1.0
176
     1
 90
        0
176
     1
 62
   257
176
     1
 40
1.0
176
     1
 90
        1
176
     1
 90
        6
176
     1
 90
        2
176
     1
 62
     7
176
     1
 90
        5
176
     1
 90
        0
176
     1
 90
        0
176
     1
290
     0
176
     1
 90
        1
176
     1
 40
0.0
176
     1
 90
        0
176
     1
290
     1
176
     1
290
     1
176
     1
290
     0
176
     1
290
     0
176
     1
290
     0
176
     1
290
     0
176
     1
290
     0
176
     1
290
     0
176
     1
290
     0
176
     1
 90
       50
176
     1
 40
0.0
176
     1
 40
1.0
176
     1
 90
        0
176
     1
 62
    18
420
        0
176
     1
 90
       50
176
     1
 90
        3
176
     1
 62
     5
420
      255
176
     1
290
     0
176
     1
 90
       50
176
     1
 90
       50
176
     1
 90
       50
176
     1
290
     0
176
     1
 90
       50
176
     1
 62
   256
176
     0
 40
1.0
176
     0
 90
        2
176
     1
  1
strokes_ogs.tif
176
     1
290
     0
176
     1
 40
1.0
176
     1
 40
1.0
176
     1
  0
VISUALSTYLE
  5
2E
102
{ACAD_REACTORS
330
29
102
}
330
29
100
AcDbVisualStyle
  2
Basic
 70
     7
177
     3
291
     1
 70
    58
 90
        1
176
     1
 90
        0
176
     1
 90
        1
176
     1
 90
        0
176
     1
 40
0.6
176
     1
 40
30.0
176
     1
 62
     7
420
 16777215
176
     1
 90
        0
176
     1
 90
        4
176
     1
 62
     7
176
     1
 62
   257
176
     1
 90
        1
176
     1
 90
        1
176
     1
 40
1.0
176
     1
 90
        8
176
     1
 62
     7
176
     1
 40
1.0
176
     1
 90
        1
176
     1
 90
        6
176
     1
 90
        2
176
     1
 62
     7
176
     1
 90
        5
176
     1
 90
        0
176
     1
 90
        0
176
     1
290
     0
176
     1
 90
        1
176
     1
 40
0.0
176
     1
 90
        0
176
     1
290
     0
176
     1
290
     1
176
     1
290
     1
176
     1
290
     0
176
     1
290
     0
176
     1
290
     0
176
     1
290
     0
176
     1
290
     0
176
     1
290
     0
176
     1
 90
       50
176
     1
 40
0.0
176
     1
 40
1.0
176
     1
 90
        0
176
     1
 62
    18
420
        0
176
     1
 90
       50
176
     1
 90
        3
176
     1
 62
     5
420
      255
176
     1
290
     0
176
     1
 90
       50
176
     1
 90
       50
176
     1
 90
       50
176
     1
290
     0
176
     1
 90
       50
176
     1
 62
   256
176
     0
 40
1.0
176
     0
 90
        2
176
     1
  1
strokes_ogs.tif
176
     1
290
     0
176
     1
 40
1.0
176
     1
 40
1.0
176
     1
  0
VISUALSTYLE
  5
35
102
{ACAD_REACTORS
330
29
102
}
330
29
100
AcDbVisualStyle
  2
Brighten
 70
    12
177
     3
291
     1
 70
    58
 90
        2
176
     1
 90
        2
176
     1
 90
        0
176
     1
 90
        0
176
     1
 40
0.6
176
     1
 40
30.0
176
     1
 62
     7
420
 16777215
176
     1
 90
        1
176
     1
 90
        4
176
     1
 62
     7
176
     1
 62
   257
176
     1
 90
        1
176
     1
 90
        1
176
     1
 40
1.0
176
     1
 90
        8
176
     1
 62
     7
176
     1
 40
1.0
176
     1
 90
        1
176
     1
 90
        6
176
     1
 90
        2
176
     1
 62
     7
176
     1
 90
        5
176
     1
 90
        0
176
     1
 90
        0
176
     1
290
     0
176
     1
 90
        1
176
     1
 40
50.0
176
     1
 90
        0
176
     1
290
     0
176
     1
290
     1
176
     1
290
     1
176
     1
290
     0
176
     1
290
     0
176
     1
290
     0
176
     1
290
     0
176
     1
290
     0
176
     1
290
     0
176
     1
 90
       50
176
     1
 40
0.0
176
     1
 40
1.0
176
     1
 90
        0
176
     1
 62
    18
420
        0
176
     1
 90
       50
176
     1
 90
        3
176
     1
 62
     5
420
      255
176
     1
290
     0
176
     1
 90
       50
176
     1
 90
       50
176
     1
 90
       50
176
     1
290
     0
176
     1
 90
       50
176
     1
 62
   256
176
     0
 40
1.0
176
     0
 90
        2
176
     1
  1
strokes_ogs.tif
176
     1
290
     0
176
     1
 40
1.0
176
     1
 40
1.0
176
     1
  0
VISUALSTYLE
  5
39
102
{ACAD_REACTORS
330
29
102
}
330
29
100
AcDbVisualStyle
  2
ColorChange
 70
    16
177
     3
291
     1
 70
    58
 90
        2
176
     1
 90
        2
176
     1
 90
        3
176
     1
 90
        0
176
     1
 40
0.6
176
     1
 40
30.0
176
     1
 62
     8
420
  8421504
176
     1
 90
        1
176
     1
 90
        4
176
     1
 62
     7
176
     1
 62
   257
176
     1
 90
        1
176
     1
 90
        1
176
     1
 40
1.0
176
     1
 90
        8
176
     1
 62
     8
420
  8421504
176
     1
 40
1.0
176
     1
 90
        1
176
     1
 90
        6
176
     1
 90
        2
176
     1
 62
     7
176
     1
 90
        5
176
     1
 90
        0
176
     1
 90
        0
176
     1
290
     0
176
     1
 90
        1
176
     1
 40
0.0
176
     1
 90
        0
176
     1
290
     0
176
     1
290
     1
176
     1
290
     1
176
     1
290
     0
176
     1
290
     0
176
     1
290
     0
176
     1
290
     0
176
     1
290
     0
176
     1
290
     0
176
     1
 90
       50
176
     1
 40
0.0
176
     1
 40
1.0
176
     1
 90
        0
176
     1
 62
    18
420
        0
176
     1
 90
       50
176
     1
 90
        3
176
     1
 62
     5
420
      255
176
     1
290
     0
176
     1
 90
       50
176
     1
 90
       50
176
     1
 90
       50
176
     1
290
     0
176
     1
 90
       50
176
     1
 62
   256
176
     0
 40
1.0
176
     0
 90
        2
176
     1
  1
strokes_ogs.tif
176
     1
290
     0
176
     1
 40
1.0
176
     1
 40
1.0
176
     1
  0
VISUALSTYLE
  5
32
102
{ACAD_REACTORS
330
29
102
}
330
29
100
AcDbVisualStyle
  2
Conceptual
 70
     9
177
     3
291
     0
 70
    58
 90
        3
176
     1
 90
        2
176
     1
 90
        0
176
     1
 90
        0
176
     1
 40
0.6
176
     1
 40
30.0
176
     1
 62
     7
420
 16777215
176
     1
 90
        2
176
     1
 90
        2
176
     1
 62
     7
176
     1
 62
   257
176
     1
 90
        1
176
     1
 90
        1
176
     1
 40
179.0
176
     1
 90
        8
176
     1
 62
     7
176
     1
 40
1.0
176
     1
 90
        1
176
     1
 90
        6
176
     1
 90
        2
176
     1
 62
     7
176
     1
 90
        3
176
     1
 90
        0
176
     1
 90
        0
176
     1
290
     0
176
     1
 90
        1
176
     1
 40
0.0
176
     1
 90
        0
176
     1
290
     0
176
     1
290
     1
176
     1
290
     1
176
     1
290
     0
176
     1
290
     0
176
     1
290
     0
176
     1
290
     0
176
     1
290
     0
176
     1
290
     0
176
     1
 90
       50
176
     1
 40
0.0
176
     1
 40
1.0
176
     1
 90
        0
176
     1
 62
    18
420
        0
176
     1
 90
       50
176
     1
 90
        3
176
     1
 62
     5
420
      255
176
     1
290
     0
176
     1
 90
       50
176
     1
 90
       50
176
     1
 90
       50
176
     1
290
     0
176
     1
 90
       50
176
     1
 62
   256
176
     0
 40
1.0
176
     0
 90
        2
176
     1
  1
strokes_ogs.tif
176
     1
290
     0
176
     1
 40
1.0
176
     1
 40
1.0
176
     1
  0
VISUALSTYLE
  5
34
102
{ACAD_REACTORS
330
29
102
}
330
29
100
AcDbVisualStyle
  2
Dim
 70
    11
177
     3
291
     1
 70
    58
 90
        2
176
     1
 90
        2
176
     1
 90
        0
176
     1
 90
        0
176
     1
 40
0.6
176
     1
 40
30.0
176
     1
 62
     7
420
 16777215
176
     1
 90
        1
176
     1
 90
        4
176
     1
 62
     7
176
     1
 62
   257
176
     1
 90
        1
176
     1
 90
        1
176
     1
 40
1.0
176
     1
 90
        8
176
     1
 62
     7
176
     1
 40
1.0
176
     1
 90
        1
176
     1
 90
        6
176
     1
 90
        2
176
     1
 62
     7
176
     1
 90
        5
176
     1
 90
        0
176
     1
 90
        0
176
     1
290
     0
176
     1
 90
        1
176
     1
 40
-50.0
176
     1
 90
        0
176
     1
290
     0
176
     1
290
     1
176
     1
290
     1
176
     1
290
     0
176
     1
290
     0
176
     1
290
     0
176
     1
290
     0
176
     1
290
     0
176
     1
290
     0
176
     1
 90
       50
176
     1
 40
0.0
176
     1
 40
1.0
176
     1
 90
        0
176
     1
 62
    18
420
        0
176
     1
 90
       50
176
     1
 90
        3
176
     1
 62
     5
420
      255
176
     1
290
     0
176
     1
 90
       50
176
     1
 90
       50
176
     1
 90
       50
176
     1
290
     0
176
     1
 90
       50
176
     1
 62
   256
176
     0
 40
1.0
176
     0
 90
        2
176
     1
  1
strokes_ogs.tif
176
     1
290
     0
176
     1
 40
1.0
176
     1
 40
1.0
176
     1
  0
VISUALSTYLE
  5
41
102
{ACAD_REACTORS
330
29
102
}
330
29
100
AcDbVisualStyle
  2
EdgeColorOff
 70
    22
177
     3
291
     1
 70
    58
 90
        2
176
     0
 90
        2
176
     0
 90
        0
176
     0
 90
        0
176
     0
 40
0.6
176
     0
 40
30.0
176
     0
 62
     7
420
 16777215
176
     0
 90
        1
176
     0
 90
        4
176
     0
 62
     7
176
     0
 62
   257
176
     0
 90
        1
176
     0
 90
        1
176
     0
 40
1.0
176
     0
 90
        8
176
     2
 62
     7
176
     0
 40
1.0
176
     0
 90
        1
176
     0
 90
        6
176
     0
 90
        2
176
     0
 62
     7
176
     0
 90
        5
176
     0
 90
        0
176
     0
 90
        0
176
     0
290
     0
176
     0
 90
        1
176
     0
 40
0.0
176
     0
 90
        0
176
     0
290
     0
176
     0
290
     1
176
     0
290
     1
176
     0
290
     0
176
     0
290
     0
176
     0
290
     0
176
     0
290
     0
176
     0
290
     0
176
     0
290
     0
176
     0
 90
       50
176
     0
 40
0.0
176
     0
 40
1.0
176
     0
 90
        0
176
     0
 62
    18
420
        0
176
     0
 90
       50
176
     0
 90
        3
176
     0
 62
     5
420
      255
176
     0
290
     0
176
     0
 90
       50
176
     0
 90
       50
176
     0
 90
       50
176
     0
290
     0
176
     0
 90
       50
176
     0
 62
   256
176
     0
 40
1.0
176
     0
 90
        2
176
     0
  1
strokes_ogs.tif
176
     0
290
     0
176
     0
 40
1.0
176
     0
 40
1.0
176
     0
  0
VISUALSTYLE
  5
38
102
{ACAD_REACTORS
330
29
102
}
330
29
100
AcDbVisualStyle
  2
Facepattern
 70
    15
177
     3
291
     1
 70
    58
 90
        2
176
     1
 90
        2
176
     1
 90
        0
176
     1
 90
        0
176
     1
 40
0.6
176
     1
 40
30.0
176
     1
 62
     7
420
 16777215
176
     1
 90
        1
176
     1
 90
        4
176
     1
 62
     7
176
     1
 62
   257
176
     1
 90
        1
176
     1
 90
        1
176
     1
 40
1.0
176
     1
 90
        8
176
     1
 62
     7
176
     1
 40
1.0
176
     1
 90
        1
176
     1
 90
        6
176
     1
 90
        2
176
     1
 62
     7
176
     1
 90
        5
176
     1
 90
        0
176
     1
 90
        0
176
     1
290
     0
176
     1
 90
        1
176
     1
 40
0.0
176
     1
 90
        0
176
     1
290
     0
176
     1
290
     1
176
     1
290
     1
176
     1
290
     0
176
     1
290
     0
176
     1
290
     0
176
     1
290
     0
176
     1
290
     0
176
     1
290
     0
176
     1
 90
       50
176
     1
 40
0.0
176
     1
 40
1.0
176
     1
 90
        0
176
     1
 62
    18
420
        0
176
     1
 90
       50
176
     1
 90
        3
176
     1
 62
     5
420
      255
176
     1
290
     0
176
     1
 90
       50
176
     1
 90
       50
176
     1
 90
       50
176
     1
290
     0
176
     1
 90
       50
176
     1
 62
   256
176
     0
 40
1.0
176
     0
 90
        2
176
     1
  1
strokes_ogs.tif
176
     1
290
     0
176
     1
 40
1.0
176
     1
 40
1.0
176
     1
  0
VISUALSTYLE
  5
2A
102
{ACAD_REACTORS
330
29
102
}
330
29
100
AcDbVisualStyle
  2
Flat
 70
     0
177
     3
291
     1
 70
    58
 90
        2
176
     1
 90
        1
176
     1
 90
        1
176
     1
 90
        2
176
     1
 40
0.6
176
     1
 40
30.0
176
     1
 62
     7
420
 16777215
176
     1
 90
        0
176
     1
 90
        0
176
     1
 62
     7
176
     1
 62
   257
176
     1
 90
        1
176
     1
 90
        1
176
     1
 40
1.0
176
     1
 90
        8
176
     1
 62
     7
176
     1
 40
1.0
176
     1
 90
        1
176
     1
 90
        6
176
     1
 90
        2
176
     1
 62
     7
176
     1
 90
        5
176
     1
 90
        0
176
     1
 90
        0
176
     1
290
     0
176
     1
 90
       13
176
     1
 40
0.0
176
     1
 90
        0
176
     1
290
     0
176
     1
290
     1
176
     1
290
     1
176
     1
290
     0
176
     1
290
     0
176
     1
290
     0
176
     1
290
     0
176
     1
290
     0
176
     1
290
     0
176
     1
 90
       50
176
     1
 40
0.0
176
     1
 40
1.0
176
     1
 90
        0
176
     1
 62
    18
420
        0
176
     1
 90
       50
176
     1
 90
        3
176
     1
 62
     5
420
      255
176
     1
290
     0
176
     1
 90
       50
176
     1
 90
       50
176
     1
 90
       50
176
     1
290
     0
176
     1
 90
       50
176
     1
 62
   256
176
     0
 40
1.0
176
     0
 90
        2
176
     1
  1
strokes_ogs.tif
176
     1
290
     0
176
     1
 40
1.0
176
     1
 40
1.0
176
     1
  0
VISUALSTYLE
  5
2B
102
{ACAD_REACTORS
330
29
102
}
330
29
100
AcDbVisualStyle
  2
FlatWithEdges
 70
     1
177
     3
291
     1
 70
    58
 90
        2
176
     1
 90
        1
176
     1
 90
        1
176
     1
 90
        2
176
     1
 40
0.6
176
     1
 40
30.0
176
     1
 62
     7
420
 16777215
176
     1
 90
        1
176
     1
 90
        0
176
     1
 62
     7
176
     1
 62
   257
176
     1
 90
        1
176
     1
 90
        1
176
     1
 40
1.0
176
     1
 90
        0
176
     1
 62
   257
176
     1
 40
1.0
176
     1
 90
        1
176
     1
 90
        6
176
     1
 90
        2
176
     1
 62
     7
176
     1
 90
        5
176
     1
 90
        0
176
     1
 90
        0
176
     1
290
     0
176
     1
 90
       13
176
     1
 40
0.0
176
     1
 90
        0
176
     1
290
     0
176
     1
290
     1
176
     1
290
     1
176
     1
290
     0
176
     1
290
     0
176
     1
290
     0
176
     1
290
     0
176
     1
290
     0
176
     1
290
     0
176
     1
 90
       50
176
     1
 40
0.0
176
     1
 40
1.0
176
     1
 90
        0
176
     1
 62
    18
420
        0
176
     1
 90
       50
176
     1
 90
        3
176
     1
 62
     5
420
      255
176
     1
290
     0
176
     1
 90
       50
176
     1
 90
       50
176
     1
 90
       50
176
     1
290
     0
176
     1
 90
       50
176
     1
 62
   256
176
     0
 40
1.0
176
     0
 90
        2
176
     1
  1
strokes_ogs.tif
176
     1
290
     0
176
     1
 40
1.0
176
     1
 40
1.0
176
     1
  0
VISUALSTYLE
  5
2C
102
{ACAD_REACTORS
330
29
102
}
330
29
100
AcDbVisualStyle
  2
Gouraud
 70
     2
177
     3
291
     1
 70
    58
 90
        2
176
     1
 90
        2
176
     1
 90
        1
176
     1
 90
        2
176
     1
 40
0.6
176
     1
 40
30.0
176
     1
 62
     7
420
 16777215
176
     1
 90
        0
176
     1
 90
        0
176
     1
 62
     7
176
     1
 62
   257
176
     1
 90
        1
176
     1
 90
        1
176
     1
 40
1.0
176
     1
 90
        0
176
     1
 62
     7
176
     1
 40
1.0
176
     1
 90
        1
176
     1
 90
        6
176
     1
 90
        2
176
     1
 62
     7
176
     1
 90
        5
176
     1
 90
        0
176
     1
 90
        0
176
     1
290
     0
176
     1
 90
       13
176
     1
 40
0.0
176
     1
 90
        0
176
     1
290
     0
176
     1
290
     1
176
     1
290
     1
176
     1
290
     0
176
     1
290
     0
176
     1
290
     0
176
     1
290
     0
176
     1
290
     0
176
     1
290
     0
176
     1
 90
       50
176
     1
 40
0.0
176
     1
 40
1.0
176
     1
 90
        0
176
     1
 62
    18
420
        0
176
     1
 90
       50
176
     1
 90
        3
176
     1
 62
     5
420
      255
176
     1
290
     0
176
     1
 90
       50
176
     1
 90
       50
176
     1
 90
       50
176
     1
290
     0
176
     1
 90
       50
176
     1
 62
   256
176
     0
 40
1.0
176
     0
 90
        2
176
     1
  1
strokes_ogs.tif
176
     1
290
     0
176
     1
 40
1.0
176
     1
 40
1.0
176
     1
  0
VISUALSTYLE
  5
2D
102
{ACAD_REACTORS
330
29
102
}
330
29
100
AcDbVisualStyle
  2
GouraudWithEdges
 70
     3
177
     3
291
     1
 70
    58
 90
        2
176
     1
 90
        2
176
     1
 90
        1
176
     1
 90
        2
176
     1
 40
0.6
176
     1
 40
30.0
176
     1
 62
     7
420
 16777215
176
     1
 90
        1
176
     1
 90
        0
176
     1
 62
     7
176
     1
 62
   257
176
     1
 90
        1
176
     1
 90
        1
176
     1
 40
1.0
176
     1
 90
        0
176
     1
 62
   257
176
     1
 40
1.0
176
     1
 90
        1
176
     1
 90
        6
176
     1
 90
        2
176
     1
 62
     7
176
     1
 90
        5
176
     1
 90
        0
176
     1
 90
        0
176
     1
290
     0
176
     1
 90
       13
176
     1
 40
0.0
176
     1
 90
        0
176
     1
290
     0
176
     1
290
     1
176
     1
290
     1
176
     1
290
     0
176
     1
290
     0
176
     1
290
     0
176
     1
290
     0
176
     1
290
     0
176
     1
290
     0
176
     1
 90
       50
176
     1
 40
0.0
176
     1
 40
1.0
176
     1
 90
        0
176
     1
 62
    18
420
        0
176
     1
 90
       50
176
     1
 90
        3
176
     1
 62
     5
420
      255
176
     1
290
     0
176
     1
 90
       50
176
     1
 90
       50
176
     1
 90
       50
176
     1
290
     0
176
     1
 90
       50
176
     1
 62
   256
176
     0
 40
1.0
176
     0
 90
        2
176
     1
  1
strokes_ogs.tif
176
     1
290
     0
176
     1
 40
1.0
176
     1
 40
1.0
176
     1
  0
VISUALSTYLE
  5
31
102
{ACAD_REACTORS
330
29
102
}
330
29
100
AcDbVisualStyle
  2
Hidden
 70
     6
177
     3
291
     0
 70
    58
 90
        1
176
     1
 90
        2
176
     1
 90
        2
176
     1
 90
        0
176
     1
 40
0.6
176
     1
 40
30.0
176
     1
 62
     7
420
 16777215
176
     1
 90
        2
176
     1
 90
        2
176
     1
 62
     7
176
     1
 62
   257
176
     1
 90
        2
176
     1
 90
        1
176
     1
 40
40.0
176
     1
 90
        0
176
     1
 62
   257
176
     1
 40
1.0
176
     1
 90
        1
176
     1
 90
        6
176
     1
 90
        2
176
     1
 62
     7
176
     1
 90
        3
176
     1
 90
        0
176
     1
 90
        0
176
     1
290
     0
176
     1
 90
        1
176
     1
 40
0.0
176
     1
 90
        0
176
     1
290
     0
176
     1
290
     1
176
     1
290
     1
176
     1
290
     0
176
     1
290
     0
176
     1
290
     0
176
     1
290
     0
176
     1
290
     0
176
     1
290
     0
176
     1
 90
       50
176
     1
 40
0.0
176
     1
 40
1.0
176
     1
 90
        0
176
     1
 62
    18
420
        0
176
     1
 90
       50
176
     1
 90
        3
176
     1
 62
     5
420
      255
176
     1
290
     0
176
     1
 90
       50
176
     1
 90
       50
176
     1
 90
       50
176
     1
290
     0
176
     1
 90
       50
176
     1
 62
   256
176
     0
 40
1.0
176
     0
 90
        2
176
     1
  1
strokes_ogs.tif
176
     1
290
     0
176
     1
 40
1.0
176
     1
 40
1.0
176
     1
  0
VISUALSTYLE
  5
3F
102
{ACAD_REACTORS
330
29
102
}
330
29
100
AcDbVisualStyle
  2
JitterOff
 70
    20
177
     3
291
     1
 70
    58
 90
        2
176
     0
 90
        2
176
     0
 90
        0
176
     0
 90
        0
176
     0
 40
0.6
176
     0
 40
30.0
176
     0
 62
     7
420
 16777215
176
     0
 90
        1
176
     0
 90
        4
176
     0
 62
     7
176
     0
 62
   257
176
     0
 90
        1
176
     0
 90
        1
176
     0
 40
1.0
176
     0
 90
       10
176
     2
 62
     7
176
     0
 40
1.0
176
     0
 90
        1
176
     0
 90
        6
176
     0
 90
        2
176
     0
 62
     7
176
     0
 90
        5
176
     0
 90
        0
176
     0
 90
        0
176
     0
290
     0
176
     0
 90
        1
176
     0
 40
0.0
176
     0
 90
        0
176
     0
290
     0
176
     0
290
     1
176
     0
290
     1
176
     0
290
     0
176
     0
290
     0
176
     0
290
     0
176
     0
290
     0
176
     0
290
     0
176
     0
290
     0
176
     0
 90
       50
176
     0
 40
0.0
176
     0
 40
1.0
176
     0
 90
        0
176
     0
 62
    18
420
        0
176
     0
 90
       50
176
     0
 90
        3
176
     0
 62
     5
420
      255
176
     0
290
     0
176
     0
 90
       50
176
     0
 90
       50
176
     0
 90
       50
176
     0
290
     0
176
     0
 90
       50
176
     0
 62
   256
176
     0
 40
1.0
176
     0
 90
        2
176
     0
  1
strokes_ogs.tif
176
     0
290
     0
176
     0
 40
1.0
176
     0
 40
1.0
176
     0
  0
VISUALSTYLE
  5
37
102
{ACAD_REACTORS
330
29
102
}
330
29
100
AcDbVisualStyle
  2
Linepattern
 70
    14
177
     3
291
     1
 70
    58
 90
        2
176
     1
 90
        2
176
     1
 90
        0
176
     1
 90
        0
176
     1
 40
0.6
176
     1
 40
30.0
176
     1
 62
     7
420
 16777215
176
     1
 90
        1
176
     1
 90
        4
176
     1
 62
     7
176
     1
 62
   257
176
     1
 90
        7
176
     1
 90
        7
176
     1
 40
1.0
176
     1
 90
        8
176
     1
 62
     7
176
     1
 40
1.0
176
     1
 90
        1
176
     1
 90
        6
176
     1
 90
        2
176
     1
 62
     7
176
     1
 90
        5
176
     1
 90
        0
176
     1
 90
        0
176
     1
290
     0
176
     1
 90
        1
176
     1
 40
0.0
176
     1
 90
        0
176
     1
290
     0
176
     1
290
     1
176
     1
290
     1
176
     1
290
     0
176
     1
290
     0
176
     1
290
     0
176
     1
290
     0
176
     1
290
     0
176
     1
290
     0
176
     1
 90
       50
176
     1
 40
0.0
176
     1
 40
1.0
176
     1
 90
        0
176
     1
 62
    18
420
        0
176
     1
 90
       50
176
     1
 90
        3
176
     1
 62
     5
420
      255
176
     1
290
     0
176
     1
 90
       50
176
     1
 90
       50
176
     1
 90
       50
176
     1
290
     0
176
     1
 90
       50
176
     1
 62
   256
176
     0
 40
1.0
176
     0
 90
        2
176
     1
  1
strokes_ogs.tif
176
     1
290
     0
176
     1
 40
1.0
176
     1
 40
1.0
176
     1
  0
VISUALSTYLE
  5
40
102
{ACAD_REACTORS
330
29
102
}
330
29
100
AcDbVisualStyle
  2
OverhangOff
 70
    21
177
     3
291
     1
 70
    58
 90
        2
176
     0
 90
        2
176
     0
 90
        0
176
     0
 90
        0
176
     0
 40
0.6
176
     0
 40
30.0
176
     0
 62
     7
420
 16777215
176
     0
 90
        1
176
     0
 90
        4
176
     0
 62
     7
176
     0
 62
   257
176
     0
 90
        1
176
     0
 90
        1
176
     0
 40
1.0
176
     0
 90
        9
176
     2
 62
     7
176
     0
 40
1.0
176
     0
 90
        1
176
     0
 90
        6
176
     0
 90
        2
176
     0
 62
     7
176
     0
 90
        5
176
     0
 90
        0
176
     0
 90
        0
176
     0
290
     0
176
     0
 90
        1
176
     0
 40
0.0
176
     0
 90
        0
176
     0
290
     0
176
     0
290
     1
176
     0
290
     1
176
     0
290
     0
176
     0
290
     0
176
     0
290
     0
176
     0
290
     0
176
     0
290
     0
176
     0
290
     0
176
     0
 90
       50
176
     0
 40
0.0
176
     0
 40
1.0
176
     0
 90
        0
176
     0
 62
    18
420
        0
176
     0
 90
       50
176
     0
 90
        3
176
     0
 62
     5
420
      255
176
     0
290
     0
176
     0
 90
       50
176
     0
 90
       50
176
     0
 90
       50
176
     0
290
     0
176
     0
 90
       50
176
     0
 62
   256
176
     0
 40
1.0
176
     0
 90
        2
176
     0
  1
strokes_ogs.tif
176
     0
290
     0
176
     0
 40
1.0
176
     0
 40
1.0
176
     0
  0
VISUALSTYLE
  5
33
102
{ACAD_REACTORS
330
29
102
}
330
29
100
AcDbVisualStyle
  2
Realistic
 70
     8
177
     3
291
     0
 70
    58
 90
        2
176
     1
 90
        3
176
     1
 90
        0
176
     1
 90
        2
176
     1
 40
0.6
176
     1
 40
30.0
176
     1
 62
     7
420
 16777215
176
     1
 90
        0
176
     1
 90
        0
176
     1
 62
     7
176
     1
 62
   257
176
     1
 90
        1
176
     1
 90
        1
176
     1
 40
1.0
176
     1
 90
        8
176
     1
 62
   257
176
     1
 40
1.0
176
     1
 90
        1
176
     1
 90
        6
176
     1
 90
        2
176
     1
 62
     7
176
     1
 90
        3
176
     1
 90
        0
176
     1
 90
        0
176
     1
290
     0
176
     1
 90
       13
176
     1
 40
0.0
176
     1
 90
        0
176
     1
290
     0
176
     1
290
     1
176
     1
290
     1
176
     1
290
     0
176
     1
290
     0
176
     1
290
     0
176
     1
290
     0
176
     1
290
     0
176
     1
290
     0
176
     1
 90
       50
176
     1
 40
0.0
176
     1
 40
1.0
176
     1
 90
        0
176
     1
 62
    18
420
        0
176
     1
 90
       50
176
     1
 90
        3
176
     1
 62
     5
420
      255
176
     1
290
     0
176
     1
 90
       50
176
     1
 90
       50
176
     1
 90
       50
176
     1
290
     0
176
     1
 90
       50
176
     1
 62
   256
176
     0
 40
1.0
176
     0
 90
        2
176
     1
  1
strokes_ogs.tif
176
     1
290
     0
176
     1
 40
1.0
176
     1
 40
1.0
176
     1
  0
VISUALSTYLE
  5
3E
102
{ACAD_REACTORS
330
29
102
}
330
29
100
AcDbVisualStyle
  2
Shaded
 70
    27
177
     3
291
     0
 70
    58
 90
        2
176
     1
 90
        2
176
     1
 90
        1
176
     1
 90
        2
176
     1
 40
0.6
176
     1
 40
30.0
176
     1
 62
     7
420
 16777215
176
     1
 90
        0
176
     1
 90
        4
176
     1
 62
     7
176
     1
 62
   257
176
     1
 90
        1
176
     1
 90
        1
176
     1
 40
1.0
176
     1
 90
        8
176
     1
 62
   257
176
     1
 40
1.0
176
     1
 90
        1
176
     1
 90
        6
176
     1
 90
        2
176
     1
 62
     8
420
  7895160
176
     1
 90
        3
176
     1
 90
        0
176
     1
 90
        0
176
     1
290
     0
176
     1
 90
        5
176
     1
 40
0.0
176
     1
 90
        0
176
     1
290
     0
176
     1
290
     1
176
     1
290
     1
176
     1
290
     0
176
     1
290
     0
176
     1
290
     0
176
     1
290
     0
176
     1
290
     0
176
     1
290
     0
176
     1
 90
       50
176
     1
 40
0.0
176
     1
 40
1.0
176
     1
 90
        0
176
     1
 62
    18
420
        0
176
     1
 90
       50
176
     1
 90
        3
176
     1
 62
     5
420
      255
176
     1
290
     0
176
     1
 90
       50
176
     1
 90
       50
176
     1
 90
       50
176
     1
290
     0
176
     1
 90
       50
176
     1
 62
   256
176
     0
 40
1.0
176
     0
 90
        2
176
     1
  1
strokes_ogs.tif
176
     1
290
     0
176
     1
 40
1.0
176
     1
 40
1.0
176
     1
  0
VISUALSTYLE
  5
3D
102
{ACAD_REACTORS
330
29
102
}
330
29
100
AcDbVisualStyle
  2
Shaded with edges
 70
    26
177
     3
291
     0
 70
    58
 90
        2
176
     1
 90
        2
176
     1
 90
        1
176
     1
 90
        2
176
     1
 40
0.6
176
     1
 40
30.0
176
     1
 62
     7
420
 16777215
176
     1
 90
        1
176
     1
 90
        2
176
     1
 62
     7
176
     1
 62
   257
176
     1
 90
        2
176
     1
 90
        1
176
     1
 40
1.0
176
     1
 90
        8
176
     1
 62
   257
176
     1
 40
1.0
176
     1
 90
        1
176
     1
 90
        6
176
     1
 90
        2
176
     1
 62
     7
176
     1
 90
        3
176
     1
 90
        0
176
     1
 90
        0
176
     1
290
     0
176
     1
 90
        5
176
     1
 40
0.0
176
     1
 90
        0
176
     1
290
     0
176
     1
290
     1
176
     1
290
     1
176
     1
290
     0
176
     1
290
     0
176
     1
290
     0
176
     1
290
     0
176
     1
290
     0
176
     1
290
     0
176
     1
 90
       50
176
     1
 40
0.0
176
     1
 40
1.0
176
     1
 90
        0
176
     1
 62
    18
420
        0
176
     1
 90
       50
176
     1
 90
        3
176
     1
 62
     5
420
      255
176
     1
290
     0
176
     1
 90
       50
176
     1
 90
       50
176
     1
 90
       50
176
     1
290
     0
176
     1
 90
       50
176
     1
 62
   256
176
     0
 40
1.0
176
     0
 90
        2
176
     1
  1
strokes_ogs.tif
176
     1
290
     0
176
     1
 40
1.0
176
     1
 40
1.0
176
     1
  0
VISUALSTYLE
  5
3A
102
{ACAD_REACTORS
330
29
102
}
330
29
100
AcDbVisualStyle
  2
Shades of Gray
 70
    23
177
     3
291
     0
 70
    58
 90
        2
176
     1
 90
        2
176
     1
 90
        3
176
     1
 90
        0
176
     1
 40
0.6
176
     1
 40
30.0
176
     1
 62
     7
420
 16777215
176
     1
 90
        2
176
     1
 90
        2
176
     1
 62
     7
176
     1
 62
     7
176
     1
 90
        1
176
     1
 90
        1
176
     1
 40
40.0
176
     1
 90
        8
176
     1
 62
     7
176
     1
 40
1.0
176
     1
 90
        1
176
     1
 90
        6
176
     1
 90
        2
176
     1
 62
     7
176
     1
 90
        3
176
     1
 90
        0
176
     1
 90
        0
176
     1
290
     0
176
     1
 90
        1
176
     1
 40
0.0
176
     1
 90
        0
176
     1
290
     0
176
     1
290
     1
176
     1
290
     1
176
     1
290
     0
176
     1
290
     0
176
     1
290
     0
176
     1
290
     0
176
     1
290
     0
176
     1
290
     0
176
     1
 90
       50
176
     1
 40
0.0
176
     1
 40
1.0
176
     1
 90
        0
176
     1
 62
    18
420
        0
176
     1
 90
       50
176
     1
 90
        3
176
     1
 62
     5
420
      255
176
     1
290
     0
176
     1
 90
       50
176
     1
 90
       50
176
     1
 90
       50
176
     1
290
     0
176
     1
 90
       50
176
     1
 62
   256
176
     0
 40
1.0
176
     0
 90
        2
176
     1
  1
strokes_ogs.tif
176
     1
290
     0
176
     1
 40
1.0
176
     1
 40
1.0
176
     1
  0
VISUALSTYLE
  5
3B
102
{ACAD_REACTORS
330
29
102
}
330
29
100
AcDbVisualStyle
  2
Sketchy
 70
    24
177
     3
291
     0
 70
    58
 90
        1
176
     1
 90
        2
176
     1
 90
        2
176
     1
 90
        0
176
     1
 40
0.6
176
     1
 40
30.0
176
     1
 62
     7
420
 16777215
176
     1
 90
        2
176
     1
 90
        2
176
     1
 62
     7
176
     1
 62
     7
176
     1
 90
        1
176
     1
 90
        1
176
     1
 40
40.0
176
     1
 90
       11
176
     1
 62
     7
176
     1
 40
1.0
176
     1
 90
        1
176
     1
 90
        6
176
     1
 90
        2
176
     1
 62
     7
176
     1
 90
        6
176
     1
 90
        0
176
     1
 90
        0
176
     1
290
     0
176
     1
 90
        1
176
     1
 40
0.0
176
     1
 90
        0
176
     1
290
     0
176
     1
290
     1
176
     1
290
     1
176
     1
290
     0
176
     1
290
     0
176
     1
290
     0
176
     1
290
     0
176
     1
290
     0
176
     1
290
     0
176
     1
 90
       50
176
     1
 40
0.0
176
     1
 40
1.0
176
     1
 90
        0
176
     1
 62
    18
420
        0
176
     1
 90
       50
176
     1
 90
        3
176
     1
 62
     5
420
      255
176
     1
290
     0
176
     1
 90
       50
176
     1
 90
       50
176
     1
 90
       50
176
     1
290
     0
176
     1
 90
       50
176
     1
 62
   256
176
     0
 40
1.0
176
     0
 90
        2
176
     1
  1
strokes_ogs.tif
176
     1
290
     0
176
     1
 40
1.0
176
     1
 40
1.0
176
     1
  0
VISUALSTYLE
  5
36
102
{ACAD_REACTORS
330
29
102
}
330
29
100
AcDbVisualStyle
  2
Thicken
 70
    13
177
     3
291
     1
 70
    58
 90
        2
176
     1
 90
        2
176
     1
 90
        0
176
     1
 90
        0
176
     1
 40
0.6
176
     1
 40
30.0
176
     1
 62
     7
420
 16777215
176
     1
 90
        1
176
     1
 90
        4
176
     1
 62
     7
176
     1
 62
   257
176
     1
 90
        1
176
     1
 90
        1
176
     1
 40
1.0
176
     1
 90
       12
176
     1
 62
     7
176
     1
 40
1.0
176
     1
 90
        1
176
     1
 90
        6
176
     1
 90
        2
176
     1
 62
     7
176
     1
 90
        5
176
     1
 90
        0
176
     1
 90
        0
176
     1
290
     0
176
     1
 90
        1
176
     1
 40
0.0
176
     1
 90
        0
176
     1
290
     0
176
     1
290
     1
176
     1
290
     1
176
     1
290
     0
176
     1
290
     0
176
     1
290
     0
176
     1
290
     0
176
     1
290
     0
176
     1
290
     0
176
     1
 90
       50
176
     1
 40
0.0
176
     1
 40
1.0
176
     1
 90
        0
176
     1
 62
    18
420
        0
176
     1
 90
       50
176
     1
 90
        3
176
     1
 62
     5
420
      255
176
     1
290
     0
176
     1
 90
       50
176
     1
 90
       50
176
     1
 90
       50
176
     1
290
     0
176
     1
 90
       50
176
     1
 62
   256
176
     0
 40
1.0
176
     0
 90
        2
176
     1
  1
strokes_ogs.tif
176
     1
290
     0
176
     1
 40
1.0
176
     1
 40
1.0
176
     1
  0
VISUALSTYLE
  5
30
102
{ACAD_REACTORS
330
29
102
}
330
29
100
AcDbVisualStyle
  2
Wireframe
 70
     5
177
     3
291
     0
 70
    58
 90
        0
176
     1
 90
        2
176
     1
 90
        0
176
     1
 90
        0
176
     1
 40
0.6
176
     1
 40
30.0
176
     1
 62
     7
420
 16777215
176
     1
 90
        1
176
     1
 90
        4
176
     1
 62
     7
176
     1
 62
   257
176
     1
 90
        1
176
     1
 90
        1
176
     1
 40
1.0
176
     1
 90
        0
176
     1
 62
   257
176
     1
 40
1.0
176
     1
 90
        1
176
     1
 90
        6
176
     1
 90
        2
176
     1
 62
     7
176
     1
 90
        3
176
     1
 90
        0
176
     1
 90
        0
176
     1
290
     0
176
     1
 90
        1
176
     1
 40
0.0
176
     1
 90
        0
176
     1
290
     0
176
     1
290
     1
176
     1
290
     1
176
     1
290
     0
176
     1
290
     0
176
     1
290
     0
176
     1
290
     0
176
     1
290
     0
176
     1
290
     0
176
     1
 90
       50
176
     1
 40
0.0
176
     1
 40
1.0
176
     1
 90
        0
176
     1
 62
    18
420
        0
176
     1
 90
       50
176
     1
 90
        3
176
     1
 62
     5
420
      255
176
     1
290
     0
176
     1
 90
       50
176
     1
 90
       50
176
     1
 90
       50
176
     1
290
     0
176
     1
 90
       50
176
     1
 62
   256
176
     0
 40
1.0
176
     0
 90
        2
176
     1
  1
strokes_ogs.tif
176
     1
290
     0
176
     1
 40
1.0
176
     1
 40
1.0
176
     1
  0
VISUALSTYLE
  5
3C
102
{ACAD_REACTORS
330
29
102
}
330
29
100
AcDbVisualStyle
  2
X-Ray
 70
    25
177
     3
291
     0
 70
    58
 90
        2
176
     1
 90
        2
176
     1
 90
        1
176
     1
 90
        1
176
     1
 40
0.5
176
     1
 40
30.0
176
     1
 62
     7
420
 16777215
176
     1
 90
        1
176
     1
 90
        0
176
     1
 62
     7
176
     1
 62
   257
176
     1
 90
        1
176
     1
 90
        1
176
     1
 40
1.0
176
     1
 90
        8
176
     1
 62
     7
176
     1
 40
1.0
176
     1
 90
        1
176
     1
 90
        6
176
     1
 90
        2
176
     1
 62
     7
176
     1
 90
        3
176
     1
 90
        0
176
     1
 90
        0
176
     1
290
     0
176
     1
 90
       13
176
     1
 40
0.0
176
     1
 90
        0
176
     1
290
     0
176
     1
290
     1
176
     1
290
     1
176
     1
290
     0
176
     1
290
     0
176
     1
290
     0
176
     1
290
     0
176
     1
290
     0
176
     1
290
     0
176
     1
 90
       50
176
     1
 40
0.0
176
     1
 40
1.0
176
     1
 90
        0
176
     1
 62
    18
420
        0
176
     1
 90
       50
176
     1
 90
        3
176
     1
 62
     5
420
      255
176
     1
290
     0
176
     1
 90
       50
176
     1
 90
       50
176
     1
 90
       50
176
     1
290
     0
176
     1
 90
       50
176
     1
 62
   256
176
     0
 40
1.0
176
     0
 90
        2
176
     1
  1
strokes_ogs.tif
176
     1
290
     0
176
     1
 40
1.0
176
     1
 40
1.0
176
     1
  0
DICTIONARYVAR
  5
13E
102
{ACAD_REACTORS
330
139
102
}
330
139
100
DictionaryVariables
280
     0
  1
1:1
  0
DICTIONARYVAR
  5
13B
102
{ACAD_REACTORS
330
139
102
}
330
139
100
DictionaryVariables
280
     0
  1
STANDARD
  0
DICTIONARYVAR
  5
13A
102
{ACAD_REACTORS
330
139
102
}
330
139
100
DictionaryVariables
280
     0
  1
STANDARD
  0
DICTIONARYVAR
  5
13C
102
{ACAD_REACTORS
330
139
102
}
330
139
100
DictionaryVariables
280
     0
  1
Imperial24
  0
DICTIONARYVAR
  5
13D
102
{ACAD_REACTORS
330
139
102
}
330
139
100
DictionaryVariables
280
     0
  1
Imperial24
  0
DICTIONARY
  5
1A
330
19
100
AcDbDictionary
280
     1
281
     1
  3
BUMPTILE
360
1C
  3
DIFFUSETILE
360
1B
  3
OPACITYTILE
360
1F
  3
REFLECTIONTILE
360
1E
  3
REFRACTIONTILE
360
20
  3
SPECULARTILE
360
1D
  0
DICTIONARY
  5
12
330
11
100
AcDbDictionary
280
     1
281
     1
  3
BUMPTILE
360
14
  3
DIFFUSETILE
360
13
  3
OPACITYTILE
360
17
  3
REFLECTIONTILE
360
16
  3
REFRACTIONTILE
360
18
  3
SPECULARTILE
360
15
  0
DICTIONARY
  5
22
330
21
100
AcDbDictionary
280
     1
281
     1
  3
BUMPTILE
360
24
  3
DIFFUSETILE
360
23
  3
OPACITYTILE
360
27
  3
REFLECTIONTILE
360
26
  3
REFRACTIONTILE
360
28
  3
SPECULARTILE
360
25
  0
DICTIONARY
  5
13F
330
65
100
AcDbDictionary
280
     1
281
     1
  3
ACAD_ROUNDTRIP_2008_TABLESTYLE_CELLSTYLEMAP
360
140
  0
XRECORD
  5
1C
102
{ACAD_REACTORS
330
1A
102
}
330
1A
100
AcDbXrecord
280
     1
270
     1
271
     1
  0
XRECORD
  5
1B
102
{ACAD_REACTORS
330
1A
102
}
330
1A
100
AcDbXrecord
280
     1
270
     1
271
     1
  0
XRECORD
  5
1F
102
{ACAD_REACTORS
330
1A
102
}
330
1A
100
AcDbXrecord
280
     1
270
     1
271
     1
  0
XRECORD
  5
1E
102
{ACAD_REACTORS
330
1A
102
}
330
1A
100
AcDbXrecord
280
     1
270
     1
271
     1
  0
XRECORD
  5
20
102
{ACAD_REACTORS
330
1A
102
}
330
1A
100
AcDbXrecord
280
     1
270
     1
271
     1
  0
XRECORD
  5
1D
102
{ACAD_REACTORS
330
1A
102
}
330
1A
100
AcDbXrecord
280
     1
270
     1
271
     1
  0
XRECORD
  5
14
102
{ACAD_REACTORS
330
12
102
}
330
12
100
AcDbXrecord
280
     1
270
     1
271
     1
  0
XRECORD
  5
13
102
{ACAD_REACTORS
330
12
102
}
330
12
100
AcDbXrecord
280
     1
270
     1
271
     1
  0
XRECORD
  5
17
102
{ACAD_REACTORS
330
12
102
}
330
12
100
AcDbXrecord
280
     1
270
     1
271
     1
  0
XRECORD
  5
16
102
{ACAD_REACTORS
330
12
102
}
330
12
100
AcDbXrecord
280
     1
270
     1
271
     1
  0
XRECORD
  5
18
102
{ACAD_REACTORS
330
12
102
}
330
12
100
AcDbXrecord
280
     1
270
     1
271
     1
  0
XRECORD
  5
15
102
{ACAD_REACTORS
330
12
102
}
330
12
100
AcDbXrecord
280
     1
270
     1
271
     1
  0
XRECORD
  5
24
102
{ACAD_REACTORS
330
22
102
}
330
22
100
AcDbXrecord
280
     1
270
     1
271
     1
  0
XRECORD
  5
23
102
{ACAD_REACTORS
330
22
102
}
330
22
100
AcDbXrecord
280
     1
270
     1
271
     1
  0
XRECORD
  5
27
102
{ACAD_REACTORS
330
22
102
}
330
22
100
AcDbXrecord
280
     1
270
     1
271
     1
  0
XRECORD
  5
26
102
{ACAD_REACTORS
330
22
102
}
330
22
100
AcDbXrecord
280
     1
270
     1
271
     1
  0
XRECORD
  5
28
102
{ACAD_REACTORS
330
22
102
}
330
22
100
AcDbXrecord
280
     1
270
     1
271
     1
  0
XRECORD
  5
25
102
{ACAD_REACTORS
330
22
102
}
330
22
100
AcDbXrecord
280
     1
270
     1
271
     1
  0
CELLSTYLEMAP
  5
140
102
{ACAD_REACTORS
330
13F
102
}
330
13F
100
AcDbCellStyleMap
 90
        3
300
CELLSTYLE
  1
TABLEFORMAT_BEGIN
 90
        5
170
     1
 91
        0
 92
    32768
 62
   257
 93
        1
300
CONTENTFORMAT
  1
CONTENTFORMAT_BEGIN
 90
        0
 91
        0
 92
      512
 93
        0
300

 40
0.0
140
1.0
 94
        5
 62
     0
340
55
144
0.25
309
CONTENTFORMAT_END
171
     0
 94
        0
309
TABLEFORMAT_END
  1
CELLSTYLE_BEGIN
 90
        1
 91
        1
300
_TITLE
309
CELLSTYLE_END
300
CELLSTYLE
  1
TABLEFORMAT_BEGIN
 90
        5
170
     1
 91
        0
 92
        0
 62
   257
 93
        1
300
CONTENTFORMAT
  1
CONTENTFORMAT_BEGIN
 90
        0
 91
        0
 92
      512
 93
        0
300

 40
0.0
140
1.0
 94
        5
 62
     0
340
55
144
0.18
309
CONTENTFORMAT_END
171
     0
 94
        0
309
TABLEFORMAT_END
  1
CELLSTYLE_BEGIN
 90
        2
 91
        1
300
_HEADER
309
CELLSTYLE_END
300
CELLSTYLE
  1
TABLEFORMAT_BEGIN
 90
        5
170
     1
 91
        0
 92
        0
 62
   257
 93
        1
300
CONTENTFORMAT
  1
CONTENTFORMAT_BEGIN
 90
        0
 91
        0
 92
      512
 93
        0
300

 40
0.0
140
1.0
 94
        2
 62
     0
340
55
144
0.18
309
CONTENTFORMAT_END
171
     0
 94
        0
309
TABLEFORMAT_END
  1
CELLSTYLE_BEGIN
 90
        3
 91
        2
300
_DATA
309
CELLSTYLE_END
  0
ENDSEC
  0
EOF
