  0
SECTION
  2
HEADER
  9
$ACADVER
  1
AC1024
  9
$DWGCODEPAGE
  3
ANSI_1252
  9
$EXTMAX
 10
210.0
 20
297.0
 30
0.0
  9
$EXTMIN
 10
0.0
 20
0.0
 30
0.0
  9
$LIMMIN
 10
0.0
 20
0.0
  9
$LIMMAX
 10
210.0
 20
297.0
  9
$VIEWCTR
 10
105.0
 20
148.5
  9
$VIEWSIZE
 40
297.0
  9
$CLAYER
  8
0
  9
$LTSCALE
 40
19.36
  9
$CELTYPE
  6
BYLAYER
  9
$DIMSCALE
 40
1.0
  9
$DIMASZ
 40
3.0
  9
$DIMEXO
 40
0.5
  9
$DIMDLI
 40
13.376
  9
$DIMEXE
 40
1.5
  9
$DIMCEN
 40
3.168
  9
$DIMLFAC
 40
1.0
  9
$DIMBLK
  1
_FILLED
  9
$DIMALT
 70
0
  9
$DIMALTF
 40
0.0393700787
  9
$DIMTXT
 40
3.0
  9
$DIMTOL
 70
1
  9
$DIMLIM
 70
0
  9
$DIMTFAC
 40
1.0
  9
$DIMTP
 40
0.01
  9
$DIMTM
 40
0.01
  9
$DIMGAP
 40
0.625
  9
$DIMDSEP
 70
44
  9
$AUNITS
 70
0
  9
$PDMODE
 70
3
  9
$PDSIZE
 40
3.0
  9
$HANDSEED
  5
2DC
  9
$TILEMODE
 70
1
  9
$MEASUREMENT
 70
1
  9
$INSUNITS
 70
4
  0
ENDSEC
  0
SECTION
  2
CLASSES
  0
CLASS
  1
ACDBDICTIONARYWDFLT
  2
AcDbDictionaryWithDefault
  3
AutoCAD 2000
 90
0
 91
1
280
0
281
0
  0
CLASS
  1
ACDBPLACEHOLDER
  2
AcDbPlaceHolder
  3
AutoCAD 2000
 90
0
 91
1
280
0
281
0
  0
CLASS
  1
LAYOUT
  2
AcDbLayout
  3
AutoCAD 2000
 90
0
 91
0
280
0
281
0
  0
ENDSEC
  0
SECTION
  2
TABLES
  0
TABLE
  2
VPORT
  5
8
100
AcDbSymbolTable
 70
2
  0
VPORT
  5
1F4
100
AcDbSymbolTableRecord
100
AcDbViewportTableRecord
  2
*ACTIVE
 70
0
 10
0.0
 20
0.0
 11
1.0
 21
1.0
 12
105.0
 22
148.5
 13
0.0
 23
0.0
 14
1.0
 24
1.0
 15
0.0
 25
0.0
 16
0.0
 26
0.0
 36
1.0
 17
0.0
 27
0.0
 37
0.0
 40
297.0
 41
0.7070707071
 42
50.0
 43
0.0
 44
0.0
 50
0.0
 51
0.0
 71
0
 72
100
 73
1
 74
1
 75
0
 76
0
 77
0
 78
0
  0
ENDTAB
  0
TABLE
  2
LTYPE
  5
5
100
AcDbSymbolTable
 70
6
  0
LTYPE
  5
14
100
AcDbSymbolTableRecord
100
AcDbLinetypeTableRecord
  2
BYBLOCK
 70
0
  3

 72
65
 73
0
 40
0.0
  0
LTYPE
  5
15
100
AcDbSymbolTableRecord
100
AcDbLinetypeTableRecord
  2
BYLAYER
 70
0
  3

 72
65
 73
0
 40
0.0
  0
LTYPE
  5
16
100
AcDbSymbolTableRecord
100
AcDbLinetypeTableRecord
  2
CONTINUOUS
 70
64
  3
Solid line
 72
65
 73
0
 40
0.0
  0
LTYPE
  5
1F5
100
AcDbSymbolTableRecord
100
AcDbLinetypeTableRecord
  2
CENTER
 70
64
  3
____ _ ____ _ ____ _ ____ _ ____ _ ____ _ ____
 72
65
 73
4
 40
0.6
 49
0.375
 74
0
 49
-0.075
 74
0
 49
0.075
 74
0
 49
-0.075
 74
0
  0
LTYPE
  5
1F6
100
AcDbSymbolTableRecord
100
AcDbLinetypeTableRecord
  2
HIDDEN
 70
64
  3
- - - - - - - - - - - - - - - - - - - -
 72
65
 73
2
 40
0.2
 49
0.1
 74
0
 49
-0.1
 74
0
  0
LTYPE
  5
1F7
100
AcDbSymbolTableRecord
100
AcDbLinetypeTableRecord
  2
PHANTOM
 70
64
  3
_____ _ _ _____ _ _ _____ _ _ _____
 72
65
 73
6
 40
0.8
 49
0.45
 74
0
 49
-0.05
 74
0
 49
0.1
 74
0
 49
-0.05
 74
0
 49
0.1
 74
0
 49
-0.05
 74
0
  0
LTYPE
  5
1F8
100
AcDbSymbolTableRecord
100
AcDbLinetypeTableRecord
  2
DOT
 70
64
  3
. . . . . . . . . . . . . . . . . . . .
 72
65
 73
2
 40
0.2
 49
0.1
 74
0
 49
-0.1
 74
0
  0
LTYPE
  5
1F9
100
AcDbSymbolTableRecord
100
AcDbLinetypeTableRecord
  2
DASHED
 70
64
  3
- - - - - - - - - - - - - - - - - - - -
 72
65
 73
2
 40
0.2
 49
0.1
 74
0
 49
-0.1
 74
0
  0
ENDTAB
  0
TABLE
  2
LAYER
  5
2
100
AcDbSymbolTable
 70
36
  0
LAYER
  5
10
100
AcDbSymbolTableRecord
100
AcDbLayerTableRecord
  2
0
 70
0
 62
7
  6
CONTINUOUS
370
-3
390
F
  0
LAYER
  5
1FA
100
AcDbSymbolTableRecord
100
AcDbLayerTableRecord
  2
DEFAULT_1
 70
0
 62
7
  6
CENTER
370
-3
390
F
  0
LAYER
  5
1FB
100
AcDbSymbolTableRecord
100
AcDbLayerTableRecord
  2
DEFAULT_2
 70
0
 62
7
  6
HIDDEN
370
-3
390
F
  0
LAYER
  5
1FC
100
AcDbSymbolTableRecord
100
AcDbLayerTableRecord
  2
DEFAULT_3
 70
0
 62
7
  6
PHANTOM
370
-3
390
F
  0
LAYER
  5
1FD
100
AcDbSymbolTableRecord
100
AcDbLayerTableRecord
  2
ASSI
 70
0
 62
7
  6
CONTINUOUS
370
-3
390
F
  0
LAYER
  5
1FE
100
AcDbSymbolTableRecord
100
AcDbLayerTableRecord
  2
COORDINATE
 70
0
 62
7
  6
CONTINUOUS
370
-3
390
F
  0
LAYER
  5
1FF
100
AcDbSymbolTableRecord
100
AcDbLayerTableRecord
  2
COPY_PUBLISH
 70
0
 62
7
  6
CONTINUOUS
370
-3
390
F
  0
LAYER
  5
200
100
AcDbSymbolTableRecord
100
AcDbLayerTableRecord
  2
COSMETICI
 70
0
 62
7
  6
CONTINUOUS
370
-3
390
F
  0
LAYER
  5
201
100
AcDbSymbolTableRecord
100
AcDbLayerTableRecord
  2
CURVE
 70
0
 62
7
  6
CONTINUOUS
370
-3
390
F
  0
LAYER
  5
202
100
AcDbSymbolTableRecord
100
AcDbLayerTableRecord
  2
DRAFT
 70
0
 62
7
  6
CONTINUOUS
370
-3
390
F
  0
LAYER
  5
203
100
AcDbSymbolTableRecord
100
AcDbLayerTableRecord
  2
IMPORT_IGES
 70
0
 62
7
  6
CONTINUOUS
370
-3
390
F
  0
LAYER
  5
204
100
AcDbSymbolTableRecord
100
AcDbLayerTableRecord
  2
NOTE
 70
0
 62
7
  6
CONTINUOUS
370
-3
390
F
  0
LAYER
  5
205
100
AcDbSymbolTableRecord
100
AcDbLayerTableRecord
  2
PIANI
 70
0
 62
7
  6
CONTINUOUS
370
-3
390
F
  0
LAYER
  5
206
100
AcDbSymbolTableRecord
100
AcDbLayerTableRecord
  2
PUNTI
 70
0
 62
7
  6
CONTINUOUS
370
-3
390
F
  0
LAYER
  5
207
100
AcDbSymbolTableRecord
100
AcDbLayerTableRecord
  2
RACCORDO
 70
0
 62
7
  6
CONTINUOUS
370
-3
390
F
  0
LAYER
  5
208
100
AcDbSymbolTableRecord
100
AcDbLayerTableRecord
  2
SIMBOLI
 70
0
 62
7
  6
CONTINUOUS
370
-3
390
F
  0
LAYER
  5
209
100
AcDbSymbolTableRecord
100
AcDbLayerTableRecord
  2
SMUSSO
 70
0
 62
7
  6
CONTINUOUS
370
-3
390
F
  0
LAYER
  5
20A
100
AcDbSymbolTableRecord
100
AcDbLayerTableRecord
  2
SNAPLINE
 70
0
 62
7
  6
CONTINUOUS
370
-3
390
F
  0
LAYER
  5
20B
100
AcDbSymbolTableRecord
100
AcDbLayerTableRecord
  2
SUPERFICI
 70
0
 62
7
  6
CONTINUOUS
370
-3
390
F
  0
LAYER
  5
20C
100
AcDbSymbolTableRecord
100
AcDbLayerTableRecord
  2
TRASH
 70
0
 62
7
  6
CONTINUOUS
370
-3
390
F
  0
ENDTAB
  0
TABLE
  2
STYLE
  5
3
100
AcDbSymbolTable
 70
1
  0
STYLE
  5
11
100
AcDbSymbolTableRecord
100
AcDbTextStyleTableRecord
  2
STANDARD
 70
0
 40
0.0
 41
0.8
 50
0.0
 71
0
 42
0.2
  3
txt
  4

  0
STYLE
  5
20D
100
AcDbSymbolTableRecord
100
AcDbTextStyleTableRecord
  2
TEXTSTYLE_1
 70
0
 40
0.0
 41
0.8
 50
0.0
 71
0
 42
0.2
  3
gdt
  4

  0
ENDTAB
  0
TABLE
  2
VIEW
  5
6
100
AcDbSymbolTable
 70
0
  0
ENDTAB
  0
TABLE
  2
UCS
  5
7
100
AcDbSymbolTable
 70
0
  0
ENDTAB
  0
TABLE
  2
APPID
  5
9
100
AcDbSymbolTable
 70
1
  0
APPID
  5
20E
100
AcDbSymbolTableRecord
100
AcDbRegAppTableRecord
  2
ACAD
 70
0
  0
ENDTAB
  0
TABLE
  2
BLOCK_RECORD
  5
1
100
AcDbSymbolTable
 70
0
  0
BLOCK_RECORD
  5
20F
100
AcDbSymbolTableRecord
100
AcDbBlockTableRecord
  2
*Model_Space
  0
BLOCK_RECORD
  5
210
100
AcDbSymbolTableRecord
100
AcDbBlockTableRecord
  2
*Paper_Space
  0
BLOCK_RECORD
  5
211
100
AcDbSymbolTableRecord
100
AcDbBlockTableRecord
  2
_FILLED
  0
ENDTAB
  0
TABLE
  2
DIMSTYLE
  5
A
100
AcDbSymbolTable
 70
1
100
AcDbDimStyleTable
 71
0
  0
DIMSTYLE
105
212
100
AcDbSymbolTableRecord
100
AcDbDimStyleTableRecord
  2
STANDARD
 70
0
  3

  4

 40
1.0
 41
3.0
 42
0.5
 43
0.38
 44
1.5
 45
0.0
 46
0.0
 47
0.01
 48
0.01
140
3.0
141
0.09
142
0.0
143
25.4
144
1.0
145
0.0
146
1.0
147
0.625
 71
1.0
 72
0.0
 73
0
 74
0
 75
0
 76
0
 77
1
 78
8
 79
2
170
0
171
1
172
0
173
0
174
0
175
0
176
0
177
0
178
0
270
2
179
2
271
2
272
2
273
2
274
2
275
0
280
0
281
0
282
0
283
1
284
8
285
0
286
0
287
3
288
0
340
11
278
44
341
211
342
211
343
211
344
211
  0
ENDTAB
  0
ENDSEC
  0
SECTION
  2
BLOCKS
  0
BLOCK
  5
20
100
AcDbEntity
  8
0
100
AcDbBlockBegin
  2
*Model_Space
 70
0
 10
0.0
 20
0.0
 30
0.0
  3
*Model_Space
  1

  0
ENDBLK
  5
21
100
AcDbEntity
  8
0
100
AcDbBlockEnd
  0
BLOCK
  5
1C
100
AcDbEntity
  8
0
100
AcDbBlockBegin
  2
*Paper_Space
 70
0
 10
0.0
 20
0.0
 30
0.0
  3
*Paper_Space
  1

  0
ENDBLK
  5
1D
100
AcDbEntity
  8
0
100
AcDbBlockEnd
  0
BLOCK
  5
213
100
AcDbEntity
  8
0
100
AcDbBlockBegin
  2
_FILLED
 70
64
 10
0.0
 20
0.0
  3
_FILLED
  1

  0
SOLID
  5
214
100
AcDbEntity
  8
0
  6
BYBLOCK
 62
0
100
AcDbTrace
 10
0.0
 20
0.0
 11
-1.0
 21
0.3166666667
 12
-1.0
 22
-0.3166666667
 13
-1.0
 23
-0.3166666667
  0
ENDBLK
  5
215
100
AcDbEntity
  8
0
  6
BYBLOCK
 62
0
100
AcDbBlockEnd
  0
ENDSEC
  0
SECTION
  2
ENTITIES
  0
LINE
  5
216
100
AcDbEntity
  8
ASSI
100
AcDbLine
 62
7
  6
CONTINUOUS
 10
-41.6485894119
 20
237.5544298382
 11
-43.0628029743
 21
236.7378806515
  0
LINE
  5
217
100
AcDbEntity
  8
ASSI
100
AcDbLine
 62
7
  6
CONTINUOUS
 10
-30.3348809129
 20
241.3518072779
 11
-31.7490944753
 21
240.5352580912
  0
LINE
  5
218
100
AcDbEntity
  8
RACCORDO
100
AcDbLine
 62
250
  6
CONTINUOUS
 10
-34.5079838124
 20
234.8853488207
 11
-35.9221973748
 21
234.068799634
  0
LWPOLYLINE
  5
219
100
AcDbEntity
  8
RACCORDO
100
AcDbPolyline
 62
7
  6
CONTINUOUS
 90
21
 70
0
 10
-34.0360202175
 20
234.1135623583
 10
-34.0666501964
 20
234.0963030431
 10
-34.1475643091
 20
234.0546548804
 10
-34.2308557123
 20
234.017374945
 10
-34.3165173501
 20
233.9844502713
 10
-34.4042944631
 20
233.9559787779
 10
-34.4941933492
 20
233.9319737218
 10
-34.5862077106
 20
233.9124218461
 10
-34.680063895
 20
233.8973812982
 10
-34.7757673855
 20
233.8868655083
 10
-34.873312699
 20
233.8808610464
 10
-34.9724097341
 20
233.8793857698
 10
-35.0730631103
 20
233.8824531616
 10
-35.175268208
 20
233.8900497388
 10
-35.2787210675
 20
233.9021529089
 10
-35.3834254036
 20
233.918776088
 10
-35.4893775014
 20
233.93990586
 10
-35.5962622578
 20
233.9654793846
 10
-35.7039746383
 20
233.9954757151
 10
-35.8126196773
 20
234.0299157982
 10
-35.9221973748
 20
234.068799634
  0
LINE
  5
21A
100
AcDbEntity
  8
RACCORDO
100
AcDbLine
 62
250
  6
CONTINUOUS
 10
-28.1074945522
 20
212.0592320637
 11
-27.7539582466
 21
212.2633594957
  0
LWPOLYLINE
  5
21B
100
AcDbEntity
  8
RACCORDO
100
AcDbPolyline
 62
7
  6
CONTINUOUS
 90
21
 70
0
 10
-33.8805086554
 20
203.0753402679
 10
-33.8600993983
 20
203.0866551847
 10
-33.818262382
 20
203.1070718243
 10
-33.774898514
 20
203.1246168637
 10
-33.7300151802
 20
203.1393041936
 10
-33.6838301943
 20
203.151062538
 10
-33.6363372293
 20
203.1598776599
 10
-33.5875426122
 20
203.1657637963
 10
-33.5376831378
 20
203.1686923824
 10
-33.4867536301
 20
203.1686490424
 10
-33.4347592652
 20
203.1656481521
 10
-33.3819523657
 20
203.1597042746
 10
-33.3283289823
 20
203.1508031047
 10
-33.2738930643
 20
203.1389589475
 10
-33.2189087833
 20
203.1242292814
 10
-33.1633734737
 20
203.1066000807
 10
-33.1072898011
 20
203.0860853711
 10
-33.0509299332
 20
203.0627847082
 10
-32.9943845925
 20
203.0367312772
 10
-32.9375630565
 20
203.0078918928
 10
-32.8804653252
 20
202.9762665551
  0
LWPOLYLINE
  5
21C
100
AcDbEntity
  8
RACCORDO
100
AcDbPolyline
 62
7
  6
CONTINUOUS
 90
15
 70
0
 10
-28.0039478182
 20
212.2880911011
 10
-27.9965431393
 20
212.2921229334
 10
-27.9812009004
 20
212.2990379512
 10
-27.9650836494
 20
212.3044390127
 10
-27.948199157
 20
212.3083412976
 10
-27.9307178569
 20
212.3107054159
 10
-27.9126337043
 20
212.3115157889
 10
-27.8939527439
 20
212.3107879953
 10
-27.8748635429
 20
212.3085293816
 10
-27.8553619666
 20
212.3047244433
 10
-27.8354521497
 20
212.2993886849
 10
-27.8153350636
 20
212.2925759659
 10
-27.7950776987
 20
212.2843042396
 10
-27.7746130647
 20
212.2745555528
 10
-27.7539411616
 20
212.2633299054
  0
LINE
  5
21D
100
AcDbEntity
  8
RACCORDO
100
AcDbLine
 62
7
  6
CONTINUOUS
 10
34.5079838124
 20
-234.8853488207
 11
41.6485894119
 21
-237.5544298382
  0
LWPOLYLINE
  5
21E
100
AcDbEntity
  8
RACCORDO
100
AcDbPolyline
 62
7
  6
CONTINUOUS
 90
21
 70
0
 10
-28.5216647844
 20
200.937888524
 10
-28.5017564909
 20
200.9498479563
 10
-28.4631540629
 20
200.9758670672
 10
-28.426275094
 20
201.0046442813
 10
-28.3911112476
 20
201.0361662571
 10
-28.3578331698
 20
201.0702800221
 10
-28.3264500268
 20
201.1069981742
 10
-28.2969526525
 20
201.1463081154
 10
-28.2694841942
 20
201.188019079
 10
-28.244054514
 20
201.2321427358
 10
-28.2206537499
 20
201.2786674149
 10
-28.1993954631
 20
201.3273673374
 10
-28.1802900677
 20
201.3782530765
 10
-28.1633271496
 20
201.431314059
 10
-28.1485890281
 20
201.4862927858
 10
-28.1360865171
 20
201.5431985786
 10
-28.1258088027
 20
201.6020221158
 10
-28.1178057613
 20
201.6624779333
 10
-28.1120940185
 20
201.7244708765
 10
-28.1086569488
 20
201.7880961
 10
-28.1074945522
 20
201.8533536038
  0
LINE
  5
21F
100
AcDbEntity
  8
RACCORDO
100
AcDbLine
 62
250
  6
CONTINUOUS
 10
-34.2946788875
 20
202.1598751882
 11
-32.8804653252
 21
202.9764243749
  0
LINE
  5
220
100
AcDbEntity
  8
RACCORDO
100
AcDbLine
 62
250
  6
CONTINUOUS
 10
-26.6932809898
 20
202.6699027904
 11
-28.1074945522
 21
201.8533536038
  0
LINE
  5
221
100
AcDbEntity
  8
RACCORDO
100
AcDbLine
 62
7
  6
CONTINUOUS
 10
-27.1074462319
 20
201.7544290681
 11
-28.5216597943
 21
200.9378798815
  0
LWPOLYLINE
  5
222
100
AcDbEntity
  8
RACCORDO
100
AcDbPolyline
 62
7
  6
CONTINUOUS
 90
18
 70
0
 10
2.8334716732
 20
192.8005375153
 10
2.8452232622
 20
192.8076470579
 10
2.8678480268
 20
192.8233128693
 10
2.8892558388
 20
192.8408989213
 10
2.9094549002
 20
192.8603922715
 10
2.9283084557
 20
192.8816609422
 10
2.9458073749
 20
192.9047169804
 10
2.961960788
 20
192.9295483392
 10
2.9766593302
 20
192.9559869005
 10
2.9898931291
 20
192.9840435704
 10
3.001672057
 20
193.0137074428
 10
3.0119163661
 20
193.0447776819
 10
3.0206156427
 20
193.0772638306
 10
3.0277803004
 20
193.1111563459
 10
3.0333618316
 20
193.1462257621
 10
3.0373440672
 20
193.1823955907
 10
3.0397431764
 20
193.2197423203
 10
3.0405591591
 20
193.2582659508
  0
LINE
  5
223
100
AcDbEntity
  8
RACCORDO
100
AcDbLine
 62
250
  6
CONTINUOUS
 10
3.3940954647
 20
194.2788636596
 11
3.0405591591
 21
194.0747362276
  0
LINE
  5
224
100
AcDbEntity
  8
RACCORDO
100
AcDbLine
 62
250
  6
CONTINUOUS
 10
3.0405591591
 20
193.2582659508
 11
4.1011168306
 21
193.8706186584
  0
LINE
  5
225
100
AcDbEntity
  8
RACCORDO
100
AcDbLine
 62
7
  6
CONTINUOUS
 10
2.8334765381
 20
192.8005290896
 11
4.2476901004
 21
193.6170782763
  0
LINE
  5
226
100
AcDbEntity
  8
ASSI
100
AcDbLine
 62
7
  6
CONTINUOUS
 10
31.7490944753
 20
205.5052979837
 11
30.3348809129
 21
204.688748797
  0
LINE
  5
227
100
AcDbEntity
  8
CURVE
100
AcDbLine
 62
250
  6
CONTINUOUS
 10
3.132457772
 20
206.3359562275
 11
2.8490746217
 21
206.1723659407
  0
LINE
  5
228
100
AcDbEntity
  8
CURVE
100
AcDbLine
 62
250
  6
CONTINUOUS
 10
3.1003913394
 20
205.6246470125
 11
3.481141122
 21
205.8444447177
  0
LINE
  5
229
100
AcDbEntity
  8
CURVE
100
AcDbLine
 62
250
  6
CONTINUOUS
 10
9.3926925103
 20
206.8723739559
 11
9.1314459901
 21
206.721562877
  0
LINE
  5
22A
100
AcDbEntity
  8
CURVE
100
AcDbLine
 62
250
  6
CONTINUOUS
 10
9.3827626042
 20
206.1738439525
 11
9.7635126818
 21
206.3936414447
  0
LWPOLYLINE
  5
22B
100
AcDbEntity
  8
RACCORDO
100
AcDbPolyline
 62
7
  6
CONTINUOUS
 90
15
 70
0
 10
3.1441058931
 20
194.303595265
 10
3.151510572
 20
194.3076270973
 10
3.1668528109
 20
194.3145421151
 10
3.1829700619
 20
194.3199431766
 10
3.1998545542
 20
194.3238454615
 10
3.2173358544
 20
194.3262095798
 10
3.235420007
 20
194.3270199528
 10
3.2541009674
 20
194.3262921592
 10
3.2731901684
 20
194.3240335455
 10
3.2926917447
 20
194.3202286072
 10
3.3126015616
 20
194.3148928488
 10
3.3327186477
 20
194.3080801298
 10
3.3529760125
 20
194.2998084035
 10
3.3734406465
 20
194.2900597167
 10
3.3941125497
 20
194.2788340693
  0
LWPOLYLINE
  5
22C
100
AcDbEntity
  8
RACCORDO
100
AcDbPolyline
 62
7
  6
CONTINUOUS
 90
18
 70
0
 10
-0.7778174593
 20
-202.0764290157
 10
-0.8115890076
 20
-202.0578719322
 10
-0.8451329367
 20
-202.0412742514
 10
-0.8784492465
 20
-202.0266359731
 10
-0.9116122657
 20
-202.013932851
 10
-0.9445476656
 20
-202.0031891314
 10
-0.9770324607
 20
-201.9944775536
 10
-1.0090635934
 20
-201.9878119071
 10
-1.0406441214
 20
-201.9831784023
 10
-1.071560232
 20
-201.9806084099
 10
-1.1018074168
 20
-201.9801159323
 10
-1.1313901843
 20
-201.9816869671
 10
-1.1601082475
 20
-201.9853108778
 10
-1.1879557389
 20
-201.9910015945
 10
-1.2149385261
 20
-201.9987451871
 10
-1.240873925
 20
-202.0084892285
 10
-1.2657548284
 20
-202.020247293
 10
-1.2778367546
 20
-202.0268962637
  0
LWPOLYLINE
  5
22D
100
AcDbEntity
  8
RACCORDO
100
AcDbPolyline
 62
7
  6
CONTINUOUS
 90
21
 70
0
 10
28.1074945522
 20
-216.3050353227
 10
28.0503968209
 20
-216.2734099851
 10
27.9935752849
 20
-216.2445706007
 10
27.9370299442
 20
-216.2185171697
 10
27.8806700762
 20
-216.1952165067
 10
27.8245864036
 20
-216.1747017971
 10
27.769051094
 20
-216.1570725964
 10
27.714066813
 20
-216.1423429304
 10
27.6596308951
 20
-216.1304987732
 10
27.6060075116
 20
-216.1215976033
 10
27.5532006122
 20
-216.1156537257
 10
27.5012062472
 20
-216.1126528355
 10
27.4502767395
 20
-216.1126094954
 10
27.4004172651
 20
-216.1155380816
 10
27.351622648
 20
-216.121424218
 10
27.304129683
 20
-216.1302393398
 10
27.2579446971
 20
-216.1419976843
 10
27.2130613633
 20
-216.1566850142
 10
27.1696974954
 20
-216.1742300536
 10
27.127860479
 20
-216.1946466931
 10
27.107451222
 20
-216.2059616099
  0
LINE
  5
22E
100
AcDbEntity
  8
RACCORDO
100
AcDbLine
 62
7
  6
CONTINUOUS
 10
-27.7539411616
 20
-188.9501641106
 11
-1.8384776311
 21
-203.913427956
  0
LINE
  5
22F
100
AcDbEntity
  8
RACCORDO
100
AcDbLine
 62
7
  6
CONTINUOUS
 10
0.4242640687
 20
-205.2199066547
 11
26.3397275992
 21
-220.1831705002
  0
LINE
  5
230
100
AcDbEntity
  8
RACCORDO
100
AcDbLine
 62
7
  6
CONTINUOUS
 10
-26.3397275992
 20
-188.1336149239
 11
-1.4848559003
 21
-202.4845063381
  0
LINE
  5
231
100
AcDbEntity
  8
RACCORDO
100
AcDbLine
 62
7
  6
CONTINUOUS
 10
1.8384776311
 20
-204.403357468
 11
26.6932809898
 21
-218.7542094235
  0
LINE
  5
232
100
AcDbEntity
  8
RACCORDO
100
AcDbLine
 62
7
  6
CONTINUOUS
 10
-0.6363961031
 20
-202.1580839343
 11
-0.7778174593
 21
-202.0764290157
  0
LINE
  5
233
100
AcDbEntity
  8
RACCORDO
100
AcDbLine
 62
7
  6
CONTINUOUS
 10
0.7778174593
 20
-201.3415347477
 11
0.6363961031
 21
-201.259879829
  0
LINE
  5
234
100
AcDbEntity
  8
RACCORDO
100
AcDbLine
 62
7
  6
CONTINUOUS
 10
-32.8804653252
 20
-181.0913516482
 11
-29.5217081145
 21
-183.0306559665
  0
LINE
  5
235
100
AcDbEntity
  8
RACCORDO
100
AcDbLine
 62
7
  6
CONTINUOUS
 10
28.1074945522
 20
-216.3050353227
 11
31.4662517628
 21
-218.244339641
  0
LINE
  5
236
100
AcDbEntity
  8
RACCORDO
100
AcDbLine
 62
7
  6
CONTINUOUS
 10
-31.4662517628
 20
-180.2748024615
 11
-28.1074945522
 21
-182.2141067799
  0
LINE
  5
237
100
AcDbEntity
  8
RACCORDO
100
AcDbLine
 62
7
  6
CONTINUOUS
 10
29.5217081145
 20
-215.4884861361
 11
32.8804653252
 21
-217.4277904544
  0
LWPOLYLINE
  5
238
100
AcDbEntity
  8
RACCORDO
100
AcDbPolyline
 62
7
  6
CONTINUOUS
 90
40
 70
0
 10
-32.8804653252
 20
-181.0913516482
 10
-32.9375630565
 20
-181.057041957
 10
-32.9943845925
 20
-181.0202652558
 10
-33.0509299332
 20
-180.9810215448
 10
-33.1072898011
 20
-180.9392392449
 10
-33.1633734737
 20
-180.8949899352
 10
-33.2189087833
 20
-180.8484883524
 10
-33.2738930643
 20
-180.799723549
 10
-33.3283289823
 20
-180.7487064726
 10
-33.3819523657
 20
-180.6956847035
 10
-33.4347592652
 20
-180.6406484972
 10
-33.4867536301
 20
-180.583607598
 10
-33.5376831378
 20
-180.5248388192
 10
-33.5875426122
 20
-180.4643337618
 10
-33.6363372293
 20
-180.4021008247
 10
-33.6838301943
 20
-180.3384420173
 10
-33.7300151802
 20
-180.2733504088
 10
-33.774898514
 20
-180.20683293
 10
-33.818262382
 20
-180.1392123829
 10
-33.8600993983
 20
-180.0704834055
 10
-33.9004169488
 20
-180.0006513598
 10
-33.9390193768
 20
-179.9300551326
 10
-33.9758983457
 20
-179.8586910097
 10
-34.0110621921
 20
-179.7865627054
 10
-34.0443402699
 20
-179.7140202503
 10
-34.0757234129
 20
-179.6410616313
 10
-34.1052207872
 20
-179.5676888616
 10
-34.1326892455
 20
-179.4942580109
 10
-34.1581189257
 20
-179.4207687969
 10
-34.1815196898
 20
-179.3472215019
 10
-34.2027779766
 20
-179.2739730427
 10
-34.221883372
 20
-179.2010248719
 10
-34.2388462901
 20
-179.1283755368
 10
-34.2535844117
 20
-179.0563775966
 10
-34.2660869226
 20
-178.9850342176
 10
-34.276364637
 20
-178.9143422334
 10
-34.2843676784
 20
-178.8446447043
 10
-34.2900794212
 20
-178.7760559837
 10
-34.2935164909
 20
-178.7084617183
 10
-34.2946788875
 20
-178.641861908
  0
LWPOLYLINE
  5
239
100
AcDbEntity
  8
RACCORDO
100
AcDbPolyline
 62
7
  6
CONTINUOUS
 90
40
 70
0
 10
-28.1074945522
 20
-182.2141067799
 10
-28.0503968209
 20
-182.2484164711
 10
-27.9935752849
 20
-182.2851931722
 10
-27.9370299442
 20
-182.3244368832
 10
-27.8806700762
 20
-182.3662191831
 10
-27.8245864036
 20
-182.4104684929
 10
-27.769051094
 20
-182.4569700756
 10
-27.714066813
 20
-182.505734879
 10
-27.6596308951
 20
-182.5567519554
 10
-27.6060075116
 20
-182.6097737246
 10
-27.5532006122
 20
-182.6648099309
 10
-27.5012062472
 20
-182.72185083
 10
-27.4502767395
 20
-182.7806196089
 10
-27.4004172651
 20
-182.8411246663
 10
-27.351622648
 20
-182.9033576034
 10
-27.304129683
 20
-182.9670164108
 10
-27.2579446971
 20
-183.0321080193
 10
-27.2130613633
 20
-183.098625498
 10
-27.1696974954
 20
-183.1662460452
 10
-27.127860479
 20
-183.2349750225
 10
-27.0875429286
 20
-183.3048070683
 10
-27.0489405005
 20
-183.3754032954
 10
-27.0120615317
 20
-183.4467674184
 10
-26.9768976852
 20
-183.5188957227
 10
-26.9436196074
 20
-183.5914381778
 10
-26.9122364644
 20
-183.6643967967
 10
-26.8827390901
 20
-183.7377695665
 10
-26.8552706318
 20
-183.8112004172
 10
-26.8298409516
 20
-183.8846896312
 10
-26.8064401875
 20
-183.9582369262
 10
-26.7851819007
 20
-184.0314853854
 10
-26.7660765053
 20
-184.1044335562
 10
-26.7491135873
 20
-184.1770828912
 10
-26.7343754657
 20
-184.2490808314
 10
-26.7218729548
 20
-184.3204242105
 10
-26.7115952403
 20
-184.3911161947
 10
-26.7035921989
 20
-184.4608137238
 10
-26.6978804561
 20
-184.5294024443
 10
-26.6944433864
 20
-184.5969967098
 10
-26.6932809898
 20
-184.6635965201
  0
LWPOLYLINE
  5
23A
100
AcDbEntity
  8
RACCORDO
100
AcDbPolyline
 62
7
  6
CONTINUOUS
 90
34
 70
0
 10
0.7778174593
 20
-201.3415347477
 10
0.8115890076
 20
-201.3619762017
 10
0.8451329367
 20
-201.3841142093
 10
0.8784492465
 20
-201.4079487706
 10
0.9116122657
 20
-201.4335414717
 10
0.9445476656
 20
-201.4608307264
 10
0.9770324607
 20
-201.4896317758
 10
1.0090635934
 20
-201.5199548784
 10
1.0406441214
 20
-201.5517897757
 10
1.071560232
 20
-201.5849209329
 10
1.1018074168
 20
-201.6193571461
 10
1.1313901843
 20
-201.6550896193
 10
1.1601082475
 20
-201.6918764295
 10
1.1879557389
 20
-201.7297247313
 10
1.2149385261
 20
-201.7686273702
 10
1.240873925
 20
-201.8083209601
 10
1.2657548284
 20
-201.8488108682
 10
1.2895883436
 20
-201.8900917273
 10
1.3122131082
 20
-201.9318840499
 10
1.3336209202
 20
-201.9741913065
 10
1.3538199816
 20
-202.0170100266
 10
1.3726735371
 20
-202.0600503106
 10
1.3901724563
 20
-202.103313662
 10
1.4063258694
 20
-202.1467985774
 10
1.4210244116
 20
-202.1902106468
 10
1.4342582105
 20
-202.2335493759
 10
1.4460371384
 20
-202.2768152591
 10
1.4562814474
 20
-202.3197153694
 10
1.4649807241
 20
-202.3622472247
 10
1.4721453818
 20
-202.4044133071
 10
1.477726913
 20
-202.4459281357
 10
1.4817091486
 20
-202.4866965502
 10
1.4841082578
 20
-202.5268137109
 10
1.4849242405
 20
-202.5662796178
  0
LWPOLYLINE
  5
23B
100
AcDbEntity
  8
RACCORDO
100
AcDbPolyline
 62
7
  6
CONTINUOUS
 90
28
 70
0
 10
-27.7539411616
 20
-188.9501641106
 10
-27.7746130647
 20
-188.9375183623
 10
-27.7950776987
 20
-188.9236350028
 10
-27.8153350636
 20
-188.908514032
 10
-27.8354521497
 20
-188.8920960442
 10
-27.8553619666
 20
-188.8744404451
 10
-27.8748635429
 20
-188.8557254518
 10
-27.8939527439
 20
-188.8359403347
 10
-27.9126337043
 20
-188.8150958235
 10
-27.9307178569
 20
-188.7934023244
 10
-27.948199157
 20
-188.7708512388
 10
-27.9650836494
 20
-188.7474511654
 10
-27.9812009004
 20
-188.7234383065
 10
-27.9965431393
 20
-188.6988064557
 10
-28.0111181369
 20
-188.6735618194
 10
-28.0247787718
 20
-188.6479592192
 10
-28.0375157832
 20
-188.6219950296
 10
-28.0493384321
 20
-188.595672876
 10
-28.0601273794
 20
-188.5692584566
 10
-28.0698721558
 20
-188.5427508369
 10
-28.0785832307
 20
-188.5161509513
 10
-28.0861726738
 20
-188.4897273014
 10
-28.092629125
 20
-188.4634816722
 10
-28.0979639443
 20
-188.4374122787
 10
-28.1021232817
 20
-188.4117822676
 10
-28.1050891872
 20
-188.3866793545
 10
-28.1068796106
 20
-188.3620158238
 10
-28.1074945522
 20
-188.3377916755
  0
LWPOLYLINE
  5
23C
100
AcDbEntity
  8
RACCORDO
100
AcDbPolyline
 62
7
  6
CONTINUOUS
 90
28
 70
0
 10
0.4242640687
 20
-205.2199066547
 10
0.4035921655
 20
-205.2072609064
 10
0.3831275315
 20
-205.1933775469
 10
0.3628701667
 20
-205.1782565761
 10
0.3427530806
 20
-205.1618385883
 10
0.3228432637
 20
-205.1441829892
 10
0.3033416874
 20
-205.1254679959
 10
0.2842524864
 20
-205.1056828788
 10
0.265571526
 20
-205.0848383676
 10
0.2474873734
 20
-205.0631448685
 10
0.2300060732
 20
-205.0405937829
 10
0.2131215809
 20
-205.0171937095
 10
0.1970043299
 20
-204.9931808506
 10
0.181662091
 20
-204.9685489998
 10
0.1670870934
 20
-204.9433043635
 10
0.1534264585
 20
-204.9177017634
 10
0.140689447
 20
-204.8917375737
 10
0.1288667982
 20
-204.8654154201
 10
0.1180778509
 20
-204.8390010007
 10
0.1083330745
 20
-204.812493381
 10
0.0996219996
 20
-204.7858934954
 10
0.0920325565
 20
-204.7594698455
 10
0.0855761053
 20
-204.7332242163
 10
0.080241286
 20
-204.7071548228
 10
0.0760819486
 20
-204.6815248117
 10
0.0731160431
 20
-204.6564218986
 10
0.0713256196
 20
-204.6317583679
 10
0.0707106781
 20
-204.6075342196
  0
LINE
  5
23D
100
AcDbEntity
  8
RACCORDO
100
AcDbLine
 62
7
  6
CONTINUOUS
 10
-43.0628029743
 20
-188.6431335575
 11
-35.9221973748
 21
-194.2198449007
  0
LWPOLYLINE
  5
23E
100
AcDbEntity
  8
RACCORDO
100
AcDbPolyline
 62
7
  6
CONTINUOUS
 90
37
 70
0
 10
-35.9221973748
 20
-194.2198449007
 10
-35.8126196773
 20
-194.3074986433
 10
-35.7039746383
 20
-194.3985191279
 10
-35.5962622578
 20
-194.4929063545
 10
-35.4893775014
 20
-194.5907606674
 10
-35.3834254036
 20
-194.6919817222
 10
-35.2787210675
 20
-194.7962684859
 10
-35.175268208
 20
-194.9036300849
 10
-35.0730631103
 20
-195.0140573927
 10
-34.9724097341
 20
-195.1272219966
 10
-34.873312699
 20
-195.2431320454
 10
-34.7757673855
 20
-195.3617793903
 10
-34.680063895
 20
-195.4828111721
 10
-34.5862077106
 20
-195.6062344891
 10
-34.4941933492
 20
-195.732042243
 10
-34.4042944631
 20
-195.8598602794
 10
-34.3165173501
 20
-195.9896945827
 10
-34.2308557123
 20
-196.1215391685
 10
-34.1475643091
 20
-196.2550019286
 10
-34.0666501964
 20
-196.3900876804
 10
-33.9881063183
 20
-196.5267916065
 10
-33.9121662655
 20
-196.6647071472
 10
-33.8388377895
 20
-196.8038379094
 10
-33.7681131389
 20
-196.9441802862
 10
-33.7002026499
 20
-197.0853168969
 10
-33.6351147003
 20
-197.2272501059
 10
-33.5728409123
 20
-197.3699775488
 10
-33.5135664893
 20
-197.5130747518
 10
-33.4573003602
 20
-197.6565428156
 10
-33.4040335962
 20
-197.8003806394
 10
-33.3539246134
 20
-197.9441604472
 10
-33.3069828125
 20
-198.0878820661
 10
-33.2631987928
 20
-198.231545669
 10
-33.2227027688
 20
-198.3747239977
 10
-33.1855381452
 20
-198.517274633
 10
-33.1516615174
 20
-198.6593399941
 10
-33.1210728852
 20
-198.8009200811
  0
LWPOLYLINE
  5
23F
100
AcDbEntity
  8
ASSI
100
AcDbPolyline
 62
7
  6
CONTINUOUS
 90
49
 70
0
 10
-31.7490944753
 20
-205.5052979837
 10
-30.5128946737
 20
-206.769416624
 10
-29.2699978028
 20
-208.0147419759
 10
-28.0204038625
 20
-209.2412740396
 10
-26.7638031753
 20
-210.4493043379
 10
-25.5005054188
 20
-211.6385413478
 10
-24.231439626
 20
-212.8081105009
 10
-22.9566015541
 20
-213.9579973298
 10
-21.6759954459
 20
-215.0882163018
 10
-20.3905630632
 20
-216.1979362505
 10
-19.1003008558
 20
-217.287142097
 10
-17.8052123738
 20
-218.3558489202
 10
-16.5062500293
 20
-219.4032707897
 10
-15.2034109727
 20
-220.4293920487
 10
-13.8966980537
 20
-221.434228354
 10
-12.5870722328
 20
-222.417040746
 10
-11.2745313675
 20
-223.3778130241
 10
-9.9590776004
 20
-224.3165613888
 10
-8.6416783202
 20
-225.2325954817
 10
-7.322332096
 20
-226.1258985946
 10
-6.0010403586
 20
-226.9964874356
 10
-4.6787747903
 20
-227.8437217711
 10
-3.3555346746
 20
-228.6675844218
 10
-2.0313207279
 20
-229.468092567
 10
-0.7071067812
 20
-230.2446575105
 10
0.6171071655
 20
-230.9972616401
 10
1.9413211122
 20
-231.7259225679
 10
3.2645612279
 20
-232.4301044346
 10
4.5868267963
 20
-233.1097892337
 10
5.9081185336
 20
-233.7649949716
 10
7.2274647579
 20
-234.395239808
 10
8.544864038
 20
-235.000505382
 10
9.8603178051
 20
-235.5808100545
 10
11.1728586705
 20
-236.1357270677
 10
12.4824844913
 20
-236.6652377467
 10
13.7891974104
 20
-237.1693607664
 10
15.0920364669
 20
-237.6477253931
 10
16.3909988114
 20
-238.1003126794
 10
17.6860872934
 20
-238.5271415726
 10
18.9763495008
 20
-238.9278981817
 10
20.2617818835
 20
-239.3025633281
 10
21.5423879917
 20
-239.6511561902
 10
22.8172260636
 20
-239.9734204118
 10
24.0862918564
 20
-240.269336626
 10
25.3495896129
 20
-240.5389241996
 10
26.6061903002
 20
-240.7819848771
 10
27.8557842404
 20
-240.9984525735
 10
29.0986811113
 20
-241.1883933737
 10
30.3348809129
 20
-241.3518072779
  0
LINE
  5
240
100
AcDbEntity
  8
RACCORDO
100
AcDbLine
 62
250
  6
CONTINUOUS
 10
33.1210728852
 20
198.8009200811
 11
31.7068593228
 21
197.9843708945
  0
LINE
  5
241
100
AcDbEntity
  8
RACCORDO
100
AcDbLine
 62
250
  6
CONTINUOUS
 10
35.9221973748
 20
194.2198449007
 11
34.5079838124
 21
193.403295714
  0
LINE
  5
242
100
AcDbEntity
  8
CURVE
100
AcDbLine
 62
250
  6
CONTINUOUS
 10
-8.0317491658
 20
219.002547971
 11
-6.5472082137
 21
221.0846856274
  0
LINE
  5
243
100
AcDbEntity
  8
CURVE
100
AcDbLine
 62
250
  6
CONTINUOUS
 10
-6.3639610307
 20
220.3692737987
 11
-7.6652547996
 21
218.5441488301
  0
LINE
  5
244
100
AcDbEntity
  8
ASSI
100
AcDbLine
 62
7
  6
CONTINUOUS
 10
43.0628029743
 20
188.6431335575
 11
41.6485894119
 21
187.8265843709
  0
LWPOLYLINE
  5
245
100
AcDbEntity
  8
RACCORDO
100
AcDbPolyline
 62
7
  6
CONTINUOUS
 90
7
 70
0
 10
4.3599494343
 20
193.7211719569
 10
4.3425220181
 20
193.6982101289
 10
4.3236684626
 20
193.6769414581
 10
4.3034694011
 20
193.6574481079
 10
4.2820615892
 20
193.6398620559
 10
4.2594368245
 20
193.6241962445
 10
4.2476852355
 20
193.617086702
  0
LWPOLYLINE
  5
246
100
AcDbEntity
  8
RACCORDO
100
AcDbPolyline
 62
7
  6
CONTINUOUS
 90
18
 70
0
 10
-33.1210728852
 20
235.4152064665
 10
-33.1516615174
 20
235.3089493652
 10
-33.1855381452
 20
235.2060038848
 10
-33.2227027688
 20
235.1063700252
 10
-33.2631987928
 20
235.00995549
 10
-33.3069828125
 20
234.9168525756
 10
-33.3539246134
 20
234.8273381717
 10
-33.4040335962
 20
234.7414229613
 10
-33.4573003602
 20
234.6590962614
 10
-33.5135664893
 20
234.580602913
 10
-33.5728409123
 20
234.5059543279
 10
-33.6351147003
 20
234.4351390944
 10
-33.7002026499
 20
234.3683678182
 10
-33.7681131389
 20
234.3056525379
 10
-33.8388377895
 20
234.2469812149
 10
-33.9121662655
 20
234.1925283387
 10
-33.9881063183
 20
234.1423064675
 10
-34.0360202175
 20
234.1135623583
  0
LWPOLYLINE
  5
247
100
AcDbEntity
  8
CURVE
100
AcDbPolyline
 62
250
  6
CONTINUOUS
 90
17
 70
0
 10
-8.0317491658
 20
219.002547971
 10
-8.0490164161
 20
218.9690700132
 10
-8.0586461339
 20
218.9281370801
 10
-8.0602715263
 20
218.8813082943
 10
-8.053643405
 20
218.8294320098
 10
-8.0392460709
 20
218.7762987024
 10
-8.0175833537
 20
218.7230530189
 10
-7.9894803797
 20
218.6717230708
 10
-7.9553685813
 20
218.623463031
 10
-7.9177404258
 20
218.5817991447
 10
-7.8774749995
 20
218.5474313101
 10
-7.8361060001
 20
218.5216685872
 10
-7.7944927535
 20
218.5052948689
 10
-7.7556758398
 20
218.4995065433
 10
-7.720394645
 20
218.5041487689
 10
-7.689993019
 20
218.5190447249
 10
-7.6652547903
 20
218.5441488432
  0
LINE
  5
248
100
AcDbEntity
  8
CURVE
100
AcDbLine
 62
250
  6
CONTINUOUS
 10
3.2785583725
 20
206.5889938476
 11
3.132457772
 21
206.3359562275
  0
LINE
  5
249
100
AcDbEntity
  8
CURVE
100
AcDbLine
 62
250
  6
CONTINUOUS
 10
3.481141122
 20
205.8444447177
 11
3.6715158658
 21
206.1741625417
  0
LINE
  5
24A
100
AcDbEntity
  8
RACCORDO
100
AcDbLine
 62
7
  6
CONTINUOUS
 10
-31.7490944753
 20
240.5352580912
 11
-33.1210728852
 21
235.4152064665
  0
LINE
  5
24B
100
AcDbEntity
  8
CURVE
100
AcDbLine
 62
250
  6
CONTINUOUS
 10
3.4376268358
 20
207.0481609236
 11
3.2785583725
 21
206.5889938476
  0
LINE
  5
24C
100
AcDbEntity
  8
CURVE
100
AcDbLine
 62
250
  6
CONTINUOUS
 10
3.6715158658
 20
206.1741625417
 11
3.8618909046
 21
206.7236991882
  0
LINE
  5
24D
100
AcDbEntity
  8
RACCORDO
100
AcDbLine
 62
7
  6
CONTINUOUS
 10
-33.1210728852
 20
-198.8009200811
 11
-31.7490944753
 21
-205.5052979837
  0
LINE
  5
24E
100
AcDbEntity
  8
CURVE
100
AcDbLine
 62
250
  6
CONTINUOUS
 10
9.4886938803
 20
207.1494905531
 11
9.3926925103
 21
206.8723739559
  0
LINE
  5
24F
100
AcDbEntity
  8
CURVE
100
AcDbLine
 62
250
  6
CONTINUOUS
 10
9.7635126818
 20
206.3936414447
 11
9.8911859526
 21
206.7621818347
  0
LWPOLYLINE
  5
250
100
AcDbEntity
  8
RACCORDO
100
AcDbPolyline
 62
7
  6
CONTINUOUS
 90
28
 70
0
 10
-26.6932809898
 20
-187.5212424889
 10
-26.6926660483
 20
-187.5454666371
 10
-26.6908756248
 20
-187.5701301678
 10
-26.6879097194
 20
-187.5952330809
 10
-26.6837503819
 20
-187.620863092
 10
-26.6784155626
 20
-187.6469324856
 10
-26.6719591114
 20
-187.6731781148
 10
-26.6643696683
 20
-187.6996017646
 10
-26.6556585934
 20
-187.7262016502
 10
-26.645913817
 20
-187.75270927
 10
-26.6351248697
 20
-187.7791236894
 10
-26.6233022209
 20
-187.805445843
 10
-26.6105652094
 20
-187.8314100326
 10
-26.5969045745
 20
-187.8570126328
 10
-26.5823295769
 20
-187.882257269
 10
-26.566987338
 20
-187.9068891198
 10
-26.550870087
 20
-187.9309019787
 10
-26.5339855947
 20
-187.9543020522
 10
-26.5165042945
 20
-187.9768531378
 10
-26.4984201419
 20
-187.9985466368
 10
-26.4797391815
 20
-188.0193911481
 10
-26.4606499805
 20
-188.0391762652
 10
-26.4411484042
 20
-188.0578912584
 10
-26.4212385873
 20
-188.0755468575
 10
-26.4011215012
 20
-188.0919648453
 10
-26.3808641364
 20
-188.1070858161
 10
-26.3603995024
 20
-188.1209691757
 10
-26.3397275992
 20
-188.1336149239
  0
LWPOLYLINE
  5
251
100
AcDbEntity
  8
RACCORDO
100
AcDbPolyline
 62
7
  6
CONTINUOUS
 90
40
 70
0
 10
-32.8804653252
 20
-177.8253127213
 10
-32.8793029285
 20
-177.8919125316
 10
-32.8758658588
 20
-177.9595067971
 10
-32.870154116
 20
-178.0280955176
 10
-32.8621510747
 20
-178.0977930467
 10
-32.8518733602
 20
-178.1684850309
 10
-32.8393708493
 20
-178.23982841
 10
-32.8246327277
 20
-178.3118263502
 10
-32.8076698096
 20
-178.3844756852
 10
-32.7885644142
 20
-178.457423856
 10
-32.7673061275
 20
-178.5306723152
 10
-32.7439053633
 20
-178.6042196102
 10
-32.7184756832
 20
-178.6777088242
 10
-32.6910072249
 20
-178.7511396749
 10
-32.6615098505
 20
-178.8245124447
 10
-32.6301267076
 20
-178.8974710636
 10
-32.5968486297
 20
-178.9700135187
 10
-32.5616847833
 20
-179.042141823
 10
-32.5248058144
 20
-179.113505946
 10
-32.4862033864
 20
-179.1841021731
 10
-32.4458858359
 20
-179.2539342189
 10
-32.4040488196
 20
-179.3226631962
 10
-32.3606849517
 20
-179.3902837434
 10
-32.3158016178
 20
-179.4568012221
 10
-32.2696166319
 20
-179.5218928306
 10
-32.2221236669
 20
-179.585551638
 10
-32.1733290498
 20
-179.6477845751
 10
-32.1234695755
 20
-179.7082896325
 10
-32.0725400678
 20
-179.7670584114
 10
-32.0205457028
 20
-179.8240993105
 10
-31.9677388033
 20
-179.8791355168
 10
-31.9141154199
 20
-179.932157286
 10
-31.8596795019
 20
-179.9831743624
 10
-31.8046952209
 20
-180.0319391658
 10
-31.7491599114
 20
-180.0784407485
 10
-31.6930762387
 20
-180.1226900583
 10
-31.6367163708
 20
-180.1644723582
 10
-31.5801710301
 20
-180.2037160692
 10
-31.5233494941
 20
-180.2404927703
 10
-31.4662517628
 20
-180.2748024615
  0
LWPOLYLINE
  5
252
100
AcDbEntity
  8
RACCORDO
100
AcDbPolyline
 62
7
  6
CONTINUOUS
 90
40
 70
0
 10
-28.1074945522
 20
-185.4801457068
 10
-28.1086569488
 20
-185.4135458964
 10
-28.1120940185
 20
-185.345951631
 10
-28.1178057613
 20
-185.2773629104
 10
-28.1258088027
 20
-185.2076653814
 10
-28.1360865171
 20
-185.1369733971
 10
-28.1485890281
 20
-185.0656300181
 10
-28.1633271496
 20
-184.9936320779
 10
-28.1802900677
 20
-184.9209827429
 10
-28.1993954631
 20
-184.848034572
 10
-28.2206537499
 20
-184.7747861128
 10
-28.244054514
 20
-184.7012388178
 10
-28.2694841942
 20
-184.6277496038
 10
-28.2969526525
 20
-184.5543187531
 10
-28.3264500268
 20
-184.4809459834
 10
-28.3578331698
 20
-184.4079873644
 10
-28.3911112476
 20
-184.3354449093
 10
-28.426275094
 20
-184.263316605
 10
-28.4631540629
 20
-184.1919524821
 10
-28.5017564909
 20
-184.121356255
 10
-28.5420740414
 20
-184.0515242092
 10
-28.5839110577
 20
-183.9827952319
 10
-28.6272749257
 20
-183.9151746847
 10
-28.6721582595
 20
-183.8486572059
 10
-28.7183432454
 20
-183.7835655974
 10
-28.7658362104
 20
-183.71990679
 10
-28.8146308275
 20
-183.6576738529
 10
-28.8644903019
 20
-183.5971687955
 10
-28.9154198096
 20
-183.5384000167
 10
-28.9674141745
 20
-183.4813591176
 10
-29.020221074
 20
-183.4263229113
 10
-29.0738444575
 20
-183.3733011421
 10
-29.1282803754
 20
-183.3222840657
 10
-29.1832646564
 20
-183.2735192623
 10
-29.238799966
 20
-183.2270176796
 10
-29.2948836386
 20
-183.1827683698
 10
-29.3512435066
 20
-183.1409860699
 10
-29.4077888472
 20
-183.1017423589
 10
-29.4646103832
 20
-183.0649656578
 10
-29.5217081145
 20
-183.0306559665
  0
LINE
  5
253
100
AcDbEntity
  8
ASSI
100
AcDbLine
 62
7
  6
CONTINUOUS
 10
-43.0628029743
 20
236.7378806515
 11
-43.0628029743
 21
-188.6431335575
  0
LINE
  5
254
100
AcDbEntity
  8
RACCORDO
100
AcDbLine
 62
7
  6
CONTINUOUS
 10
-34.2946788875
 20
-178.641861908
 11
-34.2946788875
 21
202.1598751882
  0
LINE
  5
255
100
AcDbEntity
  8
RACCORDO
100
AcDbLine
 62
7
  6
CONTINUOUS
 10
-32.8804653252
 20
202.9764243749
 11
-32.8804653252
 21
-177.8253127213
  0
LWPOLYLINE
  5
256
100
AcDbEntity
  8
RACCORDO
100
AcDbPolyline
 62
7
  6
CONTINUOUS
 90
21
 70
0
 10
-34.2946788875
 20
202.1598751882
 10
-34.2935164909
 20
202.225132692
 10
-34.2900794212
 20
202.2887579155
 10
-34.2843676784
 20
202.3507508587
 10
-34.276364637
 20
202.4112066762
 10
-34.2660869226
 20
202.4700302134
 10
-34.2535844117
 20
202.5269360062
 10
-34.2388462901
 20
202.581914733
 10
-34.221883372
 20
202.6349757155
 10
-34.2027779766
 20
202.6858614546
 10
-34.1815196898
 20
202.7345613771
 10
-34.1581189257
 20
202.7810860562
 10
-34.1326892455
 20
202.8252097129
 10
-34.1052207872
 20
202.8669206765
 10
-34.0757234129
 20
202.9062306178
 10
-34.0443402699
 20
202.9429487699
 10
-34.0110621921
 20
202.9770625348
 10
-33.9758983457
 20
203.0085845107
 10
-33.9390193768
 20
203.0373617248
 10
-33.9004169488
 20
203.0633808356
 10
-33.8805086554
 20
203.0753402679
  0
LWPOLYLINE
  5
257
100
AcDbEntity
  8
RACCORDO
100
AcDbPolyline
 62
7
  6
CONTINUOUS
 90
15
 70
0
 10
-28.1074945522
 20
212.0592320637
 10
-28.1068796106
 20
212.0827460929
 10
-28.1050891872
 20
212.1053420874
 10
-28.1021232817
 20
212.1270200473
 10
-28.0979639443
 20
212.1478469598
 10
-28.092629125
 20
212.1677558376
 10
-28.0861726738
 20
212.1865457189
 10
-28.0785832307
 20
212.2042052701
 10
-28.0698721558
 20
212.2207458247
 10
-28.0601273794
 20
212.236000421
 10
-28.0493384321
 20
212.2499560344
 10
-28.0375157832
 20
212.2626256895
 10
-28.0247787718
 20
212.2738814976
 10
-28.0111181369
 20
212.283709139
 10
-28.0039478182
 20
212.2880911011
  0
LWPOLYLINE
  5
258
100
AcDbEntity
  8
CURVE
100
AcDbPolyline
 62
250
  6
CONTINUOUS
 90
17
 70
0
 10
9.8911859526
 20
206.7621818347
 10
9.9003829318
 20
206.8034812929
 10
9.9015642015
 20
206.8505839022
 10
9.8946847676
 20
206.901695539
 10
9.87967667
 20
206.9558253187
 10
9.8576365143
 20
207.0090181083
 10
9.829208847
 20
207.0601852156
 10
9.795476469
 20
207.1073777014
 10
9.7570221651
 20
207.1494751783
 10
9.7166556989
 20
207.1834016845
 10
9.6752716365
 20
207.2086602923
 10
9.634446284
 20
207.2242889091
 10
9.5950717835
 20
207.2296939521
 10
9.5600251352
 20
207.2244804879
 10
9.5299269002
 20
207.2090344462
 10
9.505923511
 20
207.1839441622
 10
9.4886938564
 20
207.1494905536
  0
LINE
  5
259
100
AcDbEntity
  8
RACCORDO
100
AcDbLine
 62
7
  6
CONTINUOUS
 10
-28.1074945522
 20
212.0592320637
 11
-28.1074945522
 21
201.8533536038
  0
LINE
  5
25A
100
AcDbEntity
  8
RACCORDO
100
AcDbLine
 62
7
  6
CONTINUOUS
 10
-28.1074945522
 20
-185.4801457068
 11
-28.1074945522
 21
-188.3377916755
  0
LINE
  5
25B
100
AcDbEntity
  8
RACCORDO
100
AcDbLine
 62
7
  6
CONTINUOUS
 10
-26.6932809898
 20
211.6509180154
 11
-26.6932809898
 21
202.6699027904
  0
LINE
  5
25C
100
AcDbEntity
  8
RACCORDO
100
AcDbLine
 62
7
  6
CONTINUOUS
 10
-26.6932809898
 20
-184.6635965201
 11
-26.6932809898
 21
-187.5212424889
  0
LWPOLYLINE
  5
25D
100
AcDbEntity
  8
RACCORDO
100
AcDbPolyline
 62
7
  6
CONTINUOUS
 90
21
 70
0
 10
-26.6932809898
 20
202.6699027904
 10
-26.6944433864
 20
202.6046452866
 10
-26.6978804561
 20
202.5410200631
 10
-26.7035921989
 20
202.47902712
 10
-26.7115952403
 20
202.4185713025
 10
-26.7218729548
 20
202.3597477653
 10
-26.7343754657
 20
202.3028419724
 10
-26.7491135873
 20
202.2478632456
 10
-26.7660765053
 20
202.1948022632
 10
-26.7851819007
 20
202.143916524
 10
-26.8064401875
 20
202.0952166016
 10
-26.8298409516
 20
202.0486919224
 10
-26.8552706318
 20
202.0045682657
 10
-26.8827390901
 20
201.9628573021
 10
-26.9122364644
 20
201.9235473609
 10
-26.9436196074
 20
201.8868292087
 10
-26.9768976852
 20
201.8527154438
 10
-27.0120615317
 20
201.8211934679
 10
-27.0489405005
 20
201.7924162538
 10
-27.0875429286
 20
201.766397143
 10
-27.107451222
 20
201.7544377107
  0
LWPOLYLINE
  5
25E
100
AcDbEntity
  8
RACCORDO
100
AcDbPolyline
 62
7
  6
CONTINUOUS
 90
28
 70
0
 10
1.4849242405
 20
-203.790985033
 10
1.485539182
 20
-203.8152091813
 10
1.4873296055
 20
-203.8398727119
 10
1.4902955109
 20
-203.8649756251
 10
1.4944548483
 20
-203.8906056362
 10
1.4997896677
 20
-203.9166750297
 10
1.5062461189
 20
-203.9429206589
 10
1.513835562
 20
-203.9693443088
 10
1.5225466369
 20
-203.9959441943
 10
1.5322914132
 20
-204.0224518141
 10
1.5430803606
 20
-204.0488662335
 10
1.5549030094
 20
-204.0751883871
 10
1.5676400209
 20
-204.1011525767
 10
1.5813006558
 20
-204.1267551769
 10
1.5958756533
 20
-204.1519998131
 10
1.6112178922
 20
-204.1766316639
 10
1.6273351433
 20
-204.2006445228
 10
1.6442196356
 20
-204.2240445963
 10
1.6617009358
 20
-204.2465956819
 10
1.6797850884
 20
-204.268289181
 10
1.6984660488
 20
-204.2891336922
 10
1.7175552498
 20
-204.3089188093
 10
1.7370568261
 20
-204.3276338025
 10
1.756966643
 20
-204.3452894016
 10
1.7770837291
 20
-204.3617073894
 10
1.7973410939
 20
-204.3768283603
 10
1.8178057279
 20
-204.3907117198
 10
1.8384776311
 20
-204.403357468
  0
LWPOLYLINE
  5
25F
100
AcDbEntity
  8
RACCORDO
100
AcDbPolyline
 62
7
  6
CONTINUOUS
 90
34
 70
0
 10
0.0707106781
 20
-203.3828288044
 10
0.0698946954
 20
-203.3433628976
 10
0.0674955863
 20
-203.3032457369
 10
0.0635133507
 20
-203.2624773224
 10
0.0579318194
 20
-203.2209624938
 10
0.0507671617
 20
-203.1787964114
 10
0.0420678851
 20
-203.1362645561
 10
0.0318235761
 20
-203.0933644458
 10
0.0200446481
 20
-203.0500985626
 10
0.0068108492
 20
-203.0067598335
 10
-0.007887693
 20
-202.963347764
 10
-0.0240411061
 20
-202.9198628487
 10
-0.0415400253
 20
-202.8765994972
 10
-0.0603935807
 20
-202.8335592132
 10
-0.0805926422
 20
-202.7907404932
 10
-0.1020004542
 20
-202.7484332365
 10
-0.1246252188
 20
-202.706640914
 10
-0.148458734
 20
-202.6653600549
 10
-0.1733396374
 20
-202.6248701468
 10
-0.1992750363
 20
-202.5851765569
 10
-0.2262578235
 20
-202.546273918
 10
-0.2541053149
 20
-202.5084256162
 10
-0.2828233781
 20
-202.4716388059
 10
-0.3124061456
 20
-202.4359063328
 10
-0.3426533304
 20
-202.4014701196
 10
-0.373569441
 20
-202.3683389624
 10
-0.4051499689
 20
-202.3365040651
 10
-0.4371811016
 20
-202.3061809624
 10
-0.4696658968
 20
-202.2773799131
 10
-0.5026012967
 20
-202.2500906583
 10
-0.5357643159
 20
-202.2244979572
 10
-0.5690806257
 20
-202.200663396
 10
-0.6026245548
 20
-202.1785253884
 10
-0.6363961031
 20
-202.1580839343
  0
LWPOLYLINE
  5
260
100
AcDbEntity
  8
RACCORDO
100
AcDbPolyline
 62
7
  6
CONTINUOUS
 90
34
 70
0
 10
-4.4547727215
 20
197.5859766401
 10
-4.4539567388
 20
197.5465107332
 10
-4.4515576296
 20
197.5063935725
 10
-4.447575394
 20
197.465625158
 10
-4.4419938628
 20
197.4241103294
 10
-4.4348292051
 20
197.381944247
 10
-4.4261299284
 20
197.3394123917
 10
-4.4158856194
 20
197.2965122814
 10
-4.4041066915
 20
197.2532463982
 10
-4.3908728926
 20
197.2099076691
 10
-4.3761743504
 20
197.1664955997
 10
-4.3600209372
 20
197.1230106843
 10
-4.3425220181
 20
197.0797473329
 10
-4.3236684626
 20
197.0367070489
 10
-4.3034694011
 20
196.9938883288
 10
-4.2820615892
 20
196.9515810722
 10
-4.2594368245
 20
196.9097887496
 10
-4.2356033094
 20
196.8685078905
 10
-4.210722406
 20
196.8280179824
 10
-4.1847870071
 20
196.7883243925
 10
-4.1578042199
 20
196.7494217536
 10
-4.1299567285
 20
196.7115734518
 10
-4.1012386652
 20
196.6747866416
 10
-4.0716558978
 20
196.6390541684
 10
-4.041408713
 20
196.6046179552
 10
-4.0104926024
 20
196.571486798
 10
-3.9789120744
 20
196.5396519007
 10
-3.9468809417
 20
196.5093287981
 10
-3.9143961466
 20
196.4805277487
 10
-3.8814607466
 20
196.453238494
 10
-3.8482977275
 20
196.4276457928
 10
-3.8149814176
 20
196.4038112316
 10
-3.7814374886
 20
196.381673224
 10
-3.7476659403
 20
196.3612317699
  0
LINE
  5
261
100
AcDbEntity
  8
CURVE
100
AcDbLine
 62
250
  6
CONTINUOUS
 10
-6.576093065
 20
210.7720899751
 11
-6.576093065
 21
217.3038521894
  0
LINE
  5
262
100
AcDbEntity
  8
CURVE
100
AcDbLine
 62
250
  6
CONTINUOUS
 10
-6.1518289963
 20
217.0588874334
 11
-6.1518289963
 21
210.5271252191
  0
LINE
  5
263
100
AcDbEntity
  8
RACCORDO
100
AcDbLine
 62
7
  6
CONTINUOUS
 10
-4.4547727215
 20
198.4024469169
 11
-4.4547727215
 21
197.5859766401
  0
LINE
  5
264
100
AcDbEntity
  8
RACCORDO
100
AcDbLine
 62
7
  6
CONTINUOUS
 10
-1.4849242405
 20
-202.4846246991
 11
-1.4849242405
 21
-203.7093301143
  0
LINE
  5
265
100
AcDbEntity
  8
CURVE
100
AcDbLine
 62
250
  6
CONTINUOUS
 10
-0.7071067812
 20
215.0519511213
 11
-0.7071067812
 21
209.3617811889
  0
LINE
  5
266
100
AcDbEntity
  8
CURVE
100
AcDbLine
 62
250
  6
CONTINUOUS
 10
-0.2828427125
 20
209.1963133634
 11
-0.2828427125
 21
214.8069863653
  0
LINE
  5
267
100
AcDbEntity
  8
RACCORDO
100
AcDbLine
 62
7
  6
CONTINUOUS
 10
0.0707106781
 20
-204.6075342196
 11
0.0707106781
 21
-203.3828288044
  0
LINE
  5
268
100
AcDbEntity
  8
RACCORDO
100
AcDbLine
 62
7
  6
CONTINUOUS
 10
1.4849242405
 20
-203.790985033
 11
1.4849242405
 21
-202.5662796178
  0
LWPOLYLINE
  5
269
100
AcDbEntity
  8
RACCORDO
100
AcDbPolyline
 62
7
  6
CONTINUOUS
 90
15
 70
0
 10
3.0405591591
 20
194.0747362276
 10
3.0411741006
 20
194.0982502568
 10
3.0429645241
 20
194.1208462513
 10
3.0459304295
 20
194.1425242112
 10
3.050089767
 20
194.1633511237
 10
3.0554245863
 20
194.1832600015
 10
3.0618810375
 20
194.2020498828
 10
3.0694704806
 20
194.219709434
 10
3.0781815555
 20
194.2362499886
 10
3.0879263318
 20
194.2515045849
 10
3.0987152792
 20
194.2654601983
 10
3.110537928
 20
194.2781298534
 10
3.1232749395
 20
194.2893856615
 10
3.1369355744
 20
194.2992133029
 10
3.1441058931
 20
194.303595265
  0
LWPOLYLINE
  5
26A
100
AcDbEntity
  8
CURVE
100
AcDbPolyline
 62
250
  6
CONTINUOUS
 90
17
 70
0
 10
-6.576093065
 20
210.7720899751
 10
-6.5720530434
 20
210.7221813449
 10
-6.5600868616
 20
210.6695084031
 10
-6.5406503079
 20
210.6160774459
 10
-6.5139610307
 20
210.5630162163
 10
-6.4819691513
 20
210.514201771
 10
-6.4454823793
 20
210.4705448916
 10
-6.4058904844
 20
210.433708455
 10
-6.3639610307
 20
210.404666514
 10
-6.3227577026
 20
210.3855410937
 10
-6.2831237965
 20
210.3764738844
 10
-6.2465689555
 20
210.3778102534
 10
-6.2139610307
 20
210.3897999762
 10
-6.1876826047
 20
210.4115669926
 10
-6.1681185692
 20
210.4424009017
 10
-6.1560141122
 20
210.4811272495
 10
-6.1518289963
 20
210.5271252405
  0
LWPOLYLINE
  5
26B
100
AcDbEntity
  8
CURVE
100
AcDbPolyline
 62
250
  6
CONTINUOUS
 90
17
 70
0
 10
-6.1518289963
 20
217.0588874334
 10
-6.155869018
 20
217.1087960636
 10
-6.1678351997
 20
217.1614690053
 10
-6.1872717534
 20
217.2148999626
 10
-6.2139610307
 20
217.2679611922
 10
-6.2459529101
 20
217.3167756374
 10
-6.2824396821
 20
217.3604325169
 10
-6.322031577
 20
217.3972689535
 10
-6.3639610307
 20
217.4263108944
 10
-6.4051643587
 20
217.4454363148
 10
-6.4447982648
 20
217.4545035241
 10
-6.4813531058
 20
217.4531671551
 10
-6.5139610307
 20
217.4411774323
 10
-6.5402394567
 20
217.4194104158
 10
-6.5598034922
 20
217.3885765067
 10
-6.5719079492
 20
217.349850159
 10
-6.576093065
 20
217.303852168
  0
LWPOLYLINE
  5
26C
100
AcDbEntity
  8
CURVE
100
AcDbPolyline
 62
250
  6
CONTINUOUS
 90
17
 70
0
 10
-0.2828427125
 20
214.8069863653
 10
-0.2868827341
 20
214.8568949956
 10
-0.2988489159
 20
214.9095679373
 10
-0.3182854696
 20
214.9629988945
 10
-0.3449747468
 20
215.0160601241
 10
-0.3769666262
 20
215.0648745694
 10
-0.4134533982
 20
215.1085314488
 10
-0.4530452931
 20
215.1453678854
 10
-0.4949747468
 20
215.1744098264
 10
-0.5361780749
 20
215.1935352467
 10
-0.575811981
 20
215.202602456
 10
-0.612366822
 20
215.201266087
 10
-0.6449747468
 20
215.1892763642
 10
-0.6712531728
 20
215.1675093478
 10
-0.6908172083
 20
215.1366754387
 10
-0.7029216653
 20
215.0979490909
 10
-0.7071067812
 20
215.0519510999
  0
LINE
  5
26D
100
AcDbEntity
  8
RACCORDO
100
AcDbLine
 62
7
  6
CONTINUOUS
 10
3.0405591591
 20
193.2582659508
 11
3.0405591591
 21
194.0747362276
  0
LINE
  5
26E
100
AcDbEntity
  8
CURVE
100
AcDbLine
 62
250
  6
CONTINUOUS
 10
3.4376268358
 20
212.6588338766
 11
3.4376268358
 21
207.0481609236
  0
LINE
  5
26F
100
AcDbEntity
  8
CURVE
100
AcDbLine
 62
250
  6
CONTINUOUS
 10
3.8618909046
 20
206.7236991882
 11
3.8618909046
 21
212.4138691206
  0
LINE
  5
270
100
AcDbEntity
  8
CURVE
100
AcDbLine
 62
250
  6
CONTINUOUS
 10
5.3848903298
 20
211.5345083401
 11
5.3848903298
 21
204.1109091522
  0
LINE
  5
271
100
AcDbEntity
  8
CURVE
100
AcDbLine
 62
250
  6
CONTINUOUS
 10
5.8091543985
 20
203.8659443962
 11
5.8091543985
 21
211.2895435841
  0
LWPOLYLINE
  5
272
100
AcDbEntity
  8
RACCORDO
100
AcDbPolyline
 62
7
  6
CONTINUOUS
 90
15
 70
0
 10
-1.4849242405
 20
-203.7093301143
 10
-1.485539182
 20
-203.7328441435
 10
-1.4873296055
 20
-203.7554401381
 10
-1.4902955109
 20
-203.7771180979
 10
-1.4944548483
 20
-203.7979450104
 10
-1.4997896677
 20
-203.8178538883
 10
-1.5062461189
 20
-203.8366437695
 10
-1.513835562
 20
-203.8543033207
 10
-1.5225466369
 20
-203.8708438754
 10
-1.5322914132
 20
-203.8860984716
 10
-1.5430803606
 20
-203.9000540851
 10
-1.5549030094
 20
-203.9127237401
 10
-1.5676400209
 20
-203.9239795482
 10
-1.5813006558
 20
-203.9338071896
 10
-1.5884709745
 20
-203.9381891517
  0
LWPOLYLINE
  5
273
100
AcDbEntity
  8
CURVE
100
AcDbPolyline
 62
250
  6
CONTINUOUS
 90
17
 70
0
 10
3.8618909046
 20
212.4138691206
 10
3.8578508829
 20
212.4637777508
 10
3.8458847012
 20
212.5164506925
 10
3.8264481475
 20
212.5698816498
 10
3.7997588702
 20
212.6229428793
 10
3.7677669908
 20
212.6717573246
 10
3.7312802188
 20
212.7154142041
 10
3.6916883239
 20
212.7522506407
 10
3.6497588702
 20
212.7812925816
 10
3.6085555421
 20
212.800418002
 10
3.568921636
 20
212.8094852113
 10
3.5323667951
 20
212.8081488423
 10
3.4997588702
 20
212.7961591194
 10
3.4734804442
 20
212.774392103
 10
3.4539164087
 20
212.7435581939
 10
3.4418119517
 20
212.7048318462
 10
3.4376268358
 20
212.6588338552
  0
LWPOLYLINE
  5
274
100
AcDbEntity
  8
CURVE
100
AcDbPolyline
 62
250
  6
CONTINUOUS
 90
17
 70
0
 10
5.3848903298
 20
204.1109091522
 10
5.3889303515
 20
204.061000522
 10
5.4008965332
 20
204.0083275803
 10
5.4203330869
 20
203.9548966231
 10
5.4470223642
 20
203.9018353935
 10
5.4790142436
 20
203.8530209482
 10
5.5155010156
 20
203.8093640688
 10
5.5550929105
 20
203.7725276321
 10
5.5970223642
 20
203.7434856912
 10
5.6382256922
 20
203.7243602709
 10
5.6778595984
 20
203.7152930616
 10
5.7144144393
 20
203.7166294305
 10
5.7470223642
 20
203.7286191534
 10
5.7733007902
 20
203.7503861698
 10
5.7928648257
 20
203.7812200789
 10
5.8049692827
 20
203.8199464267
 10
5.8091543985
 20
203.8659444177
  0
LWPOLYLINE
  5
275
100
AcDbEntity
  8
CURVE
100
AcDbPolyline
 62
250
  6
CONTINUOUS
 90
17
 70
0
 10
5.8091543985
 20
211.2895435841
 10
5.8051143769
 20
211.3394522143
 10
5.7931481951
 20
211.392125156
 10
5.7737116414
 20
211.4455561133
 10
5.7470223642
 20
211.4986173429
 10
5.7150304848
 20
211.5474317881
 10
5.6785437128
 20
211.5910886676
 10
5.6389518179
 20
211.6279251042
 10
5.5970223642
 20
211.6569670451
 10
5.5558190361
 20
211.6760924655
 10
5.51618513
 20
211.6851596748
 10
5.479630289
 20
211.6838233058
 10
5.4470223642
 20
211.671833583
 10
5.4207439382
 20
211.6500665665
 10
5.4011799027
 20
211.6192326574
 10
5.3890754457
 20
211.5805063097
 10
5.3848903298
 20
211.5345083187
  0
LWPOLYLINE
  5
276
100
AcDbEntity
  8
RACCORDO
100
AcDbPolyline
 62
7
  6
CONTINUOUS
 90
40
 70
0
 10
26.6932809898
 20
170.2120726209
 10
26.6944433864
 20
170.1454728105
 10
26.6978804561
 20
170.0778785451
 10
26.7035921989
 20
170.0092898246
 10
26.7115952403
 20
169.9395922955
 10
26.7218729548
 20
169.8689003113
 10
26.7343754657
 20
169.7975569322
 10
26.7491135873
 20
169.725558992
 10
26.7660765053
 20
169.652909657
 10
26.7851819007
 20
169.5799614861
 10
26.8064401875
 20
169.5067130269
 10
26.8298409516
 20
169.433165732
 10
26.8552706318
 20
169.359676518
 10
26.8827390901
 20
169.2862456672
 10
26.9122364644
 20
169.2128728975
 10
26.9436196074
 20
169.1399142785
 10
26.9768976852
 20
169.0673718234
 10
27.0120615317
 20
168.9952435191
 10
27.0489405005
 20
168.9238793962
 10
27.0875429286
 20
168.8532831691
 10
27.127860479
 20
168.7834511233
 10
27.1696974954
 20
168.714722146
 10
27.2130613633
 20
168.6471015988
 10
27.2579446971
 20
168.58058412
 10
27.304129683
 20
168.5154925116
 10
27.351622648
 20
168.4518337042
 10
27.4004172651
 20
168.389600767
 10
27.4502767395
 20
168.3290957097
 10
27.5012062472
 20
168.2703269308
 10
27.5532006122
 20
168.2132860317
 10
27.6060075116
 20
168.1582498254
 10
27.6596308951
 20
168.1052280562
 10
27.714066813
 20
168.0542109798
 10
27.769051094
 20
168.0054461764
 10
27.8245864036
 20
167.9589445937
 10
27.8806700762
 20
167.9146952839
 10
27.9370299442
 20
167.872912984
 10
27.9935752849
 20
167.833669273
 10
28.0503968209
 20
167.7968925719
 10
28.1074945522
 20
167.7625828806
  0
LINE
  5
277
100
AcDbEntity
  8
RACCORDO
100
AcDbLine
 62
7
  6
CONTINUOUS
 10
26.6932809898
 20
-219.9790726584
 11
26.6932809898
 21
-217.1214266897
  0
LINE
  5
278
100
AcDbEntity
  8
RACCORDO
100
AcDbLine
 62
7
  6
CONTINUOUS
 10
26.6932809898
 20
170.2120726209
 11
26.6932809898
 21
180.4179510808
  0
LINE
  5
279
100
AcDbEntity
  8
RACCORDO
100
AcDbLine
 62
7
  6
CONTINUOUS
 10
32.8804653252
 20
163.3737888221
 11
32.8804653252
 21
-217.4279482741
  0
LWPOLYLINE
  5
27A
100
AcDbEntity
  8
RACCORDO
100
AcDbPolyline
 62
7
  6
CONTINUOUS
 90
15
 70
0
 10
26.6932809898
 20
-219.9790726584
 10
26.6926660483
 20
-220.0025866876
 10
26.6908756248
 20
-220.0251826822
 10
26.6879097194
 20
-220.046860642
 10
26.6837503819
 20
-220.0676875545
 10
26.6784155626
 20
-220.0875964324
 10
26.6719591114
 20
-220.1063863136
 10
26.6643696683
 20
-220.1240458649
 10
26.6556585934
 20
-220.1405864195
 10
26.645913817
 20
-220.1558410157
 10
26.6351248697
 20
-220.1697966292
 10
26.6233022209
 20
-220.1824662842
 10
26.6105652094
 20
-220.1937220923
 10
26.5969045745
 20
-220.2035497337
 10
26.5897342558
 20
-220.2079316958
  0
LINE
  5
27B
100
AcDbEntity
  8
ASSI
100
AcDbLine
 62
7
  6
CONTINUOUS
 10
41.6485894119
 20
-237.5544298382
 11
41.6485894119
 21
187.8265843709
  0
LINE
  5
27C
100
AcDbEntity
  8
ASSI
100
AcDbLine
 62
7
  6
CONTINUOUS
 10
43.0628029743
 20
-236.7378806515
 11
43.0628029743
 21
188.6431335575
  0
LWPOLYLINE
  5
27D
100
AcDbEntity
  8
RACCORDO
100
AcDbPolyline
 62
7
  6
CONTINUOUS
 90
21
 70
0
 10
32.8804653252
 20
-217.4279482741
 10
32.8793029285
 20
-217.4932057779
 10
32.8758658588
 20
-217.5568310014
 10
32.870154116
 20
-217.6188239446
 10
32.8621510747
 20
-217.6792797621
 10
32.8518733602
 20
-217.7381032992
 10
32.8393708493
 20
-217.7950090921
 10
32.8246327277
 20
-217.8499878189
 10
32.8076698096
 20
-217.9030488013
 10
32.7885644142
 20
-217.9539345405
 10
32.7673061275
 20
-218.0026344629
 10
32.7439053633
 20
-218.0491591421
 10
32.7184756832
 20
-218.0932827988
 10
32.6910072249
 20
-218.1349937624
 10
32.6615098505
 20
-218.1743037037
 10
32.6301267076
 20
-218.2110218558
 10
32.5968486297
 20
-218.2451356207
 10
32.5616847833
 20
-218.2766575966
 10
32.5248058144
 20
-218.3054348107
 10
32.4862033864
 20
-218.3314539215
 10
32.466295093
 20
-218.3434133538
  0
LINE
  5
27E
100
AcDbEntity
  8
CURVE
100
AcDbLine
 62
250
  6
CONTINUOUS
 10
-0.7071067812
 20
209.3617811889
 11
-0.5167318715
 21
208.5924042941
  0
LINE
  5
27F
100
AcDbEntity
  8
CURVE
100
AcDbLine
 62
250
  6
CONTINUOUS
 10
-0.1237743863
 20
208.5534581938
 11
-0.2828427125
 21
209.1963133634
  0
LINE
  5
280
100
AcDbEntity
  8
CURVE
100
AcDbLine
 62
250
  6
CONTINUOUS
 10
9.3926925175
 20
208.3214933401
 11
9.4886938969
 21
207.9335165576
  0
LINE
  5
281
100
AcDbEntity
  8
CURVE
100
AcDbLine
 62
250
  6
CONTINUOUS
 10
9.8911859967
 20
207.8560374344
 11
9.7635126818
 21
208.3720121239
  0
LINE
  5
282
100
AcDbEntity
  8
CURVE
100
AcDbLine
 62
250
  6
CONTINUOUS
 10
-6.3639610307
 20
220.3692737987
 11
-5.0626672617
 21
217.0414474038
  0
LINE
  5
283
100
AcDbEntity
  8
CURVE
100
AcDbLine
 62
250
  6
CONTINUOUS
 10
-4.6961728956
 20
217.0766280372
 11
-6.1807138476
 21
220.8730763736
  0
LINE
  5
284
100
AcDbEntity
  8
CURVE
100
AcDbLine
 62
250
  6
CONTINUOUS
 10
-0.5167318715
 20
208.5924042941
 11
-0.3263569617
 21
208.0428463921
  0
LINE
  5
285
100
AcDbEntity
  8
CURVE
100
AcDbLine
 62
250
  6
CONTINUOUS
 10
0.022326333
 20
208.1317072137
 11
-0.1237743863
 21
208.5534581938
  0
LWPOLYLINE
  5
286
100
AcDbEntity
  8
CURVE
100
AcDbPolyline
 62
250
  6
CONTINUOUS
 90
17
 70
0
 10
9.4886938969
 20
207.9335165576
 10
9.5055562695
 20
207.8801210826
 10
9.5294417593
 20
207.8272838467
 10
9.5594405754
 20
207.7770174038
 10
9.5950717992
 20
207.730470611
 10
9.6337319425
 20
207.6910445305
 10
9.6745330315
 20
207.6593785564
 10
9.7159209653
 20
207.6366788356
 10
9.757022179
 20
207.6236731156
 10
9.7948335055
 20
207.621311693
 10
9.8286494691
 20
207.6293664789
 10
9.8571820303
 20
207.6475306688
 10
9.8796767004
 20
207.6756845959
 10
9.8944898477
 20
207.7117711205
 10
9.9015117531
 20
207.754828282
 10
9.9004749543
 20
207.8032160465
 10
9.8911860023
 20
207.8560374559
  0
LWPOLYLINE
  5
287
100
AcDbEntity
  8
RACCORDO
100
AcDbPolyline
 62
7
  6
CONTINUOUS
 90
37
 70
0
 10
33.1210728852
 20
198.8009200811
 10
33.1516615174
 20
198.6593399941
 10
33.1855381452
 20
198.517274633
 10
33.2227027688
 20
198.3747239977
 10
33.2631987928
 20
198.231545669
 10
33.3069828125
 20
198.0878820661
 10
33.3539246134
 20
197.9441604472
 10
33.4040335962
 20
197.8003806394
 10
33.4573003602
 20
197.6565428156
 10
33.5135664893
 20
197.5130747518
 10
33.5728409123
 20
197.3699775488
 10
33.6351147003
 20
197.2272501059
 10
33.7002026499
 20
197.0853168969
 10
33.7681131389
 20
196.9441802862
 10
33.8388377895
 20
196.8038379094
 10
33.9121662655
 20
196.6647071472
 10
33.9881063183
 20
196.5267916065
 10
34.0666501964
 20
196.3900876804
 10
34.1475643091
 20
196.2550019286
 10
34.2308557123
 20
196.1215391685
 10
34.3165173501
 20
195.9896945827
 10
34.4042944631
 20
195.8598602794
 10
34.4941933492
 20
195.732042243
 10
34.5862077106
 20
195.6062344891
 10
34.680063895
 20
195.4828111721
 10
34.7757673855
 20
195.3617793903
 10
34.873312699
 20
195.2431320454
 10
34.9724097341
 20
195.1272219966
 10
35.0730631103
 20
195.0140573927
 10
35.175268208
 20
194.9036300849
 10
35.2787210675
 20
194.7962684859
 10
35.3834254036
 20
194.6919817222
 10
35.4893775014
 20
194.5907606674
 10
35.5962622578
 20
194.4929063545
 10
35.7039746383
 20
194.3985191279
 10
35.8126196773
 20
194.3074986433
 10
35.9221973748
 20
194.2198449007
  0
LINE
  5
288
100
AcDbEntity
  8
RACCORDO
100
AcDbLine
 62
7
  6
CONTINUOUS
 10
31.7068593228
 20
197.9843708945
 11
30.3348809129
 21
204.688748797
  0
LINE
  5
289
100
AcDbEntity
  8
RACCORDO
100
AcDbLine
 62
7
  6
CONTINUOUS
 10
33.1210728852
 20
198.8009200811
 11
31.7490944753
 21
205.5052979837
  0
LINE
  5
28A
100
AcDbEntity
  8
RACCORDO
100
AcDbLine
 62
7
  6
CONTINUOUS
 10
30.3348809129
 20
-241.3518072779
 11
31.7068593228
 21
-236.2317556532
  0
LINE
  5
28B
100
AcDbEntity
  8
RACCORDO
100
AcDbLine
 62
7
  6
CONTINUOUS
 10
31.7490944753
 20
-240.5352580912
 11
33.1210728852
 21
-235.4152064665
  0
LWPOLYLINE
  5
28C
100
AcDbEntity
  8
RACCORDO
100
AcDbPolyline
 62
7
  6
CONTINUOUS
 90
18
 70
0
 10
31.7068593228
 20
-236.2317556532
 10
31.737447955
 20
-236.1254985519
 10
31.7713245828
 20
-236.0225530715
 10
31.8084892064
 20
-235.9229192119
 10
31.8489852304
 20
-235.8265046766
 10
31.8927692501
 20
-235.7334017622
 10
31.939711051
 20
-235.6438873584
 10
31.9898200338
 20
-235.5579721479
 10
32.0430867979
 20
-235.475645448
 10
32.0993529269
 20
-235.3971520996
 10
32.1586273499
 20
-235.3225035146
 10
32.2209011379
 20
-235.2516882811
 10
32.2859890875
 20
-235.1849170048
 10
32.3538995765
 20
-235.1222017246
 10
32.4246242271
 20
-235.0635304016
 10
32.4979527031
 20
-235.0090775254
 10
32.5738927559
 20
-234.9588556542
 10
32.6218066551
 20
-234.930111545
  0
LWPOLYLINE
  5
28D
100
AcDbEntity
  8
CURVE
100
AcDbPolyline
 62
250
  6
CONTINUOUS
 90
11
 70
0
 10
-6.1807138476
 20
220.8730763736
 10
-6.2064401366
 20
220.9285918282
 10
-6.2394227621
 20
220.9818662848
 10
-6.2778483076
 20
221.029617319
 10
-6.3200373923
 20
221.0697579816
 10
-6.3634056709
 20
221.1001056429
 10
-6.4075223857
 20
221.1203588731
 10
-6.4497352602
 20
221.1290358904
 10
-6.4881993893
 20
221.1257574672
 10
-6.5207358316
 20
221.1110123106
 10
-6.5472082253
 20
221.0846856113
  0
LWPOLYLINE
  5
28E
100
AcDbEntity
  8
CURVE
100
AcDbPolyline
 62
250
  6
CONTINUOUS
 90
17
 70
0
 10
-5.0626672617
 20
217.0414474038
 10
-5.0384201832
 20
216.988699668
 10
-5.00811684
 20
216.9386310867
 10
-4.9729114772
 20
216.8931487566
 10
-4.9334293079
 20
216.8533526929
 10
-4.8925551994
 20
216.8221506984
 10
-4.8511807783
 20
216.7999716569
 10
-4.8108819834
 20
216.7876603613
 10
-4.7725534801
 20
216.7857454816
 10
-4.7389958401
 20
216.7943669336
 10
-4.7107869158
 20
216.8130696136
 10
-4.6890011762
 20
216.8411411424
 10
-4.6742786563
 20
216.8782291573
 10
-4.6676950953
 20
216.9216237262
 10
-4.669176073
 20
216.9702523514
 10
-4.6786651796
 20
217.0222627838
 10
-4.6961729049
 20
217.0766280611
  0
LINE
  5
28F
100
AcDbEntity
  8
CURVE
100
AcDbLine
 62
250
  6
CONTINUOUS
 10
-0.3263569617
 20
208.0428463921
 11
0.0543928577
 21
207.3833683605
  0
LINE
  5
290
100
AcDbEntity
  8
CURVE
100
AcDbLine
 62
250
  6
CONTINUOUS
 10
0.3057095601
 20
207.6408730668
 11
0.022326333
 21
208.1317072137
  0
LINE
  5
291
100
AcDbEntity
  8
CURVE
100
AcDbLine
 62
250
  6
CONTINUOUS
 10
9.1314459449
 20
208.7739852092
 11
9.3926925175
 21
208.3214933401
  0
LINE
  5
292
100
AcDbEntity
  8
CURVE
100
AcDbLine
 62
250
  6
CONTINUOUS
 10
9.7635126818
 20
208.3720121239
 11
9.3827626042
 21
209.0314899212
  0
LINE
  5
293
100
AcDbEntity
  8
RACCORDO
100
AcDbLine
 62
250
  6
CONTINUOUS
 10
-34.2946788875
 20
-178.641861908
 11
-32.8804653252
 21
-177.8253127213
  0
LINE
  5
294
100
AcDbEntity
  8
RACCORDO
100
AcDbLine
 62
250
  6
CONTINUOUS
 10
-32.8804653252
 20
-181.0913516482
 11
-31.4662517628
 21
-180.2748024615
  0
LINE
  5
295
100
AcDbEntity
  8
RACCORDO
100
AcDbLine
 62
250
  6
CONTINUOUS
 10
-28.1074945522
 20
-182.2141067799
 11
-29.5217081145
 21
-183.0306559665
  0
LINE
  5
296
100
AcDbEntity
  8
RACCORDO
100
AcDbLine
 62
250
  6
CONTINUOUS
 10
-26.6932809898
 20
-184.6635965201
 11
-28.1074945522
 21
-185.4801457068
  0
LINE
  5
297
100
AcDbEntity
  8
RACCORDO
100
AcDbLine
 62
250
  6
CONTINUOUS
 10
-28.1074945522
 20
-188.3377916755
 11
-26.6932809898
 21
-187.5212424889
  0
LINE
  5
298
100
AcDbEntity
  8
CURVE
100
AcDbLine
 62
250
  6
CONTINUOUS
 10
0.0543928577
 20
207.3833683605
 11
0.4351426402
 21
206.9437092791
  0
LINE
  5
299
100
AcDbEntity
  8
CURVE
100
AcDbLine
 62
250
  6
CONTINUOUS
 10
0.5832237007
 20
207.3204221626
 11
0.3057095601
 21
207.6408730668
  0
LINE
  5
29A
100
AcDbEntity
  8
CURVE
100
AcDbLine
 62
250
  6
CONTINUOUS
 10
8.7506180736
 20
209.2137347806
 11
9.1314459449
 21
208.7739852092
  0
LINE
  5
29B
100
AcDbEntity
  8
CURVE
100
AcDbLine
 62
250
  6
CONTINUOUS
 10
9.3827626042
 20
209.0314899212
 11
9.0020131166
 21
209.4711489813
  0
LWPOLYLINE
  5
29C
100
AcDbEntity
  8
RACCORDO
100
AcDbPolyline
 62
7
  6
CONTINUOUS
 90
9
 70
0
 10
33.4314076924
 20
-234.699114797
 10
33.4040335962
 20
-234.7414229613
 10
33.3539246134
 20
-234.8273381717
 10
33.3069828125
 20
-234.9168525756
 10
33.2631987928
 20
-235.00995549
 10
33.2227027688
 20
-235.1063700252
 10
33.1855381452
 20
-235.2060038848
 10
33.1516615174
 20
-235.3089493652
 10
33.1210728852
 20
-235.4152064665
  0
LINE
  5
29D
100
AcDbEntity
  8
RACCORDO
100
AcDbLine
 62
250
  6
CONTINUOUS
 10
-27.7539411616
 20
-188.9501641106
 11
-26.3397275992
 21
-188.1336149239
  0
LWPOLYLINE
  5
29E
100
AcDbEntity
  8
RACCORDO
100
AcDbPolyline
 62
7
  6
CONTINUOUS
 90
21
 70
0
 10
-29.5217081145
 20
201.0369622368
 10
-29.4646103832
 20
201.0053368992
 10
-29.4077888472
 20
200.9764975148
 10
-29.3512435066
 20
200.9504440838
 10
-29.2948836386
 20
200.9271434209
 10
-29.238799966
 20
200.9066287113
 10
-29.1832646564
 20
200.8889995105
 10
-29.1282803754
 20
200.8742698445
 10
-29.0738444575
 20
200.8624256873
 10
-29.020221074
 20
200.8535245174
 10
-28.9674141745
 20
200.8475806398
 10
-28.9154198096
 20
200.8445797496
 10
-28.8644903019
 20
200.8445364096
 10
-28.8146308275
 20
200.8474649957
 10
-28.7658362104
 20
200.8533511321
 10
-28.7183432454
 20
200.8621662539
 10
-28.6721582595
 20
200.8739245984
 10
-28.6272749257
 20
200.8886119283
 10
-28.5839110577
 20
200.9061569677
 10
-28.5420740414
 20
200.9265736073
 10
-28.5216647844
 20
200.937888524
  0
LINE
  5
29F
100
AcDbEntity
  8
RACCORDO
100
AcDbLine
 62
7
  6
CONTINUOUS
 10
31.4662517628
 20
165.8232785623
 11
28.1074945522
 21
167.7625828806
  0
LINE
  5
2A0
100
AcDbEntity
  8
RACCORDO
100
AcDbLine
 62
7
  6
CONTINUOUS
 10
-29.5217081145
 20
201.0369622368
 11
-32.8804653252
 21
202.9762665551
  0
LWPOLYLINE
  5
2A1
100
AcDbEntity
  8
RACCORDO
100
AcDbPolyline
 62
7
  6
CONTINUOUS
 90
40
 70
0
 10
31.4662517628
 20
165.8232785623
 10
31.5233494941
 20
165.7889688711
 10
31.5801710301
 20
165.7521921699
 10
31.6367163708
 20
165.7129484589
 10
31.6930762387
 20
165.671166159
 10
31.7491599114
 20
165.6269168493
 10
31.8046952209
 20
165.5804152665
 10
31.8596795019
 20
165.5316504631
 10
31.9141154199
 20
165.4806333868
 10
31.9677388033
 20
165.4276116176
 10
32.0205457028
 20
165.3725754113
 10
32.0725400678
 20
165.3155345121
 10
32.1234695755
 20
165.2567657333
 10
32.1733290498
 20
165.1962606759
 10
32.2221236669
 20
165.1340277388
 10
32.2696166319
 20
165.0703689314
 10
32.3158016178
 20
165.0052773229
 10
32.3606849517
 20
164.9387598442
 10
32.4040488196
 20
164.871139297
 10
32.4458858359
 20
164.8024103196
 10
32.4862033864
 20
164.7325782739
 10
32.5248058144
 20
164.6619820468
 10
32.5616847833
 20
164.5906179238
 10
32.5968486297
 20
164.5184896195
 10
32.6301267076
 20
164.4459471644
 10
32.6615098505
 20
164.3729885454
 10
32.6910072249
 20
164.2996157757
 10
32.7184756832
 20
164.226184925
 10
32.7439053633
 20
164.152695711
 10
32.7673061275
 20
164.079148416
 10
32.7885644142
 20
164.0058999568
 10
32.8076698096
 20
163.932951786
 10
32.8246327277
 20
163.8603024509
 10
32.8393708493
 20
163.7883045107
 10
32.8518733602
 20
163.7169611317
 10
32.8621510747
 20
163.6462691475
 10
32.870154116
 20
163.5765716184
 10
32.8758658588
 20
163.5079828978
 10
32.8793029285
 20
163.4403886324
 10
32.8804653252
 20
163.3737888221
  0
LINE
  5
2A2
100
AcDbEntity
  8
CURVE
100
AcDbLine
 62
250
  6
CONTINUOUS
 10
0.4351426402
 20
206.9437092791
 11
1.0486454826
 21
206.4123831169
  0
LINE
  5
2A3
100
AcDbEntity
  8
CURVE
100
AcDbLine
 62
250
  6
CONTINUOUS
 10
1.1515446329
 20
206.8282259428
 11
0.5832237007
 21
207.3204221626
  0
LINE
  5
2A4
100
AcDbEntity
  8
CURVE
100
AcDbLine
 62
250
  6
CONTINUOUS
 10
8.2915981929
 20
209.6112705665
 11
8.7506180736
 21
209.2137347806
  0
LINE
  5
2A5
100
AcDbEntity
  8
CURVE
100
AcDbLine
 62
250
  6
CONTINUOUS
 10
9.0020131166
 20
209.4711489813
 11
8.2405135515
 21
210.1306483643
  0
LWPOLYLINE
  5
2A6
100
AcDbEntity
  8
ASSI
100
AcDbPolyline
 62
7
  6
CONTINUOUS
 90
49
 70
0
 10
30.3348809129
 20
204.688748797
 10
29.0986811113
 20
205.9528674373
 10
27.8557842404
 20
207.1981927893
 10
26.6061903002
 20
208.424724853
 10
25.3495896129
 20
209.6327551512
 10
24.0862918564
 20
210.8219921612
 10
22.8172260636
 20
211.9915613143
 10
21.5423879917
 20
213.1414481431
 10
20.2617818835
 20
214.2716671152
 10
18.9763495008
 20
215.3813870638
 10
17.6860872934
 20
216.4705929104
 10
16.3909988114
 20
217.5392997336
 10
15.0920364669
 20
218.5867216031
 10
13.7891974104
 20
219.6128428621
 10
12.4824844913
 20
220.6176791674
 10
11.1728586705
 20
221.6004915593
 10
9.8603178051
 20
222.5612638374
 10
8.544864038
 20
223.5000122022
 10
7.2274647579
 20
224.4160462951
 10
5.9081185336
 20
225.3093494079
 10
4.5868267963
 20
226.1799382489
 10
3.2645612279
 20
227.0271725844
 10
1.9413211122
 20
227.8510352352
 10
0.6171071655
 20
228.6515433804
 10
-0.7071067812
 20
229.4281083239
 10
-2.0313207279
 20
230.1807124534
 10
-3.3555346746
 20
230.9093733813
 10
-4.6787747903
 20
231.613555248
 10
-6.0010403586
 20
232.293240047
 10
-7.322332096
 20
232.9484457849
 10
-8.6416783202
 20
233.5786906213
 10
-9.9590776004
 20
234.1839561953
 10
-11.2745313675
 20
234.7642608678
 10
-12.5870722328
 20
235.319177881
 10
-13.8966980537
 20
235.84868856
 10
-15.2034109727
 20
236.3528115797
 10
-16.5062500293
 20
236.8311762064
 10
-17.8052123738
 20
237.2837634927
 10
-19.1003008558
 20
237.710592386
 10
-20.3905630632
 20
238.111348995
 10
-21.6759954459
 20
238.4860141414
 10
-22.9566015541
 20
238.8346070036
 10
-24.231439626
 20
239.1568712252
 10
-25.5005054188
 20
239.4527874393
 10
-26.7638031753
 20
239.7223750129
 10
-28.0204038625
 20
239.9654356905
 10
-29.2699978028
 20
240.1819033868
 10
-30.5128946737
 20
240.371844187
 10
-31.7490944753
 20
240.5352580912
  0
LWPOLYLINE
  5
2A7
100
AcDbEntity
  8
RACCORDO
100
AcDbPolyline
 62
7
  6
CONTINUOUS
 90
18
 70
0
 10
-1.2778367546
 20
-202.0268962637
 10
-1.2895883436
 20
-202.0340058062
 10
-1.3122131082
 20
-202.0496716176
 10
-1.3336209202
 20
-202.0672576696
 10
-1.3538199816
 20
-202.0867510198
 10
-1.3726735371
 20
-202.1080196906
 10
-1.3901724563
 20
-202.1310757287
 10
-1.4063258694
 20
-202.1559070875
 10
-1.4210244116
 20
-202.1823456488
 10
-1.4342582105
 20
-202.2104023187
 10
-1.4460371384
 20
-202.2400661912
 10
-1.4562814474
 20
-202.2711364302
 10
-1.4649807241
 20
-202.3036225789
 10
-1.4721453818
 20
-202.3375150942
 10
-1.477726913
 20
-202.3725845104
 10
-1.4817091486
 20
-202.408754339
 10
-1.4841082578
 20
-202.4461010686
 10
-1.4849242405
 20
-202.4846246991
  0
LINE
  5
2A8
100
AcDbEntity
  8
RACCORDO
100
AcDbLine
 62
7
  6
CONTINUOUS
 10
-1.2778416194
 20
-202.026887838
 11
0.1363719429
 21
-201.2103386513
  0
LINE
  5
2A9
100
AcDbEntity
  8
RACCORDO
100
AcDbLine
 62
250
  6
CONTINUOUS
 10
-0.7778174593
 20
-202.0764290157
 11
0.6363961031
 21
-201.259879829
  0
LINE
  5
2AA
100
AcDbEntity
  8
RACCORDO
100
AcDbLine
 62
250
  6
CONTINUOUS
 10
-0.6363961031
 20
-202.1580839343
 11
0.7778174593
 21
-201.3415347477
  0
LINE
  5
2AB
100
AcDbEntity
  8
RACCORDO
100
AcDbLine
 62
250
  6
CONTINUOUS
 10
-1.4849413255
 20
-203.7093005241
 11
-1.8384776311
 21
-203.913427956
  0
LINE
  5
2AC
100
AcDbEntity
  8
RACCORDO
100
AcDbLine
 62
250
  6
CONTINUOUS
 10
0.0707106781
 20
-203.3828288044
 11
1.4849242405
 21
-202.5662796178
  0
LINE
  5
2AD
100
AcDbEntity
  8
RACCORDO
100
AcDbLine
 62
250
  6
CONTINUOUS
 10
0.0707106781
 20
-204.6075342196
 11
1.4849242405
 21
-203.790985033
  0
LINE
  5
2AE
100
AcDbEntity
  8
RACCORDO
100
AcDbLine
 62
250
  6
CONTINUOUS
 10
0.4242640687
 20
-205.2199066547
 11
1.8384776311
 21
-204.403357468
  0
LWPOLYLINE
  5
2AF
100
AcDbEntity
  8
RACCORDO
100
AcDbPolyline
 62
7
  6
CONTINUOUS
 90
18
 70
0
 10
0.1363768078
 20
-201.210347077
 10
0.148458734
 20
-201.2036981063
 10
0.1733396374
 20
-201.1919400418
 10
0.1992750363
 20
-201.1821960005
 10
0.2262578235
 20
-201.1744524079
 10
0.2541053149
 20
-201.1687616911
 10
0.2828233781
 20
-201.1651377805
 10
0.3124061456
 20
-201.1635667457
 10
0.3426533304
 20
-201.1640592233
 10
0.373569441
 20
-201.1666292157
 10
0.4051499689
 20
-201.1712627204
 10
0.4371811016
 20
-201.177928367
 10
0.4696658968
 20
-201.1866399448
 10
0.5026012967
 20
-201.1973836643
 10
0.5357643159
 20
-201.2100867865
 10
0.5690806257
 20
-201.2247250647
 10
0.6026245548
 20
-201.2413227456
 10
0.6363961031
 20
-201.259879829
  0
LWPOLYLINE
  5
2B0
100
AcDbEntity
  8
RACCORDO
100
AcDbPolyline
 62
7
  6
CONTINUOUS
 90
15
 70
0
 10
-1.5884709745
 20
-203.9381891517
 10
-1.5958756533
 20
-203.942220984
 10
-1.6112178922
 20
-203.9491360019
 10
-1.6273351433
 20
-203.9545370633
 10
-1.6442196356
 20
-203.9584393482
 10
-1.6617009358
 20
-203.9608034666
 10
-1.6797850884
 20
-203.9616138395
 10
-1.6984660488
 20
-203.9608860459
 10
-1.7175552498
 20
-203.9586274322
 10
-1.7370568261
 20
-203.9548224939
 10
-1.756966643
 20
-203.9494867355
 10
-1.7770837291
 20
-203.9426740166
 10
-1.7973410939
 20
-203.9344022903
 10
-1.8178057279
 20
-203.9246536034
 10
-1.8384776311
 20
-203.913427956
  0
LWPOLYLINE
  5
2B1
100
AcDbEntity
  8
RACCORDO
100
AcDbPolyline
 62
7
  6
CONTINUOUS
 90
18
 70
0
 10
2.3334523779
 20
192.8500702673
 10
2.3672239262
 20
192.8315131839
 10
2.4007678553
 20
192.8149155031
 10
2.4340841651
 20
192.8002772248
 10
2.4672471843
 20
192.7875741027
 10
2.5001825842
 20
192.7768303831
 10
2.5326673793
 20
192.7681188053
 10
2.564698512
 20
192.7614531588
 10
2.59627904
 20
192.756819654
 10
2.6271951506
 20
192.7542496616
 10
2.6574423354
 20
192.753757184
 10
2.6870251029
 20
192.7553282188
 10
2.7157431661
 20
192.7589521294
 10
2.7435906575
 20
192.7646428462
 10
2.7705734447
 20
192.7723864388
 10
2.7965088436
 20
192.7821304801
 10
2.821389747
 20
192.7938885446
 10
2.8334716732
 20
192.8005375153
  0
LINE
  5
2B2
100
AcDbEntity
  8
RACCORDO
100
AcDbLine
 62
7
  6
CONTINUOUS
 10
-3.7476659403
 20
196.3612317699
 11
2.3334523779
 21
192.8500702673
  0
LINE
  5
2B3
100
AcDbEntity
  8
RACCORDO
100
AcDbLine
 62
7
  6
CONTINUOUS
 10
26.3397275992
 20
181.0303235158
 11
3.3941125497
 21
194.2788340693
  0
LINE
  5
2B4
100
AcDbEntity
  8
RACCORDO
100
AcDbLine
 62
7
  6
CONTINUOUS
 10
-4.8083261121
 20
199.0148193519
 11
-27.7539411616
 21
212.2633299054
  0
LWPOLYLINE
  5
2B5
100
AcDbEntity
  8
RACCORDO
100
AcDbPolyline
 62
7
  6
CONTINUOUS
 90
28
 70
0
 10
-4.8083261121
 20
199.0148193519
 10
-4.7876542089
 20
199.0021736037
 10
-4.7671895749
 20
198.9882902441
 10
-4.7469322101
 20
198.9731692733
 10
-4.726815124
 20
198.9567512855
 10
-4.7069053071
 20
198.9390956864
 10
-4.6874037307
 20
198.9203806932
 10
-4.6683145297
 20
198.9005955761
 10
-4.6496335693
 20
198.8797510648
 10
-4.6315494168
 20
198.8580575658
 10
-4.6140681166
 20
198.8355064802
 10
-4.5971836242
 20
198.8121064067
 10
-4.5810663732
 20
198.7880935478
 10
-4.5657241343
 20
198.763461697
 10
-4.5511491368
 20
198.7382170608
 10
-4.5374885019
 20
198.7126144606
 10
-4.5247514904
 20
198.6866502709
 10
-4.5129288416
 20
198.6603281174
 10
-4.5021398942
 20
198.633913698
 10
-4.4923951178
 20
198.6074060782
 10
-4.483684043
 20
198.5808061926
 10
-4.4760945999
 20
198.5543825428
 10
-4.4696381487
 20
198.5281369135
 10
-4.4643033293
 20
198.50206752
 10
-4.4601439919
 20
198.4764375089
 10
-4.4571780865
 20
198.4513345958
 10
-4.455387663
 20
198.4266710651
 10
-4.4547727215
 20
198.4024469169
  0
LWPOLYLINE
  5
2B6
100
AcDbEntity
  8
RACCORDO
100
AcDbPolyline
 62
7
  6
CONTINUOUS
 90
28
 70
0
 10
26.3397275992
 20
181.0303235158
 10
26.3603995024
 20
181.0176777676
 10
26.3808641364
 20
181.003794408
 10
26.4011215012
 20
180.9886734372
 10
26.4212385873
 20
180.9722554494
 10
26.4411484042
 20
180.9545998503
 10
26.4606499805
 20
180.9358848571
 10
26.4797391815
 20
180.91609974
 10
26.4984201419
 20
180.8952552287
 10
26.5165042945
 20
180.8735617297
 10
26.5339855947
 20
180.8510106441
 10
26.550870087
 20
180.8276105706
 10
26.566987338
 20
180.8035977117
 10
26.5823295769
 20
180.7789658609
 10
26.5969045745
 20
180.7537212247
 10
26.6105652094
 20
180.7281186245
 10
26.6233022209
 20
180.7021544349
 10
26.6351248697
 20
180.6758322813
 10
26.645913817
 20
180.6494178619
 10
26.6556585934
 20
180.6229102421
 10
26.6643696683
 20
180.5963103566
 10
26.6719591114
 20
180.5698867067
 10
26.6784155626
 20
180.5436410775
 10
26.6837503819
 20
180.5175716839
 10
26.6879097194
 20
180.4919416728
 10
26.6908756248
 20
180.4668387597
 10
26.6926660483
 20
180.442175229
 10
26.6932809898
 20
180.4179510808
  0
LWPOLYLINE
  5
2B7
100
AcDbEntity
  8
CURVE
100
AcDbPolyline
 62
250
  6
CONTINUOUS
 90
17
 70
0
 10
1.0486454826
 20
206.4123831169
 10
1.0895984315
 20
206.3817241129
 10
1.1309511936
 20
206.360152563
 10
1.1711286551
 20
206.3484901207
 10
1.2092360894
 20
206.3472526219
 10
1.2424890778
 20
206.3565304877
 10
1.2703183221
 20
206.3758554248
 10
1.2916638153
 20
206.4044913525
 10
1.3058933603
 20
206.4420722324
 10
1.3119672385
 20
206.4858521199
 10
1.3099709713
 20
206.534753258
 10
1.2999805956
 20
206.5869130175
 10
1.2819967769
 20
206.6412979064
 10
1.2573335495
 20
206.6939341513
 10
1.2266811569
 20
206.7437658669
 10
1.1912071391
 20
206.7888949786
 10
1.1515446157
 20
206.8282259616
  0
LINE
  5
2B8
100
AcDbEntity
  8
RACCORDO
100
AcDbLine
 62
7
  6
CONTINUOUS
 10
41.6485894119
 20
187.8265843709
 11
34.5079838124
 21
193.403295714
  0
LINE
  5
2B9
100
AcDbEntity
  8
RACCORDO
100
AcDbLine
 62
7
  6
CONTINUOUS
 10
43.0628029743
 20
188.6431335575
 11
35.9221973748
 21
194.2198449007
  0
LWPOLYLINE
  5
2BA
100
AcDbEntity
  8
RACCORDO
100
AcDbPolyline
 62
7
  6
CONTINUOUS
 90
37
 70
0
 10
34.5079838124
 20
193.403295714
 10
34.3984061149
 20
193.4909494567
 10
34.2897610759
 20
193.5819699413
 10
34.1820486955
 20
193.6763571678
 10
34.0751639391
 20
193.7742114807
 10
33.9692118412
 20
193.8754325356
 10
33.8645075052
 20
193.9797192992
 10
33.7610546456
 20
194.0870808982
 10
33.6588495479
 20
194.197508206
 10
33.5581961718
 20
194.3106728099
 10
33.4590991367
 20
194.4265828587
 10
33.3615538231
 20
194.5452302037
 10
33.2658503326
 20
194.6662619855
 10
33.1719941482
 20
194.7896853025
 10
33.0799797868
 20
194.9154930564
 10
32.9900809008
 20
195.0433110927
 10
32.9023037877
 20
195.173145396
 10
32.81664215
 20
195.3049899818
 10
32.7333507467
 20
195.4384527419
 10
32.6524366341
 20
195.5735384937
 10
32.5738927559
 20
195.7102424199
 10
32.4979527031
 20
195.8481579606
 10
32.4246242271
 20
195.9872887228
 10
32.3538995765
 20
196.1276310995
 10
32.2859890875
 20
196.2687677102
 10
32.2209011379
 20
196.4107009192
 10
32.1586273499
 20
196.5534283621
 10
32.0993529269
 20
196.6965255651
 10
32.0430867979
 20
196.8399936289
 10
31.9898200338
 20
196.9838314528
 10
31.939711051
 20
197.1276112605
 10
31.8927692501
 20
197.2713328795
 10
31.8489852304
 20
197.4149964823
 10
31.8084892064
 20
197.558174811
 10
31.7713245828
 20
197.7007254463
 10
31.737447955
 20
197.8427908075
 10
31.7068593228
 20
197.9843708945
  0
LWPOLYLINE
  5
2BB
100
AcDbEntity
  8
ASSI
100
AcDbPolyline
 62
7
  6
CONTINUOUS
 90
49
 70
0
 10
31.7490944753
 20
205.5052979837
 10
30.5128946737
 20
206.769416624
 10
29.2699978028
 20
208.0147419759
 10
28.0204038625
 20
209.2412740396
 10
26.7638031753
 20
210.4493043379
 10
25.5005054188
 20
211.6385413478
 10
24.231439626
 20
212.8081105009
 10
22.9566015541
 20
213.9579973298
 10
21.6759954459
 20
215.0882163018
 10
20.3905630632
 20
216.1979362505
 10
19.1003008558
 20
217.287142097
 10
17.8052123738
 20
218.3558489202
 10
16.5062500293
 20
219.4032707897
 10
15.2034109727
 20
220.4293920487
 10
13.8966980537
 20
221.434228354
 10
12.5870722328
 20
222.417040746
 10
11.2745313675
 20
223.3778130241
 10
9.9590776004
 20
224.3165613888
 10
8.6416783202
 20
225.2325954817
 10
7.322332096
 20
226.1258985946
 10
6.0010403586
 20
226.9964874356
 10
4.6787747903
 20
227.8437217711
 10
3.3555346746
 20
228.6675844218
 10
2.0313207279
 20
229.468092567
 10
0.7071067812
 20
230.2446575105
 10
-0.6171071655
 20
230.9972616401
 10
-1.9413211122
 20
231.7259225679
 10
-3.2645612279
 20
232.4301044346
 10
-4.5868267963
 20
233.1097892337
 10
-5.9081185336
 20
233.7649949716
 10
-7.2274647579
 20
234.395239808
 10
-8.544864038
 20
235.000505382
 10
-9.8603178051
 20
235.5808100545
 10
-11.1728586705
 20
236.1357270677
 10
-12.4824844913
 20
236.6652377467
 10
-13.7891974104
 20
237.1693607664
 10
-15.0920364669
 20
237.6477253931
 10
-16.3909988114
 20
238.1003126794
 10
-17.6860872934
 20
238.5271415726
 10
-18.9763495008
 20
238.9278981817
 10
-20.2617818835
 20
239.3025633281
 10
-21.5423879917
 20
239.6511561902
 10
-22.8172260636
 20
239.9734204118
 10
-24.0862918564
 20
240.269336626
 10
-25.3495896129
 20
240.5389241996
 10
-26.6061903002
 20
240.7819848771
 10
-27.8557842404
 20
240.9984525735
 10
-29.0986811113
 20
241.1883933737
 10
-30.3348809129
 20
241.3518072779
  0
LINE
  5
2BC
100
AcDbEntity
  8
CURVE
100
AcDbLine
 62
250
  6
CONTINUOUS
 10
2.1061387922
 20
205.8017997387
 11
2.7196415569
 21
205.6246682362
  0
LWPOLYLINE
  5
2BD
100
AcDbEntity
  8
CURVE
100
AcDbPolyline
 62
250
  6
CONTINUOUS
 90
17
 70
0
 10
6.4809058407
 20
207.8995840298
 10
6.4397025126
 20
207.9187094502
 10
6.4000686065
 20
207.9277766595
 10
6.3635137655
 20
207.9264402905
 10
6.3309058407
 20
207.9144505677
 10
6.3046274147
 20
207.8926835512
 10
6.2850633792
 20
207.8618496421
 10
6.2729589222
 20
207.8231232944
 10
6.2687738063
 20
207.7771253248
 10
6.2728138279
 20
207.7272166946
 10
6.2847800097
 20
207.6745437529
 10
6.3042165634
 20
207.6211127956
 10
6.3309058407
 20
207.568051566
 10
6.36289772
 20
207.5192371208
 10
6.3993844921
 20
207.4755802413
 10
6.4389763869
 20
207.4387438047
 10
6.4809058592
 20
207.409701853
  0
LWPOLYLINE
  5
2BE
100
AcDbEntity
  8
CURVE
100
AcDbPolyline
 62
250
  6
CONTINUOUS
 90
17
 70
0
 10
6.4809058407
 20
211.1466238035
 10
6.4397025126
 20
211.1657492238
 10
6.4000686065
 20
211.1748164331
 10
6.3635137655
 20
211.1734800641
 10
6.3309058407
 20
211.1614903413
 10
6.3046274147
 20
211.1397233249
 10
6.2850633792
 20
211.1088894158
 10
6.2729589222
 20
211.070163068
 10
6.2687738063
 20
211.0241650984
 10
6.2728138279
 20
210.9742564682
 10
6.2847800097
 20
210.9215835265
 10
6.3042165634
 20
210.8681525693
 10
6.3309058407
 20
210.8150913397
 10
6.36289772
 20
210.7662768944
 10
6.3993844921
 20
210.722620015
 10
6.4389763869
 20
210.6857835783
 10
6.4809058592
 20
210.6567416267
  0
LINE
  5
2BF
100
AcDbEntity
  8
CURVE
100
AcDbLine
 62
250
  6
CONTINUOUS
 10
6.4809058407
 20
207.4097018638
 11
8.2405135515
 21
206.3937264246
  0
LINE
  5
2C0
100
AcDbEntity
  8
CURVE
100
AcDbLine
 62
250
  6
CONTINUOUS
 10
8.2770356393
 20
206.8625211949
 11
6.4809058407
 21
207.8995840298
  0
LINE
  5
2C1
100
AcDbEntity
  8
CURVE
100
AcDbLine
 62
250
  6
CONTINUOUS
 10
6.4809058407
 20
210.6567416374
 11
8.2915981929
 21
209.6112705665
  0
LINE
  5
2C2
100
AcDbEntity
  8
CURVE
100
AcDbLine
 62
250
  6
CONTINUOUS
 10
8.2405135515
 20
210.1306483643
 11
6.4809058407
 21
211.1466238035
  0
LWPOLYLINE
  5
2C3
100
AcDbEntity
  8
RACCORDO
100
AcDbPolyline
 62
7
  6
CONTINUOUS
 90
21
 70
0
 10
27.107451222
 20
-216.2059616099
 10
27.0875429286
 20
-216.2179210422
 10
27.0489405005
 20
-216.243940153
 10
27.0120615317
 20
-216.2727173672
 10
26.9768976852
 20
-216.304239343
 10
26.9436196074
 20
-216.338353108
 10
26.9122364644
 20
-216.3750712601
 10
26.8827390901
 20
-216.4143812013
 10
26.8552706318
 20
-216.4560921649
 10
26.8298409516
 20
-216.5002158217
 10
26.8064401875
 20
-216.5467405008
 10
26.7851819007
 20
-216.5954404233
 10
26.7660765053
 20
-216.6463261624
 10
26.7491135873
 20
-216.6993871449
 10
26.7343754657
 20
-216.7543658717
 10
26.7218729548
 20
-216.8112716645
 10
26.7115952403
 20
-216.8700952017
 10
26.7035921989
 20
-216.9305510192
 10
26.6978804561
 20
-216.9925439624
 10
26.6944433864
 20
-217.0561691858
 10
26.6932809898
 20
-217.1214266897
  0
LINE
  5
2C4
100
AcDbEntity
  8
RACCORDO
100
AcDbLine
 62
7
  6
CONTINUOUS
 10
27.1074462319
 20
-216.2059529674
 11
28.5216597943
 21
-215.3894037807
  0
LINE
  5
2C5
100
AcDbEntity
  8
RACCORDO
100
AcDbLine
 62
250
  6
CONTINUOUS
 10
28.1074945522
 20
-216.3050353227
 11
29.5217081145
 21
-215.4884861361
  0
LINE
  5
2C6
100
AcDbEntity
  8
RACCORDO
100
AcDbLine
 62
250
  6
CONTINUOUS
 10
26.3397275992
 20
-220.1831705002
 11
26.6932639048
 21
-219.9790430682
  0
LINE
  5
2C7
100
AcDbEntity
  8
RACCORDO
100
AcDbLine
 62
250
  6
CONTINUOUS
 10
31.4662517628
 20
-218.244339641
 11
32.8804653252
 21
-217.4277904544
  0
LWPOLYLINE
  5
2C8
100
AcDbEntity
  8
RACCORDO
100
AcDbPolyline
 62
7
  6
CONTINUOUS
 90
21
 70
0
 10
28.5216647844
 20
-215.3894124233
 10
28.5420740414
 20
-215.3780975065
 10
28.5839110577
 20
-215.3576808669
 10
28.6272749257
 20
-215.3401358275
 10
28.6721582595
 20
-215.3254484976
 10
28.7183432454
 20
-215.3136901532
 10
28.7658362104
 20
-215.3048750313
 10
28.8146308275
 20
-215.2989888949
 10
28.8644903019
 20
-215.2960603088
 10
28.9154198096
 20
-215.2961036488
 10
28.9674141745
 20
-215.2991045391
 10
29.020221074
 20
-215.3050484166
 10
29.0738444575
 20
-215.3139495865
 10
29.1282803754
 20
-215.3257937437
 10
29.1832646564
 20
-215.3405234098
 10
29.238799966
 20
-215.3581526105
 10
29.2948836386
 20
-215.3786673201
 10
29.3512435066
 20
-215.401967983
 10
29.4077888472
 20
-215.428021414
 10
29.4646103832
 20
-215.4568607984
 10
29.5217081145
 20
-215.4884861361
  0
LWPOLYLINE
  5
2C9
100
AcDbEntity
  8
RACCORDO
100
AcDbPolyline
 62
7
  6
CONTINUOUS
 90
21
 70
0
 10
32.466295093
 20
-218.3434133538
 10
32.4458858359
 20
-218.3547282706
 10
32.4040488196
 20
-218.3751449102
 10
32.3606849517
 20
-218.3926899496
 10
32.3158016178
 20
-218.4073772795
 10
32.2696166319
 20
-218.4191356239
 10
32.2221236669
 20
-218.4279507458
 10
32.1733290498
 20
-218.4338368822
 10
32.1234695755
 20
-218.4367654683
 10
32.0725400678
 20
-218.4367221283
 10
32.0205457028
 20
-218.433721238
 10
31.9677388033
 20
-218.4277773605
 10
31.9141154199
 20
-218.4188761906
 10
31.8596795019
 20
-218.4070320334
 10
31.8046952209
 20
-218.3923023673
 10
31.7491599114
 20
-218.3746731666
 10
31.6930762387
 20
-218.354158457
 10
31.6367163708
 20
-218.3308577941
 10
31.5801710301
 20
-218.304804363
 10
31.5233494941
 20
-218.2759649787
 10
31.4662517628
 20
-218.244339641
  0
LWPOLYLINE
  5
2CA
100
AcDbEntity
  8
RACCORDO
100
AcDbPolyline
 62
7
  6
CONTINUOUS
 90
15
 70
0
 10
26.5897342558
 20
-220.2079316958
 10
26.5823295769
 20
-220.2119635281
 10
26.566987338
 20
-220.218878546
 10
26.550870087
 20
-220.2242796074
 10
26.5339855947
 20
-220.2281818923
 10
26.5165042945
 20
-220.2305460107
 10
26.4984201419
 20
-220.2313563836
 10
26.4797391815
 20
-220.2306285901
 10
26.4606499805
 20
-220.2283699763
 10
26.4411484042
 20
-220.224565038
 10
26.4212385873
 20
-220.2192292796
 10
26.4011215012
 20
-220.2124165607
 10
26.3808641364
 20
-220.2041448344
 10
26.3603995024
 20
-220.1943961475
 10
26.3397275992
 20
-220.1831705002
  0
LINE
  5
2CB
100
AcDbEntity
  8
CURVE
100
AcDbLine
 62
250
  6
CONTINUOUS
 10
2.7196415569
 20
205.6246682362
 11
3.1003913394
 21
205.6246470125
  0
LINE
  5
2CC
100
AcDbEntity
  8
CURVE
100
AcDbLine
 62
250
  6
CONTINUOUS
 10
2.8490746217
 20
206.1723659407
 11
2.5715605159
 21
206.1723814099
  0
LINE
  5
2CD
100
AcDbEntity
  8
CURVE
100
AcDbLine
 62
250
  6
CONTINUOUS
 10
9.0020131166
 20
206.1738651974
 11
9.3827626042
 21
206.1738439525
  0
LINE
  5
2CE
100
AcDbEntity
  8
CURVE
100
AcDbLine
 62
250
  6
CONTINUOUS
 10
9.1314459901
 20
206.721562877
 11
8.7651805321
 21
206.7215833138
  0
LWPOLYLINE
  5
2CF
100
AcDbEntity
  8
CURVE
100
AcDbPolyline
 62
250
  6
CONTINUOUS
 90
17
 70
0
 10
2.0032396325
 20
206.3364679271
 10
1.9642463823
 20
206.3429176882
 10
1.9286980714
 20
206.3389391072
 10
1.8979487239
 20
206.3246837271
 10
1.8727874915
 20
206.3001827478
 10
1.8550528449
 20
206.2672263971
 10
1.8449222856
 20
206.2267247621
 10
1.8427816833
 20
206.1802205375
 10
1.8488909117
 20
206.1285522466
 10
1.8628035843
 20
206.0754951674
 10
1.8840251207
 20
206.0221957869
 10
1.9117471995
 20
205.9706842618
 10
1.9455481856
 20
205.9221152434
 10
1.9829583223
 20
205.8800375531
 10
2.0231006664
 20
205.8451624813
 10
2.0644462084
 20
205.8188184085
 10
2.106138811
 20
205.8017997296
  0
LINE
  5
2D0
100
AcDbEntity
  8
CURVE
100
AcDbLine
 62
250
  6
CONTINUOUS
 10
2.5715605159
 20
206.1723814099
 11
2.0032396325
 21
206.3364679271
  0
LINE
  5
2D1
100
AcDbEntity
  8
CURVE
100
AcDbLine
 62
250
  6
CONTINUOUS
 10
8.2405135515
 20
206.3937264246
 11
9.0020131166
 21
206.1738651974
  0
LINE
  5
2D2
100
AcDbEntity
  8
CURVE
100
AcDbLine
 62
250
  6
CONTINUOUS
 10
8.7651805321
 20
206.7215833138
 11
8.2770356393
 21
206.8625211949
  0
LWPOLYLINE
  5
2D3
100
AcDbEntity
  8
RACCORDO
100
AcDbPolyline
 62
7
  6
CONTINUOUS
 90
12
 70
0
 10
-34.5079838124
 20
234.8853488207
 10
-34.3984061149
 20
234.8464649849
 10
-34.2897610759
 20
234.8120249018
 10
-34.1820486955
 20
234.7820285713
 10
-34.0751639391
 20
234.7564550466
 10
-33.9692118412
 20
234.7353252746
 10
-33.8645075052
 20
234.7187020956
 10
-33.7610546456
 20
234.7065989255
 10
-33.6588495479
 20
234.6990023483
 10
-33.5581961718
 20
234.6959349564
 10
-33.4590991367
 20
234.6974102331
 10
-33.4314076924
 20
234.699114797
  0
LINE
  5
2D4
100
AcDbEntity
  8
RACCORDO
100
AcDbLine
 62
7
  6
CONTINUOUS
 10
-35.9221973748
 20
234.068799634
 11
-43.0628029743
 21
236.7378806515
  0
LINE
  5
2D5
100
AcDbEntity
  8
RACCORDO
100
AcDbLine
 62
7
  6
CONTINUOUS
 10
-34.5079838124
 20
234.8853488207
 11
-41.6485894119
 21
237.5544298382
  0
LINE
  5
2D6
100
AcDbEntity
  8
RACCORDO
100
AcDbLine
 62
250
  6
CONTINUOUS
 10
33.1210728852
 20
-235.4152064665
 11
31.7068593228
 21
-236.2317556532
  0
LINE
  5
2D7
100
AcDbEntity
  8
ASSI
100
AcDbLine
 62
7
  6
CONTINUOUS
 10
31.7490944753
 20
-240.5352580912
 11
30.3348809129
 21
-241.3518072779
  0
LINE
  5
2D8
100
AcDbEntity
  8
ASSI
100
AcDbLine
 62
7
  6
CONTINUOUS
 10
43.0628029743
 20
-236.7378806515
 11
41.6485894119
 21
-237.5544298382
  0
LWPOLYLINE
  5
2D9
100
AcDbEntity
  8
RACCORDO
100
AcDbPolyline
 62
7
  6
CONTINUOUS
 90
21
 70
0
 10
32.6218066551
 20
-234.930111545
 10
32.6524366341
 20
-234.9128522297
 10
32.7333507467
 20
-234.8712040671
 10
32.81664215
 20
-234.8339241316
 10
32.9023037877
 20
-234.800999458
 10
32.9900809008
 20
-234.7725279646
 10
33.0799797868
 20
-234.7485229085
 10
33.1719941482
 20
-234.7289710327
 10
33.2658503326
 20
-234.7139304849
 10
33.3615538231
 20
-234.703414695
 10
33.4590991367
 20
-234.6974102331
 10
33.5581961718
 20
-234.6959349564
 10
33.6588495479
 20
-234.6990023483
 10
33.7610546456
 20
-234.7065989255
 10
33.8645075052
 20
-234.7187020956
 10
33.9692118412
 20
-234.7353252746
 10
34.0751639391
 20
-234.7564550466
 10
34.1820486955
 20
-234.7820285713
 10
34.2897610759
 20
-234.8120249018
 10
34.3984061149
 20
-234.8464649849
 10
34.5079838124
 20
-234.8853488207
  0
ENDSEC
  0
SECTION
  2
OBJECTS
  0
DICTIONARY
  5
C
100
AcDbDictionary
280
0
281
1
  3
ACAD_GROUP
350
D
  3
ACAD_MLINESTYLE
350
17
  3
ACAD_LAYOUT
350
1A
  3
ACAD_PLOTSETTINGS
350
19
  3
ACAD_PLOTSTYLENAME
350
E
  0
DICTIONARY
  5
D
102
{ACAD_REACTORS
330
C
102
}
100
AcDbDictionary
280
0
281
1
  0
ACDBDICTIONARYWDFLT
  5
E
102
{ACAD_REACTORS
330
C
102
}
100
AcDbDictionary
281
1
  3
Normal
350
F
100
AcDbDictionaryWithDefault
340
F
  0
DICTIONARY
  5
17
102
{ACAD_REACTORS
330
C
102
}
100
AcDbDictionary
280
0
281
1
  3
Standard
350
18
  0
DICTIONARY
  5
19
102
{ACAD_REACTORS
330
C
102
}
100
AcDbDictionary
281
1
  0
DICTIONARY
  5
1A
102
{ACAD_REACTORS
330
C
102
}
100
AcDbDictionary
281
1
  3
Model
350
2DA
  3
Layout1
350
2DB
  0
ACDBPLACEHOLDER
  5
F
102
{ACAD_REACTORS
330
E
102
}
  0
MLINESTYLE
  5
18
102
{ACAD_REACTORS
330
17
102
}
100
AcDbMlineStyle
  2
STANDARD
 70
0
  3

 62
256
 51
90.0
 52
90.0
 71
2
 49
0.5
 62
256
  6
BYLAYER
 49
-0.5
 62
256
  6
BYLAYER
  0
LAYOUT
  5
2DA
102
{ACAD_REACTORS
330
1A
102
}
100
AcDbPlotSettings
  1

  2
none_device
  4

  6

 40
0.0
 41
0.0
 42
0.0
 43
0.0
 44
210.0
 45
297.0
 46
0.0
 47
0.0
 48
0.0
 49
0.0
140
0.0
141
0.0
142
1.0
143
1.0
 70
1024
 72
1
 73
0
 74
0
  7

 75
0
147
1.0
148
0.0
149
0.0
100
AcDbLayout
  1
Model
 70
0
 71
0
 10
0.0
 20
0.0
 11
210.0
 21
297.0
 12
0.0
 22
0.0
 32
0.0
 14
0.0
 24
0.0
 34
0.0
 15
0.0
 25
0.0
 35
0.0
146
0.0
 13
0.0
 23
0.0
 33
0.0
 16
1.0
 26
0.0
 36
0.0
 17
0.0
 27
1.0
 37
0.0
 76
0
330
20F
345
0
346
0
  0
LAYOUT
  5
2DB
102
{ACAD_REACTORS
330
1A
102
}
100
AcDbPlotSettings
  1

  2
none_device
  4

  6

 40
0.0
 41
0.0
 42
0.0
 43
0.0
 44
210.0
 45
297.0
 46
0.0
 47
0.0
 48
0.0
 49
0.0
140
0.0
141
0.0
142
1.0
143
1.0
 70
0
 72
1
 73
0
 74
0
  7

 75
0
147
1.0
148
0.0
149
0.0
100
AcDbLayout
  1
Layout1
 70
0
 71
1
 10
0.0
 20
0.0
 11
210.0
 21
297.0
 12
0.0
 22
0.0
 32
0.0
 14
0.0
 24
0.0
 34
0.0
 15
0.0
 25
0.0
 35
0.0
146
0.0
 13
0.0
 23
0.0
 33
0.0
 16
1.0
 26
0.0
 36
0.0
 17
0.0
 27
1.0
 37
0.0
 76
0
330
210
345
0
346
0
  0
ENDSEC
  0
EOF
