  0
SECTION
  2
HEADER
  9
$ACADVER
  1
AC1024
  9
$DWGCODEPAGE
  3
ANSI_1252
  9
$EXTMAX
 10
210.0
 20
297.0
 30
0.0
  9
$EXTMIN
 10
0.0
 20
0.0
 30
0.0
  9
$LIMMIN
 10
0.0
 20
0.0
  9
$LIMMAX
 10
210.0
 20
297.0
  9
$VIEWCTR
 10
105.0
 20
148.5
  9
$VIEWSIZE
 40
297.0
  9
$CLAYER
  8
0
  9
$LTSCALE
 40
19.36
  9
$CELTYPE
  6
BYLAYER
  9
$DIMSCALE
 40
1.0
  9
$DIMASZ
 40
3.0
  9
$DIMEXO
 40
0.5
  9
$DIMDLI
 40
13.376
  9
$DIMEXE
 40
1.5
  9
$DIMCEN
 40
3.168
  9
$DIMLFAC
 40
1.0
  9
$DIMBLK
  1
_FILLED
  9
$DIMALT
 70
0
  9
$DIMALTF
 40
0.0393700787
  9
$DIMTXT
 40
3.0
  9
$DIMTOL
 70
1
  9
$DIMLIM
 70
0
  9
$DIMTFAC
 40
1.0
  9
$DIMTP
 40
0.01
  9
$DIMTM
 40
0.01
  9
$DIMGAP
 40
0.625
  9
$DIMDSEP
 70
44
  9
$AUNITS
 70
0
  9
$PDMODE
 70
3
  9
$PDSIZE
 40
3.0
  9
$HANDSEED
  5
2CC
  9
$TILEMODE
 70
1
  9
$MEASUREMENT
 70
1
  9
$INSUNITS
 70
4
  0
ENDSEC
  0
SECTION
  2
CLASSES
  0
CLASS
  1
ACDBDICTIONARYWDFLT
  2
AcDbDictionaryWithDefault
  3
AutoCAD 2000
 90
0
 91
1
280
0
281
0
  0
CLASS
  1
ACDBPLACEHOLDER
  2
AcDbPlaceHolder
  3
AutoCAD 2000
 90
0
 91
1
280
0
281
0
  0
CLASS
  1
LAYOUT
  2
AcDbLayout
  3
AutoCAD 2000
 90
0
 91
0
280
0
281
0
  0
ENDSEC
  0
SECTION
  2
TABLES
  0
TABLE
  2
VPORT
  5
8
100
AcDbSymbolTable
 70
2
  0
VPORT
  5
1F4
100
AcDbSymbolTableRecord
100
AcDbViewportTableRecord
  2
*ACTIVE
 70
0
 10
0.0
 20
0.0
 11
1.0
 21
1.0
 12
105.0
 22
148.5
 13
0.0
 23
0.0
 14
1.0
 24
1.0
 15
0.0
 25
0.0
 16
0.0
 26
0.0
 36
1.0
 17
0.0
 27
0.0
 37
0.0
 40
297.0
 41
0.7070707071
 42
50.0
 43
0.0
 44
0.0
 50
0.0
 51
0.0
 71
0
 72
100
 73
1
 74
1
 75
0
 76
0
 77
0
 78
0
  0
ENDTAB
  0
TABLE
  2
LTYPE
  5
5
100
AcDbSymbolTable
 70
6
  0
LTYPE
  5
14
100
AcDbSymbolTableRecord
100
AcDbLinetypeTableRecord
  2
BYBLOCK
 70
0
  3

 72
65
 73
0
 40
0.0
  0
LTYPE
  5
15
100
AcDbSymbolTableRecord
100
AcDbLinetypeTableRecord
  2
BYLAYER
 70
0
  3

 72
65
 73
0
 40
0.0
  0
LTYPE
  5
16
100
AcDbSymbolTableRecord
100
AcDbLinetypeTableRecord
  2
CONTINUOUS
 70
64
  3
Solid line
 72
65
 73
0
 40
0.0
  0
LTYPE
  5
1F5
100
AcDbSymbolTableRecord
100
AcDbLinetypeTableRecord
  2
CENTER
 70
64
  3
____ _ ____ _ ____ _ ____ _ ____ _ ____ _ ____
 72
65
 73
4
 40
0.6
 49
0.375
 74
0
 49
-0.075
 74
0
 49
0.075
 74
0
 49
-0.075
 74
0
  0
LTYPE
  5
1F6
100
AcDbSymbolTableRecord
100
AcDbLinetypeTableRecord
  2
HIDDEN
 70
64
  3
- - - - - - - - - - - - - - - - - - - -
 72
65
 73
2
 40
0.2
 49
0.1
 74
0
 49
-0.1
 74
0
  0
LTYPE
  5
1F7
100
AcDbSymbolTableRecord
100
AcDbLinetypeTableRecord
  2
PHANTOM
 70
64
  3
_____ _ _ _____ _ _ _____ _ _ _____
 72
65
 73
6
 40
0.8
 49
0.45
 74
0
 49
-0.05
 74
0
 49
0.1
 74
0
 49
-0.05
 74
0
 49
0.1
 74
0
 49
-0.05
 74
0
  0
LTYPE
  5
1F8
100
AcDbSymbolTableRecord
100
AcDbLinetypeTableRecord
  2
DOT
 70
64
  3
. . . . . . . . . . . . . . . . . . . .
 72
65
 73
2
 40
0.2
 49
0.1
 74
0
 49
-0.1
 74
0
  0
LTYPE
  5
1F9
100
AcDbSymbolTableRecord
100
AcDbLinetypeTableRecord
  2
DASHED
 70
64
  3
- - - - - - - - - - - - - - - - - - - -
 72
65
 73
2
 40
0.2
 49
0.1
 74
0
 49
-0.1
 74
0
  0
ENDTAB
  0
TABLE
  2
LAYER
  5
2
100
AcDbSymbolTable
 70
36
  0
LAYER
  5
10
100
AcDbSymbolTableRecord
100
AcDbLayerTableRecord
  2
0
 70
0
 62
7
  6
CONTINUOUS
370
-3
390
F
  0
LAYER
  5
1FA
100
AcDbSymbolTableRecord
100
AcDbLayerTableRecord
  2
DEFAULT_1
 70
0
 62
7
  6
CENTER
370
-3
390
F
  0
LAYER
  5
1FB
100
AcDbSymbolTableRecord
100
AcDbLayerTableRecord
  2
DEFAULT_2
 70
0
 62
7
  6
HIDDEN
370
-3
390
F
  0
LAYER
  5
1FC
100
AcDbSymbolTableRecord
100
AcDbLayerTableRecord
  2
DEFAULT_3
 70
0
 62
7
  6
PHANTOM
370
-3
390
F
  0
LAYER
  5
1FD
100
AcDbSymbolTableRecord
100
AcDbLayerTableRecord
  2
ASSI
 70
0
 62
7
  6
CONTINUOUS
370
-3
390
F
  0
LAYER
  5
1FE
100
AcDbSymbolTableRecord
100
AcDbLayerTableRecord
  2
COORDINATE
 70
0
 62
7
  6
CONTINUOUS
370
-3
390
F
  0
LAYER
  5
1FF
100
AcDbSymbolTableRecord
100
AcDbLayerTableRecord
  2
COPY_PUBLISH
 70
0
 62
7
  6
CONTINUOUS
370
-3
390
F
  0
LAYER
  5
200
100
AcDbSymbolTableRecord
100
AcDbLayerTableRecord
  2
COSMETICI
 70
0
 62
7
  6
CONTINUOUS
370
-3
390
F
  0
LAYER
  5
201
100
AcDbSymbolTableRecord
100
AcDbLayerTableRecord
  2
CURVE
 70
0
 62
7
  6
CONTINUOUS
370
-3
390
F
  0
LAYER
  5
202
100
AcDbSymbolTableRecord
100
AcDbLayerTableRecord
  2
DRAFT
 70
0
 62
7
  6
CONTINUOUS
370
-3
390
F
  0
LAYER
  5
203
100
AcDbSymbolTableRecord
100
AcDbLayerTableRecord
  2
IMPORT_IGES
 70
0
 62
7
  6
CONTINUOUS
370
-3
390
F
  0
LAYER
  5
204
100
AcDbSymbolTableRecord
100
AcDbLayerTableRecord
  2
NOTE
 70
0
 62
7
  6
CONTINUOUS
370
-3
390
F
  0
LAYER
  5
205
100
AcDbSymbolTableRecord
100
AcDbLayerTableRecord
  2
PIANI
 70
0
 62
7
  6
CONTINUOUS
370
-3
390
F
  0
LAYER
  5
206
100
AcDbSymbolTableRecord
100
AcDbLayerTableRecord
  2
PUNTI
 70
0
 62
7
  6
CONTINUOUS
370
-3
390
F
  0
LAYER
  5
207
100
AcDbSymbolTableRecord
100
AcDbLayerTableRecord
  2
RACCORDO
 70
0
 62
7
  6
CONTINUOUS
370
-3
390
F
  0
LAYER
  5
208
100
AcDbSymbolTableRecord
100
AcDbLayerTableRecord
  2
SIMBOLI
 70
0
 62
7
  6
CONTINUOUS
370
-3
390
F
  0
LAYER
  5
209
100
AcDbSymbolTableRecord
100
AcDbLayerTableRecord
  2
SMUSSO
 70
0
 62
7
  6
CONTINUOUS
370
-3
390
F
  0
LAYER
  5
20A
100
AcDbSymbolTableRecord
100
AcDbLayerTableRecord
  2
SNAPLINE
 70
0
 62
7
  6
CONTINUOUS
370
-3
390
F
  0
LAYER
  5
20B
100
AcDbSymbolTableRecord
100
AcDbLayerTableRecord
  2
SUPERFICI
 70
0
 62
7
  6
CONTINUOUS
370
-3
390
F
  0
LAYER
  5
20C
100
AcDbSymbolTableRecord
100
AcDbLayerTableRecord
  2
TRASH
 70
0
 62
7
  6
CONTINUOUS
370
-3
390
F
  0
ENDTAB
  0
TABLE
  2
STYLE
  5
3
100
AcDbSymbolTable
 70
1
  0
STYLE
  5
11
100
AcDbSymbolTableRecord
100
AcDbTextStyleTableRecord
  2
STANDARD
 70
0
 40
0.0
 41
0.8
 50
0.0
 71
0
 42
0.2
  3
txt
  4

  0
STYLE
  5
20D
100
AcDbSymbolTableRecord
100
AcDbTextStyleTableRecord
  2
TEXTSTYLE_1
 70
0
 40
0.0
 41
0.8
 50
0.0
 71
0
 42
0.2
  3
gdt
  4

  0
ENDTAB
  0
TABLE
  2
VIEW
  5
6
100
AcDbSymbolTable
 70
0
  0
ENDTAB
  0
TABLE
  2
UCS
  5
7
100
AcDbSymbolTable
 70
0
  0
ENDTAB
  0
TABLE
  2
APPID
  5
9
100
AcDbSymbolTable
 70
1
  0
APPID
  5
20E
100
AcDbSymbolTableRecord
100
AcDbRegAppTableRecord
  2
ACAD
 70
0
  0
ENDTAB
  0
TABLE
  2
BLOCK_RECORD
  5
1
100
AcDbSymbolTable
 70
0
  0
BLOCK_RECORD
  5
20F
100
AcDbSymbolTableRecord
100
AcDbBlockTableRecord
  2
*Model_Space
  0
BLOCK_RECORD
  5
210
100
AcDbSymbolTableRecord
100
AcDbBlockTableRecord
  2
*Paper_Space
  0
BLOCK_RECORD
  5
211
100
AcDbSymbolTableRecord
100
AcDbBlockTableRecord
  2
_FILLED
  0
ENDTAB
  0
TABLE
  2
DIMSTYLE
  5
A
100
AcDbSymbolTable
 70
1
100
AcDbDimStyleTable
 71
0
  0
DIMSTYLE
105
212
100
AcDbSymbolTableRecord
100
AcDbDimStyleTableRecord
  2
STANDARD
 70
0
  3

  4

 40
1.0
 41
3.0
 42
0.5
 43
0.38
 44
1.5
 45
0.0
 46
0.0
 47
0.01
 48
0.01
140
3.0
141
0.09
142
0.0
143
25.4
144
1.0
145
0.0
146
1.0
147
0.625
 71
1.0
 72
0.0
 73
0
 74
0
 75
0
 76
0
 77
1
 78
8
 79
2
170
0
171
1
172
0
173
0
174
0
175
0
176
0
177
0
178
0
270
2
179
2
271
2
272
2
273
2
274
2
275
0
280
0
281
0
282
0
283
1
284
8
285
0
286
0
287
3
288
0
340
11
278
44
341
211
342
211
343
211
344
211
  0
ENDTAB
  0
ENDSEC
  0
SECTION
  2
BLOCKS
  0
BLOCK
  5
20
100
AcDbEntity
  8
0
100
AcDbBlockBegin
  2
*Model_Space
 70
0
 10
0.0
 20
0.0
 30
0.0
  3
*Model_Space
  1

  0
ENDBLK
  5
21
100
AcDbEntity
  8
0
100
AcDbBlockEnd
  0
BLOCK
  5
1C
100
AcDbEntity
  8
0
100
AcDbBlockBegin
  2
*Paper_Space
 70
0
 10
0.0
 20
0.0
 30
0.0
  3
*Paper_Space
  1

  0
ENDBLK
  5
1D
100
AcDbEntity
  8
0
100
AcDbBlockEnd
  0
BLOCK
  5
213
100
AcDbEntity
  8
0
100
AcDbBlockBegin
  2
_FILLED
 70
64
 10
0.0
 20
0.0
  3
_FILLED
  1

  0
SOLID
  5
214
100
AcDbEntity
  8
0
  6
BYBLOCK
 62
0
100
AcDbTrace
 10
0.0
 20
0.0
 11
-1.0
 21
0.3166666667
 12
-1.0
 22
-0.3166666667
 13
-1.0
 23
-0.3166666667
  0
ENDBLK
  5
215
100
AcDbEntity
  8
0
  6
BYBLOCK
 62
0
100
AcDbBlockEnd
  0
ENDSEC
  0
SECTION
  2
ENTITIES
  0
LWPOLYLINE
  5
216
100
AcDbEntity
  8
RACCORDO
100
AcDbPolyline
 62
7
  6
CONTINUOUS
 90
15
 70
0
 10
-42.8557095062
 20
145.9550452948
 10
-42.8700501437
 20
145.9462813705
 10
-42.8973714135
 20
145.9266260877
 10
-42.9228454364
 20
145.9041144716
 10
-42.9464907341
 20
145.8787751614
 10
-42.9680686288
 20
145.8508639345
 10
-42.9875581815
 20
145.8203547421
 10
-43.0049803313
 20
145.7872736328
 10
-43.0201592175
 20
145.7519545303
 10
-43.0330721198
 20
145.7143747678
 10
-43.0437417586
 20
145.6745570122
 10
-43.0520604334
 20
145.6329031872
 10
-43.0579922442
 20
145.5895472674
 10
-43.0615730912
 20
145.5443552784
 10
-43.0628029743
 20
145.4973272199
  0
LINE
  5
217
100
AcDbEntity
  8
RACCORDO
100
AcDbLine
 62
7
  6
CONTINUOUS
 10
-42.8557203532
 20
145.9550640811
 11
-41.4415067908
 21
146.7716132677
  0
LINE
  5
218
100
AcDbEntity
  8
RACCORDO
100
AcDbLine
 62
250
  6
CONTINUOUS
 10
-42.3556961931
 20
145.9055229034
 11
-40.9414826307
 21
146.7220720901
  0
LWPOLYLINE
  5
219
100
AcDbEntity
  8
RACCORDO
100
AcDbPolyline
 62
7
  6
CONTINUOUS
 90
15
 70
0
 10
-41.4414959439
 20
146.7715944814
 10
-41.4266865862
 20
146.779658146
 10
-41.3960021084
 20
146.7934881817
 10
-41.3637676064
 20
146.8042903046
 10
-41.3299986217
 20
146.8120948744
 10
-41.2950360213
 20
146.8168231111
 10
-41.2588677161
 20
146.818443857
 10
-41.2215057953
 20
146.8169882698
 10
-41.1833273933
 20
146.8124710424
 10
-41.1443242407
 20
146.8048611658
 10
-41.1045046069
 20
146.794189649
 10
-41.0642704347
 20
146.7805642111
 10
-41.023755705
 20
146.7640207585
 10
-40.9828264371
 20
146.7445233848
 10
-40.9414826307
 20
146.7220720901
  0
LINE
  5
21A
100
AcDbEntity
  8
RACCORDO
100
AcDbLine
 62
250
  6
CONTINUOUS
 10
-28.1074945522
 20
118.5733853709
 11
-27.7539582466
 21
118.7775128029
  0
LINE
  5
21B
100
AcDbEntity
  8
RACCORDO
100
AcDbLine
 62
250
  6
CONTINUOUS
 10
-34.2946788875
 20
108.6740284954
 11
-32.8804653252
 21
109.4905776821
  0
LWPOLYLINE
  5
21C
100
AcDbEntity
  8
RACCORDO
100
AcDbPolyline
 62
7
  6
CONTINUOUS
 90
18
 70
0
 10
-33.8805039157
 20
109.5894853663
 10
-33.8563400634
 20
109.6027833078
 10
-33.8065782566
 20
109.6262994368
 10
-33.7547074587
 20
109.6457875194
 10
-33.7007418844
 20
109.6612747047
 10
-33.6450469016
 20
109.6726561381
 10
-33.5876107751
 20
109.6799039595
 10
-33.5284452401
 20
109.683046029
 10
-33.4679508706
 20
109.6820610738
 10
-33.4061186493
 20
109.676921089
 10
-33.3429575934
 20
109.6676540795
 10
-33.278895328
 20
109.6543227864
 10
-33.2139257377
 20
109.6368996308
 10
-33.1480549379
 20
109.6154121917
 10
-33.0817288996
 20
109.5900059475
 10
-33.0150962799
 20
109.5607293909
 10
-32.9480084218
 20
109.5275340292
 10
-32.8804653252
 20
109.4904198624
  0
LWPOLYLINE
  5
21D
100
AcDbEntity
  8
RACCORDO
100
AcDbPolyline
 62
7
  6
CONTINUOUS
 90
13
 70
0
 10
-28.0039532416
 20
118.8022538015
 10
-27.9870736368
 20
118.8107496164
 10
-27.9691386275
 20
118.81738952
 10
-27.9503649012
 20
118.822095792
 10
-27.9307417139
 20
118.8248436629
 10
-27.9102798094
 20
118.8256579024
 10
-27.8892401866
 20
118.8245281244
 10
-27.8676154449
 20
118.8214294265
 10
-27.8454129848
 20
118.8163867111
 10
-27.8229160064
 20
118.8094642999
 10
-27.8002189097
 20
118.8006836333
 10
-27.7772272948
 20
118.7900232709
 10
-27.7539411616
 20
118.7774832126
  0
LWPOLYLINE
  5
21E
100
AcDbEntity
  8
RACCORDO
100
AcDbPolyline
 62
7
  6
CONTINUOUS
 90
18
 70
0
 10
-28.521669524
 20
107.4520500401
 10
-28.498166346
 20
107.4662691251
 10
-28.4529168167
 20
107.497600748
 10
-28.4101011928
 20
107.532772852
 10
-28.3697030699
 20
107.5717595523
 10
-28.331995959
 20
107.6142968939
 10
-28.2969981206
 20
107.6604089702
 10
-28.2646912943
 20
107.7100716877
 10
-28.2352942099
 20
107.7629488104
 10
-28.2088266121
 20
107.8190621502
 10
-28.1852687563
 20
107.8783898951
 10
-28.1647801383
 20
107.9405303731
 10
-28.147381585
 20
108.0055026706
 10
-28.1330522696
 20
108.0732877011
 10
-28.1218892071
 20
108.1434265335
 10
-28.1139247359
 20
108.2157661908
 10
-28.1091265176
 20
108.2904596499
 10
-28.1074945522
 20
108.367506911
  0
LINE
  5
21F
100
AcDbEntity
  8
RACCORDO
100
AcDbLine
 62
250
  6
CONTINUOUS
 10
-26.6932809898
 20
109.1840560976
 11
-28.1074945522
 21
108.367506911
  0
LINE
  5
220
100
AcDbEntity
  8
RACCORDO
100
AcDbLine
 62
7
  6
CONTINUOUS
 10
-27.1074462319
 20
108.2685823754
 11
-28.5216597943
 21
107.4520331887
  0
LWPOLYLINE
  5
221
100
AcDbEntity
  8
RACCORDO
100
AcDbPolyline
 62
7
  6
CONTINUOUS
 90
15
 70
0
 10
40.9414826307
 20
-146.7220720901
 10
40.9828264371
 20
-146.7445233848
 10
41.023755705
 20
-146.7640207585
 10
41.0642704347
 20
-146.7805642111
 10
41.1045046069
 20
-146.794189649
 10
41.1443242407
 20
-146.8048611658
 10
41.1833273933
 20
-146.8124710424
 10
41.2215057953
 20
-146.8169882698
 10
41.2588677161
 20
-146.818443857
 10
41.2950360213
 20
-146.8168231111
 10
41.3299986217
 20
-146.8120948744
 10
41.3637676064
 20
-146.8042903046
 10
41.3960021084
 20
-146.7934881817
 10
41.4266865862
 20
-146.779658146
 10
41.4414959439
 20
-146.7715944814
  0
LINE
  5
222
100
AcDbEntity
  8
RACCORDO
100
AcDbLine
 62
7
  6
CONTINUOUS
 10
-42.3556961931
 20
-98.627324996
 11
40.9414826307
 21
-146.7220720901
  0
LINE
  5
223
100
AcDbEntity
  8
CURVE
100
AcDbLine
 62
250
  6
CONTINUOUS
 10
3.132457772
 20
106.3183473205
 11
2.8490746217
 21
106.1547570336
  0
LWPOLYLINE
  5
224
100
AcDbEntity
  8
RACCORDO
100
AcDbPolyline
 62
7
  6
CONTINUOUS
 90
15
 70
0
 10
-0.7778174593
 20
-108.5905823229
 10
-0.8191612657
 20
-108.5681310281
 10
-0.8600905337
 20
-108.5486336545
 10
-0.9006052633
 20
-108.5320902019
 10
-0.9408394355
 20
-108.5184647639
 10
-0.9806590693
 20
-108.5077932471
 10
-1.019662222
 20
-108.5001833706
 10
-1.0578406239
 20
-108.4956661431
 10
-1.0952025447
 20
-108.4942105559
 10
-1.1313708499
 20
-108.4958313019
 10
-1.1663334503
 20
-108.5005595385
 10
-1.200102435
 20
-108.5083641083
 10
-1.232336937
 20
-108.5191662312
 10
-1.2630214148
 20
-108.5329962669
 10
-1.2778307725
 20
-108.5410599315
  0
LWPOLYLINE
  5
225
100
AcDbEntity
  8
RACCORDO
100
AcDbPolyline
 62
7
  6
CONTINUOUS
 90
18
 70
0
 10
28.1074945522
 20
-122.8191886299
 10
28.0399514556
 20
-122.7820744631
 10
27.9728635974
 20
-122.7488791014
 10
27.9062309778
 20
-122.7196025448
 10
27.8399049395
 20
-122.6941963006
 10
27.7740341396
 20
-122.6727088615
 10
27.7090645493
 20
-122.6552857059
 10
27.6450022839
 20
-122.6419544128
 10
27.581841228
 20
-122.6326874033
 10
27.5200090068
 20
-122.6275474185
 10
27.4595146372
 20
-122.6265624633
 10
27.4003491022
 20
-122.6297045328
 10
27.3429129757
 20
-122.6369523542
 10
27.2872179929
 20
-122.6483337876
 10
27.2332524186
 20
-122.6638209729
 10
27.1813816208
 20
-122.6833090555
 10
27.131619814
 20
-122.7068251846
 10
27.1074559617
 20
-122.720123126
  0
LINE
  5
226
100
AcDbEntity
  8
RACCORDO
100
AcDbLine
 62
7
  6
CONTINUOUS
 10
26.3397275992
 20
-126.6973238074
 11
0.4242640687
 21
-111.7340599619
  0
LINE
  5
227
100
AcDbEntity
  8
RACCORDO
100
AcDbLine
 62
7
  6
CONTINUOUS
 10
-1.8384776311
 20
-110.4275812633
 11
-27.7539411616
 21
-95.4643174178
  0
LINE
  5
228
100
AcDbEntity
  8
RACCORDO
100
AcDbLine
 62
7
  6
CONTINUOUS
 10
26.6932809898
 20
-125.2683627307
 11
1.8384776311
 21
-110.9175107753
  0
LINE
  5
229
100
AcDbEntity
  8
RACCORDO
100
AcDbLine
 62
7
  6
CONTINUOUS
 10
-1.4848559003
 20
-108.9986596454
 11
-26.3397275992
 21
-94.6477682312
  0
LINE
  5
22A
100
AcDbEntity
  8
RACCORDO
100
AcDbLine
 62
7
  6
CONTINUOUS
 10
-0.6363961031
 20
-108.6722372415
 11
-0.7778174593
 21
-108.5905823229
  0
LINE
  5
22B
100
AcDbEntity
  8
RACCORDO
100
AcDbLine
 62
7
  6
CONTINUOUS
 10
0.7778174593
 20
-107.8556880549
 11
0.6363961031
 21
-107.7740331362
  0
LINE
  5
22C
100
AcDbEntity
  8
RACCORDO
100
AcDbLine
 62
7
  6
CONTINUOUS
 10
31.4662517628
 20
-124.7584929482
 11
28.1074945522
 21
-122.8191886299
  0
LINE
  5
22D
100
AcDbEntity
  8
RACCORDO
100
AcDbLine
 62
7
  6
CONTINUOUS
 10
-29.5217081145
 20
-89.5448092737
 11
-32.8804653252
 21
-87.6055049554
  0
LINE
  5
22E
100
AcDbEntity
  8
RACCORDO
100
AcDbLine
 62
7
  6
CONTINUOUS
 10
32.8804653252
 20
-123.9419437616
 11
29.5217081145
 21
-122.0026394433
  0
LINE
  5
22F
100
AcDbEntity
  8
RACCORDO
100
AcDbLine
 62
7
  6
CONTINUOUS
 10
-28.1074945522
 20
-88.7282600871
 11
-31.4662517628
 21
-86.7889557688
  0
LWPOLYLINE
  5
230
100
AcDbEntity
  8
RACCORDO
100
AcDbPolyline
 62
7
  6
CONTINUOUS
 90
34
 70
0
 10
-32.8804653252
 20
-87.6055049554
 10
-32.9480084218
 20
-87.5646220474
 10
-33.0150962799
 20
-87.5203460321
 10
-33.0817288996
 20
-87.4726769097
 10
-33.1480549379
 20
-87.4214915074
 10
-33.2139257377
 20
-87.366912998
 10
-33.278895328
 20
-87.3093108992
 10
-33.3429575934
 20
-87.2486646939
 10
-33.4061186493
 20
-87.1849948994
 10
-33.4679508706
 20
-87.1187325849
 10
-33.5284452401
 20
-87.0498601585
 10
-33.5876107751
 20
-86.9783952122
 10
-33.6450469016
 20
-86.9048215917
 10
-33.7007418844
 20
-86.8291249881
 10
-33.7547074587
 20
-86.7513197103
 10
-33.8065782566
 20
-86.6719325305
 10
-33.8563400634
 20
-86.5909527143
 10
-33.9040070937
 20
-86.5083909961
 10
-33.949256623
 20
-86.424806351
 10
-33.9920722469
 20
-86.3401918377
 10
-34.0324703698
 20
-86.2545543976
 10
-34.0701774807
 20
-86.1684738296
 10
-34.1051753191
 20
-86.0819471267
 10
-34.1374821454
 20
-85.994977296
 10
-34.1668792298
 20
-85.9081531572
 10
-34.1933468276
 20
-85.8214756989
 10
-34.2169046834
 20
-85.7349439325
 10
-34.2373933015
 20
-85.649143712
 10
-34.2547918547
 20
-85.5640800013
 10
-34.2691211701
 20
-85.4797478365
 10
-34.2802842326
 20
-85.3967181793
 10
-34.2882487038
 20
-85.3151813503
 10
-34.2930469221
 20
-85.234947029
 10
-34.2946788875
 20
-85.1560152152
  0
LWPOLYLINE
  5
231
100
AcDbEntity
  8
RACCORDO
100
AcDbPolyline
 62
7
  6
CONTINUOUS
 90
34
 70
0
 10
-28.1074945522
 20
-88.7282600871
 10
-28.0399514556
 20
-88.7691429951
 10
-27.9728635974
 20
-88.8134190104
 10
-27.9062309778
 20
-88.8610881328
 10
-27.8399049395
 20
-88.9122735351
 10
-27.7740341396
 20
-88.9668520446
 10
-27.7090645493
 20
-89.0244541433
 10
-27.6450022839
 20
-89.0851003486
 10
-27.581841228
 20
-89.1487701431
 10
-27.5200090068
 20
-89.2150324576
 10
-27.4595146372
 20
-89.283904884
 10
-27.4003491022
 20
-89.3553698303
 10
-27.3429129757
 20
-89.4289434508
 10
-27.2872179929
 20
-89.5046400544
 10
-27.2332524186
 20
-89.5824453322
 10
-27.1813816208
 20
-89.661832512
 10
-27.131619814
 20
-89.7428123282
 10
-27.0839527837
 20
-89.8253740464
 10
-27.0387032544
 20
-89.9089586915
 10
-26.9958876305
 20
-89.9935732048
 10
-26.9554895075
 20
-90.0792106449
 10
-26.9177823966
 20
-90.1652912129
 10
-26.8827845583
 20
-90.2518179158
 10
-26.8504777319
 20
-90.3387877465
 10
-26.8210806476
 20
-90.4256118853
 10
-26.7946130498
 20
-90.5122893436
 10
-26.7710551939
 20
-90.59882111
 10
-26.7505665759
 20
-90.6846213305
 10
-26.7331680226
 20
-90.7696850412
 10
-26.7188387072
 20
-90.854017206
 10
-26.7076756447
 20
-90.9370468632
 10
-26.6997111735
 20
-91.0185836922
 10
-26.6949129552
 20
-91.0988180135
 10
-26.6932809898
 20
-91.1777498273
  0
LWPOLYLINE
  5
232
100
AcDbEntity
  8
RACCORDO
100
AcDbPolyline
 62
7
  6
CONTINUOUS
 90
28
 70
0
 10
0.7778174593
 20
-107.8556880549
 10
0.8191612657
 20
-107.8809795514
 10
0.8600905337
 20
-107.9087462705
 10
0.9006052633
 20
-107.9389882121
 10
0.9408394355
 20
-107.9718241877
 10
0.9806590693
 20
-108.0071353859
 10
1.019662222
 20
-108.0445653724
 10
1.0578406239
 20
-108.0841356066
 10
1.0952025447
 20
-108.1258246291
 10
1.1313708499
 20
-108.1692116272
 10
1.1663334503
 20
-108.2143137984
 10
1.200102435
 20
-108.2611139453
 10
1.232336937
 20
-108.3091396631
 10
1.2630214148
 20
-108.3584033647
 10
1.2921714099
 20
-108.4088926372
 10
1.3194926797
 20
-108.4600978376
 10
1.3449667027
 20
-108.5120262169
 10
1.3686120003
 20
-108.564670524
 10
1.390189895
 20
-108.6174993628
 10
1.4096794477
 20
-108.6705146023
 10
1.4271015975
 20
-108.7237143735
 10
1.4422804837
 20
-108.7765616732
 10
1.4551933861
 20
-108.8290529316
 10
1.4658630248
 20
-108.8811917187
 10
1.4741816996
 20
-108.9324517409
 10
1.4801135105
 20
-108.9826575671
 10
1.4836943574
 20
-109.0319846285
 10
1.4849242405
 20
-109.080432925
  0
LWPOLYLINE
  5
233
100
AcDbEntity
  8
RACCORDO
100
AcDbPolyline
 62
7
  6
CONTINUOUS
 90
25
 70
0
 10
-27.7539411616
 20
-95.4643174178
 10
-27.7772272948
 20
-95.4499672331
 10
-27.8002189097
 20
-95.4340774549
 10
-27.8229160064
 20
-95.4166480832
 10
-27.8454129848
 20
-95.3975915476
 10
-27.8676154449
 20
-95.3769954186
 10
-27.8892401866
 20
-95.3551224069
 10
-27.9102798094
 20
-95.3319561558
 10
-27.9307417139
 20
-95.307513022
 10
-27.9503649012
 20
-95.2821047862
 10
-27.9691386275
 20
-95.2557190856
 10
-27.9870736368
 20
-95.228368283
 10
-28.0039411616
 20
-95.2004012473
 10
-28.0197275277
 20
-95.1718100849
 10
-28.0344464094
 20
-95.1426026894
 10
-28.0479100622
 20
-95.1131516115
 10
-28.0601024068
 20
-95.0834537295
 10
-28.0710395226
 20
-95.053512165
 10
-28.0805819028
 20
-95.0237088332
 10
-28.088711681
 20
-94.9940455046
 10
-28.0954467237
 20
-94.9645204087
 10
-28.1007011229
 20
-94.9355101483
 10
-28.1044462428
 20
-94.9071402576
 10
-28.1067107192
 20
-94.8792852024
 10
-28.1074945522
 20
-94.8519449827
  0
LWPOLYLINE
  5
234
100
AcDbEntity
  8
RACCORDO
100
AcDbPolyline
 62
7
  6
CONTINUOUS
 90
25
 70
0
 10
0.4242640687
 20
-111.7340599619
 10
0.4009779355
 20
-111.7197097772
 10
0.3779863205
 20
-111.703819999
 10
0.3552892239
 20
-111.6863906273
 10
0.3327922455
 20
-111.6673340917
 10
0.3105897854
 20
-111.6467379627
 10
0.2889650437
 20
-111.624864951
 10
0.2679254208
 20
-111.6016986999
 10
0.2474635164
 20
-111.5772555661
 10
0.2278403291
 20
-111.5518473303
 10
0.2090666028
 20
-111.5254616297
 10
0.1911315935
 20
-111.4981108271
 10
0.1742640687
 20
-111.4701437914
 10
0.1584777026
 20
-111.441552629
 10
0.1437588209
 20
-111.4123452335
 10
0.1302951681
 20
-111.3828941556
 10
0.1181028234
 20
-111.3531962736
 10
0.1071657077
 20
-111.3232547091
 10
0.0976233275
 20
-111.2934513773
 10
0.0894935492
 20
-111.2637880488
 10
0.0827585066
 20
-111.2342629528
 10
0.0775041074
 20
-111.2052526924
 10
0.0737589875
 20
-111.1768828017
 10
0.0714945111
 20
-111.1490277465
 10
0.0707106781
 20
-111.1216875269
  0
LWPOLYLINE
  5
235
100
AcDbEntity
  8
RACCORDO
100
AcDbPolyline
 62
7
  6
CONTINUOUS
 90
15
 70
0
 10
2.8334656911
 20
99.3147011832
 10
2.8478063285
 20
99.3234651074
 10
2.8751275983
 20
99.3431203903
 10
2.9006016213
 20
99.3656320064
 10
2.9242469189
 20
99.3909713165
 10
2.9458248136
 20
99.4188825434
 10
2.9653143664
 20
99.4493917359
 10
2.9827365162
 20
99.4824728452
 10
2.9979154023
 20
99.5177919476
 10
3.0108283047
 20
99.5553717101
 10
3.0214979434
 20
99.5951894658
 10
3.0298166182
 20
99.6368432908
 10
3.0357484291
 20
99.6801992105
 10
3.039329276
 20
99.7253911996
 10
3.0405591591
 20
99.772419258
  0
LINE
  5
236
100
AcDbEntity
  8
RACCORDO
100
AcDbLine
 62
250
  6
CONTINUOUS
 10
3.0405591591
 20
100.5888895348
 11
3.3940954647
 21
100.7930169668
  0
LINE
  5
237
100
AcDbEntity
  8
RACCORDO
100
AcDbLine
 62
250
  6
CONTINUOUS
 10
4.1011168306
 20
100.3847719656
 11
3.0405591591
 21
99.772419258
  0
LINE
  5
238
100
AcDbEntity
  8
RACCORDO
100
AcDbLine
 62
7
  6
CONTINUOUS
 10
4.2476901004
 20
100.1312315835
 11
2.8334765381
 21
99.3146823969
  0
LINE
  5
239
100
AcDbEntity
  8
CURVE
100
AcDbLine
 62
250
  6
CONTINUOUS
 10
3.1003913394
 20
105.6070381054
 11
3.481141122
 21
105.8268358106
  0
LINE
  5
23A
100
AcDbEntity
  8
CURVE
100
AcDbLine
 62
250
  6
CONTINUOUS
 10
9.3926925095
 20
106.8547650503
 11
9.1314459899
 21
106.7039539717
  0
LINE
  5
23B
100
AcDbEntity
  8
CURVE
100
AcDbLine
 62
250
  6
CONTINUOUS
 10
9.3827626042
 20
106.1562350453
 11
9.7635126818
 21
106.3760325376
  0
LWPOLYLINE
  5
23C
100
AcDbEntity
  8
RACCORDO
100
AcDbPolyline
 62
7
  6
CONTINUOUS
 90
13
 70
0
 10
3.1441004696
 20
100.8177579654
 10
3.1609800745
 20
100.8262537804
 10
3.1789150837
 20
100.8328936839
 10
3.1976888101
 20
100.8375999559
 10
3.2173119974
 20
100.8403478269
 10
3.2377739018
 20
100.8411620663
 10
3.2588135247
 20
100.8400322883
 10
3.2804382664
 20
100.8369335904
 10
3.3026407265
 20
100.831890875
 10
3.3251377049
 20
100.8249684638
 10
3.3478348015
 20
100.8161877972
 10
3.3708264165
 20
100.8055274348
 10
3.3941125497
 20
100.7929873765
  0
LINE
  5
23D
100
AcDbEntity
  8
CURVE
100
AcDbLine
 62
250
  6
CONTINUOUS
 10
-8.0317491658
 20
118.9849390638
 11
-6.5472082137
 21
121.0670767203
  0
LINE
  5
23E
100
AcDbEntity
  8
CURVE
100
AcDbLine
 62
250
  6
CONTINUOUS
 10
-7.6652547996
 20
118.526539923
 11
-6.3639610307
 21
120.3516648916
  0
LWPOLYLINE
  5
23F
100
AcDbEntity
  8
CURVE
100
AcDbPolyline
 62
250
  6
CONTINUOUS
 90
17
 70
0
 10
-8.0317491658
 20
118.9849390638
 10
-8.0490164161
 20
118.9514611061
 10
-8.0586461339
 20
118.910528173
 10
-8.0602715263
 20
118.8636993871
 10
-8.053643405
 20
118.8118231027
 10
-8.0392460709
 20
118.7586897953
 10
-8.0175833537
 20
118.7054441117
 10
-7.9894803797
 20
118.6541141637
 10
-7.9553685813
 20
118.6058541239
 10
-7.9177404258
 20
118.5641902376
 10
-7.8774749995
 20
118.529822403
 10
-7.8361060001
 20
118.5040596801
 10
-7.7944927535
 20
118.4876859617
 10
-7.7556758398
 20
118.4818976361
 10
-7.720394645
 20
118.4865398618
 10
-7.689993019
 20
118.5014358178
 10
-7.6652547903
 20
118.5265399361
  0
LINE
  5
240
100
AcDbEntity
  8
RACCORDO
100
AcDbLine
 62
250
  6
CONTINUOUS
 10
40.9414826307
 20
97.8107758094
 11
42.3556961931
 21
98.627324996
  0
LINE
  5
241
100
AcDbEntity
  8
RACCORDO
100
AcDbLine
 62
250
  6
CONTINUOUS
 10
41.6485894119
 20
96.5860309393
 11
43.0628029743
 21
97.4025801259
  0
LINE
  5
242
100
AcDbEntity
  8
CURVE
100
AcDbLine
 62
250
  6
CONTINUOUS
 10
3.2785583725
 20
106.5713849406
 11
3.132457772
 21
106.3183473205
  0
LINE
  5
243
100
AcDbEntity
  8
CURVE
100
AcDbLine
 62
250
  6
CONTINUOUS
 10
3.481141122
 20
105.8268358106
 11
3.6715158658
 21
106.1565536346
  0
LWPOLYLINE
  5
244
100
AcDbEntity
  8
RACCORDO
100
AcDbPolyline
 62
7
  6
CONTINUOUS
 90
6
 70
0
 10
4.3599540209
 20
100.2353226159
 10
4.3384604813
 20
100.2075205032
 10
4.3148151836
 20
100.182181193
 10
4.2893411607
 20
100.1596695769
 10
4.2620198909
 20
100.1400142941
 10
4.2476792535
 20
100.1312503698
  0
LWPOLYLINE
  5
245
100
AcDbEntity
  8
RACCORDO
100
AcDbPolyline
 62
7
  6
CONTINUOUS
 90
28
 70
0
 10
-43.0628029743
 20
-97.4025801259
 10
-43.0615730912
 20
-97.4510284225
 10
-43.0579922442
 20
-97.5003554839
 10
-43.0520604334
 20
-97.5505613101
 10
-43.0437417586
 20
-97.6018213323
 10
-43.0330721198
 20
-97.6539601193
 10
-43.0201592175
 20
-97.7064513777
 10
-43.0049803313
 20
-97.7592986775
 10
-42.9875581815
 20
-97.8124984486
 10
-42.9680686288
 20
-97.8655136881
 10
-42.9464907341
 20
-97.9183425269
 10
-42.9228454364
 20
-97.9709868341
 10
-42.8973714135
 20
-98.0229152134
 10
-42.8700501437
 20
-98.0741204138
 10
-42.8409001486
 20
-98.1246096863
 10
-42.8102156707
 20
-98.1738733878
 10
-42.7779811687
 20
-98.2218991057
 10
-42.744212184
 20
-98.2686992525
 10
-42.7092495837
 20
-98.3138014237
 10
-42.6730812785
 20
-98.3571884219
 10
-42.6357193577
 20
-98.3988774443
 10
-42.5975409557
 20
-98.4384476785
 10
-42.5585378031
 20
-98.475877665
 10
-42.5187181692
 20
-98.5111888632
 10
-42.478483997
 20
-98.5440248388
 10
-42.4379692674
 20
-98.5742667805
 10
-42.3970399994
 20
-98.6020334995
 10
-42.3556961931
 20
-98.627324996
  0
LINE
  5
246
100
AcDbEntity
  8
RACCORDO
100
AcDbLine
 62
7
  6
CONTINUOUS
 10
-43.0628029743
 20
145.4973272199
 11
-43.0628029743
 21
-97.4025801259
  0
LWPOLYLINE
  5
247
100
AcDbEntity
  8
RACCORDO
100
AcDbPolyline
 62
7
  6
CONTINUOUS
 90
25
 70
0
 10
-26.6932809898
 20
-94.0353957961
 10
-26.6924971568
 20
-94.0627360158
 10
-26.6902326804
 20
-94.090591071
 10
-26.6864875605
 20
-94.1189609616
 10
-26.6812331613
 20
-94.1479712221
 10
-26.6744981187
 20
-94.177496318
 10
-26.6663683404
 20
-94.2071596465
 10
-26.6568259603
 20
-94.2369629784
 10
-26.6458888445
 20
-94.2669045428
 10
-26.6336964998
 20
-94.2966024248
 10
-26.620232847
 20
-94.3260535028
 10
-26.6055139653
 20
-94.3552608982
 10
-26.5897275992
 20
-94.3838520607
 10
-26.5728600744
 20
-94.4118190963
 10
-26.5549250652
 20
-94.4391698989
 10
-26.5361513388
 20
-94.4655555995
 10
-26.5165281515
 20
-94.4909638353
 10
-26.4960662471
 20
-94.5154069691
 10
-26.4750266242
 20
-94.5385732202
 10
-26.4534018825
 20
-94.560446232
 10
-26.4311994224
 20
-94.581042361
 10
-26.408702444
 20
-94.6000988965
 10
-26.3860053474
 20
-94.6175282682
 10
-26.3630137324
 20
-94.6334180464
 10
-26.3397275992
 20
-94.6477682312
  0
LWPOLYLINE
  5
248
100
AcDbEntity
  8
RACCORDO
100
AcDbPolyline
 62
7
  6
CONTINUOUS
 90
34
 70
0
 10
-32.8804653252
 20
-84.3394660285
 10
-32.8788333598
 20
-84.4183978423
 10
-32.8740351415
 20
-84.4986321637
 10
-32.8660706702
 20
-84.5801689927
 10
-32.8549076077
 20
-84.6631986499
 10
-32.8405782923
 20
-84.7475308147
 10
-32.8231797391
 20
-84.8325945253
 10
-32.8026911211
 20
-84.9183947458
 10
-32.7791332652
 20
-85.0049265122
 10
-32.7526656674
 20
-85.0916039705
 10
-32.723268583
 20
-85.1784281093
 10
-32.6909617567
 20
-85.2653979401
 10
-32.6559639183
 20
-85.3519246429
 10
-32.6182568075
 20
-85.438005211
 10
-32.5778586845
 20
-85.5236426511
 10
-32.5350430606
 20
-85.6082571643
 10
-32.4897935313
 20
-85.6918418094
 10
-32.442126501
 20
-85.7744035276
 10
-32.3923646942
 20
-85.8553833438
 10
-32.3404938964
 20
-85.9347705237
 10
-32.286528322
 20
-86.0125758015
 10
-32.2308333392
 20
-86.088272405
 10
-32.1733972127
 20
-86.1618460255
 10
-32.1142316778
 20
-86.2333109718
 10
-32.0537373082
 20
-86.3021833982
 10
-31.9919050869
 20
-86.3684457127
 10
-31.9287440311
 20
-86.4321155073
 10
-31.8646817656
 20
-86.4927617125
 10
-31.7997121753
 20
-86.5503638113
 10
-31.7338413755
 20
-86.6049423207
 10
-31.6675153372
 20
-86.656127723
 10
-31.6008827175
 20
-86.7037968454
 10
-31.5337948594
 20
-86.7480728607
 10
-31.4662517628
 20
-86.7889557688
  0
LWPOLYLINE
  5
249
100
AcDbEntity
  8
RACCORDO
100
AcDbPolyline
 62
7
  6
CONTINUOUS
 90
34
 70
0
 10
-28.1074945522
 20
-91.994299014
 10
-28.1091265176
 20
-91.9153672002
 10
-28.1139247359
 20
-91.8351328788
 10
-28.1218892071
 20
-91.7535960498
 10
-28.1330522696
 20
-91.6705663926
 10
-28.147381585
 20
-91.5862342278
 10
-28.1647801383
 20
-91.5011705172
 10
-28.1852687563
 20
-91.4153702967
 10
-28.2088266121
 20
-91.3288385303
 10
-28.2352942099
 20
-91.242161072
 10
-28.2646912943
 20
-91.1553369332
 10
-28.2969981206
 20
-91.0683671024
 10
-28.331995959
 20
-90.9818403996
 10
-28.3697030699
 20
-90.8957598316
 10
-28.4101011928
 20
-90.8101223914
 10
-28.4529168167
 20
-90.7255078782
 10
-28.498166346
 20
-90.6419232331
 10
-28.5458333763
 20
-90.5593615149
 10
-28.5955951831
 20
-90.4783816987
 10
-28.647465981
 20
-90.3989945188
 10
-28.7014315553
 20
-90.3211892411
 10
-28.7571265381
 20
-90.2454926375
 10
-28.8145626646
 20
-90.171919017
 10
-28.8737281996
 20
-90.1004540707
 10
-28.9342225691
 20
-90.0315816443
 10
-28.9960547904
 20
-89.9653193298
 10
-29.0592158463
 20
-89.9016495352
 10
-29.1232781117
 20
-89.84100333
 10
-29.188247702
 20
-89.7834012312
 10
-29.2541185018
 20
-89.7288227218
 10
-29.3204445401
 20
-89.6776373195
 10
-29.3870771598
 20
-89.6299681971
 10
-29.454165018
 20
-89.5856921818
 10
-29.5217081145
 20
-89.5448092737
  0
LINE
  5
24A
100
AcDbEntity
  8
RACCORDO
100
AcDbLine
 62
7
  6
CONTINUOUS
 10
-34.2946788875
 20
-85.1560152152
 11
-34.2946788875
 21
108.6740284954
  0
LINE
  5
24B
100
AcDbEntity
  8
RACCORDO
100
AcDbLine
 62
7
  6
CONTINUOUS
 10
-32.8804653252
 20
-84.3394660285
 11
-32.8804653252
 21
109.4905776821
  0
LWPOLYLINE
  5
24C
100
AcDbEntity
  8
RACCORDO
100
AcDbPolyline
 62
7
  6
CONTINUOUS
 90
18
 70
0
 10
-34.2946788875
 20
108.6740284954
 10
-34.2930469221
 20
108.7510757565
 10
-34.2882487038
 20
108.8257692156
 10
-34.2802842326
 20
108.8981088729
 10
-34.2691211701
 20
108.9682477053
 10
-34.2547918547
 20
109.0360327358
 10
-34.2373933015
 20
109.1010050333
 10
-34.2169046834
 20
109.1631455113
 10
-34.1933468276
 20
109.2224732562
 10
-34.1668792298
 20
109.278586596
 10
-34.1374821454
 20
109.3314637187
 10
-34.1051753191
 20
109.3811264362
 10
-34.0701774807
 20
109.4272385125
 10
-34.0324703698
 20
109.4697758541
 10
-33.9920722469
 20
109.5087625545
 10
-33.949256623
 20
109.5439346584
 10
-33.9040070937
 20
109.5752662813
 10
-33.8805039157
 20
109.5894853663
  0
LWPOLYLINE
  5
24D
100
AcDbEntity
  8
RACCORDO
100
AcDbPolyline
 62
7
  6
CONTINUOUS
 90
13
 70
0
 10
-28.1074945522
 20
118.5733853709
 10
-28.1067107192
 20
118.5998204399
 10
-28.1044462428
 20
118.6250605345
 10
-28.1007011229
 20
118.6491056546
 10
-28.0954467237
 20
118.6720482665
 10
-28.088711681
 20
118.693795904
 10
-28.0805819028
 20
118.7140711684
 10
-28.0710395226
 20
118.7328551988
 10
-28.0601024068
 20
118.7501668562
 10
-28.0479100622
 20
118.7657853241
 10
-28.0344464094
 20
118.7796889133
 10
-28.0197275277
 20
118.7918993131
 10
-28.0039532416
 20
118.8022538015
  0
LINE
  5
24E
100
AcDbEntity
  8
CURVE
100
AcDbLine
 62
250
  6
CONTINUOUS
 10
3.4376268358
 20
107.0305520165
 11
3.2785583725
 21
106.5713849406
  0
LINE
  5
24F
100
AcDbEntity
  8
CURVE
100
AcDbLine
 62
250
  6
CONTINUOUS
 10
3.6715158658
 20
106.1565536346
 11
3.8618909046
 21
106.706090281
  0
LINE
  5
250
100
AcDbEntity
  8
RACCORDO
100
AcDbLine
 62
7
  6
CONTINUOUS
 10
-28.1074945522
 20
-94.8519449827
 11
-28.1074945522
 21
-91.994299014
  0
LINE
  5
251
100
AcDbEntity
  8
RACCORDO
100
AcDbLine
 62
7
  6
CONTINUOUS
 10
-28.1074945522
 20
108.367506911
 11
-28.1074945522
 21
118.5733853709
  0
LINE
  5
252
100
AcDbEntity
  8
RACCORDO
100
AcDbLine
 62
7
  6
CONTINUOUS
 10
-26.6932809898
 20
-94.0353957961
 11
-26.6932809898
 21
-91.1777498273
  0
LINE
  5
253
100
AcDbEntity
  8
RACCORDO
100
AcDbLine
 62
7
  6
CONTINUOUS
 10
-26.6932809898
 20
109.1840560976
 11
-26.6932809898
 21
118.1650713226
  0
LWPOLYLINE
  5
254
100
AcDbEntity
  8
RACCORDO
100
AcDbPolyline
 62
7
  6
CONTINUOUS
 90
18
 70
0
 10
-26.6932809898
 20
109.1840560976
 10
-26.6949129552
 20
109.1070088366
 10
-26.6997111735
 20
109.0323153775
 10
-26.7076756447
 20
108.9599757202
 10
-26.7188387072
 20
108.8898368878
 10
-26.7331680226
 20
108.8220518572
 10
-26.7505665759
 20
108.7570795598
 10
-26.7710551939
 20
108.6949390818
 10
-26.7946130498
 20
108.6356113368
 10
-26.8210806476
 20
108.579497997
 10
-26.8504777319
 20
108.5266208744
 10
-26.8827845583
 20
108.4769581569
 10
-26.9177823966
 20
108.4308460805
 10
-26.9554895075
 20
108.388308739
 10
-26.9958876305
 20
108.3493220386
 10
-27.0387032544
 20
108.3141499346
 10
-27.0839527837
 20
108.2828183118
 10
-27.1074559617
 20
108.2685992267
  0
LINE
  5
255
100
AcDbEntity
  8
CURVE
100
AcDbLine
 62
250
  6
CONTINUOUS
 10
9.4886938813
 20
107.1318816524
 11
9.3926925095
 21
106.8547650503
  0
LINE
  5
256
100
AcDbEntity
  8
CURVE
100
AcDbLine
 62
250
  6
CONTINUOUS
 10
9.7635126818
 20
106.3760325376
 11
9.8911859546
 21
106.7445729331
  0
LWPOLYLINE
  5
257
100
AcDbEntity
  8
CURVE
100
AcDbPolyline
 62
250
  6
CONTINUOUS
 90
17
 70
0
 10
9.8911859717
 20
106.7445729166
 10
9.9003829508
 20
106.7858723748
 10
9.9015642205
 20
106.8329749841
 10
9.8946847866
 20
106.8840866209
 10
9.879676689
 20
106.9382164005
 10
9.8576365334
 20
106.9914091901
 10
9.829208866
 20
107.0425762974
 10
9.7954764881
 20
107.0897687833
 10
9.7570221841
 20
107.1318662601
 10
9.7166557179
 20
107.1657927664
 10
9.6752716555
 20
107.1910513742
 10
9.634446303
 20
107.206679991
 10
9.5950718025
 20
107.212085034
 10
9.5600251542
 20
107.2068715697
 10
9.5299269193
 20
107.1914255281
 10
9.50592353
 20
107.1663352441
 10
9.4886938754
 20
107.1318816354
  0
LWPOLYLINE
  5
258
100
AcDbEntity
  8
RACCORDO
100
AcDbPolyline
 62
7
  6
CONTINUOUS
 90
25
 70
0
 10
1.4849242405
 20
-110.3051383402
 10
1.4857080735
 20
-110.3324785599
 10
1.4879725499
 20
-110.3603336151
 10
1.4917176698
 20
-110.3887035057
 10
1.496972069
 20
-110.4177137662
 10
1.5037071116
 20
-110.4472388621
 10
1.5118368899
 20
-110.4769021906
 10
1.52137927
 20
-110.5067055225
 10
1.5323163858
 20
-110.536647087
 10
1.5445087305
 20
-110.5663449689
 10
1.5579723833
 20
-110.5957960469
 10
1.572691265
 20
-110.6250034423
 10
1.5884776311
 20
-110.6535946048
 10
1.6053451559
 20
-110.6815616404
 10
1.6232801651
 20
-110.708912443
 10
1.6420538915
 20
-110.7352981436
 10
1.6616770788
 20
-110.7607063795
 10
1.6821389832
 20
-110.7851495132
 10
1.703178606
 20
-110.8083157643
 10
1.7248033478
 20
-110.8301887761
 10
1.7470058079
 20
-110.8507849051
 10
1.7695027863
 20
-110.8698414406
 10
1.7921998829
 20
-110.8872708123
 10
1.8151914979
 20
-110.9031605906
 10
1.8384776311
 20
-110.9175107753
  0
LWPOLYLINE
  5
259
100
AcDbEntity
  8
RACCORDO
100
AcDbPolyline
 62
7
  6
CONTINUOUS
 90
28
 70
0
 10
0.0707106781
 20
-109.8969821117
 10
0.0694807951
 20
-109.8485338151
 10
0.0658999481
 20
-109.7992067537
 10
0.0599681373
 20
-109.7490009275
 10
0.0516494624
 20
-109.6977409053
 10
0.0409798237
 20
-109.6456021183
 10
0.0280669213
 20
-109.5931108599
 10
0.0128880352
 20
-109.5402635601
 10
-0.0045341146
 20
-109.487063789
 10
-0.0240236674
 20
-109.4340485495
 10
-0.0456015621
 20
-109.3812197107
 10
-0.0692468597
 20
-109.3285754035
 10
-0.0947208826
 20
-109.2766470242
 10
-0.1220421525
 20
-109.2254418238
 10
-0.1511921476
 20
-109.1749525513
 10
-0.1818766254
 20
-109.1256888498
 10
-0.2141111274
 20
-109.0776631319
 10
-0.2478801121
 20
-109.0308629851
 10
-0.2828427125
 20
-108.9857608139
 10
-0.3190110176
 20
-108.9423738157
 10
-0.3563729384
 20
-108.9006847933
 10
-0.3945513404
 20
-108.8611145591
 10
-0.4335544931
 20
-108.8236845726
 10
-0.4733741269
 20
-108.7883733744
 10
-0.5136082991
 20
-108.7555373988
 10
-0.5541230287
 20
-108.7252954571
 10
-0.5950522967
 20
-108.6975287381
 10
-0.6363961031
 20
-108.6722372415
  0
LWPOLYLINE
  5
25A
100
AcDbEntity
  8
RACCORDO
100
AcDbPolyline
 62
7
  6
CONTINUOUS
 90
28
 70
0
 10
-4.4547727215
 20
104.1001299473
 10
-4.4535428384
 20
104.0516816507
 10
-4.4499619915
 20
104.0023545894
 10
-4.4440301806
 20
103.9521487631
 10
-4.4357115058
 20
103.9008887409
 10
-4.425041867
 20
103.8487499539
 10
-4.4121289647
 20
103.7962586955
 10
-4.3969500785
 20
103.7434113957
 10
-4.3795279287
 20
103.6902116246
 10
-4.360038376
 20
103.6371963851
 10
-4.3384604813
 20
103.5843675463
 10
-4.3148151836
 20
103.5317232391
 10
-4.2893411607
 20
103.4797948598
 10
-4.2620198909
 20
103.4285896595
 10
-4.2328698958
 20
103.378100387
 10
-4.202185418
 20
103.3288366854
 10
-4.169950916
 20
103.2808109676
 10
-4.1361819312
 20
103.2340108207
 10
-4.1012193309
 20
103.1889086495
 10
-4.0650510257
 20
103.1455216513
 10
-4.0276891049
 20
103.1038326289
 10
-3.9895107029
 20
103.0642623947
 10
-3.9505075503
 20
103.0268324082
 10
-3.9106879165
 20
102.99152121
 10
-3.8704537443
 20
102.9586852344
 10
-3.8299390146
 20
102.9284432928
 10
-3.7890097466
 20
102.9006765737
 10
-3.7476659403
 20
102.8753850772
  0
LINE
  5
25B
100
AcDbEntity
  8
CURVE
100
AcDbLine
 62
250
  6
CONTINUOUS
 10
-6.576093065
 20
117.2862432823
 11
-6.576093065
 21
110.7544810679
  0
LINE
  5
25C
100
AcDbEntity
  8
CURVE
100
AcDbLine
 62
250
  6
CONTINUOUS
 10
-6.1518289963
 20
117.0412785263
 11
-6.1518289963
 21
110.5095163119
  0
LINE
  5
25D
100
AcDbEntity
  8
RACCORDO
100
AcDbLine
 62
7
  6
CONTINUOUS
 10
-4.4547727215
 20
104.9166002241
 11
-4.4547727215
 21
104.1001299473
  0
LINE
  5
25E
100
AcDbEntity
  8
RACCORDO
100
AcDbLine
 62
7
  6
CONTINUOUS
 10
-1.4849242405
 20
-108.9987780063
 11
-1.4849242405
 21
-110.2234834215
  0
LINE
  5
25F
100
AcDbEntity
  8
CURVE
100
AcDbLine
 62
250
  6
CONTINUOUS
 10
-0.7071067812
 20
115.0343422142
 11
-0.7071067812
 21
109.3441722818
  0
LINE
  5
260
100
AcDbEntity
  8
CURVE
100
AcDbLine
 62
250
  6
CONTINUOUS
 10
-0.2828427125
 20
109.1787044559
 11
-0.2828427125
 21
114.7893774582
  0
LINE
  5
261
100
AcDbEntity
  8
RACCORDO
100
AcDbLine
 62
7
  6
CONTINUOUS
 10
0.0707106781
 20
-111.1216875269
 11
0.0707106781
 21
-109.8969821117
  0
LWPOLYLINE
  5
262
100
AcDbEntity
  8
RACCORDO
100
AcDbPolyline
 62
7
  6
CONTINUOUS
 90
13
 70
0
 10
3.0405591591
 20
100.5888895348
 10
3.0413429921
 20
100.6153246038
 10
3.0436074685
 20
100.6405646984
 10
3.0473525884
 20
100.6646098185
 10
3.0526069876
 20
100.6875524304
 10
3.0593420302
 20
100.7093000679
 10
3.0674718085
 20
100.7295753323
 10
3.0770141886
 20
100.7483593628
 10
3.0879513044
 20
100.7656710201
 10
3.1001436491
 20
100.781289488
 10
3.1136073019
 20
100.7951930772
 10
3.1283261836
 20
100.807403477
 10
3.1441004696
 20
100.8177579654
  0
LWPOLYLINE
  5
263
100
AcDbEntity
  8
CURVE
100
AcDbPolyline
 62
250
  6
CONTINUOUS
 90
17
 70
0
 10
-6.576093065
 20
110.7544810679
 10
-6.5720530434
 20
110.7045724377
 10
-6.5600868616
 20
110.651899496
 10
-6.5406503079
 20
110.5984685388
 10
-6.5139610307
 20
110.5454073092
 10
-6.4819691513
 20
110.4965928639
 10
-6.4454823793
 20
110.4529359845
 10
-6.4058904844
 20
110.4160995478
 10
-6.3639610307
 20
110.3870576069
 10
-6.3227577026
 20
110.3679321866
 10
-6.2831237965
 20
110.3588649773
 10
-6.2465689555
 20
110.3602013462
 10
-6.2139610307
 20
110.3721910691
 10
-6.1876826047
 20
110.3939580855
 10
-6.1681185692
 20
110.4247919946
 10
-6.1560141122
 20
110.4635183424
 10
-6.1518289963
 20
110.5095163334
  0
LWPOLYLINE
  5
264
100
AcDbEntity
  8
CURVE
100
AcDbPolyline
 62
250
  6
CONTINUOUS
 90
17
 70
0
 10
-6.1518289963
 20
117.0412785263
 10
-6.155869018
 20
117.0911871565
 10
-6.1678351997
 20
117.1438600982
 10
-6.1872717534
 20
117.1972910555
 10
-6.2139610307
 20
117.250352285
 10
-6.2459529101
 20
117.2991667303
 10
-6.2824396821
 20
117.3428236098
 10
-6.322031577
 20
117.3796600464
 10
-6.3639610307
 20
117.4087019873
 10
-6.4051643587
 20
117.4278274077
 10
-6.4447982648
 20
117.436894617
 10
-6.4813531058
 20
117.435558248
 10
-6.5139610307
 20
117.4235685252
 10
-6.5402394567
 20
117.4018015087
 10
-6.5598034922
 20
117.3709675996
 10
-6.5719079492
 20
117.3322412519
 10
-6.576093065
 20
117.2862432609
  0
LWPOLYLINE
  5
265
100
AcDbEntity
  8
CURVE
100
AcDbPolyline
 62
250
  6
CONTINUOUS
 90
17
 70
0
 10
-0.2828427125
 20
114.7893774582
 10
-0.2868827341
 20
114.8392860884
 10
-0.2988489159
 20
114.8919590302
 10
-0.3182854696
 20
114.9453899874
 10
-0.3449747468
 20
114.998451217
 10
-0.3769666262
 20
115.0472656623
 10
-0.4134533982
 20
115.0909225417
 10
-0.4530452931
 20
115.1277589783
 10
-0.4949747468
 20
115.1568009193
 10
-0.5361780749
 20
115.1759263396
 10
-0.575811981
 20
115.1849935489
 10
-0.612366822
 20
115.1836571799
 10
-0.6449747468
 20
115.1716674571
 10
-0.6712531728
 20
115.1499004407
 10
-0.6908172083
 20
115.1190665315
 10
-0.7029216653
 20
115.0803401838
 10
-0.7071067812
 20
115.0343421928
  0
LINE
  5
266
100
AcDbEntity
  8
RACCORDO
100
AcDbLine
 62
7
  6
CONTINUOUS
 10
1.4849242405
 20
-110.3051383402
 11
1.4849242405
 21
-109.080432925
  0
LINE
  5
267
100
AcDbEntity
  8
RACCORDO
100
AcDbLine
 62
7
  6
CONTINUOUS
 10
3.0405591591
 20
99.772419258
 11
3.0405591591
 21
100.5888895348
  0
LINE
  5
268
100
AcDbEntity
  8
CURVE
100
AcDbLine
 62
250
  6
CONTINUOUS
 10
3.4376268358
 20
112.6412249695
 11
3.4376268358
 21
107.0305520165
  0
LINE
  5
269
100
AcDbEntity
  8
CURVE
100
AcDbLine
 62
250
  6
CONTINUOUS
 10
3.8618909046
 20
106.706090281
 11
3.8618909046
 21
112.3962602135
  0
LINE
  5
26A
100
AcDbEntity
  8
CURVE
100
AcDbLine
 62
250
  6
CONTINUOUS
 10
5.3848903298
 20
111.516899433
 11
5.3848903298
 21
104.0933002451
  0
LINE
  5
26B
100
AcDbEntity
  8
CURVE
100
AcDbLine
 62
250
  6
CONTINUOUS
 10
5.8091543985
 20
103.8483354891
 11
5.8091543985
 21
111.271934677
  0
LWPOLYLINE
  5
26C
100
AcDbEntity
  8
RACCORDO
100
AcDbPolyline
 62
7
  6
CONTINUOUS
 90
13
 70
0
 10
-1.4849242405
 20
-110.2234834215
 10
-1.4857080735
 20
-110.2499184905
 10
-1.4879725499
 20
-110.2751585851
 10
-1.4917176698
 20
-110.2992037052
 10
-1.496972069
 20
-110.3221463172
 10
-1.5037071116
 20
-110.3438939547
 10
-1.5118368899
 20
-110.3641692191
 10
-1.52137927
 20
-110.3829532495
 10
-1.5323163858
 20
-110.4002649068
 10
-1.5445087305
 20
-110.4158833748
 10
-1.5579723833
 20
-110.4297869639
 10
-1.572691265
 20
-110.4419973637
 10
-1.588465551
 20
-110.4523518521
  0
LWPOLYLINE
  5
26D
100
AcDbEntity
  8
CURVE
100
AcDbPolyline
 62
250
  6
CONTINUOUS
 90
17
 70
0
 10
3.8618909046
 20
112.3962602135
 10
3.8578508829
 20
112.4461688437
 10
3.8458847012
 20
112.4988417854
 10
3.8264481475
 20
112.5522727426
 10
3.7997588702
 20
112.6053339722
 10
3.7677669908
 20
112.6541484175
 10
3.7312802188
 20
112.6978052969
 10
3.6916883239
 20
112.7346417336
 10
3.6497588702
 20
112.7636836745
 10
3.6085555421
 20
112.7828090949
 10
3.568921636
 20
112.7918763041
 10
3.5323667951
 20
112.7905399352
 10
3.4997588702
 20
112.7785502123
 10
3.4734804442
 20
112.7567831959
 10
3.4539164087
 20
112.7259492868
 10
3.4418119517
 20
112.687222939
 10
3.4376268358
 20
112.641224948
  0
LWPOLYLINE
  5
26E
100
AcDbEntity
  8
CURVE
100
AcDbPolyline
 62
250
  6
CONTINUOUS
 90
17
 70
0
 10
5.3848903298
 20
104.0933002451
 10
5.3889303515
 20
104.0433916149
 10
5.4008965332
 20
103.9907186732
 10
5.4203330869
 20
103.937287716
 10
5.4470223642
 20
103.8842264864
 10
5.4790142436
 20
103.8354120411
 10
5.5155010156
 20
103.7917551616
 10
5.5550929105
 20
103.754918725
 10
5.5970223642
 20
103.7258767841
 10
5.6382256922
 20
103.7067513637
 10
5.6778595984
 20
103.6976841545
 10
5.7144144393
 20
103.6990205234
 10
5.7470223642
 20
103.7110102463
 10
5.7733007902
 20
103.7327772627
 10
5.7928648257
 20
103.7636111718
 10
5.8049692827
 20
103.8023375195
 10
5.8091543985
 20
103.8483355105
  0
LWPOLYLINE
  5
26F
100
AcDbEntity
  8
CURVE
100
AcDbPolyline
 62
250
  6
CONTINUOUS
 90
17
 70
0
 10
5.8091543985
 20
111.271934677
 10
5.8051143769
 20
111.3218433072
 10
5.7931481951
 20
111.3745162489
 10
5.7737116414
 20
111.4279472061
 10
5.7470223642
 20
111.4810084357
 10
5.7150304848
 20
111.529822881
 10
5.6785437128
 20
111.5734797605
 10
5.6389518179
 20
111.6103161971
 10
5.5970223642
 20
111.639358138
 10
5.5558190361
 20
111.6584835584
 10
5.51618513
 20
111.6675507677
 10
5.479630289
 20
111.6662143987
 10
5.4470223642
 20
111.6542246758
 10
5.4207439382
 20
111.6324576594
 10
5.4011799027
 20
111.6016237503
 10
5.3890754457
 20
111.5628974026
 10
5.3848903298
 20
111.5168994116
  0
LWPOLYLINE
  5
270
100
AcDbEntity
  8
RACCORDO
100
AcDbPolyline
 62
7
  6
CONTINUOUS
 90
34
 70
0
 10
26.6932809898
 20
76.7262259281
 10
26.6949129552
 20
76.6472941143
 10
26.6997111735
 20
76.5670597929
 10
26.7076756447
 20
76.4855229639
 10
26.7188387072
 20
76.4024933067
 10
26.7331680226
 20
76.3181611419
 10
26.7505665759
 20
76.2330974313
 10
26.7710551939
 20
76.1472972108
 10
26.7946130498
 20
76.0607654444
 10
26.8210806476
 20
75.9740879861
 10
26.8504777319
 20
75.8872638473
 10
26.8827845583
 20
75.8002940165
 10
26.9177823966
 20
75.7137673137
 10
26.9554895075
 20
75.6276867457
 10
26.9958876305
 20
75.5420493055
 10
27.0387032544
 20
75.4574347923
 10
27.0839527837
 20
75.3738501472
 10
27.131619814
 20
75.291288429
 10
27.1813816208
 20
75.2103086128
 10
27.2332524186
 20
75.130921433
 10
27.2872179929
 20
75.0531161552
 10
27.3429129757
 20
74.9774195516
 10
27.4003491022
 20
74.9038459311
 10
27.4595146372
 20
74.8323809848
 10
27.5200090068
 20
74.7635085584
 10
27.581841228
 20
74.6972462439
 10
27.6450022839
 20
74.6335764493
 10
27.7090645493
 20
74.5729302441
 10
27.7740341396
 20
74.5153281453
 10
27.8399049395
 20
74.4607496359
 10
27.9062309778
 20
74.4095642336
 10
27.9728635974
 20
74.3618951112
 10
28.0399514556
 20
74.3176190959
 10
28.1074945522
 20
74.2767361878
  0
LINE
  5
271
100
AcDbEntity
  8
RACCORDO
100
AcDbLine
 62
7
  6
CONTINUOUS
 10
26.6932809898
 20
86.932104388
 11
26.6932809898
 21
76.7262259281
  0
LINE
  5
272
100
AcDbEntity
  8
RACCORDO
100
AcDbLine
 62
7
  6
CONTINUOUS
 10
26.6932809898
 20
-123.6355799969
 11
26.6932809898
 21
-126.4932259656
  0
LWPOLYLINE
  5
273
100
AcDbEntity
  8
RACCORDO
100
AcDbPolyline
 62
7
  6
CONTINUOUS
 90
13
 70
0
 10
26.6932809898
 20
-126.4932259656
 10
26.6924971568
 20
-126.5196610346
 10
26.6902326804
 20
-126.5449011292
 10
26.6864875605
 20
-126.5689462493
 10
26.6812331613
 20
-126.5918888613
 10
26.6744981187
 20
-126.6136364988
 10
26.6663683404
 20
-126.6339117632
 10
26.6568259603
 20
-126.6526957936
 10
26.6458888445
 20
-126.6700074509
 10
26.6336964998
 20
-126.6856259189
 10
26.620232847
 20
-126.699529508
 10
26.6055139653
 20
-126.7117399079
 10
26.5897396793
 20
-126.7220943962
  0
LINE
  5
274
100
AcDbEntity
  8
CURVE
100
AcDbLine
 62
250
  6
CONTINUOUS
 10
-0.7071067812
 20
109.3441722818
 11
-0.5167318715
 21
108.574795387
  0
LINE
  5
275
100
AcDbEntity
  8
CURVE
100
AcDbLine
 62
250
  6
CONTINUOUS
 10
-0.123774387
 20
108.5358492892
 11
-0.2828427125
 21
109.1787044559
  0
LINE
  5
276
100
AcDbEntity
  8
RACCORDO
100
AcDbLine
 62
7
  6
CONTINUOUS
 10
32.8804653252
 20
69.8879421293
 11
32.8804653252
 21
-123.9421015813
  0
LINE
  5
277
100
AcDbEntity
  8
RACCORDO
100
AcDbLine
 62
7
  6
CONTINUOUS
 10
41.6485894119
 20
-146.3138764066
 11
41.6485894119
 21
96.5860309393
  0
LWPOLYLINE
  5
278
100
AcDbEntity
  8
RACCORDO
100
AcDbPolyline
 62
7
  6
CONTINUOUS
 90
18
 70
0
 10
32.8804653252
 20
-123.9421015813
 10
32.8788333598
 20
-124.0191488424
 10
32.8740351415
 20
-124.0938423015
 10
32.8660706702
 20
-124.1661819588
 10
32.8549076077
 20
-124.2363207912
 10
32.8405782923
 20
-124.3041058217
 10
32.8231797391
 20
-124.3690781192
 10
32.8026911211
 20
-124.4312185972
 10
32.7791332652
 20
-124.4905463421
 10
32.7526656674
 20
-124.5466596819
 10
32.723268583
 20
-124.5995368046
 10
32.6909617567
 20
-124.6491995221
 10
32.6559639183
 20
-124.6953115984
 10
32.6182568075
 20
-124.73784894
 10
32.5778586845
 20
-124.7768356403
 10
32.5350430606
 20
-124.8120077443
 10
32.4897935313
 20
-124.8433393672
 10
32.4662903533
 20
-124.8575584522
  0
LINE
  5
279
100
AcDbEntity
  8
CURVE
100
AcDbLine
 62
250
  6
CONTINUOUS
 10
-6.3639610307
 20
120.3516648916
 11
-5.0626672617
 21
117.0238384967
  0
LINE
  5
27A
100
AcDbEntity
  8
CURVE
100
AcDbLine
 62
250
  6
CONTINUOUS
 10
-4.6961728956
 20
117.05901913
 11
-6.1807138476
 21
120.8554674665
  0
LINE
  5
27B
100
AcDbEntity
  8
CURVE
100
AcDbLine
 62
250
  6
CONTINUOUS
 10
-0.5167318715
 20
108.574795387
 11
-0.3263569617
 21
108.025237485
  0
LINE
  5
27C
100
AcDbEntity
  8
CURVE
100
AcDbLine
 62
250
  6
CONTINUOUS
 10
0.0223263308
 20
108.1140983133
 11
-0.123774387
 21
108.5358492892
  0
LWPOLYLINE
  5
27D
100
AcDbEntity
  8
CURVE
100
AcDbPolyline
 62
250
  6
CONTINUOUS
 90
17
 70
0
 10
9.4886938842
 20
107.9159076578
 10
9.5055562568
 20
107.8625121828
 10
9.5294417466
 20
107.8096749469
 10
9.5594405627
 20
107.759408504
 10
9.5950717865
 20
107.7128617112
 10
9.6337319298
 20
107.6734356308
 10
9.6745330188
 20
107.6417696566
 10
9.7159209526
 20
107.6190699359
 10
9.7570221663
 20
107.6060642158
 10
9.7948334927
 20
107.6037027933
 10
9.8286494564
 20
107.6117575791
 10
9.8571820176
 20
107.629921769
 10
9.8796766877
 20
107.6580756962
 10
9.894489835
 20
107.6941622207
 10
9.9015117404
 20
107.7372193822
 10
9.9004749416
 20
107.7856071467
 10
9.8911859896
 20
107.8384285561
  0
LINE
  5
27E
100
AcDbEntity
  8
CURVE
100
AcDbLine
 62
250
  6
CONTINUOUS
 10
9.3926925149
 20
108.3038844398
 11
9.4886938947
 21
107.9159076558
  0
LINE
  5
27F
100
AcDbEntity
  8
CURVE
100
AcDbLine
 62
250
  6
CONTINUOUS
 10
9.8911859954
 20
107.8384285324
 11
9.7635126818
 21
108.3544032168
  0
LWPOLYLINE
  5
280
100
AcDbEntity
  8
RACCORDO
100
AcDbPolyline
 62
7
  6
CONTINUOUS
 90
28
 70
0
 10
41.6485894119
 20
96.5860309393
 10
41.6473595288
 20
96.6344792358
 10
41.6437786819
 20
96.6838062972
 10
41.637846871
 20
96.7340121234
 10
41.6295281962
 20
96.7852721456
 10
41.6188585575
 20
96.8374109326
 10
41.6059456551
 20
96.8899021911
 10
41.5907667689
 20
96.9427494908
 10
41.5733446191
 20
96.995949262
 10
41.5538550664
 20
97.0489645015
 10
41.5322771717
 20
97.1017933403
 10
41.508631874
 20
97.1544376474
 10
41.4831578511
 20
97.2063660267
 10
41.4558365813
 20
97.2575712271
 10
41.4266865862
 20
97.3080604996
 10
41.3960021084
 20
97.3573242012
 10
41.3637676064
 20
97.405349919
 10
41.3299986217
 20
97.4521500659
 10
41.2950360213
 20
97.4972522371
 10
41.2588677161
 20
97.5406392352
 10
41.2215057953
 20
97.5823282577
 10
41.1833273933
 20
97.6218984919
 10
41.1443242407
 20
97.6593284783
 10
41.1045046069
 20
97.6946396765
 10
41.0642704347
 20
97.7274756522
 10
41.023755705
 20
97.7577175938
 10
40.9828264371
 20
97.7854843129
 10
40.9414826307
 20
97.8107758094
  0
LINE
  5
281
100
AcDbEntity
  8
RACCORDO
100
AcDbLine
 62
7
  6
CONTINUOUS
 10
43.0628029743
 20
-145.4973272199
 11
43.0628029743
 21
97.4025801259
  0
LWPOLYLINE
  5
282
100
AcDbEntity
  8
RACCORDO
100
AcDbPolyline
 62
7
  6
CONTINUOUS
 90
15
 70
0
 10
43.0628029743
 20
-145.4973272199
 10
43.0615730912
 20
-145.5443552784
 10
43.0579922442
 20
-145.5895472674
 10
43.0520604334
 20
-145.6329031872
 10
43.0437417586
 20
-145.6745570122
 10
43.0330721198
 20
-145.7143747678
 10
43.0201592175
 20
-145.7519545303
 10
43.0049803313
 20
-145.7872736328
 10
42.9875581815
 20
-145.8203547421
 10
42.9680686288
 20
-145.8508639345
 10
42.9464907341
 20
-145.8787751614
 10
42.9228454364
 20
-145.9041144716
 10
42.8973714135
 20
-145.9266260877
 10
42.8700501437
 20
-145.9462813705
 10
42.8557095062
 20
-145.9550452948
  0
LWPOLYLINE
  5
283
100
AcDbEntity
  8
CURVE
100
AcDbPolyline
 62
250
  6
CONTINUOUS
 90
11
 70
0
 10
-6.1807138476
 20
120.8554674665
 10
-6.2064401366
 20
120.9109829211
 10
-6.2394227621
 20
120.9642573777
 10
-6.2778483076
 20
121.0120084119
 10
-6.3200373923
 20
121.0521490744
 10
-6.3634056709
 20
121.0824967357
 10
-6.4075223857
 20
121.102749966
 10
-6.4497352602
 20
121.1114269832
 10
-6.4881993893
 20
121.1081485601
 10
-6.5207358316
 20
121.0934034034
 10
-6.5472082253
 20
121.0670767041
  0
LWPOLYLINE
  5
284
100
AcDbEntity
  8
CURVE
100
AcDbPolyline
 62
250
  6
CONTINUOUS
 90
17
 70
0
 10
-5.0626672617
 20
117.0238384967
 10
-5.0384201832
 20
116.9710907608
 10
-5.00811684
 20
116.9210221795
 10
-4.9729114772
 20
116.8755398495
 10
-4.9334293079
 20
116.8357437858
 10
-4.8925551994
 20
116.8045417913
 10
-4.8511807783
 20
116.7823627498
 10
-4.8108819834
 20
116.7700514541
 10
-4.7725534801
 20
116.7681365745
 10
-4.7389958401
 20
116.7767580265
 10
-4.7107869158
 20
116.7954607065
 10
-4.6890011762
 20
116.8235322353
 10
-4.6742786563
 20
116.8606202502
 10
-4.6676950953
 20
116.9040148191
 10
-4.669176073
 20
116.9526434443
 10
-4.6786651796
 20
117.0046538767
 10
-4.6961729049
 20
117.0590191539
  0
LINE
  5
285
100
AcDbEntity
  8
RACCORDO
100
AcDbLine
 62
250
  6
CONTINUOUS
 10
-34.2946788875
 20
-85.1560152152
 11
-32.8804653252
 21
-84.3394660285
  0
LINE
  5
286
100
AcDbEntity
  8
RACCORDO
100
AcDbLine
 62
250
  6
CONTINUOUS
 10
-32.8804653252
 20
-87.6055049554
 11
-31.4662517628
 21
-86.7889557688
  0
LINE
  5
287
100
AcDbEntity
  8
CURVE
100
AcDbLine
 62
250
  6
CONTINUOUS
 10
-0.3263569617
 20
108.025237485
 11
0.0543928577
 21
107.3657594534
  0
LINE
  5
288
100
AcDbEntity
  8
CURVE
100
AcDbLine
 62
250
  6
CONTINUOUS
 10
0.3057095652
 20
107.6232641538
 11
0.0223263308
 21
108.1140983133
  0
LINE
  5
289
100
AcDbEntity
  8
CURVE
100
AcDbLine
 62
250
  6
CONTINUOUS
 10
9.1314459454
 20
108.7563763036
 11
9.3926925149
 21
108.3038844398
  0
LINE
  5
28A
100
AcDbEntity
  8
RACCORDO
100
AcDbLine
 62
250
  6
CONTINUOUS
 10
-28.1074945522
 20
-88.7282600871
 11
-29.5217081145
 21
-89.5448092737
  0
LINE
  5
28B
100
AcDbEntity
  8
RACCORDO
100
AcDbLine
 62
250
  6
CONTINUOUS
 10
-26.6932809898
 20
-91.1777498273
 11
-28.1074945522
 21
-91.994299014
  0
LINE
  5
28C
100
AcDbEntity
  8
RACCORDO
100
AcDbLine
 62
250
  6
CONTINUOUS
 10
-28.1074945522
 20
-94.8519449827
 11
-26.6932809898
 21
-94.0353957961
  0
LINE
  5
28D
100
AcDbEntity
  8
RACCORDO
100
AcDbLine
 62
250
  6
CONTINUOUS
 10
-27.7539411616
 20
-95.4643174178
 11
-26.3397275992
 21
-94.6477682312
  0
LINE
  5
28E
100
AcDbEntity
  8
CURVE
100
AcDbLine
 62
250
  6
CONTINUOUS
 10
0.0543928577
 20
107.3657594534
 11
0.4351426402
 21
106.926100372
  0
LINE
  5
28F
100
AcDbEntity
  8
CURVE
100
AcDbLine
 62
250
  6
CONTINUOUS
 10
0.5832237007
 20
107.3028132554
 11
0.3057095652
 21
107.6232641538
  0
LINE
  5
290
100
AcDbEntity
  8
CURVE
100
AcDbLine
 62
250
  6
CONTINUOUS
 10
9.7635126818
 20
108.3544032168
 11
9.3827626042
 21
109.0138810141
  0
LWPOLYLINE
  5
291
100
AcDbEntity
  8
RACCORDO
100
AcDbPolyline
 62
7
  6
CONTINUOUS
 90
18
 70
0
 10
-29.5217081145
 20
107.5511155441
 10
-29.454165018
 20
107.5140013772
 10
-29.3870771598
 20
107.4808060155
 10
-29.3204445401
 20
107.4515294589
 10
-29.2541185018
 20
107.4261232147
 10
-29.188247702
 20
107.4046357756
 10
-29.1232781117
 20
107.38721262
 10
-29.0592158463
 20
107.3738813269
 10
-28.9960547904
 20
107.3646143174
 10
-28.9342225691
 20
107.3594743326
 10
-28.8737281996
 20
107.3584893774
 10
-28.8145626646
 20
107.361631447
 10
-28.7571265381
 20
107.3688792683
 10
-28.7014315553
 20
107.3802607018
 10
-28.647465981
 20
107.395747887
 10
-28.5955951831
 20
107.4152359696
 10
-28.5458333763
 20
107.4387520987
 10
-28.521669524
 20
107.4520500401
  0
LINE
  5
292
100
AcDbEntity
  8
RACCORDO
100
AcDbLine
 62
7
  6
CONTINUOUS
 10
-32.8804653252
 20
109.4904198624
 11
-29.5217081145
 21
107.5511155441
  0
LINE
  5
293
100
AcDbEntity
  8
RACCORDO
100
AcDbLine
 62
7
  6
CONTINUOUS
 10
28.1074945522
 20
74.2767361878
 11
31.4662517628
 21
72.3374318695
  0
LWPOLYLINE
  5
294
100
AcDbEntity
  8
RACCORDO
100
AcDbPolyline
 62
7
  6
CONTINUOUS
 90
34
 70
0
 10
31.4662517628
 20
72.3374318695
 10
31.5337948594
 20
72.2965489615
 10
31.6008827175
 20
72.2522729462
 10
31.6675153372
 20
72.2046038238
 10
31.7338413755
 20
72.1534184215
 10
31.7997121753
 20
72.0988399121
 10
31.8646817656
 20
72.0412378133
 10
31.9287440311
 20
71.980591608
 10
31.9919050869
 20
71.9169218135
 10
32.0537373082
 20
71.850659499
 10
32.1142316778
 20
71.7817870726
 10
32.1733972127
 20
71.7103221263
 10
32.2308333392
 20
71.6367485058
 10
32.286528322
 20
71.5610519022
 10
32.3404938964
 20
71.4832466244
 10
32.3923646942
 20
71.4038594446
 10
32.442126501
 20
71.3228796284
 10
32.4897935313
 20
71.2403179102
 10
32.5350430606
 20
71.1567332651
 10
32.5778586845
 20
71.0721187519
 10
32.6182568075
 20
70.9864813117
 10
32.6559639183
 20
70.9004007437
 10
32.6909617567
 20
70.8138740408
 10
32.723268583
 20
70.7269042101
 10
32.7526656674
 20
70.6400800713
 10
32.7791332652
 20
70.553402613
 10
32.8026911211
 20
70.4668708466
 10
32.8231797391
 20
70.3810706261
 10
32.8405782923
 20
70.2960069154
 10
32.8549076077
 20
70.2116747506
 10
32.8660706702
 20
70.1286450934
 10
32.8740351415
 20
70.0471082645
 10
32.8788333598
 20
69.9668739431
 10
32.8804653252
 20
69.8879421293
  0
LINE
  5
295
100
AcDbEntity
  8
CURVE
100
AcDbLine
 62
250
  6
CONTINUOUS
 10
0.4351426402
 20
106.926100372
 11
1.0486454834
 21
106.3947742091
  0
LINE
  5
296
100
AcDbEntity
  8
CURVE
100
AcDbLine
 62
250
  6
CONTINUOUS
 10
1.1515446337
 20
106.810617035
 11
0.5832237007
 21
107.3028132554
  0
LINE
  5
297
100
AcDbEntity
  8
CURVE
100
AcDbLine
 62
250
  6
CONTINUOUS
 10
8.785480142
 20
109.1558699469
 11
9.1314459454
 21
108.7563763036
  0
LINE
  5
298
100
AcDbEntity
  8
CURVE
100
AcDbLine
 62
250
  6
CONTINUOUS
 10
9.3827626042
 20
109.0138810141
 11
9.0020131166
 21
109.4535400742
  0
LWPOLYLINE
  5
299
100
AcDbEntity
  8
RACCORDO
100
AcDbPolyline
 62
7
  6
CONTINUOUS
 90
15
 70
0
 10
-1.2778307725
 20
-108.5410599315
 10
-1.2921714099
 20
-108.5498238558
 10
-1.3194926797
 20
-108.5694791386
 10
-1.3449667027
 20
-108.5919907547
 10
-1.3686120003
 20
-108.6173300648
 10
-1.390189895
 20
-108.6452412917
 10
-1.4096794477
 20
-108.6757504842
 10
-1.4271015975
 20
-108.7088315935
 10
-1.4422804837
 20
-108.744150696
 10
-1.4551933861
 20
-108.7817304584
 10
-1.4658630248
 20
-108.8215482141
 10
-1.4741816996
 20
-108.8632020391
 10
-1.4801135105
 20
-108.9065579589
 10
-1.4836943574
 20
-108.9517499479
 10
-1.4849242405
 20
-108.9987780063
  0
LWPOLYLINE
  5
29A
100
AcDbEntity
  8
RACCORDO
100
AcDbPolyline
 62
7
  6
CONTINUOUS
 90
15
 70
0
 10
2.3334523779
 20
99.3642235746
 10
2.3747961843
 20
99.3417722798
 10
2.4157254523
 20
99.3222749061
 10
2.4562401819
 20
99.3057314535
 10
2.4964743541
 20
99.2921060156
 10
2.5362939879
 20
99.2814344988
 10
2.5752971406
 20
99.2738246222
 10
2.6134755426
 20
99.2693073948
 10
2.6508374634
 20
99.2678518076
 10
2.6870057685
 20
99.2694725535
 10
2.7219683689
 20
99.2742007902
 10
2.7557373536
 20
99.28200536
 10
2.7879718556
 20
99.2928074829
 10
2.8186563334
 20
99.3066375186
 10
2.8334656911
 20
99.3147011832
  0
LINE
  5
29B
100
AcDbEntity
  8
RACCORDO
100
AcDbLine
 62
7
  6
CONTINUOUS
 10
-3.7476659403
 20
102.8753850772
 11
2.3334523779
 21
99.3642235746
  0
LINE
  5
29C
100
AcDbEntity
  8
RACCORDO
100
AcDbLine
 62
7
  6
CONTINUOUS
 10
-27.7539411616
 20
118.7774832126
 11
-4.8083261121
 21
105.5289726591
  0
LINE
  5
29D
100
AcDbEntity
  8
RACCORDO
100
AcDbLine
 62
7
  6
CONTINUOUS
 10
3.3941125497
 20
100.7929873765
 11
26.3397275992
 21
87.5444768231
  0
LWPOLYLINE
  5
29E
100
AcDbEntity
  8
RACCORDO
100
AcDbPolyline
 62
7
  6
CONTINUOUS
 90
25
 70
0
 10
-4.8083261121
 20
105.5289726591
 10
-4.7850399788
 20
105.5146224744
 10
-4.7620483639
 20
105.4987326962
 10
-4.7393512672
 20
105.4813033245
 10
-4.7168542888
 20
105.462246789
 10
-4.6946518287
 20
105.4416506599
 10
-4.673027087
 20
105.4197776482
 10
-4.6519874642
 20
105.3966113971
 10
-4.6315255598
 20
105.3721682633
 10
-4.6119023725
 20
105.3467600275
 10
-4.5931286461
 20
105.3203743269
 10
-4.5751936369
 20
105.2930235243
 10
-4.5583261121
 20
105.2650564887
 10
-4.542539746
 20
105.2364653262
 10
-4.5278208643
 20
105.2072579307
 10
-4.5143572115
 20
105.1778068528
 10
-4.5021648668
 20
105.1481089708
 10
-4.491227751
 20
105.1181674064
 10
-4.4816853708
 20
105.0883640745
 10
-4.4735555926
 20
105.058700746
 10
-4.46682055
 20
105.02917565
 10
-4.4615661507
 20
105.0001653896
 10
-4.4578210309
 20
104.9717954989
 10
-4.4555565545
 20
104.9439404438
 10
-4.4547727215
 20
104.9166002241
  0
LWPOLYLINE
  5
29F
100
AcDbEntity
  8
RACCORDO
100
AcDbPolyline
 62
7
  6
CONTINUOUS
 90
25
 70
0
 10
26.3397275992
 20
87.5444768231
 10
26.3630137324
 20
87.5301266384
 10
26.3860053474
 20
87.5142368601
 10
26.408702444
 20
87.4968074884
 10
26.4311994224
 20
87.4777509529
 10
26.4534018825
 20
87.4571548239
 10
26.4750266242
 20
87.4352818121
 10
26.4960662471
 20
87.412115561
 10
26.5165281515
 20
87.3876724272
 10
26.5361513388
 20
87.3622641914
 10
26.5549250652
 20
87.3358784908
 10
26.5728600744
 20
87.3085276882
 10
26.5897275992
 20
87.2805606526
 10
26.6055139653
 20
87.2519694901
 10
26.620232847
 20
87.2227620947
 10
26.6336964998
 20
87.1933110167
 10
26.6458888445
 20
87.1636131347
 10
26.6568259603
 20
87.1336715703
 10
26.6663683404
 20
87.1038682384
 10
26.6744981187
 20
87.0742049099
 10
26.6812331613
 20
87.044679814
 10
26.6864875605
 20
87.0156695535
 10
26.6902326804
 20
86.9872996629
 10
26.6924971568
 20
86.9594446077
 10
26.6932809898
 20
86.932104388
  0
LWPOLYLINE
  5
2A0
100
AcDbEntity
  8
CURVE
100
AcDbPolyline
 62
250
  6
CONTINUOUS
 90
17
 70
0
 10
1.0486454826
 20
106.3947742058
 10
1.0895984315
 20
106.3641152019
 10
1.1309511936
 20
106.342543652
 10
1.1711286551
 20
106.3308812097
 10
1.2092360894
 20
106.3296437109
 10
1.2424890778
 20
106.3389215766
 10
1.2703183221
 20
106.3582465138
 10
1.2916638153
 20
106.3868824414
 10
1.3058933603
 20
106.4244633213
 10
1.3119672385
 20
106.4682432088
 10
1.3099709713
 20
106.5171443469
 10
1.2999805956
 20
106.5693041065
 10
1.2819967769
 20
106.6236889953
 10
1.2573335495
 20
106.6763252402
 10
1.2266811569
 20
106.7261569558
 10
1.1912071391
 20
106.7712860675
 10
1.1515446157
 20
106.8106170506
  0
LINE
  5
2A1
100
AcDbEntity
  8
CURVE
100
AcDbLine
 62
250
  6
CONTINUOUS
 10
8.2567360776
 20
109.6137906079
 11
8.785480142
 21
109.1558699469
  0
LINE
  5
2A2
100
AcDbEntity
  8
CURVE
100
AcDbLine
 62
250
  6
CONTINUOUS
 10
9.0020131166
 20
109.4535400742
 11
8.2405135515
 21
110.1130394572
  0
LINE
  5
2A3
100
AcDbEntity
  8
RACCORDO
100
AcDbLine
 62
7
  6
CONTINUOUS
 10
0.1363719429
 20
-107.7244919585
 11
-1.2778416194
 21
-108.5410411452
  0
LINE
  5
2A4
100
AcDbEntity
  8
RACCORDO
100
AcDbLine
 62
250
  6
CONTINUOUS
 10
0.6363961031
 20
-107.7740331362
 11
-0.7778174593
 21
-108.5905823229
  0
LINE
  5
2A5
100
AcDbEntity
  8
RACCORDO
100
AcDbLine
 62
250
  6
CONTINUOUS
 10
0.7778174593
 20
-107.8556880549
 11
-0.6363961031
 21
-108.6722372415
  0
LINE
  5
2A6
100
AcDbEntity
  8
RACCORDO
100
AcDbLine
 62
250
  6
CONTINUOUS
 10
-1.8384776311
 20
-110.4275812633
 11
-1.4849413255
 21
-110.2234538313
  0
LINE
  5
2A7
100
AcDbEntity
  8
RACCORDO
100
AcDbLine
 62
250
  6
CONTINUOUS
 10
1.4849242405
 20
-109.080432925
 11
0.0707106781
 21
-109.8969821117
  0
LINE
  5
2A8
100
AcDbEntity
  8
RACCORDO
100
AcDbLine
 62
250
  6
CONTINUOUS
 10
0.0707106781
 20
-111.1216875269
 11
1.4849242405
 21
-110.3051383402
  0
LINE
  5
2A9
100
AcDbEntity
  8
RACCORDO
100
AcDbLine
 62
250
  6
CONTINUOUS
 10
0.4242640687
 20
-111.7340599619
 11
1.8384776311
 21
-110.9175107753
  0
LWPOLYLINE
  5
2AA
100
AcDbEntity
  8
RACCORDO
100
AcDbPolyline
 62
7
  6
CONTINUOUS
 90
15
 70
0
 10
0.1363827899
 20
-107.7245107449
 10
0.1511921476
 20
-107.7164470803
 10
0.1818766254
 20
-107.7026170446
 10
0.2141111274
 20
-107.6918149217
 10
0.2478801121
 20
-107.6840103519
 10
0.2828427125
 20
-107.6792821152
 10
0.3190110176
 20
-107.6776613693
 10
0.3563729384
 20
-107.6791169564
 10
0.3945513404
 20
-107.6836341839
 10
0.4335544931
 20
-107.6912440605
 10
0.4733741269
 20
-107.7019155773
 10
0.5136082991
 20
-107.7155410152
 10
0.5541230287
 20
-107.7320844678
 10
0.5950522967
 20
-107.7515818415
 10
0.6363961031
 20
-107.7740331362
  0
LWPOLYLINE
  5
2AB
100
AcDbEntity
  8
RACCORDO
100
AcDbPolyline
 62
7
  6
CONTINUOUS
 90
13
 70
0
 10
-1.588465551
 20
-110.4523518521
 10
-1.6053451559
 20
-110.4608476671
 10
-1.6232801651
 20
-110.4674875706
 10
-1.6420538915
 20
-110.4721938426
 10
-1.6616770788
 20
-110.4749417136
 10
-1.6821389832
 20
-110.475755953
 10
-1.703178606
 20
-110.4746261751
 10
-1.7248033478
 20
-110.4715274771
 10
-1.7470058079
 20
-110.4664847617
 10
-1.7695027863
 20
-110.4595623505
 10
-1.7921998829
 20
-110.4507816839
 10
-1.8151914979
 20
-110.4401213215
 10
-1.8384776311
 20
-110.4275812633
  0
LINE
  5
2AC
100
AcDbEntity
  8
CURVE
100
AcDbLine
 62
250
  6
CONTINUOUS
 10
2.106138793
 20
105.7841908313
 11
2.7196415569
 21
105.607059329
  0
LINE
  5
2AD
100
AcDbEntity
  8
CURVE
100
AcDbLine
 62
250
  6
CONTINUOUS
 10
2.5715605159
 20
106.1547725028
 11
2.0032396332
 21
106.3188590198
  0
LWPOLYLINE
  5
2AE
100
AcDbEntity
  8
CURVE
100
AcDbPolyline
 62
250
  6
CONTINUOUS
 90
17
 70
0
 10
6.4809058407
 20
107.8819751227
 10
6.4397025126
 20
107.9011005431
 10
6.4000686065
 20
107.9101677523
 10
6.3635137655
 20
107.9088313834
 10
6.3309058407
 20
107.8968416605
 10
6.3046274147
 20
107.8750746441
 10
6.2850633792
 20
107.844240735
 10
6.2729589222
 20
107.8055143872
 10
6.2687738063
 20
107.7595164177
 10
6.2728138279
 20
107.7096077875
 10
6.2847800097
 20
107.6569348457
 10
6.3042165634
 20
107.6035038885
 10
6.3309058407
 20
107.5504426589
 10
6.36289772
 20
107.5016282136
 10
6.3993844921
 20
107.4579713342
 10
6.4389763869
 20
107.4211348976
 10
6.4809058592
 20
107.3920929459
  0
LINE
  5
2AF
100
AcDbEntity
  8
CURVE
100
AcDbLine
 62
250
  6
CONTINUOUS
 10
6.4809058407
 20
107.3920929566
 11
8.2405135515
 21
106.3761175175
  0
LINE
  5
2B0
100
AcDbEntity
  8
CURVE
100
AcDbLine
 62
250
  6
CONTINUOUS
 10
8.2188891063
 20
106.8784853672
 11
6.4809058407
 21
107.8819751227
  0
LINE
  5
2B1
100
AcDbEntity
  8
CURVE
100
AcDbLine
 62
250
  6
CONTINUOUS
 10
6.4809058407
 20
110.6391327303
 11
8.2567360776
 21
109.6137906079
  0
LINE
  5
2B2
100
AcDbEntity
  8
CURVE
100
AcDbLine
 62
250
  6
CONTINUOUS
 10
8.2405135515
 20
110.1130394572
 11
6.4809058407
 21
111.1290148964
  0
LINE
  5
2B3
100
AcDbEntity
  8
CURVE
100
AcDbLine
 62
250
  6
CONTINUOUS
 10
2.7196415569
 20
105.607059329
 11
3.1003913394
 21
105.6070381054
  0
LINE
  5
2B4
100
AcDbEntity
  8
CURVE
100
AcDbLine
 62
250
  6
CONTINUOUS
 10
2.8490746217
 20
106.1547570336
 11
2.5715605159
 21
106.1547725028
  0
LINE
  5
2B5
100
AcDbEntity
  8
CURVE
100
AcDbLine
 62
250
  6
CONTINUOUS
 10
9.0020131166
 20
106.1562562903
 11
9.3827626042
 21
106.1562350453
  0
LINE
  5
2B6
100
AcDbEntity
  8
CURVE
100
AcDbLine
 62
250
  6
CONTINUOUS
 10
9.1314459899
 20
106.7039539717
 11
8.8233271489
 21
106.7039711641
  0
LWPOLYLINE
  5
2B7
100
AcDbEntity
  8
CURVE
100
AcDbPolyline
 62
250
  6
CONTINUOUS
 90
17
 70
0
 10
2.0032396325
 20
106.3188590236
 10
1.9642463823
 20
106.3253087847
 10
1.9286980714
 20
106.3213302037
 10
1.8979487239
 20
106.3070748236
 10
1.8727874915
 20
106.2825738443
 10
1.8550528449
 20
106.2496174936
 10
1.8449222856
 20
106.2091158586
 10
1.8427816833
 20
106.162611634
 10
1.8488909117
 20
106.1109433431
 10
1.8628035843
 20
106.0578862639
 10
1.8840251207
 20
106.0045868834
 10
1.9117471995
 20
105.9530753583
 10
1.9455481856
 20
105.9045063399
 10
1.9829583223
 20
105.8624286496
 10
2.0231006664
 20
105.8275535778
 10
2.0644462084
 20
105.801209505
 10
2.106138811
 20
105.7841908261
  0
LINE
  5
2B8
100
AcDbEntity
  8
CURVE
100
AcDbLine
 62
250
  6
CONTINUOUS
 10
8.2405135515
 20
106.3761175175
 11
9.0020131166
 21
106.1562562903
  0
LINE
  5
2B9
100
AcDbEntity
  8
CURVE
100
AcDbLine
 62
250
  6
CONTINUOUS
 10
8.8233271489
 20
106.7039711641
 11
8.2188891063
 21
106.8784853672
  0
LWPOLYLINE
  5
2BA
100
AcDbEntity
  8
CURVE
100
AcDbPolyline
 62
250
  6
CONTINUOUS
 90
17
 70
0
 10
6.4809058407
 20
111.1290148964
 10
6.4397025126
 20
111.1481403167
 10
6.4000686065
 20
111.157207526
 10
6.3635137655
 20
111.155871157
 10
6.3309058407
 20
111.1438814342
 10
6.3046274147
 20
111.1221144177
 10
6.2850633792
 20
111.0912805086
 10
6.2729589222
 20
111.0525541609
 10
6.2687738063
 20
111.0065561913
 10
6.2728138279
 20
110.9566475611
 10
6.2847800097
 20
110.9039746194
 10
6.3042165634
 20
110.8505436622
 10
6.3309058407
 20
110.7974824326
 10
6.36289772
 20
110.7486679873
 10
6.3993844921
 20
110.7050111078
 10
6.4389763869
 20
110.6681746712
 10
6.4809058592
 20
110.6391327196
  0
LWPOLYLINE
  5
2BB
100
AcDbEntity
  8
RACCORDO
100
AcDbPolyline
 62
7
  6
CONTINUOUS
 90
15
 70
0
 10
-42.3556961931
 20
145.9055229034
 10
-42.3970399994
 20
145.9279741982
 10
-42.4379692674
 20
145.9474715718
 10
-42.478483997
 20
145.9640150244
 10
-42.5187181692
 20
145.9776404623
 10
-42.5585378031
 20
145.9883119792
 10
-42.5975409557
 20
145.9959218557
 10
-42.6357193577
 20
146.0004390832
 10
-42.6730812785
 20
146.0018946704
 10
-42.7092495837
 20
146.0002739244
 10
-42.744212184
 20
145.9955456877
 10
-42.7779811687
 20
145.987741118
 10
-42.8102156707
 20
145.9769389951
 10
-42.8409001486
 20
145.9631089593
 10
-42.8557095062
 20
145.9550452948
  0
LINE
  5
2BC
100
AcDbEntity
  8
RACCORDO
100
AcDbLine
 62
7
  6
CONTINUOUS
 10
40.9414826307
 20
97.8107758094
 11
-42.3556961931
 21
145.9055229034
  0
LINE
  5
2BD
100
AcDbEntity
  8
RACCORDO
100
AcDbLine
 62
7
  6
CONTINUOUS
 10
42.3556961931
 20
98.627324996
 11
-40.9414826307
 21
146.7220720901
  0
LWPOLYLINE
  5
2BE
100
AcDbEntity
  8
RACCORDO
100
AcDbPolyline
 62
7
  6
CONTINUOUS
 90
28
 70
0
 10
42.3556961931
 20
98.627324996
 10
42.3970399994
 20
98.6020334995
 10
42.4379692674
 20
98.5742667805
 10
42.478483997
 20
98.5440248388
 10
42.5187181692
 20
98.5111888632
 10
42.5585378031
 20
98.475877665
 10
42.5975409557
 20
98.4384476785
 10
42.6357193577
 20
98.3988774443
 10
42.6730812785
 20
98.3571884219
 10
42.7092495837
 20
98.3138014237
 10
42.744212184
 20
98.2686992525
 10
42.7779811687
 20
98.2218991057
 10
42.8102156707
 20
98.1738733878
 10
42.8409001486
 20
98.1246096863
 10
42.8700501437
 20
98.0741204138
 10
42.8973714135
 20
98.0229152134
 10
42.9228454364
 20
97.9709868341
 10
42.9464907341
 20
97.9183425269
 10
42.9680686288
 20
97.8655136881
 10
42.9875581815
 20
97.8124984486
 10
43.0049803313
 20
97.7592986775
 10
43.0201592175
 20
97.7064513777
 10
43.0330721198
 20
97.6539601193
 10
43.0437417586
 20
97.6018213323
 10
43.0520604334
 20
97.5505613101
 10
43.0579922442
 20
97.5003554839
 10
43.0615730912
 20
97.4510284225
 10
43.0628029743
 20
97.4025801259
  0
LWPOLYLINE
  5
2BF
100
AcDbEntity
  8
RACCORDO
100
AcDbPolyline
 62
7
  6
CONTINUOUS
 90
18
 70
0
 10
27.1074559617
 20
-122.720123126
 10
27.0839527837
 20
-122.734342211
 10
27.0387032544
 20
-122.7656738339
 10
26.9958876305
 20
-122.8008459378
 10
26.9554895075
 20
-122.8398326382
 10
26.9177823966
 20
-122.8823699798
 10
26.8827845583
 20
-122.9284820561
 10
26.8504777319
 20
-122.9781447736
 10
26.8210806476
 20
-123.0310218963
 10
26.7946130498
 20
-123.0871352361
 10
26.7710551939
 20
-123.146462981
 10
26.7505665759
 20
-123.208603459
 10
26.7331680226
 20
-123.2735757565
 10
26.7188387072
 20
-123.341360787
 10
26.7076756447
 20
-123.4114996194
 10
26.6997111735
 20
-123.4838392767
 10
26.6949129552
 20
-123.5585327358
 10
26.6932809898
 20
-123.6355799969
  0
LINE
  5
2C0
100
AcDbEntity
  8
RACCORDO
100
AcDbLine
 62
7
  6
CONTINUOUS
 10
28.5216597943
 20
-121.9035570879
 11
27.1074462319
 21
-122.7201062746
  0
LINE
  5
2C1
100
AcDbEntity
  8
RACCORDO
100
AcDbLine
 62
250
  6
CONTINUOUS
 10
29.5217081145
 20
-122.0026394433
 11
28.1074945522
 21
-122.8191886299
  0
LINE
  5
2C2
100
AcDbEntity
  8
RACCORDO
100
AcDbLine
 62
250
  6
CONTINUOUS
 10
26.3397275992
 20
-126.6973238074
 11
26.6932639048
 21
-126.4931963754
  0
LWPOLYLINE
  5
2C3
100
AcDbEntity
  8
RACCORDO
100
AcDbPolyline
 62
7
  6
CONTINUOUS
 90
18
 70
0
 10
28.521669524
 20
-121.9035739393
 10
28.5458333763
 20
-121.8902759979
 10
28.5955951831
 20
-121.8667598689
 10
28.647465981
 20
-121.8472717862
 10
28.7014315553
 20
-121.831784601
 10
28.7571265381
 20
-121.8204031675
 10
28.8145626646
 20
-121.8131553462
 10
28.8737281996
 20
-121.8100132766
 10
28.9342225691
 20
-121.8109982318
 10
28.9960547904
 20
-121.8161382166
 10
29.0592158463
 20
-121.8254052262
 10
29.1232781117
 20
-121.8387365192
 10
29.188247702
 20
-121.8561596748
 10
29.2541185018
 20
-121.8776471139
 10
29.3204445401
 20
-121.9030533582
 10
29.3870771598
 20
-121.9323299148
 10
29.454165018
 20
-121.9655252765
 10
29.5217081145
 20
-122.0026394433
  0
LINE
  5
2C4
100
AcDbEntity
  8
RACCORDO
100
AcDbLine
 62
250
  6
CONTINUOUS
 10
31.4662517628
 20
-124.7584929482
 11
32.8804653252
 21
-123.9419437616
  0
LWPOLYLINE
  5
2C5
100
AcDbEntity
  8
RACCORDO
100
AcDbPolyline
 62
7
  6
CONTINUOUS
 90
18
 70
0
 10
32.4662903533
 20
-124.8575584522
 10
32.442126501
 20
-124.8708563936
 10
32.3923646942
 20
-124.8943725227
 10
32.3404938964
 20
-124.9138606053
 10
32.286528322
 20
-124.9293477906
 10
32.2308333392
 20
-124.940729224
 10
32.1733972127
 20
-124.9479770454
 10
32.1142316778
 20
-124.9511191149
 10
32.0537373082
 20
-124.9501341597
 10
31.9919050869
 20
-124.9449941749
 10
31.9287440311
 20
-124.9357271654
 10
31.8646817656
 20
-124.9223958723
 10
31.7997121753
 20
-124.9049727167
 10
31.7338413755
 20
-124.8834852776
 10
31.6675153372
 20
-124.8580790334
 10
31.6008827175
 20
-124.8288024768
 10
31.5337948594
 20
-124.7956071151
 10
31.4662517628
 20
-124.7584929482
  0
LWPOLYLINE
  5
2C6
100
AcDbEntity
  8
RACCORDO
100
AcDbPolyline
 62
7
  6
CONTINUOUS
 90
13
 70
0
 10
26.5897396793
 20
-126.7220943962
 10
26.5728600744
 20
-126.7305902112
 10
26.5549250652
 20
-126.7372301147
 10
26.5361513388
 20
-126.7419363867
 10
26.5165281515
 20
-126.7446842577
 10
26.4960662471
 20
-126.7454984972
 10
26.4750266242
 20
-126.7443687192
 10
26.4534018825
 20
-126.7412700212
 10
26.4311994224
 20
-126.7362273058
 10
26.408702444
 20
-126.7293048946
 10
26.3860053474
 20
-126.7205242281
 10
26.3630137324
 20
-126.7098638656
 10
26.3397275992
 20
-126.6973238074
  0
LWPOLYLINE
  5
2C7
100
AcDbEntity
  8
RACCORDO
100
AcDbPolyline
 62
7
  6
CONTINUOUS
 90
15
 70
0
 10
41.4414959439
 20
-146.7715944814
 10
41.4558365813
 20
-146.7628305572
 10
41.4831578511
 20
-146.7431752743
 10
41.508631874
 20
-146.7206636582
 10
41.5322771717
 20
-146.6953243481
 10
41.5538550664
 20
-146.6674131212
 10
41.5733446191
 20
-146.6369039287
 10
41.5907667689
 20
-146.6038228194
 10
41.6059456551
 20
-146.568503717
 10
41.6188585575
 20
-146.5309239545
 10
41.6295281962
 20
-146.4911061988
 10
41.637846871
 20
-146.4494523738
 10
41.6437786819
 20
-146.4060964541
 10
41.6473595288
 20
-146.360904465
 10
41.6485894119
 20
-146.3138764066
  0
LINE
  5
2C8
100
AcDbEntity
  8
RACCORDO
100
AcDbLine
 62
250
  6
CONTINUOUS
 10
41.6485894119
 20
-146.3138764066
 11
43.0628029743
 21
-145.4973272199
  0
LINE
  5
2C9
100
AcDbEntity
  8
RACCORDO
100
AcDbLine
 62
7
  6
CONTINUOUS
 10
41.4415067908
 20
-146.7716132677
 11
42.8557203532
 21
-145.9550640811
  0
ENDSEC
  0
SECTION
  2
OBJECTS
  0
DICTIONARY
  5
C
100
AcDbDictionary
280
0
281
1
  3
ACAD_GROUP
350
D
  3
ACAD_MLINESTYLE
350
17
  3
ACAD_LAYOUT
350
1A
  3
ACAD_PLOTSETTINGS
350
19
  3
ACAD_PLOTSTYLENAME
350
E
  0
DICTIONARY
  5
D
102
{ACAD_REACTORS
330
C
102
}
100
AcDbDictionary
280
0
281
1
  0
ACDBDICTIONARYWDFLT
  5
E
102
{ACAD_REACTORS
330
C
102
}
100
AcDbDictionary
281
1
  3
Normal
350
F
100
AcDbDictionaryWithDefault
340
F
  0
DICTIONARY
  5
17
102
{ACAD_REACTORS
330
C
102
}
100
AcDbDictionary
280
0
281
1
  3
Standard
350
18
  0
DICTIONARY
  5
19
102
{ACAD_REACTORS
330
C
102
}
100
AcDbDictionary
281
1
  0
DICTIONARY
  5
1A
102
{ACAD_REACTORS
330
C
102
}
100
AcDbDictionary
281
1
  3
Model
350
2CA
  3
Layout1
350
2CB
  0
ACDBPLACEHOLDER
  5
F
102
{ACAD_REACTORS
330
E
102
}
  0
MLINESTYLE
  5
18
102
{ACAD_REACTORS
330
17
102
}
100
AcDbMlineStyle
  2
STANDARD
 70
0
  3

 62
256
 51
90.0
 52
90.0
 71
2
 49
0.5
 62
256
  6
BYLAYER
 49
-0.5
 62
256
  6
BYLAYER
  0
LAYOUT
  5
2CA
102
{ACAD_REACTORS
330
1A
102
}
100
AcDbPlotSettings
  1

  2
none_device
  4

  6

 40
0.0
 41
0.0
 42
0.0
 43
0.0
 44
210.0
 45
297.0
 46
0.0
 47
0.0
 48
0.0
 49
0.0
140
0.0
141
0.0
142
1.0
143
1.0
 70
1024
 72
1
 73
0
 74
0
  7

 75
0
147
1.0
148
0.0
149
0.0
100
AcDbLayout
  1
Model
 70
0
 71
0
 10
0.0
 20
0.0
 11
210.0
 21
297.0
 12
0.0
 22
0.0
 32
0.0
 14
0.0
 24
0.0
 34
0.0
 15
0.0
 25
0.0
 35
0.0
146
0.0
 13
0.0
 23
0.0
 33
0.0
 16
1.0
 26
0.0
 36
0.0
 17
0.0
 27
1.0
 37
0.0
 76
0
330
20F
345
0
346
0
  0
LAYOUT
  5
2CB
102
{ACAD_REACTORS
330
1A
102
}
100
AcDbPlotSettings
  1

  2
none_device
  4

  6

 40
0.0
 41
0.0
 42
0.0
 43
0.0
 44
210.0
 45
297.0
 46
0.0
 47
0.0
 48
0.0
 49
0.0
140
0.0
141
0.0
142
1.0
143
1.0
 70
0
 72
1
 73
0
 74
0
  7

 75
0
147
1.0
148
0.0
149
0.0
100
AcDbLayout
  1
Layout1
 70
0
 71
1
 10
0.0
 20
0.0
 11
210.0
 21
297.0
 12
0.0
 22
0.0
 32
0.0
 14
0.0
 24
0.0
 34
0.0
 15
0.0
 25
0.0
 35
0.0
146
0.0
 13
0.0
 23
0.0
 33
0.0
 16
1.0
 26
0.0
 36
0.0
 17
0.0
 27
1.0
 37
0.0
 76
0
330
210
345
0
346
0
  0
ENDSEC
  0
EOF
