  0
SECTION
  2
HEADER
  9
$ACADVER
  1
AC1021
  9
$DWGCODEPAGE
  3
ANSI_1252
  9
$EXTMAX
 10
297.0
 20
210.0
 30
0.0
  9
$EXTMIN
 10
0.0
 20
0.0
 30
0.0
  9
$LIMMIN
 10
0.0
 20
0.0
  9
$LIMMAX
 10
297.0
 20
210.0
  9
$VIEWCTR
 10
148.5
 20
105.0
  9
$VIEWSIZE
 40
210.0
  9
$CLAYER
  8
0
  9
$LTSCALE
 40
16.335
  9
$CELTYPE
  6
BYLAYER
  9
$DIMSCALE
 40
1.0
  9
$DIMASZ
 40
3.0
  9
$DIMEXO
 40
0.5
  9
$DIMDLI
 40
11.286
  9
$DIMEXE
 40
1.5
  9
$DIMCEN
 40
2.673
  9
$DIMLFAC
 40
1.0
  9
$DIMBLK
  1
_FILLED
  9
$DIMALT
 70
0
  9
$DIMALTF
 40
0.0393700787
  9
$DIMTXT
 40
3.0
  9
$DIMTOL
 70
1
  9
$DIMLIM
 70
0
  9
$DIMTFAC
 40
1.0
  9
$DIMTP
 40
0.01
  9
$DIMTM
 40
0.01
  9
$DIMGAP
 40
0.625
  9
$DIMDSEP
 70
44
  9
$AUNITS
 70
0
  9
$PDMODE
 70
3
  9
$PDSIZE
 40
3.0
  9
$HANDSEED
  5
324
  9
$TILEMODE
 70
1
  9
$MEASUREMENT
 70
1
  9
$INSUNITS
 70
4
  0
ENDSEC
  0
SECTION
  2
CLASSES
  0
CLASS
  1
ACDBDICTIONARYWDFLT
  2
AcDbDictionaryWithDefault
  3
AutoCAD 2000
 90
0
 91
1
280
0
281
0
  0
CLASS
  1
ACDBPLACEHOLDER
  2
AcDbPlaceHolder
  3
AutoCAD 2000
 90
0
 91
1
280
0
281
0
  0
CLASS
  1
LAYOUT
  2
AcDbLayout
  3
AutoCAD 2000
 90
0
 91
0
280
0
281
0
  0
ENDSEC
  0
SECTION
  2
TABLES
  0
TABLE
  2
VPORT
  5
8
100
AcDbSymbolTable
 70
2
  0
VPORT
  5
1F4
100
AcDbSymbolTableRecord
100
AcDbViewportTableRecord
  2
*ACTIVE
 70
0
 10
0.0
 20
0.0
 11
1.0
 21
1.0
 12
148.5
 22
105.0
 13
0.0
 23
0.0
 14
1.0
 24
1.0
 15
0.0
 25
0.0
 16
0.0
 26
0.0
 36
1.0
 17
0.0
 27
0.0
 37
0.0
 40
210.0
 41
1.4142857143
 42
50.0
 43
0.0
 44
0.0
 50
0.0
 51
0.0
 71
0
 72
100
 73
1
 74
1
 75
0
 76
0
 77
0
 78
0
  0
ENDTAB
  0
TABLE
  2
LTYPE
  5
5
100
AcDbSymbolTable
 70
6
  0
LTYPE
  5
14
100
AcDbSymbolTableRecord
100
AcDbLinetypeTableRecord
  2
BYBLOCK
 70
0
  3

 72
65
 73
0
 40
0.0
  0
LTYPE
  5
15
100
AcDbSymbolTableRecord
100
AcDbLinetypeTableRecord
  2
BYLAYER
 70
0
  3

 72
65
 73
0
 40
0.0
  0
LTYPE
  5
16
100
AcDbSymbolTableRecord
100
AcDbLinetypeTableRecord
  2
CONTINUOUS
 70
64
  3
Solid line
 72
65
 73
0
 40
0.0
  0
LTYPE
  5
1F5
100
AcDbSymbolTableRecord
100
AcDbLinetypeTableRecord
  2
CENTER
 70
64
  3
____ _ ____ _ ____ _ ____ _ ____ _ ____ _ ____
 72
65
 73
4
 40
0.6
 49
0.375
 74
0
 49
-0.075
 74
0
 49
0.075
 74
0
 49
-0.075
 74
0
  0
LTYPE
  5
1F6
100
AcDbSymbolTableRecord
100
AcDbLinetypeTableRecord
  2
HIDDEN
 70
64
  3
- - - - - - - - - - - - - - - - - - - -
 72
65
 73
2
 40
0.2
 49
0.1
 74
0
 49
-0.1
 74
0
  0
LTYPE
  5
1F7
100
AcDbSymbolTableRecord
100
AcDbLinetypeTableRecord
  2
PHANTOM
 70
64
  3
_____ _ _ _____ _ _ _____ _ _ _____
 72
65
 73
6
 40
0.8
 49
0.45
 74
0
 49
-0.05
 74
0
 49
0.1
 74
0
 49
-0.05
 74
0
 49
0.1
 74
0
 49
-0.05
 74
0
  0
LTYPE
  5
1F8
100
AcDbSymbolTableRecord
100
AcDbLinetypeTableRecord
  2
DOT
 70
64
  3
. . . . . . . . . . . . . . . . . . . .
 72
65
 73
2
 40
0.2
 49
0.1
 74
0
 49
-0.1
 74
0
  0
LTYPE
  5
1F9
100
AcDbSymbolTableRecord
100
AcDbLinetypeTableRecord
  2
DASHED
 70
64
  3
- - - - - - - - - - - - - - - - - - - -
 72
65
 73
2
 40
0.2
 49
0.1
 74
0
 49
-0.1
 74
0
  0
ENDTAB
  0
TABLE
  2
LAYER
  5
2
100
AcDbSymbolTable
 70
36
  0
LAYER
  5
10
100
AcDbSymbolTableRecord
100
AcDbLayerTableRecord
  2
0
 70
0
 62
7
  6
CONTINUOUS
370
-3
390
F
  0
LAYER
  5
1FA
100
AcDbSymbolTableRecord
100
AcDbLayerTableRecord
  2
DEFAULT_1
 70
0
 62
7
  6
CENTER
370
-3
390
F
  0
LAYER
  5
1FB
100
AcDbSymbolTableRecord
100
AcDbLayerTableRecord
  2
DEFAULT_2
 70
0
 62
7
  6
HIDDEN
370
-3
390
F
  0
LAYER
  5
1FC
100
AcDbSymbolTableRecord
100
AcDbLayerTableRecord
  2
DEFAULT_3
 70
0
 62
7
  6
PHANTOM
370
-3
390
F
  0
LAYER
  5
1FD
100
AcDbSymbolTableRecord
100
AcDbLayerTableRecord
  2
ASSI
 70
0
 62
7
  6
CONTINUOUS
370
-3
390
F
  0
LAYER
  5
1FE
100
AcDbSymbolTableRecord
100
AcDbLayerTableRecord
  2
COORDINATE
 70
0
 62
7
  6
CONTINUOUS
370
-3
390
F
  0
LAYER
  5
1FF
100
AcDbSymbolTableRecord
100
AcDbLayerTableRecord
  2
COPY_PUBLISH
 70
0
 62
7
  6
CONTINUOUS
370
-3
390
F
  0
LAYER
  5
200
100
AcDbSymbolTableRecord
100
AcDbLayerTableRecord
  2
COSMETICI
 70
0
 62
7
  6
CONTINUOUS
370
-3
390
F
  0
LAYER
  5
201
100
AcDbSymbolTableRecord
100
AcDbLayerTableRecord
  2
CURVE
 70
0
 62
7
  6
CONTINUOUS
370
-3
390
F
  0
LAYER
  5
202
100
AcDbSymbolTableRecord
100
AcDbLayerTableRecord
  2
DRAFT
 70
0
 62
7
  6
CONTINUOUS
370
-3
390
F
  0
LAYER
  5
203
100
AcDbSymbolTableRecord
100
AcDbLayerTableRecord
  2
IMPORT_IGES
 70
0
 62
7
  6
CONTINUOUS
370
-3
390
F
  0
LAYER
  5
204
100
AcDbSymbolTableRecord
100
AcDbLayerTableRecord
  2
NOTE
 70
0
 62
7
  6
CONTINUOUS
370
-3
390
F
  0
LAYER
  5
205
100
AcDbSymbolTableRecord
100
AcDbLayerTableRecord
  2
PIANI
 70
0
 62
7
  6
CONTINUOUS
370
-3
390
F
  0
LAYER
  5
206
100
AcDbSymbolTableRecord
100
AcDbLayerTableRecord
  2
PUNTI
 70
0
 62
7
  6
CONTINUOUS
370
-3
390
F
  0
LAYER
  5
207
100
AcDbSymbolTableRecord
100
AcDbLayerTableRecord
  2
RACCORDO
 70
0
 62
7
  6
CONTINUOUS
370
-3
390
F
  0
LAYER
  5
208
100
AcDbSymbolTableRecord
100
AcDbLayerTableRecord
  2
SIMBOLI
 70
0
 62
7
  6
CONTINUOUS
370
-3
390
F
  0
LAYER
  5
209
100
AcDbSymbolTableRecord
100
AcDbLayerTableRecord
  2
SMUSSO
 70
0
 62
7
  6
CONTINUOUS
370
-3
390
F
  0
LAYER
  5
20A
100
AcDbSymbolTableRecord
100
AcDbLayerTableRecord
  2
SNAPLINE
 70
0
 62
7
  6
CONTINUOUS
370
-3
390
F
  0
LAYER
  5
20B
100
AcDbSymbolTableRecord
100
AcDbLayerTableRecord
  2
SUPERFICI
 70
0
 62
7
  6
CONTINUOUS
370
-3
390
F
  0
LAYER
  5
20C
100
AcDbSymbolTableRecord
100
AcDbLayerTableRecord
  2
TRASH
 70
0
 62
7
  6
CONTINUOUS
370
-3
390
F
  0
ENDTAB
  0
TABLE
  2
STYLE
  5
3
100
AcDbSymbolTable
 70
1
  0
STYLE
  5
11
100
AcDbSymbolTableRecord
100
AcDbTextStyleTableRecord
  2
STANDARD
 70
0
 40
0.0
 41
0.8
 50
0.0
 71
0
 42
0.2
  3
txt
  4

  0
STYLE
  5
20D
100
AcDbSymbolTableRecord
100
AcDbTextStyleTableRecord
  2
TEXTSTYLE_1
 70
0
 40
0.0
 41
0.8
 50
0.0
 71
0
 42
0.2
  3
gdt
  4

  0
ENDTAB
  0
TABLE
  2
VIEW
  5
6
100
AcDbSymbolTable
 70
0
  0
ENDTAB
  0
TABLE
  2
UCS
  5
7
100
AcDbSymbolTable
 70
0
  0
ENDTAB
  0
TABLE
  2
APPID
  5
9
100
AcDbSymbolTable
 70
1
  0
APPID
  5
20E
100
AcDbSymbolTableRecord
100
AcDbRegAppTableRecord
  2
ACAD
 70
0
  0
ENDTAB
  0
TABLE
  2
BLOCK_RECORD
  5
1
100
AcDbSymbolTable
 70
0
  0
BLOCK_RECORD
  5
20F
100
AcDbSymbolTableRecord
100
AcDbBlockTableRecord
  2
*Model_Space
  0
BLOCK_RECORD
  5
210
100
AcDbSymbolTableRecord
100
AcDbBlockTableRecord
  2
*Paper_Space
  0
ENDTAB
  0
TABLE
  2
DIMSTYLE
  5
A
100
AcDbSymbolTable
 70
1
100
AcDbDimStyleTable
 71
0
  0
DIMSTYLE
105
211
100
AcDbSymbolTableRecord
100
AcDbDimStyleTableRecord
  2
STANDARD
 70
0
  3

  4

 40
1.0
 41
3.0
 42
0.5
 43
0.38
 44
1.5
 45
0.0
 46
0.0
 47
0.01
 48
0.01
140
3.0
141
0.09
142
0.0
143
25.4
144
1.0
145
0.0
146
1.0
147
0.625
 71
1.0
 72
0.0
 73
0
 74
0
 75
0
 76
0
 77
1
 78
8
170
0
171
2
172
0
173
0
174
0
175
0
176
0
177
0
178
0
270
2
271
2
272
2
273
2
274
2
275
0
280
0
281
0
282
0
283
1
284
8
285
0
286
0
287
3
288
0
340
11
278
44
  0
ENDTAB
  0
ENDSEC
  0
SECTION
  2
BLOCKS
  0
BLOCK
  5
20
100
AcDbEntity
  8
0
100
AcDbBlockBegin
  2
*Model_Space
 70
0
 10
0.0
 20
0.0
 30
0.0
  3
*Model_Space
  1

  0
ENDBLK
  5
21
100
AcDbEntity
  8
0
100
AcDbBlockEnd
  0
BLOCK
  5
1C
100
AcDbEntity
  8
0
100
AcDbBlockBegin
  2
*Paper_Space
 70
0
 10
0.0
 20
0.0
 30
0.0
  3
*Paper_Space
  1

  0
ENDBLK
  5
1D
100
AcDbEntity
  8
0
100
AcDbBlockEnd
  0
ENDSEC
  0
SECTION
  2
ENTITIES
  0
LINE
  5
212
100
AcDbEntity
  8
0
100
AcDbLine
 62
7
  6
CONTINUOUS
 10
-94.4313526818
 20
186.821156467
 11
-50.6034976483
 21
212.1268106713
  0
LINE
  5
213
100
AcDbEntity
  8
ASSI
100
AcDbLine
 62
253
  6
CONTINUOUS
 10
-89.2519515453
 20
185.4144425775
 11
-44.1031835665
 21
211.4827753614
  0
LINE
  5
214
100
AcDbEntity
  8
ASSI
100
AcDbLine
 62
253
  6
CONTINUOUS
 10
-94.6613184213
 20
180.6590693934
 11
-89.2523274161
 21
183.7821530093
  0
LWPOLYLINE
  5
215
100
AcDbEntity
  8
ASSI
100
AcDbPolyline
 62
7
  6
CONTINUOUS
 90
30
 70
0
 10
-94.4313899858
 20
186.8211349281
 10
-94.4036491706
 20
186.8368491537
 10
-94.2766309549
 20
186.9014419712
 10
-94.1446222221
 20
186.95683115
 10
-94.007757703
 20
187.0029359782
 10
-93.8659601252
 20
187.039890992
 10
-93.7194512478
 20
187.0676670368
 10
-93.5683717997
 20
187.0862529333
 10
-93.4125567609
 20
187.0958812485
 10
-93.2521901944
 20
187.0965721205
 10
-93.0874726226
 20
187.0883343046
 10
-92.9182760997
 20
187.0714181263
 10
-92.7447602998
 20
187.0458745973
 10
-92.5671625875
 20
187.0117420624
 10
-92.3854820826
 20
186.9692896186
 10
-92.1999671696
 20
186.9186298223
 10
-92.0107808747
 20
186.8598254806
 10
-91.817796187
 20
186.7930878381
 10
-91.6212699146
 20
186.7185433439
 10
-91.4213455621
 20
186.6362581594
 10
-91.2177131441
 20
186.5463119463
 10
-91.0103676623
 20
186.448697273
 10
-90.7996917609
 20
186.3435516706
 10
-90.5859533478
 20
186.2311701361
 10
-90.3693082684
 20
186.1116804014
 10
-90.1499886454
 20
185.985191265
 10
-89.9283826136
 20
185.852035763
 10
-89.7047480306
 20
185.7124474252
 10
-89.4792089805
 20
185.5665264807
 10
-89.2519515453
 20
185.4144425775
  0
LWPOLYLINE
  5
216
100
AcDbEntity
  8
ASSI
100
AcDbPolyline
 62
7
  6
CONTINUOUS
 90
30
 70
0
 10
-93.4313418554
 20
185.0891119095
 10
-93.4099741125
 20
185.1011930144
 10
-93.3119003851
 20
185.1504191714
 10
-93.2096249883
 20
185.1918454652
 10
-93.1032634209
 20
185.2254027376
 10
-92.9926637534
 20
185.2512547968
 10
-92.8780082506
 20
185.2693800784
 10
-92.7594213683
 20
185.2797660182
 10
-92.6366930614
 20
185.2826500592
 10
-92.5099759001
 20
185.2780510746
 10
-92.3794427325
 20
185.2659746394
 10
-92.2449244101
 20
185.2466677228
 10
-92.1065536668
 20
185.2201748597
 10
-91.9645337244
 20
185.1865271245
 10
-91.818810076
 20
185.1459832563
 10
-91.6695869293
 20
185.0986419385
 10
-91.5170081932
 20
185.0445528722
 10
-91.3609305254
 20
184.9839155149
 10
-91.2015665761
 20
184.9168395458
 10
-91.0390424212
 20
184.8433782636
 10
-90.8730738396
 20
184.763611734
 10
-90.7036590309
 20
184.6775322664
 10
-90.5311193422
 20
184.5852576354
 10
-90.3556522529
 20
184.4870543206
 10
-90.1773852855
 20
184.3830329124
 10
-89.9965191983
 20
184.2732829615
 10
-89.8133662417
 20
184.1580956046
 10
-89.6281392127
 20
184.0376715562
 10
-89.4409484959
 20
183.9120925132
 10
-89.2519515453
 20
183.7815020239
  0
LINE
  5
217
100
AcDbEntity
  8
0
100
AcDbLine
 62
253
  6
CONTINUOUS
 10
-50.6034976483
 20
212.1268106713
 11
-50.5130064217
 21
212.1776241658
  0
LWPOLYLINE
  5
218
100
AcDbEntity
  8
0
100
AcDbPolyline
 62
7
  6
CONTINUOUS
 90
31
 70
0
 10
-50.6034976483
 20
212.1268106713
 10
-50.39300518
 20
212.243075447
 10
-50.1775184284
 20
212.351626117
 10
-49.9572350311
 20
212.4522766954
 10
-49.732519827
 20
212.544790657
 10
-49.5034330526
 20
212.629078991
 10
-49.2696982131
 20
212.7051429174
 10
-49.0314983724
 20
212.7727958503
 10
-48.7890544811
 20
212.8318533571
 10
-48.5421009516
 20
212.8822365348
 10
-48.2907916484
 20
212.9237451726
 10
-48.0353588498
 20
212.9561764188
 10
-47.7756102929
 20
212.9793745034
 10
-47.5116545477
 20
212.9931270607
 10
-47.2437486273
 20
212.9972207837
 10
-46.9718819586
 20
212.9914517551
 10
-46.6961557832
 20
212.9756051094
 10
-46.4168134449
 20
212.9494784992
 10
-46.1340202443
 20
212.9128747996
 10
-45.8476813619
 20
212.8655543049
 10
-45.5582138033
 20
212.8073567274
 10
-45.2665213894
 20
212.7382858433
 10
-44.9726789351
 20
212.6582138103
 10
-44.6769163221
 20
212.5670534768
 10
-44.3803477357
 20
212.4650494697
 10
-44.0830852775
 20
212.352185907
 10
-43.7852989313
 20
212.2284662789
 10
-43.4881739502
 20
212.094372662
 10
-43.1921899199
 20
211.9501783906
 10
-42.8971267161
 20
211.79582475
 10
-42.6031110861
 20
211.6313988945
  0
LWPOLYLINE
  5
219
100
AcDbEntity
  8
0
100
AcDbPolyline
 62
253
  6
CONTINUOUS
 90
19
 70
0
 10
-44.1031835665
 20
211.4827753614
 10
-44.0106528727
 20
211.533870128
 10
-43.9182983163
 20
211.58020504
 10
-43.8262956996
 20
211.6216918964
 10
-43.7348201546
 20
211.6582517245
 10
-43.6440458103
 20
211.6898149306
 10
-43.5541454608
 20
211.7163214325
 10
-43.4652902366
 20
211.7377207733
 10
-43.3776492785
 20
211.7539722184
 10
-43.2913894163
 20
211.7650448321
 10
-43.2066748503
 20
211.7709175371
 10
-43.1236668396
 20
211.7715791544
 10
-43.0425233947
 20
211.7670284245
 10
-42.9633989767
 20
211.75727401
 10
-42.8864442035
 20
211.7423344789
 10
-42.8118055628
 20
211.7222382697
 10
-42.7396251335
 20
211.6970236364
 10
-42.6700403152
 20
211.6667385766
 10
-42.6031835665
 20
211.6314407397
  0
LWPOLYLINE
  5
21A
100
AcDbEntity
  8
0
100
AcDbPolyline
 62
253
  6
CONTINUOUS
 90
29
 70
0
 10
-50.5130064217
 20
212.1776241658
 10
-50.3290186634
 20
212.2724380849
 10
-50.1403030934
 20
212.3585921365
 10
-49.9470030197
 20
212.4360208964
 10
-49.7492652315
 20
212.5046655663
 10
-49.5472398883
 20
212.5644740183
 10
-49.3410804052
 20
212.6154008349
 10
-49.1309433368
 20
212.6574073429
 10
-48.9169882583
 20
212.6904616431
 10
-48.6993776442
 20
212.7145386345
 10
-48.4782767448
 20
212.7296200336
 10
-48.2538534612
 20
212.7356943875
 10
-48.0262782172
 20
212.7327570836
 10
-47.7957238302
 20
212.7208103524
 10
-47.56236538
 20
212.6998632661
 10
-47.3263800757
 20
212.6699317316
 10
-47.0879471213
 20
212.6310384784
 10
-46.8472475794
 20
212.5832130417
 10
-46.6044642338
 20
212.5264917393
 10
-46.3597814508
 20
212.4609176446
 10
-46.1133850391
 20
212.3865405537
 10
-45.8654621087
 20
212.3034169474
 10
-45.6162009286
 20
212.2116099488
 10
-45.3657907845
 20
212.1111892746
 10
-45.1144218342
 20
212.002231183
 10
-44.8622849637
 20
211.8848184152
 10
-44.6095716423
 20
211.7590401328
 10
-44.3564737769
 20
211.6249918501
 10
-44.1031835665
 20
211.4827753614
  0
LINE
  5
21B
100
AcDbEntity
  8
0
100
AcDbLine
 62
253
  6
CONTINUOUS
 10
-70.1541030943
 20
171.1305645205
 11
-70.2661344704
 21
171.065879008
  0
LINE
  5
21C
100
AcDbEntity
  8
0
100
AcDbLine
 62
7
  6
CONTINUOUS
 10
-68.851920908
 20
157.7993417482
 11
-58.5463537572
 21
163.749647062
  0
LINE
  5
21D
100
AcDbEntity
  8
0
100
AcDbLine
 62
7
  6
CONTINUOUS
 10
-68.851920908
 20
156.1662433749
 11
-57.1894492457
 21
162.9000083476
  0
LWPOLYLINE
  5
21E
100
AcDbEntity
  8
0
100
AcDbPolyline
 62
7
  6
CONTINUOUS
 90
9
 70
0
 10
56.5888220745
 20
-182.976037926
 10
56.5593492666
 20
-182.9731168686
 10
56.5244873742
 20
-182.9672513024
 10
56.4890227536
 20
-182.9588958205
 10
56.4529603117
 20
-182.9480706931
 10
56.416595233
 20
-182.934864528
 10
56.3800259127
 20
-182.9193068612
 10
56.3431539557
 20
-182.9013681566
 10
56.305979362
 20
-182.8810484144
  0
LWPOLYLINE
  5
21F
100
AcDbEntity
  8
RACCORDO
100
AcDbPolyline
 62
253
  6
CONTINUOUS
 90
5
 70
0
 10
-2.8983106544
 20
-156.469799905
 10
-2.9669546297
 20
-156.4759269203
 10
-3.0407387024
 20
-156.4667618028
 10
-3.1180146566
 20
-156.4425092832
 10
-3.1970562748
 20
-156.4037111209
  0
LWPOLYLINE
  5
220
100
AcDbEntity
  8
0
100
AcDbPolyline
 62
7
  6
CONTINUOUS
 90
24
 70
0
 10
59.0384557823
 20
-212.7675837484
 10
59.0826228751
 20
-212.7922030329
 10
59.1728355965
 20
-212.8372621071
 10
59.2659387775
 20
-212.8769455883
 10
59.3619219002
 20
-212.9112730373
 10
59.4604348539
 20
-212.9401192402
 10
59.5614868777
 20
-212.963464179
 10
59.6650687324
 20
-212.9813278718
 10
59.7708025898
 20
-212.9936451583
 10
59.8786963093
 20
-213.0003957827
 10
59.9887420315
 20
-213.0016000009
 10
60.1005383504
 20
-212.9972534204
 10
60.2140916594
 20
-212.9873357691
 10
60.3293955651
 20
-212.971867319
 10
60.4460294817
 20
-212.9509044934
 10
60.5639982663
 20
-212.9244272263
 10
60.6832970619
 20
-212.8924555836
 10
60.8034907105
 20
-212.855106186
 10
60.9245824802
 20
-212.8123593935
 10
61.0465691029
 20
-212.7642348462
 10
61.1690056168
 20
-212.7109080844
 10
61.291743701
 20
-212.6524376218
 10
61.4149316764
 20
-212.5887649447
 10
61.5385695428
 20
-212.5198900533
  0
LWPOLYLINE
  5
221
100
AcDbEntity
  8
0
100
AcDbPolyline
 62
7
  6
CONTINUOUS
 90
24
 70
0
 10
-88.0397547045
 20
-127.8464683362
 10
-87.9955876117
 20
-127.8710876207
 10
-87.9053748903
 20
-127.9161466949
 10
-87.8122717094
 20
-127.9558301762
 10
-87.7162885866
 20
-127.9901576251
 10
-87.6177756329
 20
-128.019003828
 10
-87.5167236091
 20
-128.0423487669
 10
-87.4131417544
 20
-128.0602124596
 10
-87.307407897
 20
-128.0725297462
 10
-87.1995141775
 20
-128.0792803706
 10
-87.0894684553
 20
-128.0804845888
 10
-86.9776721364
 20
-128.0761380082
 10
-86.8641188274
 20
-128.0662203569
 10
-86.7488149217
 20
-128.0507519069
 10
-86.6321810051
 20
-128.0297890812
 10
-86.5142122205
 20
-128.0033118141
 10
-86.3949134249
 20
-127.9713401714
 10
-86.2747197763
 20
-127.9339907738
 10
-86.1536280066
 20
-127.8912439814
 10
-86.0316413839
 20
-127.843119434
 10
-85.90920487
 20
-127.7897926722
 10
-85.7864667858
 20
-127.7313222096
 10
-85.6632788104
 20
-127.6676495326
 10
-85.539640944
 20
-127.5987746411
  0
LINE
  5
222
100
AcDbEntity
  8
0
100
AcDbLine
 62
7
  6
CONTINUOUS
 10
-88.0397617447
 20
-127.8464805295
 11
-89.4539753071
 21
-127.0299313429
  0
LINE
  5
223
100
AcDbEntity
  8
0
100
AcDbLine
 62
7
  6
CONTINUOUS
 10
57.6242351797
 20
-211.951046755
 11
59.0384487421
 21
-212.7675959417
  0
LWPOLYLINE
  5
224
100
AcDbEntity
  8
0
100
AcDbPolyline
 62
7
  6
CONTINUOUS
 90
24
 70
0
 10
-89.4539682668
 20
-127.0299191495
 10
-89.4971339537
 20
-127.0041233276
 10
-89.5812682339
 20
-126.9485360844
 10
-89.6621923335
 20
-126.8877578156
 10
-89.7399179338
 20
-126.8218074101
 10
-89.8141615205
 20
-126.7509254305
 10
-89.884910377
 20
-126.6750938665
 10
-89.95217722
 20
-126.5943307284
 10
-90.0157166849
 20
-126.5089306102
 10
-90.075515159
 20
-126.4188765774
 10
-90.1315862551
 20
-126.3241855645
 10
-90.1837254465
 20
-126.2252029693
 10
-90.2319183737
 20
-126.1219131186
 10
-90.2761793962
 20
-126.0143316855
 10
-90.3163470662
 20
-125.9028510873
 10
-90.3524064346
 20
-125.7874570838
 10
-90.3843724505
 20
-125.6681639153
 10
-90.4121285138
 20
-125.5454067188
 10
-90.4356592494
 20
-125.4191728435
 10
-90.4549800324
 20
-125.2894749403
 10
-90.4700203877
 20
-125.1567860991
 10
-90.4807568236
 20
-125.0212640165
 10
-90.4872128318
 20
-124.8827509958
 10
-90.4893884123
 20
-124.7412470371
  0
LWPOLYLINE
  5
225
100
AcDbEntity
  8
RACCORDO
100
AcDbPolyline
 62
7
  6
CONTINUOUS
 90
6
 70
0
 10
-3.4970707709
 20
-155.2087304123
 10
-3.538110813
 20
-155.1870447388
 10
-3.5722996444
 20
-155.1724031266
 10
-3.5984149606
 20
-155.1638538247
 10
-3.615475889
 20
-155.1600068062
 10
-3.6204517159
 20
-155.1592900331
  0
LINE
  5
226
100
AcDbEntity
  8
0
100
AcDbLine
 62
253
  6
CONTINUOUS
 10
-89.07517485
 20
-125.5577962238
 11
-90.4893884123
 21
-124.7412470371
  0
LINE
  5
227
100
AcDbEntity
  8
0
100
AcDbLine
 62
253
  6
CONTINUOUS
 10
56.5888220745
 20
-209.6623624493
 11
58.0030356368
 21
-210.478911636
  0
LINE
  5
228
100
AcDbEntity
  8
0
100
AcDbLine
 62
7
  6
CONTINUOUS
 10
-79.4585226258
 20
-124.0876131385
 11
56.5888220745
 21
-202.6396448947
  0
LWPOLYLINE
  5
229
100
AcDbEntity
  8
0
100
AcDbPolyline
 62
7
  6
CONTINUOUS
 90
24
 70
0
 10
57.62424222
 20
-211.9510345617
 10
57.5810765331
 20
-211.9252387398
 10
57.4969422529
 20
-211.8696514966
 10
57.4160181533
 20
-211.8088732278
 10
57.338292553
 20
-211.7429228223
 10
57.2640489663
 20
-211.6720408427
 10
57.1933001098
 20
-211.5962092786
 10
57.1260332668
 20
-211.5154461405
 10
57.0624938019
 20
-211.4300460223
 10
57.0026953278
 20
-211.3399919895
 10
56.9466242317
 20
-211.2453009767
 10
56.8944850403
 20
-211.1463183815
 10
56.8462921131
 20
-211.0430285307
 10
56.8020310906
 20
-210.9354470977
 10
56.7618634206
 20
-210.8239664994
 10
56.7258040522
 20
-210.708572496
 10
56.6938380363
 20
-210.5892793274
 10
56.666081973
 20
-210.4665221309
 10
56.6425512374
 20
-210.3402882557
 10
56.6232304544
 20
-210.2105903525
 10
56.6081900991
 20
-210.0779015113
 10
56.5974536632
 20
-209.9423794287
 10
56.590997655
 20
-209.803866408
 10
56.5888220745
 20
-209.6623624493
  0
LWPOLYLINE
  5
22A
100
AcDbEntity
  8
RACCORDO
100
AcDbPolyline
 62
7
  6
CONTINUOUS
 90
6
 70
0
 10
-74.2077488896
 20
-114.3812710795
 10
-74.2487889317
 20
-114.359585406
 10
-74.282977763
 20
-114.3449437938
 10
-74.3090930793
 20
-114.336394492
 10
-74.3261540077
 20
-114.3325474734
 10
-74.3311298345
 20
-114.3318307004
  0
LINE
  5
22B
100
AcDbEntity
  8
0
100
AcDbLine
 62
7
  6
CONTINUOUS
 10
56.305979362
 20
-182.8810484144
 11
1.1516504294
 21
-151.0356301348
  0
LINE
  5
22C
100
AcDbEntity
  8
0
100
AcDbLine
 62
7
  6
CONTINUOUS
 10
-14.4046987567
 20
-142.0535890816
 11
-69.5590276892
 21
-110.2081708021
  0
LINE
  5
22D
100
AcDbEntity
  8
0
100
AcDbLine
 62
7
  6
CONTINUOUS
 10
56.5888220745
 20
-181.4112598784
 11
2.5658639918
 21
-150.2190809482
  0
LINE
  5
22E
100
AcDbEntity
  8
0
100
AcDbLine
 62
7
  6
CONTINUOUS
 10
-13.6975919755
 20
-140.8287653016
 11
-68.1448141268
 21
-109.3916216154
  0
LINE
  5
22F
100
AcDbEntity
  8
0
100
AcDbLine
 62
7
  6
CONTINUOUS
 10
-68.7572527608
 20
-108.6296142657
 11
-13.6975919755
 21
-140.4203723435
  0
LINE
  5
230
100
AcDbEntity
  8
0
100
AcDbLine
 62
7
  6
CONTINUOUS
 10
1.9534253578
 20
-149.4570735984
 11
56.5888220745
 21
-181.0028669203
  0
LWPOLYLINE
  5
231
100
AcDbEntity
  8
0
100
AcDbPolyline
 62
7
  6
CONTINUOUS
 90
31
 70
0
 10
-69.5590276892
 20
-110.2081708021
 10
-69.5962022829
 20
-110.1855622553
 10
-69.6330742399
 20
-110.1609221482
 10
-69.6696435602
 20
-110.1342504805
 10
-69.7060086389
 20
-110.1054631643
 10
-69.7420710808
 20
-110.0746442876
 10
-69.7775357014
 20
-110.0420461147
 10
-69.8123975939
 20
-110.0076540413
 10
-69.8466616649
 20
-109.9714826717
 10
-69.8800474502
 20
-109.933828082
 10
-69.9125477409
 20
-109.8946780985
 10
-69.9441697459
 20
-109.854044895
 10
-69.974654627
 20
-109.8122610697
 10
-70.003993051
 20
-109.7693171786
 10
-70.0321943512
 20
-109.7252226656
 10
-70.0590276892
 20
-109.6803384611
 10
-70.0844818371
 20
-109.6346580834
 10
-70.1085680229
 20
-109.5881880142
 10
-70.131089092
 20
-109.5413086285
 10
-70.1520321983
 20
-109.4940165668
 10
-70.1714101879
 20
-109.4463151887
 10
-70.1890644445
 20
-109.3985949479
 10
-70.2049808203
 20
-109.3508556897
 10
-70.2191734633
 20
-109.3030975689
 10
-70.2315262012
 20
-109.2557115038
 10
-70.2420239325
 20
-109.208700548
 10
-70.2506817588
 20
-109.162061648
 10
-70.2574288125
 20
-109.1161765606
 10
-70.2622414711
 20
-109.0711725384
 10
-70.2651433571
 20
-109.0269223288
 10
-70.2661344704
 20
-108.9834259319
  0
LWPOLYLINE
  5
232
100
AcDbEntity
  8
0
100
AcDbPolyline
 62
7
  6
CONTINUOUS
 90
31
 70
0
 10
1.1516504294
 20
-151.0356301348
 10
1.1144758358
 20
-151.0130215881
 10
1.0776038788
 20
-150.9883814809
 10
1.0410345584
 20
-150.9617098133
 10
1.0046694798
 20
-150.9329224971
 10
0.9686070378
 20
-150.9021036204
 10
0.9331424172
 20
-150.8695054474
 10
0.8982805248
 20
-150.8351133741
 10
0.8640164538
 20
-150.7989420044
 10
0.8306306685
 20
-150.7612874148
 10
0.7981303778
 20
-150.7221374313
 10
0.7665083728
 20
-150.6815042278
 10
0.7360234917
 20
-150.6397204025
 10
0.7066850676
 20
-150.5967765114
 10
0.6784837675
 20
-150.5526819984
 10
0.6516504294
 20
-150.5077977939
 10
0.6261962815
 20
-150.4621174162
 10
0.6021100957
 20
-150.415647347
 10
0.5795890266
 20
-150.3687679613
 10
0.5586459204
 20
-150.3214758996
 10
0.5392679308
 20
-150.2737745215
 10
0.5216136741
 20
-150.2260542807
 10
0.5056972983
 20
-150.1783150225
 10
0.4915046554
 20
-150.1305569017
 10
0.4791519175
 20
-150.0831708365
 10
0.4686541861
 20
-150.0361598808
 10
0.4599963598
 20
-149.9895209808
 10
0.4532493061
 20
-149.9436358934
 10
0.4484366476
 20
-149.8986318711
 10
0.4455347616
 20
-149.8543816616
 10
0.4445436483
 20
-149.8108852647
  0
LWPOLYLINE
  5
233
100
AcDbEntity
  8
RACCORDO
100
AcDbPolyline
 62
253
  6
CONTINUOUS
 90
25
 70
0
 10
-74.3319984622
 20
-116.3110987102
 10
-74.4598026177
 20
-116.2266161681
 10
-74.5814697949
 20
-116.1284482545
 10
-74.6969999937
 20
-116.0165949693
 10
-74.8081516908
 20
-115.8886963677
 10
-74.9131664095
 20
-115.7471123946
 10
-75.0067687202
 20
-115.5989228844
 10
-75.0883697227
 20
-115.4437948958
 10
-75.1585583172
 20
-115.2820613701
 10
-75.2138257744
 20
-115.1218009658
 10
-75.253412951
 20
-114.9630902517
 10
-75.2780789903
 20
-114.8058526591
 10
-75.2865925934
 20
-114.6579371397
 10
-75.2781337691
 20
-114.5198168803
 10
-75.2535225087
 20
-114.3910186941
 10
-75.2139874865
 20
-114.2779719734
 10
-75.1587713111
 20
-114.1814764128
 10
-75.088631374
 20
-114.1007323177
 10
-75.0070685247
 20
-114.0397699964
 10
-74.9135020649
 20
-113.9995938097
 10
-74.8085126928
 20
-113.9791993969
 10
-74.6973433521
 20
-113.9796039832
 10
-74.5817416907
 20
-114.0011466439
 10
-74.4599600608
 20
-114.0434883038
 10
-74.3319984622
 20
-114.1066289628
  0
LWPOLYLINE
  5
234
100
AcDbEntity
  8
RACCORDO
100
AcDbPolyline
 62
253
  6
CONTINUOUS
 90
25
 70
0
 10
-74.3319984622
 20
-114.1066289628
 10
-74.2041943067
 20
-114.1911115049
 10
-74.0825271296
 20
-114.2892794185
 10
-73.9669969307
 20
-114.4011327037
 10
-73.8558452337
 20
-114.5290313052
 10
-73.7508305149
 20
-114.6706152783
 10
-73.6572282042
 20
-114.8188047885
 10
-73.5756272017
 20
-114.9739327772
 10
-73.5054386072
 20
-115.1356663029
 10
-73.45017115
 20
-115.2959267072
 10
-73.4105839734
 20
-115.4546374212
 10
-73.3859179341
 20
-115.6118750139
 10
-73.377404331
 20
-115.7597905332
 10
-73.3858631553
 20
-115.8979107927
 10
-73.4104744158
 20
-116.0267089789
 10
-73.4500094379
 20
-116.1397556996
 10
-73.5052256133
 20
-116.2362512602
 10
-73.5753655504
 20
-116.3169953553
 10
-73.6569283998
 20
-116.3779576766
 10
-73.7504948596
 20
-116.4181338632
 10
-73.8554842317
 20
-116.4385282761
 10
-73.9666535724
 20
-116.4381236897
 10
-74.0822552337
 20
-116.4165810291
 10
-74.2040368637
 20
-116.3742393692
 10
-74.3319984622
 20
-116.3110987102
  0
LWPOLYLINE
  5
235
100
AcDbEntity
  8
RACCORDO
100
AcDbPolyline
 62
253
  6
CONTINUOUS
 90
25
 70
0
 10
-3.6213203436
 20
-157.1385580429
 10
-3.7491244991
 20
-157.0540755009
 10
-3.8707916762
 20
-156.9559075872
 10
-3.986321875
 20
-156.844054302
 10
-4.0974735721
 20
-156.7161557005
 10
-4.2024882908
 20
-156.5745717274
 10
-4.2960906015
 20
-156.4263822172
 10
-4.3776916041
 20
-156.2712542286
 10
-4.4478801985
 20
-156.1095207029
 10
-4.5031476558
 20
-155.9492602985
 10
-4.5427348323
 20
-155.7905495845
 10
-4.5674008717
 20
-155.6333119919
 10
-4.5759144748
 20
-155.4853964725
 10
-4.5674556505
 20
-155.347276213
 10
-4.54284439
 20
-155.2184780269
 10
-4.5033093678
 20
-155.1054313062
 10
-4.4480931924
 20
-155.0089357456
 10
-4.3779532554
 20
-154.9281916505
 10
-4.296390406
 20
-154.8672293291
 10
-4.2028239462
 20
-154.8270531425
 10
-4.0978345741
 20
-154.8066587297
 10
-3.9866652334
 20
-154.807063316
 10
-3.8710635721
 20
-154.8286059767
 10
-3.7492819421
 20
-154.8709476365
 10
-3.6213203436
 20
-154.9340882956
  0
LWPOLYLINE
  5
236
100
AcDbEntity
  8
RACCORDO
100
AcDbPolyline
 62
253
  6
CONTINUOUS
 90
25
 70
0
 10
-3.6213203436
 20
-154.9340882956
 10
-3.4935161881
 20
-155.0185708377
 10
-3.3718490109
 20
-155.1167387513
 10
-3.2563188121
 20
-155.2285920365
 10
-3.145167115
 20
-155.356490638
 10
-3.0401523963
 20
-155.4980746111
 10
-2.9465500856
 20
-155.6462641213
 10
-2.8649490831
 20
-155.8013921099
 10
-2.7947604886
 20
-155.9631256357
 10
-2.7394930313
 20
-156.12338604
 10
-2.6999058548
 20
-156.282096754
 10
-2.6752398155
 20
-156.4393343467
 10
-2.6667262123
 20
-156.587249866
 10
-2.6751850366
 20
-156.7253701255
 10
-2.6997962971
 20
-156.8541683117
 10
-2.7393313193
 20
-156.9672150323
 10
-2.7945474947
 20
-157.0637105929
 10
-2.8646874317
 20
-157.144454688
 10
-2.9462502811
 20
-157.2054170094
 10
-3.0398167409
 20
-157.245593196
 10
-3.144806113
 20
-157.2659876088
 10
-3.2559754537
 20
-157.2655830225
 10
-3.3715771151
 20
-157.2440403618
 10
-3.493358745
 20
-157.201698702
 10
-3.6213203436
 20
-157.1385580429
  0
LWPOLYLINE
  5
237
100
AcDbEntity
  8
RACCORDO
100
AcDbPolyline
 62
253
  6
CONTINUOUS
 90
15
 70
0
 10
-73.9077343935
 20
-115.5762517881
 10
-73.9867759334
 20
-115.5237747298
 10
-74.0640518305
 20
-115.458790982
 10
-74.1378358696
 20
-115.382752167
 10
-74.2064798384
 20
-115.2973568576
 10
-74.2684503399
 20
-115.204512641
 10
-74.3223630485
 20
-115.1062935079
 10
-74.3670136414
 20
-115.0048935105
 10
-74.4014046955
 20
-114.9025777569
 10
-74.4247679674
 20
-114.8016318204
 10
-74.4365815599
 20
-114.7043106694
 10
-74.4365815771
 20
-114.6127882958
 10
-74.4247680187
 20
-114.529109159
 10
-74.4014047796
 20
-114.4551425125
 10
-74.3670137561
 20
-114.3925406505
  0
LWPOLYLINE
  5
238
100
AcDbEntity
  8
RACCORDO
100
AcDbPolyline
 62
253
  6
CONTINUOUS
 90
15
 70
0
 10
-3.1970562748
 20
-156.4037111209
 10
-3.2760978148
 20
-156.3512340626
 10
-3.3533737118
 20
-156.2862503148
 10
-3.4271577509
 20
-156.2102114998
 10
-3.4958017197
 20
-156.1248161904
 10
-3.5577722212
 20
-156.0319719738
 10
-3.6116849299
 20
-155.9337528407
 10
-3.6563355227
 20
-155.8323528432
 10
-3.6907265768
 20
-155.7300370897
 10
-3.7140898488
 20
-155.6290911531
 10
-3.7259034412
 20
-155.5317700021
 10
-3.7259034585
 20
-155.4402476286
 10
-3.7140899
 20
-155.3565684918
 10
-3.6907266609
 20
-155.2826018453
 10
-3.6563356375
 20
-155.2199999833
  0
LWPOLYLINE
  5
239
100
AcDbEntity
  8
ASSI
100
AcDbPolyline
 62
7
  6
CONTINUOUS
 90
30
 70
0
 10
-40.7597343832
 20
-131.9218676837
 10
-40.7640465281
 20
-131.918693547
 10
-40.8194136319
 20
-131.8749600407
 10
-40.8742564016
 20
-131.8286157919
 10
-40.9285780727
 20
-131.7796769115
 10
-40.9820420387
 20
-131.7284466516
 10
-41.0346429738
 20
-131.674910784
 10
-41.0863862038
 20
-131.6190835368
 10
-41.1369510995
 20
-131.5613108461
 10
-41.1863303442
 20
-131.5015806317
 10
-41.2345312546
 20
-131.4399049737
 10
-41.2812551517
 20
-131.376666048
 10
-41.3264928641
 20
-131.3118541477
 10
-41.3702535631
 20
-131.2454789798
 10
-41.4122660837
 20
-131.1779518407
 10
-41.4525195708
 20
-131.1092655776
 10
-41.4910248795
 20
-131.0394273434
 10
-41.5275434099
 20
-130.9688698938
 10
-41.5620628254
 20
-130.8975887629
 10
-41.5945954626
 20
-130.8255884167
 10
-41.6249397317
 20
-130.7533150083
 10
-41.6530820442
 20
-130.6807668424
 10
-41.6790359885
 20
-130.6079456143
 10
-41.7026407399
 20
-130.5353025641
 10
-41.7238817114
 20
-130.462838798
 10
-41.74277349
 20
-130.3905532098
 10
-41.7591990119
 20
-130.3188937202
 10
-41.7731429632
 20
-130.247864217
 10
-41.7846206579
 20
-130.1774608124
 10
-41.7897785002
 20
-130.1374566117
  0
LWPOLYLINE
  5
23A
100
AcDbEntity
  8
RACCORDO
100
AcDbPolyline
 62
7
  6
CONTINUOUS
 90
20
 70
0
 10
-73.5732735736
 20
86.0187821718
 10
-73.5735507769
 20
86.0183146904
 10
-73.5699690248
 20
86.0266988325
 10
-73.563179882
 20
86.0500672473
 10
-73.556685636
 20
86.0883039442
 10
-73.5532503529
 20
86.1410071296
 10
-73.5551326285
 20
86.206902861
 10
-73.5640440855
 20
86.2845148724
 10
-73.5814519384
 20
86.3729609865
 10
-73.608261723
 20
86.4697826677
 10
-73.6445780321
 20
86.571661684
 10
-73.6903787317
 20
86.6763875545
 10
-73.7450556
 20
86.7811626462
 10
-73.8067269508
 20
86.8819329824
 10
-73.8738707982
 20
86.9764386512
 10
-73.9446673299
 20
87.0625949898
 10
-74.0158163947
 20
87.1374063151
 10
-74.0845760552
 20
87.1995912589
 10
-74.1492071211
 20
87.2493260721
 10
-74.2077488896
 20
87.2868872883
  0
LWPOLYLINE
  5
23B
100
AcDbEntity
  8
RACCORDO
100
AcDbPolyline
 62
253
  6
CONTINUOUS
 90
6
 70
0
 10
-72.7261752787
 20
85.1247279844
 10
-72.643946425
 20
85.2417028793
 10
-72.5788080509
 20
85.3784562424
 10
-72.5316410086
 20
85.5331388494
 10
-72.5030832041
 20
85.7036587961
 10
-72.4935208311
 20
85.8877101007
  0
LWPOLYLINE
  5
23C
100
AcDbEntity
  8
RACCORDO
100
AcDbPolyline
 62
253
  6
CONTINUOUS
 90
3
 70
0
 10
-74.3670137561
 20
87.2756177173
 10
-74.322363189
 20
87.3254563703
 10
-74.3124722801
 20
87.3325258419
  0
LWPOLYLINE
  5
23D
100
AcDbEntity
  8
0
100
AcDbPolyline
 62
7
  6
CONTINUOUS
 90
7
 70
0
 10
-72.6248433609
 20
85.135546216
 10
-72.5040597951
 20
85.2257947275
 10
-72.4001435685
 20
85.3453699177
 10
-72.3183287162
 20
85.4882767479
 10
-72.2603438095
 20
85.6525261712
 10
-72.224460277
 20
85.8401072345
 10
-72.2106781187
 20
86.051019938
  0
LWPOLYLINE
  5
23E
100
AcDbEntity
  8
RACCORDO
100
AcDbPolyline
 62
253
  6
CONTINUOUS
 90
3
 70
0
 10
-72.9076860732
 20
84.9722363784
 10
-72.8243828491
 20
85.0291132466
 10
-72.7261752787
 20
85.1247279844
  0
LWPOLYLINE
  5
23F
100
AcDbEntity
  8
RACCORDO
100
AcDbPolyline
 62
7
  6
CONTINUOUS
 90
10
 70
0
 10
-74.9077827138
 20
88.4362821963
 10
-75.0174280573
 20
88.3636140467
 10
-75.1197825066
 20
88.2757740593
 10
-75.2130041937
 20
88.1730332852
 10
-75.2953526729
 20
88.0559277396
 10
-75.3652796494
 20
87.9251974903
 10
-75.4215797518
 20
87.7813491855
 10
-75.4631606199
 20
87.6247261118
 10
-75.4888805657
 20
87.4559980519
 10
-75.4976838872
 20
87.2758435769
  0
LWPOLYLINE
  5
240
100
AcDbEntity
  8
ASSI
100
AcDbPolyline
 62
7
  6
CONTINUOUS
 90
58
 70
0
 10
-19.315294574
 20
127.5210285056
 10
-19.3295161918
 20
127.512641238
 10
-19.3853354673
 20
127.4762356776
 10
-19.4385292947
 20
127.4358063343
 10
-19.4890838724
 20
127.3913320556
 10
-19.537013002
 20
127.342833994
 10
-19.5820651672
 20
127.2905666514
 10
-19.6242252442
 20
127.234510213
 10
-19.6635083568
 20
127.1746844936
 10
-19.6997083602
 20
127.1114034388
 10
-19.732809047
 20
127.0446488843
 10
-19.7628266245
 20
126.9744389944
 10
-19.7896035705
 20
126.9011422075
 10
-19.8131228494
 20
126.8247422961
 10
-19.8334014967
 20
126.7452554876
 10
-19.8503330968
 20
126.6630989027
 10
-19.8639000547
 20
126.5782585066
 10
-19.8741199654
 20
126.490748334
 10
-19.8809391981
 20
126.4010276095
 10
-19.8843398761
 20
126.3090847125
 10
-19.8843398761
 20
126.2149312635
 10
-19.8809391981
 20
126.1190613488
 10
-19.8741199654
 20
126.0214659452
 10
-19.8639000547
 20
125.9221540759
 10
-19.8503330968
 20
125.8216468969
 10
-19.8334014967
 20
125.7199381245
 10
-19.8131228494
 20
125.6170340425
 10
-19.7896035705
 20
125.5134746574
 10
-19.7628266245
 20
125.4092565244
 10
-19.732809047
 20
125.3043830884
 10
-19.6997083602
 20
125.1994046906
 10
-19.6635083568
 20
125.0943207792
 10
-19.6242252442
 20
124.989131906
 10
-19.5820651672
 20
124.8843900675
 10
-19.537013002
 20
124.7800976137
 10
-19.4890838724
 20
124.6762521947
 10
-19.4385292947
 20
124.5733987569
 10
-19.3853354673
 20
124.4715425151
 10
-19.3295161918
 20
124.3706782545
 10
-19.2713643894
 20
124.2713352776
 10
-19.2108677982
 20
124.1735215814
 10
-19.14803868
 20
124.0772291689
 10
-19.0832067415
 20
123.9829633509
 10
-19.0163614539
 20
123.890734781
 10
-18.9475133459
 20
123.8005328054
 10
-18.8770237096
 20
123.7128307746
 10
-18.8048839157
 20
123.6276418304
 10
-18.7311025936
 20
123.5449528309
 10
-18.6560669233
 20
123.4651977007
 10
-18.5797703108
 20
123.3883918628
 10
-18.5022193501
 20
123.3145198942
 10
-18.4238210031
 20
123.2439694507
 10
-18.3445708151
 20
123.1767579931
 10
-18.2644732408
 20
123.1128680605
 10
-18.1839486058
 20
123.0526349262
 10
-18.1031370188
 20
122.9961703482
 10
-18.021898371
 20
122.9433625684
 10
-17.9402326626
 20
122.8942115871
  0
LINE
  5
241
100
AcDbEntity
  8
0
100
AcDbLine
 62
7
  6
CONTINUOUS
 10
-68.851920908
 20
94.7260659476
 11
-68.1448141268
 21
95.1343405409
  0
LINE
  5
242
100
AcDbEntity
  8
ASSI
100
AcDbLine
 62
253
  6
CONTINUOUS
 10
-16.5260191002
 20
123.7107607737
 11
-17.9402326626
 21
122.8942115871
  0
LINE
  5
243
100
AcDbEntity
  8
0
100
AcDbLine
 62
7
  6
CONTINUOUS
 10
-74.6249400013
 20
88.5995920336
 11
-74.9077827138
 21
88.4362821963
  0
LINE
  5
244
100
AcDbEntity
  8
0
100
AcDbLine
 62
7
  6
CONTINUOUS
 10
-72.6248433607
 20
85.1355462157
 11
-72.9076860732
 21
84.9722363784
  0
LWPOLYLINE
  5
245
100
AcDbEntity
  8
RACCORDO
100
AcDbPolyline
 62
253
  6
CONTINUOUS
 90
5
 70
0
 10
-73.6089887731
 20
-115.6423405722
 10
-73.6776327483
 20
-115.6484675875
 10
-73.7514168211
 20
-115.63930247
 10
-73.8286927753
 20
-115.6150499505
 10
-73.9077343935
 20
-115.5762517881
  0
LINE
  5
246
100
AcDbEntity
  8
0
100
AcDbLine
 62
253
  6
CONTINUOUS
 10
-52.5884649407
 20
-107.7567872251
 11
-13.6975919755
 21
-130.2118898581
  0
LINE
  5
247
100
AcDbEntity
  8
0
100
AcDbLine
 62
253
  6
CONTINUOUS
 10
1.8587572106
 20
-139.1939309113
 11
56.5888220745
 21
-170.7943844349
  0
LINE
  5
248
100
AcDbEntity
  8
0
100
AcDbLine
 62
253
  6
CONTINUOUS
 10
-51.8813581595
 20
-106.532042355
 11
-13.6975919755
 21
-128.5788703947
  0
LINE
  5
249
100
AcDbEntity
  8
0
100
AcDbLine
 62
253
  6
CONTINUOUS
 10
1.8587572106
 20
-137.5609114479
 11
56.5888220745
 21
-169.1613649715
  0
LWPOLYLINE
  5
24A
100
AcDbEntity
  8
ASSI
100
AcDbPolyline
 62
7
  6
CONTINUOUS
 90
30
 70
0
 10
29.9509437354
 20
-172.7493270164
 10
29.9466315905
 20
-172.7461528798
 10
29.8912644867
 20
-172.7024193735
 10
29.8364217171
 20
-172.6560751247
 10
29.782100046
 20
-172.6071362443
 10
29.72863608
 20
-172.5559059843
 10
29.6760351449
 20
-172.5023701168
 10
29.6242919149
 20
-172.4465428696
 10
29.5737270192
 20
-172.3887701788
 10
29.5243477745
 20
-172.3290399645
 10
29.4761468641
 20
-172.2673643065
 10
29.429422967
 20
-172.2041253808
 10
29.3841852546
 20
-172.1393134805
 10
29.3404245556
 20
-172.0729383125
 10
29.2984120349
 20
-172.0054111735
 10
29.2581585478
 20
-171.9367249103
 10
29.2196532392
 20
-171.8668866762
 10
29.1831347088
 20
-171.7963292266
 10
29.1486152933
 20
-171.7250480957
 10
29.116082656
 20
-171.6530477495
 10
29.085738387
 20
-171.5807743411
 10
29.0575960745
 20
-171.5082261751
 10
29.0316421301
 20
-171.4354049471
 10
29.0080373787
 20
-171.3627618968
 10
28.9867964072
 20
-171.2902981308
 10
28.9679046287
 20
-171.2180125426
 10
28.9514791068
 20
-171.146353053
 10
28.9375351554
 20
-171.0753235498
 10
28.9260574608
 20
-171.0049201452
 10
28.9208996184
 20
-170.9649159444
  0
LINE
  5
24B
100
AcDbEntity
  8
ASSI
100
AcDbLine
 62
7
  6
CONTINUOUS
 10
-96.0755319837
 20
132.4642997649
 11
-96.0755319837
 21
181.4756185801
  0
LINE
  5
24C
100
AcDbEntity
  8
ASSI
100
AcDbLine
 62
7
  6
CONTINUOUS
 10
-94.6613184213
 20
131.6477505782
 11
-94.6613184213
 21
180.6590693934
  0
LWPOLYLINE
  5
24D
100
AcDbEntity
  8
ASSI
100
AcDbPolyline
 62
7
  6
CONTINUOUS
 90
30
 70
0
 10
-94.6613184213
 20
180.6590693934
 10
-94.6600432038
 20
180.8909462697
 10
-94.6563122779
 20
181.1190640275
 10
-94.6500528805
 20
181.3432155865
 10
-94.6411922475
 20
181.563307593
 10
-94.6296625229
 20
181.7790076697
 10
-94.6154303026
 20
181.9897655855
 10
-94.5985074726
 20
182.1953571368
 10
-94.5788243199
 20
182.3956149907
 10
-94.5562831826
 20
182.5901135174
 10
-94.530944032
 20
182.7784934997
 10
-94.5027752242
 20
182.9607781041
 10
-94.4715538717
 20
183.13712089
 10
-94.4372895808
 20
183.3073464193
 10
-94.3999773052
 20
183.4712586502
 10
-94.3593454462
 20
183.6289500769
 10
-94.3153863175
 20
183.7803095179
 10
-94.268107516
 20
183.9250485095
 10
-94.2172717525
 20
184.0630010029
 10
-94.1629422359
 20
184.1939732385
 10
-94.1051297176
 20
184.3178190168
 10
-94.0435581003
 20
184.4344858876
 10
-93.978364112
 20
184.5437280785
 10
-93.9095517118
 20
184.6455197275
 10
-93.8366414752
 20
184.7401268126
 10
-93.759629393
 20
184.827445032
 10
-93.6786226254
 20
184.907234543
 10
-93.5933013866
 20
184.9795430744
 10
-93.503714485
 20
185.044250691
 10
-93.4313418554
 20
185.0891119095
  0
LWPOLYLINE
  5
24E
100
AcDbEntity
  8
ASSI
100
AcDbPolyline
 62
7
  6
CONTINUOUS
 90
30
 70
0
 10
-96.0755319837
 20
181.4756185801
 10
-96.0737758744
 20
181.7497986776
 10
-96.0685931448
 20
182.0198389736
 10
-96.0598978024
 20
182.2854947371
 10
-96.0476023752
 20
182.5466564939
 10
-96.0316281478
 20
182.8029305815
 10
-96.0119400761
 20
183.0536641666
 10
-95.9885445183
 20
183.2985967209
 10
-95.9613667752
 20
183.537526048
 10
-95.9303189284
 20
183.7699332525
 10
-95.8954713771
 20
183.9953940797
 10
-95.8567871997
 20
184.2139356335
 10
-95.8140319114
 20
184.425722691
 10
-95.7672138198
 20
184.6305496741
 10
-95.7163300064
 20
184.8281831392
 10
-95.6610975526
 20
185.018710421
 10
-95.6014982749
 20
185.2020053772
 10
-95.5375502512
 20
185.3777218424
 10
-95.4690384099
 20
185.5456258381
 10
-95.3960332346
 20
185.7054908111
 10
-95.3185516492
 20
185.8571415449
 10
-95.2363453711
 20
186.0004710085
 10
-95.1495823443
 20
186.1351850736
 10
-95.0582608912
 20
186.2612568461
 10
-94.9618733651
 20
186.378966629
 10
-94.8604050379
 20
186.4881969247
 10
-94.7539925434
 20
186.5886585147
 10
-94.6423468686
 20
186.6803564668
 10
-94.5255194732
 20
186.7631526327
 10
-94.4313899858
 20
186.8211349281
  0
LWPOLYLINE
  5
24F
100
AcDbEntity
  8
ASSI
100
AcDbPolyline
 62
7
  6
CONTINUOUS
 90
18
 70
0
 10
-48.4387483448
 20
92.8473678837
 10
-48.4575508872
 20
92.8359926157
 10
-48.4937505107
 20
92.8109273174
 10
-48.5280030098
 20
92.7827896342
 10
-48.5603215081
 20
92.7516002739
 10
-48.5904871968
 20
92.7175704007
 10
-48.6184854675
 20
92.6806807396
 10
-48.6443309286
 20
92.6409505656
 10
-48.6678485961
 20
92.5986488675
 10
-48.6890226743
 20
92.5537581957
 10
-48.707868959
 20
92.5062959997
 10
-48.7242598535
 20
92.4565836173
 10
-48.738178696
 20
92.4046057793
 10
-48.7496421484
 20
92.3503777549
 10
-48.7585725984
 20
92.294266689
 10
-48.7649441754
 20
92.2363949632
 10
-48.76878275
 20
92.1766401958
 10
-48.7700883223
 20
92.115002387
  0
LWPOLYLINE
  5
250
100
AcDbEntity
  8
ASSI
100
AcDbPolyline
 62
7
  6
CONTINUOUS
 90
18
 70
0
 10
-46.8386866
 20
90.0761581916
 10
-46.8198840576
 20
90.0875334597
 10
-46.7836844342
 20
90.112598758
 10
-46.7494319351
 20
90.1407364411
 10
-46.7171134367
 20
90.1719258014
 10
-46.686947748
 20
90.2059556747
 10
-46.6589494773
 20
90.2428453358
 10
-46.6331040162
 20
90.2825755098
 10
-46.6095863487
 20
90.3248772079
 10
-46.5884122705
 20
90.3697678797
 10
-46.5695659858
 20
90.4172300756
 10
-46.5531750914
 20
90.4669424581
 10
-46.5392562488
 20
90.518920296
 10
-46.5277927965
 20
90.5731483205
 10
-46.5188623465
 20
90.6292593864
 10
-46.5124907695
 20
90.6871311122
 10
-46.5086521948
 20
90.7468858795
 10
-46.5073466225
 20
90.8085236884
  0
LINE
  5
251
100
AcDbEntity
  8
ASSI
100
AcDbLine
 62
253
  6
CONTINUOUS
 10
-47.6388294884
 20
92.7681770597
 11
-48.7700883223
 21
92.115002387
  0
LINE
  5
252
100
AcDbEntity
  8
0
100
AcDbLine
 62
7
  6
CONTINUOUS
 10
-68.851920908
 20
78.3966604117
 11
-68.1448141268
 21
78.8049350051
  0
LINE
  5
253
100
AcDbEntity
  8
RACCORDO
100
AcDbLine
 62
253
  6
CONTINUOUS
 10
-73.5659286986
 20
86.0406057456
 11
-73.6089887731
 21
86.0258177956
  0
LWPOLYLINE
  5
254
100
AcDbEntity
  8
ASSI
100
AcDbPolyline
 62
7
  6
CONTINUOUS
 90
12
 70
0
 10
1.8587572106
 20
-103.4730420309
 10
1.8689239224
 20
-103.4728602211
 10
2.0355339059
 20
-103.4620329738
 10
2.1991108065
 20
-103.4433884918
 10
2.3596637524
 20
-103.416950302
 10
2.5167085669
 20
-103.3827981337
 10
2.6702346598
 20
-103.3409087005
 10
2.8202526212
 20
-103.2913052887
 10
2.9663100444
 20
-103.2341374865
 10
3.1083949736
 20
-103.1693824592
 10
3.2465193646
 20
-103.0970630416
 10
3.2805308582
 20
-103.0777413573
  0
LWPOLYLINE
  5
255
100
AcDbEntity
  8
ASSI
100
AcDbPolyline
 62
7
  6
CONTINUOUS
 90
14
 70
0
 10
1.8587572106
 20
-102.4617500966
 10
1.8615509555
 20
-102.4626347273
 10
2.0460957064
 20
-102.5138904181
 10
2.2292146088
 20
-102.557536391
 10
2.4103554338
 20
-102.5934410237
 10
2.5895122103
 20
-102.6215809471
 10
2.7666909094
 20
-102.6419795302
 10
2.9413572162
 20
-102.6545752573
 10
3.1135035466
 20
-102.6593445739
 10
3.2831374847
 20
-102.6563110344
 10
3.4497474683
 20
-102.6454837872
 10
3.6133243688
 20
-102.6268393052
 10
3.7738773148
 20
-102.6004011154
 10
3.926635971
 20
-102.5671810478
  0
LWPOLYLINE
  5
256
100
AcDbEntity
  8
RACCORDO
100
AcDbPolyline
 62
253
  6
CONTINUOUS
 90
20
 70
0
 10
-72.5316409633
 20
-115.3818570375
 10
-72.5788079507
 20
-115.1727072409
 10
-72.6439462419
 20
-114.9607338672
 10
-72.726174992
 20
-114.7488032952
 10
-72.8243824804
 20
-114.5397809683
 10
-72.9372410687
 20
-114.3364930374
 10
-73.0632243834
 20
-114.1416892841
 10
-73.2006279829
 20
-113.9580052105
 10
-73.3475930378
 20
-113.7879253506
 10
-73.5021325273
 20
-113.6337488821
 10
-73.6621574527
 20
-113.4975598823
 10
-73.8255043864
 20
-113.3811998333
 10
-73.9899637799
 20
-113.2862429989
 10
-74.1533107539
 20
-113.2139740036
 10
-74.3133357871
 20
-113.1653701233
 10
-74.4678754142
 20
-113.1410881801
 10
-74.6148405449
 20
-113.1414564287
 10
-74.7522441072
 20
-113.1664702092
 10
-74.8782273529
 20
-113.2157914851
 10
-74.9077827138
 20
-113.2318761715
  0
LWPOLYLINE
  5
257
100
AcDbEntity
  8
0
100
AcDbPolyline
 62
7
  6
CONTINUOUS
 90
19
 70
0
 10
-72.2106781187
 20
-115.6171384298
 10
-72.224460277
 20
-115.3903104353
 10
-72.2603438095
 20
-115.1612919681
 10
-72.3183287162
 20
-114.9300830281
 10
-72.4001435685
 20
-114.6926984571
 10
-72.5040597951
 20
-114.4531234133
 10
-72.624891681
 20
-114.2233133715
 10
-72.763497645
 20
-114.0037638761
 10
-72.9190192685
 20
-113.7939793828
 10
-73.0836955809
 20
-113.6044287333
 10
-73.257991155
 20
-113.4361387341
 10
-73.441441418
 20
-113.2880825787
 10
-73.624891681
 20
-113.1676486896
 10
-73.8083419441
 20
-113.0762388133
 10
-73.9917922071
 20
-113.0124512033
 10
-74.1660877812
 20
-112.9794690424
 10
-74.3307640936
 20
-112.9788556142
 10
-74.486285717
 20
-113.009047635
 10
-74.6249400012
 20
-113.0685663345
  0
LWPOLYLINE
  5
258
100
AcDbEntity
  8
RACCORDO
100
AcDbPolyline
 62
253
  6
CONTINUOUS
 90
25
 70
0
 10
-75.3219479559
 20
-114.6372794058
 10
-75.3132720903
 20
-114.7923505891
 10
-75.2888877446
 20
-114.9501761195
 10
-75.2487949187
 20
-115.110755997
 10
-75.1917236851
 20
-115.2773426607
 10
-75.1189439713
 20
-115.4466836716
 10
-75.0342655601
 20
-115.6090217122
 10
-74.937178071
 20
-115.7634953647
 10
-74.8281918844
 20
-115.910966047
 10
-74.7126479246
 20
-116.0442606952
 10
-74.5901404262
 20
-116.1627721127
 10
-74.4610751545
 20
-116.267107496
 10
-74.3320103305
 20
-116.3519153713
 10
-74.2029468353
 20
-116.4161523014
 10
-74.0738837877
 20
-116.4608617235
 10
-73.9513767652
 20
-116.4838224752
 10
-73.8358302368
 20
-116.4839598496
 10
-73.7268397335
 20
-116.4623485537
 10
-73.6297474262
 20
-116.4199915463
 10
-73.5450633372
 20
-116.3554360068
 10
-73.4722774442
 20
-116.2701347558
 10
-73.4152018505
 20
-116.1694492142
 10
-73.3751072572
 20
-116.0551665224
 10
-73.3507229632
 20
-115.92549954
 10
-73.3420489686
 20
-115.7804482671
  0
LWPOLYLINE
  5
259
100
AcDbEntity
  8
RACCORDO
100
AcDbPolyline
 62
253
  6
CONTINUOUS
 90
25
 70
0
 10
-73.3420489686
 20
-115.7804482671
 10
-73.3507248341
 20
-115.6253770839
 10
-73.3751091799
 20
-115.4675515535
 10
-73.4152020057
 20
-115.306971676
 10
-73.4722732393
 20
-115.1403850122
 10
-73.5450529531
 20
-114.9710440014
 10
-73.6297313643
 20
-114.8087059608
 10
-73.7268188534
 20
-114.6542323082
 10
-73.83580504
 20
-114.5067616259
 10
-73.9513489998
 20
-114.3734669777
 10
-74.0738564983
 20
-114.2549555603
 10
-74.2029217699
 20
-114.150620177
 10
-74.3319865939
 20
-114.0658123016
 10
-74.4610500892
 20
-114.0015753716
 10
-74.5901131367
 20
-113.9568659495
 10
-74.7126201592
 20
-113.9339051978
 10
-74.8281666876
 20
-113.9337678233
 10
-74.9371571909
 20
-113.9553791192
 10
-75.0342494983
 20
-113.9977361266
 10
-75.1189335872
 20
-114.0622916662
 10
-75.1917194802
 20
-114.1475929172
 10
-75.248795074
 20
-114.2482784588
 10
-75.2888896672
 20
-114.3625611506
 10
-75.3132739612
 20
-114.4922281329
 10
-75.3219479559
 20
-114.6372794058
  0
LWPOLYLINE
  5
25A
100
AcDbEntity
  8
RACCORDO
100
AcDbPolyline
 62
253
  6
CONTINUOUS
 90
25
 70
0
 10
-75.3219479559
 20
-13.8032002219
 10
-75.3132720903
 20
-13.9582714052
 10
-75.2888877446
 20
-14.1160969356
 10
-75.2487949187
 20
-14.2766768131
 10
-75.1917236851
 20
-14.4432634768
 10
-75.1189439713
 20
-14.6126044877
 10
-75.0342655601
 20
-14.7749425283
 10
-74.937178071
 20
-14.9294161808
 10
-74.8281918844
 20
-15.0768868631
 10
-74.7126479246
 20
-15.2101815113
 10
-74.5901404262
 20
-15.3286929288
 10
-74.4610751545
 20
-15.4330283121
 10
-74.3320103305
 20
-15.5178361874
 10
-74.2029468353
 20
-15.5820731175
 10
-74.0738837877
 20
-15.6267825396
 10
-73.9513767652
 20
-15.6497432913
 10
-73.8358302368
 20
-15.6498806657
 10
-73.7268397335
 20
-15.6282693698
 10
-73.6297474262
 20
-15.5859123624
 10
-73.5450633372
 20
-15.5213568229
 10
-73.4722774442
 20
-15.4360555718
 10
-73.4152018505
 20
-15.3353700303
 10
-73.3751072572
 20
-15.2210873385
 10
-73.3507229632
 20
-15.0914203561
 10
-73.3420489686
 20
-14.9463690832
  0
LWPOLYLINE
  5
25B
100
AcDbEntity
  8
RACCORDO
100
AcDbPolyline
 62
7
  6
CONTINUOUS
 90
22
 70
0
 10
-75.4976838872
 20
-114.3923147904
 10
-75.4869846435
 20
-114.5989581285
 10
-75.4559961271
 20
-114.8067964852
 10
-75.4062836594
 20
-115.0138557079
 10
-75.3391734216
 20
-115.2186130761
 10
-75.2558575153
 20
-115.4194380277
 10
-75.1577138858
 20
-115.6141359006
 10
-75.0461402722
 20
-115.8006449207
 10
-74.922114486
 20
-115.977581833
 10
-74.7863758709
 20
-116.1436193659
 10
-74.6383259352
 20
-116.2984336914
 10
-74.4801085081
 20
-116.4384357345
 10
-74.3166432563
 20
-116.5588735696
 10
-74.1489411395
 20
-116.6591403989
 10
-73.9778575084
 20
-116.7385353305
 10
-73.808515545
 20
-116.7950424482
 10
-73.6437674602
 20
-116.829020241
 10
-73.4831030902
 20
-116.8417663737
 10
-73.3273999447
 20
-116.8339265403
 10
-73.1783501
 20
-116.8062110283
 10
-73.0378856446
 20
-116.7597263068
 10
-72.9076860732
 20
-116.6959219894
  0
LWPOLYLINE
  5
25C
100
AcDbEntity
  8
RACCORDO
100
AcDbPolyline
 62
7
  6
CONTINUOUS
 90
22
 70
0
 10
-75.4976838872
 20
-13.5582356065
 10
-75.4869846435
 20
-13.7648789445
 10
-75.4559961271
 20
-13.9727173013
 10
-75.4062836594
 20
-14.179776524
 10
-75.3391734216
 20
-14.3845338921
 10
-75.2558575153
 20
-14.5853588438
 10
-75.1577138858
 20
-14.7800567167
 10
-75.0461402722
 20
-14.9665657368
 10
-74.922114486
 20
-15.1435026491
 10
-74.7863758709
 20
-15.3095401819
 10
-74.6383259352
 20
-15.4643545075
 10
-74.4801085081
 20
-15.6043565506
 10
-74.3166432563
 20
-15.7247943857
 10
-74.1489411395
 20
-15.825061215
 10
-73.9778575084
 20
-15.9044561466
 10
-73.808515545
 20
-15.9609632643
 10
-73.6437674602
 20
-15.9949410571
 10
-73.4831030902
 20
-16.0076871898
 10
-73.3273999447
 20
-15.9998473564
 10
-73.1783501
 20
-15.9721318444
 10
-73.0378856446
 20
-15.9256471229
 10
-72.9076860732
 20
-15.8618428055
  0
LINE
  5
25D
100
AcDbEntity
  8
RACCORDO
100
AcDbLine
 62
253
  6
CONTINUOUS
 10
-72.4935208311
 20
-115.7804482671
 11
-72.5030831926
 21
-115.5853546941
  0
LWPOLYLINE
  5
25E
100
AcDbEntity
  8
0
100
AcDbPolyline
 62
7
  6
CONTINUOUS
 90
24
 70
0
 10
-89.07517485
 20
-125.5577962238
 10
-89.0729992694
 20
-125.6993001825
 10
-89.0665432612
 20
-125.8378132031
 10
-89.0558068253
 20
-125.9733352858
 10
-89.04076647
 20
-126.106024127
 10
-89.021445687
 20
-126.2357220302
 10
-88.9979149514
 20
-126.3619559054
 10
-88.9701588881
 20
-126.4847131019
 10
-88.9381928722
 20
-126.6040062705
 10
-88.9021335038
 20
-126.7194002739
 10
-88.8619658338
 20
-126.8308808721
 10
-88.8177048113
 20
-126.9384623052
 10
-88.7695118841
 20
-127.0417521559
 10
-88.7173726927
 20
-127.1407347512
 10
-88.6613015967
 20
-127.235425764
 10
-88.6015031225
 20
-127.3254797968
 10
-88.5379636576
 20
-127.410879915
 10
-88.4706968147
 20
-127.4916430531
 10
-88.3999479581
 20
-127.5674746172
 10
-88.3257043714
 20
-127.6383565967
 10
-88.2479787712
 20
-127.7043070023
 10
-88.1670546715
 20
-127.7650852711
 10
-88.0829203913
 20
-127.8206725142
 10
-88.0397547045
 20
-127.8464683362
  0
LINE
  5
25F
100
AcDbEntity
  8
0
100
AcDbLine
 62
7
  6
CONTINUOUS
 10
-90.4893884123
 20
-124.7412470371
 11
-90.4893884123
 21
113.9826073903
  0
LINE
  5
260
100
AcDbEntity
  8
ASSI
100
AcDbLine
 62
253
  6
CONTINUOUS
 10
-89.2519515453
 20
185.4144425775
 11
-89.2519515453
 21
183.7815020239
  0
LINE
  5
261
100
AcDbEntity
  8
0
100
AcDbLine
 62
7
  6
CONTINUOUS
 10
-89.07517485
 20
-125.5577962238
 11
-89.07517485
 21
113.1660582037
  0
LWPOLYLINE
  5
262
100
AcDbEntity
  8
0
100
AcDbPolyline
 62
253
  6
CONTINUOUS
 90
19
 70
0
 10
86.0044641718
 20
136.3602501891
 10
86.0969948656
 20
136.4113449557
 10
86.189349422
 20
136.4576798677
 10
86.2813520388
 20
136.4991667241
 10
86.3728275837
 20
136.5357265522
 10
86.463601928
 20
136.5672897583
 10
86.5535022775
 20
136.5937962602
 10
86.6423575017
 20
136.615195601
 10
86.7299984598
 20
136.6314470461
 10
86.8162583221
 20
136.6425196598
 10
86.900972888
 20
136.6483923648
 10
86.9839808987
 20
136.6490539821
 10
87.0651243436
 20
136.6445032522
 10
87.1442487616
 20
136.6347488377
 10
87.2212035349
 20
136.6198093066
 10
87.2958421756
 20
136.5997130974
 10
87.3680226049
 20
136.5744984641
 10
87.4376074232
 20
136.5442134043
 10
87.5044641718
 20
136.5089155674
  0
LINE
  5
263
100
AcDbEntity
  8
0
100
AcDbLine
 62
7
  6
CONTINUOUS
 10
-51.8813581595
 20
-63.4632352542
 11
-50.4671445972
 21
-64.2797844408
  0
LINE
  5
264
100
AcDbEntity
  8
RACCORDO
100
AcDbLine
 62
253
  6
CONTINUOUS
 10
-72.5030831926
 20
-115.5853546941
 11
-72.5316409633
 21
-115.3818570375
  0
LWPOLYLINE
  5
265
100
AcDbEntity
  8
0
100
AcDbPolyline
 62
7
  6
CONTINUOUS
 90
19
 70
0
 10
-72.2106781187
 20
-14.7830592459
 10
-72.224460277
 20
-14.5562312514
 10
-72.2603438095
 20
-14.3272127842
 10
-72.3183287162
 20
-14.0960038442
 10
-72.4001435685
 20
-13.8586192731
 10
-72.5040597951
 20
-13.6190442293
 10
-72.624891681
 20
-13.3892341876
 10
-72.763497645
 20
-13.1696846922
 10
-72.9190192685
 20
-12.9599001989
 10
-73.0836955809
 20
-12.7703495494
 10
-73.257991155
 20
-12.6020595502
 10
-73.441441418
 20
-12.4540033948
 10
-73.624891681
 20
-12.3335695057
 10
-73.8083419441
 20
-12.2421596294
 10
-73.9917922071
 20
-12.1783720194
 10
-74.1660877812
 20
-12.1453898585
 10
-74.3307640936
 20
-12.1447764302
 10
-74.486285717
 20
-12.1749684511
 10
-74.6249400012
 20
-12.2344871505
  0
LWPOLYLINE
  5
266
100
AcDbEntity
  8
0
100
AcDbPolyline
 62
7
  6
CONTINUOUS
 90
19
 70
0
 10
-72.2106781187
 20
86.051019938
 10
-72.224460277
 20
86.2778479325
 10
-72.2603438095
 20
86.5068663997
 10
-72.3183287162
 20
86.7380753397
 10
-72.4001435685
 20
86.9754599108
 10
-72.5040597951
 20
87.2150349546
 10
-72.624891681
 20
87.4448449963
 10
-72.763497645
 20
87.6643944917
 10
-72.9190192685
 20
87.874178985
 10
-73.0836955809
 20
88.0637296345
 10
-73.257991155
 20
88.2320196337
 10
-73.441441418
 20
88.3800757891
 10
-73.624891681
 20
88.5005096783
 10
-73.8083419441
 20
88.5919195545
 10
-73.9917922071
 20
88.6557071645
 10
-74.1660877812
 20
88.6886893254
 10
-74.3307640936
 20
88.6893027537
 10
-74.486285717
 20
88.6591107328
 10
-74.6249400012
 20
88.5995920334
  0
LWPOLYLINE
  5
267
100
AcDbEntity
  8
RACCORDO
100
AcDbPolyline
 62
253
  6
CONTINUOUS
 90
25
 70
0
 10
-73.3420489686
 20
-14.9463690832
 10
-73.3507248341
 20
-14.7912979
 10
-73.3751091799
 20
-14.6334723696
 10
-73.4152020057
 20
-14.4728924921
 10
-73.4722732393
 20
-14.3063058283
 10
-73.5450529531
 20
-14.1369648175
 10
-73.6297313643
 20
-13.9746267769
 10
-73.7268188534
 20
-13.8201531243
 10
-73.83580504
 20
-13.672682442
 10
-73.9513489998
 20
-13.5393877938
 10
-74.0738564983
 20
-13.4208763764
 10
-74.2029217699
 20
-13.3165409931
 10
-74.3319865939
 20
-13.2317331177
 10
-74.4610500892
 20
-13.1674961877
 10
-74.5901131367
 20
-13.1227867656
 10
-74.7126201592
 20
-13.0998260138
 10
-74.8281666876
 20
-13.0996886394
 10
-74.9371571909
 20
-13.1212999353
 10
-75.0342494983
 20
-13.1636569427
 10
-75.1189335872
 20
-13.2282124823
 10
-75.1917194802
 20
-13.3135137333
 10
-75.248795074
 20
-13.4141992749
 10
-75.2888896672
 20
-13.5284819667
 10
-75.3132739612
 20
-13.658148949
 10
-75.3219479559
 20
-13.8032002219
  0
LWPOLYLINE
  5
268
100
AcDbEntity
  8
RACCORDO
100
AcDbPolyline
 62
253
  6
CONTINUOUS
 90
25
 70
0
 10
-75.3219479559
 20
87.030878962
 10
-75.3132720903
 20
86.8758077787
 10
-75.2888877446
 20
86.7179822484
 10
-75.2487949187
 20
86.5574023708
 10
-75.1917236851
 20
86.3908157071
 10
-75.1189439713
 20
86.2214746962
 10
-75.0342655601
 20
86.0591366556
 10
-74.937178071
 20
85.9046630031
 10
-74.8281918844
 20
85.7571923208
 10
-74.7126479246
 20
85.6238976726
 10
-74.5901404262
 20
85.5053862552
 10
-74.4610751545
 20
85.4010508718
 10
-74.3320103305
 20
85.3162429965
 10
-74.2029468353
 20
85.2520060664
 10
-74.0738837877
 20
85.2072966444
 10
-73.9513767652
 20
85.1843358926
 10
-73.8358302368
 20
85.1841985182
 10
-73.7268397335
 20
85.2058098141
 10
-73.6297474262
 20
85.2481668215
 10
-73.5450633372
 20
85.312722361
 10
-73.4722774442
 20
85.3980236121
 10
-73.4152018505
 20
85.4987091536
 10
-73.3751072572
 20
85.6129918454
 10
-73.3507229632
 20
85.7426588278
 10
-73.3420489686
 20
85.8877101007
  0
LWPOLYLINE
  5
269
100
AcDbEntity
  8
RACCORDO
100
AcDbPolyline
 62
253
  6
CONTINUOUS
 90
25
 70
0
 10
-73.3420489686
 20
85.8877101007
 10
-73.3507248341
 20
86.042781284
 10
-73.3751091799
 20
86.2006068143
 10
-73.4152020057
 20
86.3611866918
 10
-73.4722732393
 20
86.5277733556
 10
-73.5450529531
 20
86.6971143664
 10
-73.6297313643
 20
86.8594524071
 10
-73.7268188534
 20
87.0139260596
 10
-73.83580504
 20
87.1613967419
 10
-73.9513489998
 20
87.2946913901
 10
-74.0738564983
 20
87.4132028075
 10
-74.2029217699
 20
87.5175381909
 10
-74.3319865939
 20
87.6023460662
 10
-74.4610500892
 20
87.6665829963
 10
-74.5901131367
 20
87.7112924183
 10
-74.7126201592
 20
87.7342531701
 10
-74.8281666876
 20
87.7343905445
 10
-74.9371571909
 20
87.7127792486
 10
-75.0342494983
 20
87.6704222412
 10
-75.1189335872
 20
87.6058667016
 10
-75.1917194802
 20
87.5205654506
 10
-75.248795074
 20
87.419879909
 10
-75.2888896672
 20
87.3055972172
 10
-75.3132739612
 20
87.1759302349
 10
-75.3219479559
 20
87.030878962
  0
LWPOLYLINE
  5
26A
100
AcDbEntity
  8
RACCORDO
100
AcDbPolyline
 62
7
  6
CONTINUOUS
 90
22
 70
0
 10
-75.4976838872
 20
87.2758435774
 10
-75.4869846435
 20
87.0692002394
 10
-75.4559961271
 20
86.8613618826
 10
-75.4062836594
 20
86.6543026599
 10
-75.3391734216
 20
86.4495452918
 10
-75.2558575153
 20
86.2487203401
 10
-75.1577138858
 20
86.0540224672
 10
-75.0461402722
 20
85.8675134471
 10
-74.922114486
 20
85.6905765348
 10
-74.7863758709
 20
85.524539002
 10
-74.6383259352
 20
85.3697246764
 10
-74.4801085081
 20
85.2297226333
 10
-74.3166432563
 20
85.1092847982
 10
-74.1489411395
 20
85.009017969
 10
-73.9778575084
 20
84.9296230373
 10
-73.808515545
 20
84.8731159197
 10
-73.6437674602
 20
84.8391381268
 10
-73.4831030902
 20
84.8263919941
 10
-73.3273999447
 20
84.8342318275
 10
-73.1783501
 20
84.8619473395
 10
-73.0378856446
 20
84.908432061
 10
-72.9076860732
 20
84.9722363784
  0
LINE
  5
26B
100
AcDbEntity
  8
RACCORDO
100
AcDbLine
 62
253
  6
CONTINUOUS
 10
-72.4935208311
 20
-14.9463690832
 11
-72.5030831926
 21
-14.7512755102
  0
LINE
  5
26C
100
AcDbEntity
  8
RACCORDO
100
AcDbLine
 62
253
  6
CONTINUOUS
 10
-72.4935208311
 20
85.8877101007
 11
-72.5030831926
 21
86.0828036737
  0
LWPOLYLINE
  5
26D
100
AcDbEntity
  8
0
100
AcDbPolyline
 62
7
  6
CONTINUOUS
 90
31
 70
0
 10
-68.851920908
 20
-108.1668767453
 10
-68.8509297947
 20
-108.2103731421
 10
-68.8480279087
 20
-108.2546233517
 10
-68.8432152502
 20
-108.299627374
 10
-68.8364681965
 20
-108.3455124613
 10
-68.8278103701
 20
-108.3921513614
 10
-68.8173126388
 20
-108.4391623171
 10
-68.8049599009
 20
-108.4865483823
 10
-68.790767258
 20
-108.5343065031
 10
-68.7748508822
 20
-108.5820457613
 10
-68.7571966255
 20
-108.629766002
 10
-68.7378186359
 20
-108.6774673802
 10
-68.7168755296
 20
-108.7247594419
 10
-68.6943544606
 20
-108.7716388275
 10
-68.6702682748
 20
-108.8181088968
 10
-68.6448141268
 20
-108.8637892744
 10
-68.6179807888
 20
-108.908673479
 10
-68.5897794886
 20
-108.9527679919
 10
-68.5604410646
 20
-108.9957118831
 10
-68.5299561835
 20
-109.0374957084
 10
-68.4983341785
 20
-109.0781289119
 10
-68.4658338878
 20
-109.1172788954
 10
-68.4324481025
 20
-109.154933485
 10
-68.3981840315
 20
-109.1911048547
 10
-68.3633221391
 20
-109.225496928
 10
-68.3278575185
 20
-109.258095101
 10
-68.2917950765
 20
-109.2889139776
 10
-68.2554299979
 20
-109.3177012938
 10
-68.2188606775
 20
-109.3443729615
 10
-68.1819887205
 20
-109.3690130687
 10
-68.1448141268
 20
-109.3916216154
  0
LINE
  5
26E
100
AcDbEntity
  8
0
100
AcDbLine
 62
7
  6
CONTINUOUS
 10
-70.2661344704
 20
-108.9834259319
 11
-70.2661344704
 21
171.065879008
  0
LINE
  5
26F
100
AcDbEntity
  8
0
100
AcDbLine
 62
7
  6
CONTINUOUS
 10
-68.851920908
 20
-108.1668767453
 11
-68.851920908
 21
170.2922403612
  0
LINE
  5
270
100
AcDbEntity
  8
0
100
AcDbLine
 62
7
  6
CONTINUOUS
 10
-68.1448141268
 20
-22.0291441788
 11
-68.1448141268
 21
-5.699738643
  0
LINE
  5
271
100
AcDbEntity
  8
0
100
AcDbLine
 62
7
  6
CONTINUOUS
 10
-68.1448141268
 20
78.8049350051
 11
-68.1448141268
 21
95.1343405409
  0
LWPOLYLINE
  5
272
100
AcDbEntity
  8
0
100
AcDbPolyline
 62
7
  6
CONTINUOUS
 90
5
 70
0
 10
-70.2661344704
 20
171.065879008
 10
-70.2651433571
 20
171.108230892
 10
-70.2622414711
 20
171.1491300764
 10
-70.2574288125
 20
171.1885765612
 10
-70.256076233
 20
171.1962132037
  0
LINE
  5
273
100
AcDbEntity
  8
ASSI
100
AcDbLine
 62
253
  6
CONTINUOUS
 10
86.0044641718
 20
136.3602501891
 11
40.8556961931
 21
110.2919174052
  0
LWPOLYLINE
  5
274
100
AcDbEntity
  8
ASSI
100
AcDbPolyline
 62
7
  6
CONTINUOUS
 90
22
 70
0
 10
-47.3053297713
 20
-87.1061634962
 10
-47.2936553967
 20
-87.1550522946
 10
-47.274809112
 20
-87.2242777077
 10
-47.2536350337
 20
-87.2936196743
 10
-47.2301173662
 20
-87.3630789854
 10
-47.2042719052
 20
-87.43265485
 10
-47.1762736345
 20
-87.5018762123
 10
-47.1461079458
 20
-87.5707406667
 10
-47.1137894474
 20
-87.6392506188
 10
-47.0795369483
 20
-87.7069422294
 10
-47.0433373248
 20
-87.7738099455
 10
-47.0052037006
 20
-87.8398593201
 10
-46.9653942552
 20
-87.904643173
 10
-46.9238976169
 20
-87.9681529169
 10
-46.8807251574
 20
-88.0303971391
 10
-46.8361691712
 20
-88.090954422
 10
-46.79022027
 20
-88.1498133184
 10
-46.742887842
 20
-88.2069852754
 10
-46.6944923464
 20
-88.2620832165
 10
-46.6450265694
 20
-88.3150930681
 10
-46.5944977247
 20
-88.3660289038
 10
-46.5578916112
 20
-88.4006830306
  0
LWPOLYLINE
  5
275
100
AcDbEntity
  8
RACCORDO
100
AcDbPolyline
 62
253
  6
CONTINUOUS
 90
20
 70
0
 10
-72.5316409633
 20
-14.5477778536
 10
-72.5788079507
 20
-14.338628057
 10
-72.6439462419
 20
-14.1266546832
 10
-72.726174992
 20
-13.9147241113
 10
-72.8243824804
 20
-13.7057017844
 10
-72.9372410687
 20
-13.5024138535
 10
-73.0632243834
 20
-13.3076101001
 10
-73.2006279829
 20
-13.1239260266
 10
-73.3475930378
 20
-12.9538461667
 10
-73.5021325273
 20
-12.7996696982
 10
-73.6621574527
 20
-12.6634806984
 10
-73.8255043864
 20
-12.5471206493
 10
-73.9899637799
 20
-12.452163815
 10
-74.1533107539
 20
-12.3798948197
 10
-74.3133357871
 20
-12.3312909394
 10
-74.4678754142
 20
-12.3070089961
 10
-74.6148405449
 20
-12.3073772448
 10
-74.7522441072
 20
-12.3323910253
 10
-74.8782273529
 20
-12.3817123011
 10
-74.9077827138
 20
-12.3977969876
  0
LINE
  5
276
100
AcDbEntity
  8
RACCORDO
100
AcDbLine
 62
253
  6
CONTINUOUS
 10
-72.5030831926
 20
-14.7512755102
 11
-72.5316409633
 21
-14.5477778536
  0
LWPOLYLINE
  5
277
100
AcDbEntity
  8
0
100
AcDbPolyline
 62
7
  6
CONTINUOUS
 90
17
 70
0
 10
-43.3960767853
 20
-130.6213875543
 10
-43.3691433077
 20
-130.9541117557
 10
-43.2893687627
 20
-131.3052647005
 10
-43.1597917379
 20
-131.6614710821
 10
-42.9818632229
 20
-132.0152126126
 10
-42.7685840271
 20
-132.3406422479
 10
-42.5253388802
 20
-132.6316881108
 10
-42.2613929144
 20
-132.877264355
 10
-41.9818632229
 20
-133.0708772946
 10
-41.7071743692
 20
-133.1983800969
 10
-41.4429483285
 20
-133.2588281588
 10
-41.1992493887
 20
-133.2499190323
 10
-40.9818632229
 20
-133.1699875468
 10
-40.8066737164
 20
-133.0248741038
 10
-40.676246813
 20
-132.8193147098
 10
-40.595550433
 20
-132.5611390581
 10
-40.5676496606
 20
-132.2544857849
  0
LWPOLYLINE
  5
278
100
AcDbEntity
  8
0
100
AcDbPolyline
 62
7
  6
CONTINUOUS
 90
17
 70
0
 10
-40.5676496606
 20
-132.2544859276
 10
-40.5945831382
 20
-131.9217617262
 10
-40.6743576832
 20
-131.5706087814
 10
-40.8039347079
 20
-131.2144023999
 10
-40.9818632229
 20
-130.8606608693
 10
-41.1951424188
 20
-130.5352312341
 10
-41.4383875657
 20
-130.2441853711
 10
-41.7023335315
 20
-129.998609127
 10
-41.9818632229
 20
-129.8049961874
 10
-42.2565520767
 20
-129.6774933851
 10
-42.5207781174
 20
-129.6170453232
 10
-42.7644770572
 20
-129.6259544497
 10
-42.9818632229
 20
-129.7058859352
 10
-43.1570527295
 20
-129.8509993781
 10
-43.2874796329
 20
-130.0565587722
 10
-43.3681760129
 20
-130.3147344238
 10
-43.3960767853
 20
-130.6213876971
  0
LWPOLYLINE
  5
279
100
AcDbEntity
  8
ASSI
100
AcDbPolyline
 62
7
  6
CONTINUOUS
 90
51
 70
0
 10
-48.7700883223
 20
-87.5084585074
 10
-48.76878275
 20
-87.5716039584
 10
-48.7649441754
 20
-87.6357914155
 10
-48.7585725984
 20
-87.7010208787
 10
-48.7496421484
 20
-87.7674446045
 10
-48.738178696
 20
-87.8349103363
 10
-48.7242598535
 20
-87.9029613048
 10
-48.707868959
 20
-87.9716014813
 10
-48.6890226743
 20
-88.0408268944
 10
-48.6678485961
 20
-88.110168861
 10
-48.6443309286
 20
-88.1796281721
 10
-48.6184854675
 20
-88.2492040367
 10
-48.5904871968
 20
-88.3184253989
 10
-48.5603215081
 20
-88.3872898533
 10
-48.5280030098
 20
-88.4557998055
 10
-48.4937505107
 20
-88.5234914161
 10
-48.4575508872
 20
-88.5903591321
 10
-48.419417263
 20
-88.6564085067
 10
-48.3796078176
 20
-88.7211923597
 10
-48.3381111793
 20
-88.7847021035
 10
-48.2949387198
 20
-88.8469463257
 10
-48.2503827336
 20
-88.9075036086
 10
-48.2044338324
 20
-88.966362505
 10
-48.1571014044
 20
-89.0235344621
 10
-48.1087059087
 20
-89.0786324032
 10
-48.0592401317
 20
-89.1316422548
 10
-48.008711287
 20
-89.1825780904
 10
-47.9574614747
 20
-89.2310950546
 10
-47.9054858025
 20
-89.2771767336
 10
-47.8527891626
 20
-89.3208395412
 10
-47.799728332
 20
-89.361787863
 10
-47.7463008393
 20
-89.4000032793
 10
-47.6925091559
 20
-89.4355042099
 10
-47.6387174724
 20
-89.4680502996
 10
-47.584925789
 20
-89.4976214976
 10
-47.5311341056
 20
-89.5242378547
 10
-47.4777066129
 20
-89.5477191677
 10
-47.4246457823
 20
-89.5680441631
 10
-47.3719491424
 20
-89.5852341144
 10
-47.3199734701
 20
-89.5991726388
 10
-47.2687236578
 20
-89.6098376733
 10
-47.2181948131
 20
-89.617251281
 10
-47.1687290361
 20
-89.6213632688
 10
-47.1203335404
 20
-89.6221512329
 10
-47.0730011125
 20
-89.6196375773
 10
-47.0270522113
 20
-89.6138393202
 10
-46.982496225
 20
-89.6047341734
 10
-46.9393237656
 20
-89.5923444253
 10
-46.8978271273
 20
-89.5767539591
 10
-46.8580176819
 20
-89.5579410559
 10
-46.8386866
 20
-89.5473027028
  0
LWPOLYLINE
  5
27A
100
AcDbEntity
  8
ASSI
100
AcDbPolyline
 62
7
  6
CONTINUOUS
 90
51
 70
0
 10
-48.7700883223
 20
2.3032719398
 10
-48.76878275
 20
2.2401264888
 10
-48.7649441754
 20
2.1759390317
 10
-48.7585725984
 20
2.1107095685
 10
-48.7496421484
 20
2.0442858427
 10
-48.738178696
 20
1.9768201109
 10
-48.7242598535
 20
1.9087691424
 10
-48.707868959
 20
1.8401289659
 10
-48.6890226743
 20
1.7709035528
 10
-48.6678485961
 20
1.7015615862
 10
-48.6443309286
 20
1.6321022751
 10
-48.6184854675
 20
1.5625264106
 10
-48.5904871968
 20
1.4933050483
 10
-48.5603215081
 20
1.4244405939
 10
-48.5280030098
 20
1.3559306418
 10
-48.4937505107
 20
1.2882390311
 10
-48.4575508872
 20
1.2213713151
 10
-48.419417263
 20
1.1553219405
 10
-48.3796078176
 20
1.0905380876
 10
-48.3381111793
 20
1.0270283437
 10
-48.2949387198
 20
0.9647841215
 10
-48.2503827336
 20
0.9042268386
 10
-48.2044338324
 20
0.8453679422
 10
-48.1571014044
 20
0.7881959852
 10
-48.1087059087
 20
0.733098044
 10
-48.0592401317
 20
0.6800881925
 10
-48.008711287
 20
0.6291523568
 10
-47.9574614747
 20
0.5806353926
 10
-47.9054858025
 20
0.5345537136
 10
-47.8527891626
 20
0.490890906
 10
-47.799728332
 20
0.4499425842
 10
-47.7463008393
 20
0.4117271679
 10
-47.6925091559
 20
0.3762262373
 10
-47.6387174724
 20
0.3436801476
 10
-47.584925789
 20
0.3141089496
 10
-47.5311341056
 20
0.2874925925
 10
-47.4777066129
 20
0.2640112795
 10
-47.4246457823
 20
0.2436862841
 10
-47.3719491424
 20
0.2264963328
 10
-47.3199734701
 20
0.2125578084
 10
-47.2687236578
 20
0.2018927739
 10
-47.2181948131
 20
0.1944791663
 10
-47.1687290361
 20
0.1903671784
 10
-47.1203335404
 20
0.1895792143
 10
-47.0730011125
 20
0.1920928699
 10
-47.0270522113
 20
0.197891127
 10
-46.982496225
 20
0.2069962738
 10
-46.9393237656
 20
0.2193860219
 10
-46.8978271273
 20
0.2349764881
 10
-46.8580176819
 20
0.2537893913
 10
-46.8386866
 20
0.2644277444
  0
LWPOLYLINE
  5
27B
100
AcDbEntity
  8
ASSI
100
AcDbPolyline
 62
7
  6
CONTINUOUS
 90
51
 70
0
 10
-46.5073466225
 20
-88.8149372061
 10
-46.5086521948
 20
-88.751791755
 10
-46.5124907695
 20
-88.6876042979
 10
-46.5188623465
 20
-88.6223748347
 10
-46.5277927965
 20
-88.555951109
 10
-46.5392562488
 20
-88.4884853771
 10
-46.5531750914
 20
-88.4204344086
 10
-46.5695659858
 20
-88.3517942322
 10
-46.5884122705
 20
-88.2825688191
 10
-46.6095863487
 20
-88.2132268525
 10
-46.6331040162
 20
-88.1437675414
 10
-46.6589494773
 20
-88.0741916768
 10
-46.686947748
 20
-88.0049703145
 10
-46.7171134367
 20
-87.9361058601
 10
-46.7494319351
 20
-87.867595908
 10
-46.7836844342
 20
-87.7999042974
 10
-46.8198840576
 20
-87.7330365813
 10
-46.8580176819
 20
-87.6669872068
 10
-46.8978271273
 20
-87.6022033538
 10
-46.9393237656
 20
-87.53869361
 10
-46.982496225
 20
-87.4764493877
 10
-47.0270522113
 20
-87.4158921049
 10
-47.0730011125
 20
-87.3570332085
 10
-47.1203335404
 20
-87.2998612514
 10
-47.1687290361
 20
-87.2447633103
 10
-47.2181948131
 20
-87.1917534587
 10
-47.2687236578
 20
-87.1408176231
 10
-47.3199734701
 20
-87.0923006589
 10
-47.3719491424
 20
-87.0462189798
 10
-47.4246457823
 20
-87.0025561723
 10
-47.4777066129
 20
-86.9616078505
 10
-47.5311341056
 20
-86.9233924341
 10
-47.584925789
 20
-86.8878915035
 10
-47.6387174724
 20
-86.8553454139
 10
-47.6925091559
 20
-86.8257742158
 10
-47.7463008393
 20
-86.7991578588
 10
-47.799728332
 20
-86.7756765458
 10
-47.8527891626
 20
-86.7553515504
 10
-47.9054858025
 20
-86.7381615991
 10
-47.9574614747
 20
-86.7242230746
 10
-48.008711287
 20
-86.7135580402
 10
-48.0592401317
 20
-86.7061444325
 10
-48.1087059087
 20
-86.7020324447
 10
-48.1571014044
 20
-86.7012444805
 10
-48.2044338324
 20
-86.7037581362
 10
-48.2503827336
 20
-86.7095563932
 10
-48.2949387198
 20
-86.71866154
 10
-48.3381111793
 20
-86.7310512882
 10
-48.3796078176
 20
-86.7466417543
 10
-48.419417263
 20
-86.7654546576
 10
-48.4387483448
 20
-86.7760930107
  0
LWPOLYLINE
  5
27C
100
AcDbEntity
  8
ASSI
100
AcDbPolyline
 62
7
  6
CONTINUOUS
 90
51
 70
0
 10
-48.7700883223
 20
92.115002387
 10
-48.76878275
 20
92.051856936
 10
-48.7649441754
 20
91.9876694789
 10
-48.7585725984
 20
91.9224400157
 10
-48.7496421484
 20
91.8560162899
 10
-48.738178696
 20
91.7885505581
 10
-48.7242598535
 20
91.7204995896
 10
-48.707868959
 20
91.6518594132
 10
-48.6890226743
 20
91.582634
 10
-48.6678485961
 20
91.5132920334
 10
-48.6443309286
 20
91.4438327224
 10
-48.6184854675
 20
91.3742568578
 10
-48.5904871968
 20
91.3050354955
 10
-48.5603215081
 20
91.2361710411
 10
-48.5280030098
 20
91.167661089
 10
-48.4937505107
 20
91.0999694784
 10
-48.4575508872
 20
91.0331017623
 10
-48.419417263
 20
90.9670523877
 10
-48.3796078176
 20
90.9022685348
 10
-48.3381111793
 20
90.8387587909
 10
-48.2949387198
 20
90.7765145687
 10
-48.2503827336
 20
90.7159572858
 10
-48.2044338324
 20
90.6570983894
 10
-48.1571014044
 20
90.5999264324
 10
-48.1087059087
 20
90.5448284912
 10
-48.0592401317
 20
90.4918186397
 10
-48.008711287
 20
90.440882804
 10
-47.9574614747
 20
90.3923658398
 10
-47.9054858025
 20
90.3462841608
 10
-47.8527891626
 20
90.3026213532
 10
-47.799728332
 20
90.2616730314
 10
-47.7463008393
 20
90.2234576151
 10
-47.6925091559
 20
90.1879566845
 10
-47.6387174724
 20
90.1554105948
 10
-47.584925789
 20
90.1258393968
 10
-47.5311341056
 20
90.0992230397
 10
-47.4777066129
 20
90.0757417267
 10
-47.4246457823
 20
90.0554167313
 10
-47.3719491424
 20
90.0382267801
 10
-47.3199734701
 20
90.0242882556
 10
-47.2687236578
 20
90.0136232211
 10
-47.2181948131
 20
90.0062096135
 10
-47.1687290361
 20
90.0020976256
 10
-47.1203335404
 20
90.0013096615
 10
-47.0730011125
 20
90.0038233171
 10
-47.0270522113
 20
90.0096215742
 10
-46.982496225
 20
90.018726721
 10
-46.9393237656
 20
90.0311164692
 10
-46.8978271273
 20
90.0467069353
 10
-46.8580176819
 20
90.0655198385
 10
-46.8386866
 20
90.0761581916
  0
LWPOLYLINE
  5
27D
100
AcDbEntity
  8
ASSI
100
AcDbPolyline
 62
7
  6
CONTINUOUS
 90
51
 70
0
 10
-46.5073466225
 20
0.9967932412
 10
-46.5086521948
 20
1.0599386922
 10
-46.5124907695
 20
1.1241261493
 10
-46.5188623465
 20
1.1893556125
 10
-46.5277927965
 20
1.2557793382
 10
-46.5392562488
 20
1.3232450701
 10
-46.5531750914
 20
1.3912960386
 10
-46.5695659858
 20
1.459936215
 10
-46.5884122705
 20
1.5291616281
 10
-46.6095863487
 20
1.5985035947
 10
-46.6331040162
 20
1.6679629058
 10
-46.6589494773
 20
1.7375387704
 10
-46.686947748
 20
1.8067601327
 10
-46.7171134367
 20
1.8756245871
 10
-46.7494319351
 20
1.9441345392
 10
-46.7836844342
 20
2.0118261498
 10
-46.8198840576
 20
2.0786938659
 10
-46.8580176819
 20
2.1447432404
 10
-46.8978271273
 20
2.2095270934
 10
-46.9393237656
 20
2.2730368373
 10
-46.982496225
 20
2.3352810595
 10
-47.0270522113
 20
2.3958383423
 10
-47.0730011125
 20
2.4546972388
 10
-47.1203335404
 20
2.5118691958
 10
-47.1687290361
 20
2.5669671369
 10
-47.2181948131
 20
2.6199769885
 10
-47.2687236578
 20
2.6709128241
 10
-47.3199734701
 20
2.7194297884
 10
-47.3719491424
 20
2.7655114674
 10
-47.4246457823
 20
2.8091742749
 10
-47.4777066129
 20
2.8501225967
 10
-47.5311341056
 20
2.8883380131
 10
-47.584925789
 20
2.9238389437
 10
-47.6387174724
 20
2.9563850333
 10
-47.6925091559
 20
2.9859562314
 10
-47.7463008393
 20
3.0125725885
 10
-47.799728332
 20
3.0360539014
 10
-47.8527891626
 20
3.0563788968
 10
-47.9054858025
 20
3.0735688481
 10
-47.9574614747
 20
3.0875073726
 10
-48.008711287
 20
3.098172407
 10
-48.0592401317
 20
3.1055860147
 10
-48.1087059087
 20
3.1096980025
 10
-48.1571014044
 20
3.1104859667
 10
-48.2044338324
 20
3.107972311
 10
-48.2503827336
 20
3.102174054
 10
-48.2949387198
 20
3.0930689072
 10
-48.3381111793
 20
3.080679159
 10
-48.3796078176
 20
3.0650886929
 10
-48.419417263
 20
3.0462757897
 10
-48.4387483448
 20
3.0356374365
  0
LWPOLYLINE
  5
27E
100
AcDbEntity
  8
ASSI
100
AcDbPolyline
 62
7
  6
CONTINUOUS
 90
53
 70
0
 10
-43.21930009
 20
-130.7234562027
 10
-43.2179956174
 20
-130.7894647623
 10
-43.2141537662
 20
-130.8565356784
 10
-43.2077745362
 20
-130.9246689509
 10
-43.1988342203
 20
-130.9940099991
 10
-43.1873565256
 20
-131.0644134037
 10
-43.1734125742
 20
-131.1354429069
 10
-43.1569870523
 20
-131.2071023965
 10
-43.1380952738
 20
-131.2793879847
 10
-43.1168543023
 20
-131.3518517507
 10
-43.0932495509
 20
-131.4244948009
 10
-43.0672956066
 20
-131.497316029
 10
-43.0391532941
 20
-131.569864195
 10
-43.008809025
 20
-131.6421376033
 10
-42.9762763878
 20
-131.7141379496
 10
-42.9417569723
 20
-131.7854190804
 10
-42.9052384419
 20
-131.85597653
 10
-42.8667331332
 20
-131.9258147642
 10
-42.8264796461
 20
-131.9945010274
 10
-42.7844671255
 20
-132.0620281664
 10
-42.7407064264
 20
-132.1284033344
 10
-42.695468714
 20
-132.1932152347
 10
-42.648744817
 20
-132.2564541604
 10
-42.6005439066
 20
-132.3181298183
 10
-42.5511646619
 20
-132.3778600327
 10
-42.5005997662
 20
-132.4356327235
 10
-42.4488565362
 20
-132.4914599707
 10
-42.3962556011
 20
-132.5449958382
 10
-42.342791635
 20
-132.5962260982
 10
-42.2884699639
 20
-132.6451649785
 10
-42.2336271943
 20
-132.6915092274
 10
-42.1782600905
 20
-132.7352427337
 10
-42.1223718882
 20
-132.7763816085
 10
-42.0663089011
 20
-132.814670933
 10
-42.0100700439
 20
-132.8500930132
 10
-41.9536564019
 20
-132.882665543
 10
-41.8974175447
 20
-132.9121866854
 10
-41.8413545576
 20
-132.9386374932
 10
-41.7854663553
 20
-132.9620369135
 10
-41.7300992516
 20
-132.9822399508
 10
-41.6752564819
 20
-132.9992267577
 10
-41.6209348108
 20
-133.0130171815
 10
-41.5674708448
 20
-133.0235257694
 10
-41.5148699097
 20
-133.0307321432
 10
-41.4631266797
 20
-133.034656681
 10
-41.412561784
 20
-133.0352750644
 10
-41.3631825393
 20
-133.032566764
 10
-41.3149816289
 20
-133.0265523092
 10
-41.2682577318
 20
-133.0172689687
 10
-41.2230200194
 20
-133.0046964447
 10
-41.1792593204
 20
-132.9888550351
 10
-41.1372467998
 20
-132.9698429018
 10
-41.106824965
 20
-132.9534498216
  0
LINE
  5
27F
100
AcDbEntity
  8
0
100
AcDbLine
 62
253
  6
CONTINUOUS
 10
-51.8813581595
 20
-63.4632352542
 11
-51.8813581595
 21
159.612654631
  0
LINE
  5
280
100
AcDbEntity
  8
0
100
AcDbLine
 62
7
  6
CONTINUOUS
 10
-51.8813581595
 20
-63.4632352542
 11
-51.8813581595
 21
-106.532042355
  0
LINE
  5
281
100
AcDbEntity
  8
0
100
AcDbLine
 62
253
  6
CONTINUOUS
 10
-50.4671445972
 20
158.7452743695
 11
-50.4671445972
 21
-62.6468438872
  0
LINE
  5
282
100
AcDbEntity
  8
0
100
AcDbLine
 62
7
  6
CONTINUOUS
 10
-50.4671445972
 20
-62.6468438872
 11
-50.4671445972
 21
-64.2797844408
  0
LWPOLYLINE
  5
283
100
AcDbEntity
  8
0
100
AcDbPolyline
 62
7
  6
CONTINUOUS
 90
37
 70
0
 10
-51.8813581595
 20
-106.532042355
 10
-51.8820418155
 20
-106.5681632809
 10
-51.884058281
 20
-106.6048511483
 10
-51.8874075561
 20
-106.642105957
 10
-51.8921010759
 20
-106.6800006895
 10
-51.8981274053
 20
-106.7184623635
 10
-51.9054522388
 20
-106.7572720318
 10
-51.9140829823
 20
-106.7964316792
 10
-51.9240122299
 20
-106.835939321
 10
-51.9351834583
 20
-106.8755700558
 10
-51.947603751
 20
-106.9153245857
 10
-51.9612660246
 20
-106.9552022087
 10
-51.976092505
 20
-106.9949759172
 10
-51.9920898324
 20
-107.0346451185
 10
-52.0092513666
 20
-107.0742104054
 10
-52.0274794139
 20
-107.1134465484
 10
-52.0467800571
 20
-107.1523516702
 10
-52.0671472135
 20
-107.190927648
 10
-52.0884649407
 20
-107.2289548841
 10
-52.1107386605
 20
-107.2664302489
 10
-52.1339629512
 20
-107.303356872
 10
-52.1580056062
 20
-107.3395245448
 10
-52.1828712929
 20
-107.3749289387
 10
-52.2085553439
 20
-107.4095743823
 10
-52.2349115501
 20
-107.4432636528
 10
-52.2619437451
 20
-107.4759912968
 10
-52.2896480952
 20
-107.5077627677
 10
-52.3178668907
 20
-107.5383972032
 10
-52.3466030655
 20
-107.5678881183
 10
-52.3758536856
 20
-107.5962419979
 10
-52.4054522388
 20
-107.6232974347
 10
-52.4354007096
 20
-107.6490470231
 10
-52.4656971135
 20
-107.6734981686
 10
-52.4961689851
 20
-107.6965116807
 10
-52.5267588359
 20
-107.7180411623
 10
-52.5575241545
 20
-107.7381330105
 10
-52.5884649407
 20
-107.7567872251
  0
LWPOLYLINE
  5
284
100
AcDbEntity
  8
ASSI
100
AcDbPolyline
 62
7
  6
CONTINUOUS
 90
45
 70
0
 10
-18.4120304727
 20
127.5898599865
 10
-18.4191879343
 20
127.5618046743
 10
-18.4361195344
 20
127.4796480894
 10
-18.4496864923
 20
127.3948076933
 10
-18.459906403
 20
127.3072975207
 10
-18.4667256358
 20
127.2175767962
 10
-18.4701263137
 20
127.1256338991
 10
-18.4701263137
 20
127.0314804501
 10
-18.4667256358
 20
126.9356105354
 10
-18.459906403
 20
126.8380151318
 10
-18.4496864923
 20
126.7387032625
 10
-18.4361195344
 20
126.6381960835
 10
-18.4191879343
 20
126.5364873112
 10
-18.398909287
 20
126.4335832291
 10
-18.3753900081
 20
126.330023844
 10
-18.3486130621
 20
126.2258057111
 10
-18.3185954846
 20
126.1209322751
 10
-18.2854947979
 20
126.0159538772
 10
-18.2492947944
 20
125.9108699658
 10
-18.2100116818
 20
125.8056810926
 10
-18.1678516048
 20
125.7009392542
 10
-18.1227994396
 20
125.5966468004
 10
-18.07487031
 20
125.4928013814
 10
-18.0243157324
 20
125.3899479436
 10
-17.9711219049
 20
125.2880917017
 10
-17.9153026294
 20
125.1872274412
 10
-17.857150827
 20
125.0878844642
 10
-17.7966542358
 20
124.9900707681
 10
-17.7338251177
 20
124.8937783556
 10
-17.6689931791
 20
124.7995125376
 10
-17.6021478915
 20
124.7072839676
 10
-17.5332997835
 20
124.6170819921
 10
-17.4628101472
 20
124.5293799613
 10
-17.3906703534
 20
124.4441910171
 10
-17.3168890312
 20
124.3615020176
 10
-17.2418533609
 20
124.2817468874
 10
-17.1655567484
 20
124.2049410495
 10
-17.0880057877
 20
124.1310690809
 10
-17.0096074407
 20
124.0605186374
 10
-16.9303572527
 20
123.9933071797
 10
-16.8502596784
 20
123.9294172471
 10
-16.7697350435
 20
123.8691841129
 10
-16.6889234564
 20
123.8127195348
 10
-16.6076848086
 20
123.7599117551
 10
-16.5260191002
 20
123.7107607737
  0
LWPOLYLINE
  5
285
100
AcDbEntity
  8
RACCORDO
100
AcDbPolyline
 62
7
  6
CONTINUOUS
 90
20
 70
0
 10
-73.5732735736
 20
-14.8152970122
 10
-73.5735507769
 20
-14.8157644935
 10
-73.5699690248
 20
-14.8073803515
 10
-73.563179882
 20
-14.7840119366
 10
-73.556685636
 20
-14.7457752397
 10
-73.5532503529
 20
-14.6930720543
 10
-73.5551326285
 20
-14.627176323
 10
-73.5640440855
 20
-14.5495643115
 10
-73.5814519384
 20
-14.4611181974
 10
-73.608261723
 20
-14.3642965162
 10
-73.6445780321
 20
-14.2624174999
 10
-73.6903787317
 20
-14.1576916294
 10
-73.7450556
 20
-14.0529165377
 10
-73.8067269508
 20
-13.9521462015
 10
-73.8738707982
 20
-13.8576405327
 10
-73.9446673299
 20
-13.7714841941
 10
-74.0158163947
 20
-13.6966728688
 10
-74.0845760552
 20
-13.634487925
 10
-74.1492071211
 20
-13.5847531118
 10
-74.2077488896
 20
-13.5471918956
  0
LWPOLYLINE
  5
286
100
AcDbEntity
  8
RACCORDO
100
AcDbPolyline
 62
253
  6
CONTINUOUS
 90
6
 70
0
 10
-72.7261752787
 20
-15.7093511995
 10
-72.643946425
 20
-15.5923763046
 10
-72.5788080509
 20
-15.4556229415
 10
-72.5316410086
 20
-15.3009403345
 10
-72.5030832041
 20
-15.1304203878
 10
-72.4935208311
 20
-14.9463690832
  0
LWPOLYLINE
  5
287
100
AcDbEntity
  8
RACCORDO
100
AcDbPolyline
 62
253
  6
CONTINUOUS
 90
3
 70
0
 10
-74.3670137561
 20
-13.5584614666
 10
-74.322363189
 20
-13.5086228136
 10
-74.3124722801
 20
-13.501553342
  0
LWPOLYLINE
  5
288
100
AcDbEntity
  8
0
100
AcDbPolyline
 62
253
  6
CONTINUOUS
 90
19
 70
0
 10
95.1968523273
 20
120.4385668776
 10
95.2873639941
 20
120.4931587013
 10
95.3736653131
 20
120.5499781281
 10
95.4555920046
 20
120.6089169989
 10
95.5329881166
 20
120.6698631203
 10
95.6057063211
 20
120.7327004778
 10
95.6736081951
 20
120.797309457
 10
95.7365644832
 20
120.8635670709
 10
95.7944553448
 20
120.9313471945
 10
95.8471705812
 20
121.0005208045
 10
95.8946098461
 20
121.0709562248
 10
95.9366828359
 20
121.1425193778
 10
95.9733094626
 20
121.2150740389
 10
96.0044200051
 20
121.2884820962
 10
96.0299552427
 20
121.3626038132
 10
96.0498665678
 20
121.437298095
 10
96.064116078
 20
121.5124227569
 10
96.0726766484
 20
121.5878347948
 10
96.0755319837
 20
121.6633906575
  0
LINE
  5
289
100
AcDbEntity
  8
ASSI
100
AcDbLine
 62
253
  6
CONTINUOUS
 10
95.1968523273
 20
120.4385668776
 11
52.4168920655
 21
95.7379539812
  0
LWPOLYLINE
  5
28A
100
AcDbEntity
  8
RACCORDO
100
AcDbPolyline
 62
7
  6
CONTINUOUS
 90
6
 70
0
 10
-74.2077488896
 20
-13.5471918956
 10
-74.2487889317
 20
-13.5255062221
 10
-74.282977763
 20
-13.5108646099
 10
-74.3090930793
 20
-13.502315308
 10
-74.3261540077
 20
-13.4984682895
 10
-74.3311298345
 20
-13.4977515165
  0
LWPOLYLINE
  5
28B
100
AcDbEntity
  8
RACCORDO
100
AcDbPolyline
 62
253
  6
CONTINUOUS
 90
25
 70
0
 10
-74.3319984622
 20
-15.4770195262
 10
-74.4598026177
 20
-15.3925369842
 10
-74.5814697949
 20
-15.2943690705
 10
-74.6969999937
 20
-15.1825157854
 10
-74.8081516908
 20
-15.0546171838
 10
-74.9131664095
 20
-14.9130332107
 10
-75.0067687202
 20
-14.7648437005
 10
-75.0883697227
 20
-14.6097157119
 10
-75.1585583172
 20
-14.4479821862
 10
-75.2138257744
 20
-14.2877217819
 10
-75.253412951
 20
-14.1290110678
 10
-75.2780789903
 20
-13.9717734752
 10
-75.2865925934
 20
-13.8238579558
 10
-75.2781337691
 20
-13.6857376963
 10
-75.2535225087
 20
-13.5569395102
 10
-75.2139874865
 20
-13.4438927895
 10
-75.1587713111
 20
-13.3473972289
 10
-75.088631374
 20
-13.2666531338
 10
-75.0070685247
 20
-13.2056908124
 10
-74.9135020649
 20
-13.1655146258
 10
-74.8085126928
 20
-13.145120213
 10
-74.6973433521
 20
-13.1455247993
 10
-74.5817416907
 20
-13.16706746
 10
-74.4599600608
 20
-13.2094091199
 10
-74.3319984622
 20
-13.2725497789
  0
LWPOLYLINE
  5
28C
100
AcDbEntity
  8
RACCORDO
100
AcDbPolyline
 62
253
  6
CONTINUOUS
 90
25
 70
0
 10
-74.3319984622
 20
-13.2725497789
 10
-74.2041943067
 20
-13.357032321
 10
-74.0825271296
 20
-13.4552002346
 10
-73.9669969307
 20
-13.5670535198
 10
-73.8558452337
 20
-13.6949521213
 10
-73.7508305149
 20
-13.8365360944
 10
-73.6572282042
 20
-13.9847256046
 10
-73.5756272017
 20
-14.1398535933
 10
-73.5054386072
 20
-14.301587119
 10
-73.45017115
 20
-14.4618475233
 10
-73.4105839734
 20
-14.6205582373
 10
-73.3859179341
 20
-14.77779583
 10
-73.377404331
 20
-14.9257113493
 10
-73.3858631553
 20
-15.0638316088
 10
-73.4104744158
 20
-15.192629795
 10
-73.4500094379
 20
-15.3056765157
 10
-73.5052256133
 20
-15.4021720763
 10
-73.5753655504
 20
-15.4829161714
 10
-73.6569283998
 20
-15.5438784927
 10
-73.7504948596
 20
-15.5840546793
 10
-73.8554842317
 20
-15.6044490922
 10
-73.9666535724
 20
-15.6040445058
 10
-74.0822552337
 20
-15.5825018451
 10
-74.2040368637
 20
-15.5401601853
 10
-74.3319984622
 20
-15.4770195262
  0
LWPOLYLINE
  5
28D
100
AcDbEntity
  8
RACCORDO
100
AcDbPolyline
 62
253
  6
CONTINUOUS
 90
15
 70
0
 10
-73.9077343935
 20
-14.7421726042
 10
-73.9867759334
 20
-14.6896955459
 10
-74.0640518305
 20
-14.6247117981
 10
-74.1378358696
 20
-14.5486729831
 10
-74.2064798384
 20
-14.4632776737
 10
-74.2684503399
 20
-14.3704334571
 10
-74.3223630485
 20
-14.272214324
 10
-74.3670136414
 20
-14.1708143266
 10
-74.4014046955
 20
-14.068498573
 10
-74.4247679674
 20
-13.9675526364
 10
-74.4365815599
 20
-13.8702314855
 10
-74.4365815771
 20
-13.7787091119
 10
-74.4247680187
 20
-13.6950299751
 10
-74.4014047796
 20
-13.6210633286
 10
-74.3670137561
 20
-13.5584614666
  0
LWPOLYLINE
  5
28E
100
AcDbEntity
  8
ASSI
100
AcDbPolyline
 62
7
  6
CONTINUOUS
 90
40
 70
0
 10
-13.6975919755
 20
-66.8232908481
 10
-13.7512518257
 20
-66.7290501979
 10
-13.8106933167
 20
-66.630276955
 10
-13.8723067673
 20
-66.5332811584
 10
-13.9361035952
 20
-66.4380721521
 10
-14.0020723826
 20
-66.3446405923
 10
-14.0698669471
 20
-66.2534767769
 10
-14.1394968866
 20
-66.1645926273
 10
-14.2109526032
 20
-66.0779762221
 10
-14.2838591209
 20
-65.9940820957
 10
-14.3582240663
 20
-65.9129245588
 10
-14.4340398127
 20
-65.8344893006
 10
-14.5109085042
 20
-65.7591879237
 10
-14.5888356759
 20
-65.6870369024
 10
-14.6678157926
 20
-65.6180197622
 10
-14.7474343928
 20
-65.5524986825
 10
-14.8276948327
 20
-65.4904920414
 10
-14.9085937561
 20
-65.4319814608
 10
-14.9897066319
 20
-65.3772739848
 10
-15.071034585
 20
-65.3263896058
 10
-15.1525764907
 20
-65.2793083314
 10
-15.2339044438
 20
-65.2362772287
 10
-15.3150173196
 20
-65.1973175889
 10
-15.395916243
 20
-65.1624081206
 10
-15.4761766829
 20
-65.1317320174
 10
-15.555795283
 20
-65.1053115335
 10
-15.6347753998
 20
-65.0831244145
 10
-15.7127025715
 20
-65.0652870913
 10
-15.7895712629
 20
-65.0518224301
 10
-15.8653870094
 20
-65.0427075646
 10
-15.9397519548
 20
-65.0379903266
 10
-16.0126584725
 20
-65.0376938338
 10
-16.0841141891
 20
-65.0417949686
 10
-16.1537441286
 20
-65.0502722095
 10
-16.2215386931
 20
-65.0631485611
 10
-16.2875074805
 20
-65.0804010188
 10
-16.3513043084
 20
-65.1019390474
 10
-16.4129177589
 20
-65.1277851756
 10
-16.47235925
 20
-65.1579168746
 10
-16.486867469
 20
-65.1661146059
  0
LWPOLYLINE
  5
28F
100
AcDbEntity
  8
ASSI
100
AcDbPolyline
 62
7
  6
CONTINUOUS
 90
22
 70
0
 10
-47.3053297713
 20
2.705566951
 10
-47.2936553967
 20
2.6566781526
 10
-47.274809112
 20
2.5874527395
 10
-47.2536350337
 20
2.5181107729
 10
-47.2301173662
 20
2.4486514618
 10
-47.2042719052
 20
2.3790755972
 10
-47.1762736345
 20
2.3098542349
 10
-47.1461079458
 20
2.2409897805
 10
-47.1137894474
 20
2.1724798284
 10
-47.0795369483
 20
2.1047882178
 10
-47.0433373248
 20
2.0379205017
 10
-47.0052037006
 20
1.9718711272
 10
-46.9653942552
 20
1.9070872742
 10
-46.9238976169
 20
1.8435775304
 10
-46.8807251574
 20
1.7813333081
 10
-46.8361691712
 20
1.7207760253
 10
-46.79022027
 20
1.6619171288
 10
-46.742887842
 20
1.6047451718
 10
-46.6944923464
 20
1.5496472307
 10
-46.6450265694
 20
1.4966373791
 10
-46.5944977247
 20
1.4457015435
 10
-46.5578916112
 20
1.4110474166
  0
LWPOLYLINE
  5
290
100
AcDbEntity
  8
RACCORDO
100
AcDbPolyline
 62
253
  6
CONTINUOUS
 90
20
 70
0
 10
-72.5316409633
 20
86.2863013303
 10
-72.5788079507
 20
86.4954511269
 10
-72.6439462419
 20
86.7074245007
 10
-72.726174992
 20
86.9193550726
 10
-72.8243824804
 20
87.1283773995
 10
-72.9372410687
 20
87.3316653304
 10
-73.0632243834
 20
87.5264690838
 10
-73.2006279829
 20
87.7101531573
 10
-73.3475930378
 20
87.8802330172
 10
-73.5021325273
 20
88.0344094857
 10
-73.6621574527
 20
88.1705984855
 10
-73.8255043864
 20
88.2869585346
 10
-73.9899637799
 20
88.3819153689
 10
-74.1533107539
 20
88.4541843642
 10
-74.3133357871
 20
88.5027882445
 10
-74.4678754142
 20
88.5270701878
 10
-74.6148405449
 20
88.5267019392
 10
-74.7522441072
 20
88.5016881586
 10
-74.8782273529
 20
88.4523668828
 10
-74.9077827138
 20
88.4362821963
  0
LINE
  5
291
100
AcDbEntity
  8
RACCORDO
100
AcDbLine
 62
253
  6
CONTINUOUS
 10
-72.5030831926
 20
86.0828036737
 11
-72.5316409633
 21
86.2863013303
  0
LWPOLYLINE
  5
292
100
AcDbEntity
  8
ASSI
100
AcDbPolyline
 62
7
  6
CONTINUOUS
 90
51
 70
0
 10
-46.5073466225
 20
90.8085236884
 10
-46.5086521948
 20
90.8716691394
 10
-46.5124907695
 20
90.9358565965
 10
-46.5188623465
 20
91.0010860597
 10
-46.5277927965
 20
91.0675097854
 10
-46.5392562488
 20
91.1349755173
 10
-46.5531750914
 20
91.2030264858
 10
-46.5695659858
 20
91.2716666622
 10
-46.5884122705
 20
91.3408920753
 10
-46.6095863487
 20
91.410234042
 10
-46.6331040162
 20
91.479693353
 10
-46.6589494773
 20
91.5492692176
 10
-46.686947748
 20
91.6184905799
 10
-46.7171134367
 20
91.6873550343
 10
-46.7494319351
 20
91.7558649864
 10
-46.7836844342
 20
91.823556597
 10
-46.8198840576
 20
91.8904243131
 10
-46.8580176819
 20
91.9564736877
 10
-46.8978271273
 20
92.0212575406
 10
-46.9393237656
 20
92.0847672845
 10
-46.982496225
 20
92.1470115067
 10
-47.0270522113
 20
92.2075687896
 10
-47.0730011125
 20
92.266427686
 10
-47.1203335404
 20
92.323599643
 10
-47.1687290361
 20
92.3786975841
 10
-47.2181948131
 20
92.4317074357
 10
-47.2687236578
 20
92.4826432714
 10
-47.3199734701
 20
92.5311602356
 10
-47.3719491424
 20
92.5772419146
 10
-47.4246457823
 20
92.6209047221
 10
-47.4777066129
 20
92.6618530439
 10
-47.5311341056
 20
92.7000684603
 10
-47.584925789
 20
92.7355693909
 10
-47.6387174724
 20
92.7681154806
 10
-47.6925091559
 20
92.7976866786
 10
-47.7463008393
 20
92.8243030357
 10
-47.799728332
 20
92.8477843486
 10
-47.8527891626
 20
92.868109344
 10
-47.9054858025
 20
92.8852992953
 10
-47.9574614747
 20
92.8992378198
 10
-48.008711287
 20
92.9099028542
 10
-48.0592401317
 20
92.9173164619
 10
-48.1087059087
 20
92.9214284497
 10
-48.1571014044
 20
92.9222164139
 10
-48.2044338324
 20
92.9197027582
 10
-48.2503827336
 20
92.9139045012
 10
-48.2949387198
 20
92.9047993544
 10
-48.3381111793
 20
92.8924096062
 10
-48.3796078176
 20
92.8768191401
 10
-48.419417263
 20
92.8580062369
 10
-48.4387483448
 20
92.8473678837
  0
LWPOLYLINE
  5
293
100
AcDbEntity
  8
ASSI
100
AcDbPolyline
 62
7
  6
CONTINUOUS
 90
53
 70
0
 10
-40.7444263559
 20
-132.1524172793
 10
-40.7457308284
 20
-132.0864087197
 10
-40.7495726797
 20
-132.0193378036
 10
-40.7559519096
 20
-131.9512045311
 10
-40.7648922256
 20
-131.8818634829
 10
-40.7763699203
 20
-131.8114600783
 10
-40.7903138716
 20
-131.7404305751
 10
-40.8067393935
 20
-131.6687710855
 10
-40.8256311721
 20
-131.5964854973
 10
-40.8468721435
 20
-131.5240217313
 10
-40.870476895
 20
-131.451378681
 10
-40.8964308393
 20
-131.378557453
 10
-40.9245731518
 20
-131.306009287
 10
-40.9549174209
 20
-131.2337358786
 10
-40.9874500581
 20
-131.1617355324
 10
-41.0219694736
 20
-131.0904544015
 10
-41.058488004
 20
-131.0198969519
 10
-41.0969933127
 20
-130.9500587177
 10
-41.1372467998
 20
-130.8813724546
 10
-41.1792593204
 20
-130.8138453156
 10
-41.2230200194
 20
-130.7474701476
 10
-41.2682577318
 20
-130.6826582473
 10
-41.3149816289
 20
-130.6194193216
 10
-41.3631825393
 20
-130.5577436636
 10
-41.412561784
 20
-130.4980134493
 10
-41.4631266797
 20
-130.4402407585
 10
-41.5148699097
 20
-130.3844135113
 10
-41.5674708448
 20
-130.3308776438
 10
-41.6209348108
 20
-130.2796473838
 10
-41.6752564819
 20
-130.2307085034
 10
-41.7300992516
 20
-130.1843642546
 10
-41.7854663553
 20
-130.1406307483
 10
-41.8413545576
 20
-130.0994918735
 10
-41.8974175447
 20
-130.061202549
 10
-41.9536564019
 20
-130.0257804688
 10
-42.0100700439
 20
-129.9932079389
 10
-42.0663089011
 20
-129.9636867965
 10
-42.1223718882
 20
-129.9372359888
 10
-42.1782600905
 20
-129.9138365685
 10
-42.2336271943
 20
-129.8936335311
 10
-42.2884699639
 20
-129.8766467243
 10
-42.342791635
 20
-129.8628563005
 10
-42.3962556011
 20
-129.8523477126
 10
-42.4488565362
 20
-129.8451413388
 10
-42.5005997662
 20
-129.8412168009
 10
-42.5511646619
 20
-129.8405984176
 10
-42.6005439066
 20
-129.8433067179
 10
-42.648744817
 20
-129.8493211728
 10
-42.695468714
 20
-129.8586045133
 10
-42.7407064264
 20
-129.8711770373
 10
-42.7844671255
 20
-129.8870184469
 10
-42.8264796461
 20
-129.9060305802
 10
-42.8569014809
 20
-129.9224236604
  0
LWPOLYLINE
  5
294
100
AcDbEntity
  8
ASSI
100
AcDbPolyline
 62
7
  6
CONTINUOUS
 90
76
 70
0
 10
-35.2643488017
 20
-75.9153341661
 10
-35.2612974617
 20
-76.137656006
 10
-35.252225598
 20
-76.362790216
 10
-35.2371332105
 20
-76.5907367963
 10
-35.2159929966
 20
-76.8217307754
 10
-35.1888322589
 20
-77.0555371247
 10
-35.1557329056
 20
-77.2914507581
 10
-35.1166770098
 20
-77.529478037
 10
-35.0716824985
 20
-77.7696126001
 10
-35.0208850608
 20
-78.0111302775
 10
-34.9642671794
 20
-78.2540352443
 10
-34.9018463716
 20
-78.4983233254
 10
-34.833810879
 20
-78.7432578252
 10
-34.7601437523
 20
-78.988840695
 10
-34.6808619406
 20
-79.2350699834
 10
-34.5962045329
 20
-79.4812031408
 10
-34.5061553018
 20
-79.727239877
 10
-34.4107304747
 20
-79.9731804822
 10
-34.3102178225
 20
-80.2182832773
 10
-34.2046019868
 20
-80.4625457332
 10
-34.0938983261
 20
-80.705970379
 10
-33.9784406877
 20
-80.9478231229
 10
-33.8582147207
 20
-81.1880992198
 10
-33.733234776
 20
-81.4268034148
 10
-33.6038777536
 20
-81.6632158516
 10
-33.4701304403
 20
-81.897329612
 10
-33.3320060493
 20
-82.1291516141
 10
-33.1899211201
 20
-82.3579827562
 10
-33.0438636969
 20
-82.5838140096
 10
-32.8938457355
 20
-82.8066544029
 10
-32.7403196425
 20
-83.0258319199
 10
-32.5832748281
 20
-83.2413355036
 10
-32.4227218821
 20
-83.4531762109
 10
-32.2591449816
 20
-83.6607151975
 10
-32.0925349981
 20
-83.8639394775
 10
-31.9229010599
 20
-84.0628620366
 10
-31.7507547295
 20
-84.2568829874
 10
-31.5760884227
 20
-84.4459875333
 10
-31.3989097236
 20
-84.6301904708
 10
-31.2197529471
 20
-84.8089363021
 10
-31.0386121221
 20
-84.9822085537
 10
-30.8554932197
 20
-85.1500236992
 10
-30.6709484688
 20
-85.311875661
 10
-30.4849735649
 20
-85.4677464381
 10
-30.2975728125
 20
-85.6176540316
 10
-30.1093113528
 20
-85.7611463676
 10
-29.9201865877
 20
-85.8982040803
 10
-29.7302011154
 20
-86.0288465354
 10
-29.539927872
 20
-86.1526797568
 10
-29.3493659887
 20
-86.2696831891
 10
-29.1585163344
 20
-86.3798773876
 10
-28.9679544512
 20
-86.4829300414
 10
-28.7776812077
 20
-86.5788195922
 10
-28.5876957354
 20
-86.6675675984
 10
-28.3985709703
 20
-86.7489064239
 10
-28.2103095107
 20
-86.8228137026
 10
-28.0229087582
 20
-86.8893118006
 10
-27.8369338544
 20
-86.9482001809
 10
-27.6523891034
 20
-86.9994558716
 10
-27.469270201
 20
-87.0431018446
 10
-27.288129376
 20
-87.0790064772
 10
-27.1089725996
 20
-87.1071464006
 10
-26.9317939005
 20
-87.1275449837
 10
-26.7571275936
 20
-87.1401407109
 10
-26.5849812632
 20
-87.1449100274
 10
-26.4153473251
 20
-87.141876488
 10
-26.2487373415
 20
-87.1310492407
 10
-26.085160441
 20
-87.1124047587
 10
-25.9246074951
 20
-87.0859665689
 10
-25.7675626806
 20
-87.0518144006
 10
-25.6140365877
 20
-87.0099249674
 10
-25.4640186263
 20
-86.9603215556
 10
-25.3179612031
 20
-86.9031537534
 10
-25.1758762739
 20
-86.8383987261
 10
-25.0377518828
 20
-86.7660793085
 10
-25.0037403892
 20
-86.7467576242
  0
LWPOLYLINE
  5
295
100
AcDbEntity
  8
ASSI
100
AcDbPolyline
 62
7
  6
CONTINUOUS
 90
70
 70
0
 10
-33.8501352393
 20
-75.0987849795
 10
-33.8470838993
 20
-75.3211068193
 10
-33.8380120356
 20
-75.5462410294
 10
-33.8229196481
 20
-75.7741876096
 10
-33.8017794342
 20
-76.0051815887
 10
-33.7746186965
 20
-76.238987938
 10
-33.7415193432
 20
-76.4749015714
 10
-33.7024634474
 20
-76.7129288504
 10
-33.6574689361
 20
-76.9530634135
 10
-33.6066714984
 20
-77.1945810908
 10
-33.550053617
 20
-77.4374860577
 10
-33.4876328093
 20
-77.6817741388
 10
-33.4195973166
 20
-77.9267086385
 10
-33.3459301899
 20
-78.1722915083
 10
-33.2666483783
 20
-78.4185207967
 10
-33.1819909706
 20
-78.6646539542
 10
-33.0919417394
 20
-78.9106906904
 10
-32.9965169123
 20
-79.1566312956
 10
-32.8960042602
 20
-79.4017340907
 10
-32.7903884244
 20
-79.6459965465
 10
-32.6796847637
 20
-79.8894211923
 10
-32.5642271254
 20
-80.1312739362
 10
-32.4440011583
 20
-80.3715500331
 10
-32.3190212136
 20
-80.6102542281
 10
-32.1896641912
 20
-80.8466666649
 10
-32.0559168779
 20
-81.0807804253
 10
-31.9177924869
 20
-81.3126024274
 10
-31.7757075577
 20
-81.5414335695
 10
-31.6296501345
 20
-81.7672648229
 10
-31.4796321731
 20
-81.9901052162
 10
-31.3261060802
 20
-82.2092827333
 10
-31.1690612657
 20
-82.4247863169
 10
-31.0085083198
 20
-82.6366270243
 10
-30.8449314192
 20
-82.8441660108
 10
-30.6783214357
 20
-83.0473902908
 10
-30.5086874975
 20
-83.24631285
 10
-30.3365411672
 20
-83.4403338008
 10
-30.1618748603
 20
-83.6294383466
 10
-29.9846961612
 20
-83.8136412841
 10
-29.8055393847
 20
-83.9923871154
 10
-29.6243985597
 20
-84.1656593671
 10
-29.4412796574
 20
-84.3334745125
 10
-29.2567349064
 20
-84.4953264744
 10
-29.0707600026
 20
-84.6511972515
 10
-28.8833592501
 20
-84.801104845
 10
-28.6950977905
 20
-84.944597181
 10
-28.5059730253
 20
-85.0816548936
 10
-28.315987553
 20
-85.2122973488
 10
-28.1257143096
 20
-85.3361305701
 10
-27.9351524264
 20
-85.4531340024
 10
-27.744302772
 20
-85.563328201
 10
-27.5537408888
 20
-85.6663808548
 10
-27.3634676454
 20
-85.7622704056
 10
-27.1734821731
 20
-85.8510184117
 10
-26.9843574079
 20
-85.9323572372
 10
-26.7960959483
 20
-86.0062645159
 10
-26.6086951958
 20
-86.072762614
 10
-26.422720292
 20
-86.1316509942
 10
-26.238175541
 20
-86.182906685
 10
-26.0550566387
 20
-86.2265526579
 10
-25.8739158136
 20
-86.2624572906
 10
-25.6947590372
 20
-86.290597214
 10
-25.5175803381
 20
-86.3109957971
 10
-25.3429140312
 20
-86.3235915242
 10
-25.1707677009
 20
-86.3283608407
 10
-25.0011337627
 20
-86.3253273013
 10
-24.8345237792
 20
-86.3145000541
 10
-24.6709468786
 20
-86.2958555721
 10
-24.5103939327
 20
-86.2694173823
 10
-24.3576352764
 20
-86.2361973147
  0
LWPOLYLINE
  5
296
100
AcDbEntity
  8
0
100
AcDbPolyline
 62
7
  6
CONTINUOUS
 90
7
 70
0
 10
-72.6248433609
 20
-15.6985329679
 10
-72.5040597951
 20
-15.6082844564
 10
-72.4001435685
 20
-15.4887092663
 10
-72.3183287162
 20
-15.345802436
 10
-72.2603438095
 20
-15.1815530127
 10
-72.224460277
 20
-14.9939719494
 10
-72.2106781187
 20
-14.7830592459
  0
LWPOLYLINE
  5
297
100
AcDbEntity
  8
RACCORDO
100
AcDbPolyline
 62
7
  6
CONTINUOUS
 90
10
 70
0
 10
-74.9077827138
 20
-12.3977969876
 10
-75.0174280573
 20
-12.4704651373
 10
-75.1197825066
 20
-12.5583051246
 10
-75.2130041937
 20
-12.6610458987
 10
-75.2953526729
 20
-12.7781514443
 10
-75.3652796494
 20
-12.9088816936
 10
-75.4215797518
 20
-13.0527299984
 10
-75.4631606199
 20
-13.2093530721
 10
-75.4888805657
 20
-13.378081132
 10
-75.4976838872
 20
-13.558235607
  0
LINE
  5
298
100
AcDbEntity
  8
0
100
AcDbLine
 62
7
  6
CONTINUOUS
 10
-68.851920908
 20
-6.1080132363
 11
-68.1448141268
 21
-5.699738643
  0
LINE
  5
299
100
AcDbEntity
  8
0
100
AcDbLine
 62
7
  6
CONTINUOUS
 10
-68.1448141268
 20
-5.699738643
 11
-68.851920908
 21
-5.2914640497
  0
LWPOLYLINE
  5
29A
100
AcDbEntity
  8
RACCORDO
100
AcDbPolyline
 62
253
  6
CONTINUOUS
 90
20
 70
0
 10
-1.8209628446
 20
-156.2093163703
 10
-1.8681298321
 20
-156.0001665737
 10
-1.9332681232
 20
-155.7881931999
 10
-2.0154968734
 20
-155.576262628
 10
-2.1137043617
 20
-155.3672403011
 10
-2.22656295
 20
-155.1639523702
 10
-2.3525462648
 20
-154.9691486168
 10
-2.4899498643
 20
-154.7854645433
 10
-2.6369149191
 20
-154.6153846834
 10
-2.7914544087
 20
-154.4612082149
 10
-2.951479334
 20
-154.3250192151
 10
-3.1148262678
 20
-154.208659166
 10
-3.2792856613
 20
-154.1137023317
 10
-3.4426326352
 20
-154.0414333364
 10
-3.6026576685
 20
-153.9928294561
 10
-3.7571972955
 20
-153.9685475128
 10
-3.9041624263
 20
-153.9689157614
 10
-4.0415659885
 20
-153.993929542
 10
-4.1675492343
 20
-154.0432508178
 10
-4.1971045951
 20
-154.0593355043
  0
LWPOLYLINE
  5
29B
100
AcDbEntity
  8
ASSI
100
AcDbPolyline
 62
7
  6
CONTINUOUS
 90
58
 70
0
 10
-17.0563491861
 20
-66.4248831629
 10
-17.0546186169
 20
-66.5201787714
 10
-17.0495075144
 20
-66.6169331462
 10
-17.0410158786
 20
-66.7151462872
 10
-17.0291169824
 20
-66.8149954046
 10
-17.013837553
 20
-66.9163032882
 10
-16.9952577716
 20
-67.0185383077
 10
-16.9733602889
 20
-67.121705337
 10
-16.9481624543
 20
-67.2257995021
 10
-16.9197964978
 20
-67.3302745512
 10
-16.8882457649
 20
-67.4351324865
 10
-16.8535269101
 20
-67.5403713059
 10
-16.8158221265
 20
-67.6454387506
 10
-16.7751157173
 20
-67.7503339199
 10
-16.7314233794
 20
-67.8550577145
 10
-16.6849743956
 20
-67.9590605785
 10
-16.6357542746
 20
-68.0623387221
 10
-16.5837775078
 20
-68.1648959352
 10
-16.5293168521
 20
-68.2661940312
 10
-16.47235925
 20
-68.3662263912
 10
-16.4129177589
 20
-68.4649996342
 10
-16.3513043084
 20
-68.5619954307
 10
-16.2875074805
 20
-68.657204437
 10
-16.2215386931
 20
-68.7506359968
 10
-16.1537441286
 20
-68.8417998122
 10
-16.0841141891
 20
-68.9306839618
 10
-16.0126584725
 20
-69.017300367
 10
-15.9397519548
 20
-69.1011944934
 10
-15.8653870094
 20
-69.1823520304
 10
-15.7895712629
 20
-69.2607872885
 10
-15.7127025715
 20
-69.3360886654
 10
-15.6347753998
 20
-69.4082396867
 10
-15.555795283
 20
-69.4772568269
 10
-15.4761766829
 20
-69.5427779066
 10
-15.395916243
 20
-69.6047845477
 10
-15.3150173196
 20
-69.6632951283
 10
-15.2339044438
 20
-69.7180026044
 10
-15.1525764907
 20
-69.7688869833
 10
-15.071034585
 20
-69.8159682577
 10
-14.9897066319
 20
-69.8589993604
 10
-14.9085937561
 20
-69.8979590003
 10
-14.8276948327
 20
-69.9328684685
 10
-14.7474343928
 20
-69.9635445717
 10
-14.6678157926
 20
-69.9899650556
 10
-14.5888356759
 20
-70.0121521746
 10
-14.5109085042
 20
-70.0299894978
 10
-14.4340398127
 20
-70.043454159
 10
-14.3582240663
 20
-70.0525690245
 10
-14.2838591209
 20
-70.0572862625
 10
-14.2109526032
 20
-70.0575827553
 10
-14.1394968866
 20
-70.0534816205
 10
-14.0698669471
 20
-70.0450043797
 10
-14.0020723826
 20
-70.0321280281
 10
-13.9361035952
 20
-70.0148755704
 10
-13.8723067673
 20
-69.9933375417
 10
-13.8106933167
 20
-69.9674914136
 10
-13.7512518257
 20
-69.9373597145
 10
-13.7367436067
 20
-69.9291619832
  0
LWPOLYLINE
  5
29C
100
AcDbEntity
  8
ASSI
100
AcDbPolyline
 62
7
  6
CONTINUOUS
 90
39
 70
0
 10
-15.6421356237
 20
-65.6083339763
 10
-15.6404050545
 20
-65.7036295848
 10
-15.635293952
 20
-65.8003839595
 10
-15.6268023163
 20
-65.8985971005
 10
-15.6149034201
 20
-65.9984462179
 10
-15.5996239906
 20
-66.0997541016
 10
-15.5810442093
 20
-66.2019891211
 10
-15.5591467265
 20
-66.3051561503
 10
-15.5339488919
 20
-66.4092503154
 10
-15.5055829354
 20
-66.5137253645
 10
-15.4740322025
 20
-66.6185832999
 10
-15.4393133477
 20
-66.7238221192
 10
-15.4016085641
 20
-66.828889564
 10
-15.360902155
 20
-66.9337847332
 10
-15.317209817
 20
-67.0385085278
 10
-15.2707608332
 20
-67.1425113919
 10
-15.2215407122
 20
-67.2457895355
 10
-15.1695639454
 20
-67.3483467485
 10
-15.1151032897
 20
-67.4496448446
 10
-15.0581456876
 20
-67.5496772045
 10
-14.9987041966
 20
-67.6484504475
 10
-14.937090746
 20
-67.745446244
 10
-14.8732939181
 20
-67.8406552503
 10
-14.8073251307
 20
-67.9340868102
 10
-14.7395305662
 20
-68.0252506255
 10
-14.6699006267
 20
-68.1141347752
 10
-14.5984449101
 20
-68.2007511804
 10
-14.5255383924
 20
-68.2846453068
 10
-14.451173447
 20
-68.3658028437
 10
-14.3753577006
 20
-68.4442381018
 10
-14.2984890091
 20
-68.5195394787
 10
-14.2205618374
 20
-68.5916905001
 10
-14.1415817207
 20
-68.6607076402
 10
-14.0619631205
 20
-68.72622872
 10
-13.9817026806
 20
-68.788235361
 10
-13.9008037573
 20
-68.8467459417
 10
-13.8196908814
 20
-68.9014534177
 10
-13.7383629283
 20
-68.9523377967
 10
-13.6975919755
 20
-68.9758784339
  0
LWPOLYLINE
  5
29D
100
AcDbEntity
  8
ASSI
100
AcDbPolyline
 62
7
  6
CONTINUOUS
 90
76
 70
0
 10
-23.2435335215
 20
-82.8560022527
 10
-23.2465848615
 20
-82.6336804129
 10
-23.2556567252
 20
-82.4085462028
 10
-23.2707491126
 20
-82.1805996226
 10
-23.2918893266
 20
-81.9496056435
 10
-23.3190500643
 20
-81.7157992942
 10
-23.3521494175
 20
-81.4798856608
 10
-23.3912053133
 20
-81.2418583818
 10
-23.4361998247
 20
-81.0017238187
 10
-23.4869972624
 20
-80.7602061414
 10
-23.5436151438
 20
-80.5173011745
 10
-23.6060359515
 20
-80.2730130934
 10
-23.6740714442
 20
-80.0280785937
 10
-23.7477385709
 20
-79.7824957239
 10
-23.8270203825
 20
-79.5362664355
 10
-23.9116777902
 20
-79.290133278
 10
-24.0017270213
 20
-79.0440965418
 10
-24.0971518485
 20
-78.7981559366
 10
-24.1976645006
 20
-78.5530531415
 10
-24.3032803363
 20
-78.3087906857
 10
-24.413983997
 20
-78.0653660399
 10
-24.5294416354
 20
-77.823513296
 10
-24.6496676024
 20
-77.5832371991
 10
-24.7746475471
 20
-77.3445330041
 10
-24.9040045696
 20
-77.1081205673
 10
-25.0377518828
 20
-76.8740068069
 10
-25.1758762739
 20
-76.6421848048
 10
-25.3179612031
 20
-76.4133536627
 10
-25.4640186263
 20
-76.1875224093
 10
-25.6140365877
 20
-75.964682016
 10
-25.7675626806
 20
-75.7455044989
 10
-25.9246074951
 20
-75.5300009153
 10
-26.085160441
 20
-75.3181602079
 10
-26.2487373415
 20
-75.1106212214
 10
-26.4153473251
 20
-74.9073969414
 10
-26.5849812632
 20
-74.7084743822
 10
-26.7571275936
 20
-74.5144534314
 10
-26.9317939005
 20
-74.3253488856
 10
-27.1089725996
 20
-74.1411459481
 10
-27.288129376
 20
-73.9624001168
 10
-27.469270201
 20
-73.7891278651
 10
-27.6523891034
 20
-73.6213127197
 10
-27.8369338544
 20
-73.4594607578
 10
-28.0229087582
 20
-73.3035899807
 10
-28.2103095107
 20
-73.1536823872
 10
-28.3985709703
 20
-73.0101900512
 10
-28.5876957354
 20
-72.8731323386
 10
-28.7776812077
 20
-72.7424898834
 10
-28.9679544512
 20
-72.6186566621
 10
-29.1585163344
 20
-72.5016532298
 10
-29.3493659887
 20
-72.3914590312
 10
-29.539927872
 20
-72.2884063774
 10
-29.7302011154
 20
-72.1925168266
 10
-29.9201865877
 20
-72.1037688205
 10
-30.1093113528
 20
-72.022429995
 10
-30.2975728125
 20
-71.9485227163
 10
-30.4849735649
 20
-71.8820246182
 10
-30.6709484688
 20
-71.823136238
 10
-30.8554932197
 20
-71.7718805472
 10
-31.0386121221
 20
-71.7282345743
 10
-31.2197529471
 20
-71.6923299416
 10
-31.3989097236
 20
-71.6641900182
 10
-31.5760884227
 20
-71.6437914351
 10
-31.7507547295
 20
-71.631195708
 10
-31.9229010599
 20
-71.6264263915
 10
-32.0925349981
 20
-71.6294599309
 10
-32.2591449816
 20
-71.6402871781
 10
-32.4227218821
 20
-71.6589316601
 10
-32.5832748281
 20
-71.6853698499
 10
-32.7403196425
 20
-71.7195220183
 10
-32.8938457355
 20
-71.7614114515
 10
-33.0438636969
 20
-71.8110148633
 10
-33.1899211201
 20
-71.8681826655
 10
-33.3320060493
 20
-71.9329376927
 10
-33.4701304403
 20
-72.0052571104
 10
-33.5041419339
 20
-72.0245787946
  0
LINE
  5
29E
100
AcDbEntity
  8
0
100
AcDbLine
 62
7
  6
CONTINUOUS
 10
-13.6975919755
 20
137.2209349807
 11
-13.6975919755
 21
-141.6453933981
  0
LWPOLYLINE
  5
29F
100
AcDbEntity
  8
RACCORDO
100
AcDbPolyline
 62
253
  6
CONTINUOUS
 90
3
 70
0
 10
-72.9076860732
 20
-15.8618428055
 10
-72.8243828491
 20
-15.8049659374
 10
-72.7261752787
 20
-15.7093511995
  0
LWPOLYLINE
  5
2A0
100
AcDbEntity
  8
ASSI
100
AcDbPolyline
 62
7
  6
CONTINUOUS
 90
18
 70
0
 10
-48.4387483448
 20
3.0356374365
 10
-48.4575508872
 20
3.0242621685
 10
-48.4937505107
 20
2.9991968702
 10
-48.5280030098
 20
2.971059187
 10
-48.5603215081
 20
2.9398698267
 10
-48.5904871968
 20
2.9058399535
 10
-48.6184854675
 20
2.8689502924
 10
-48.6443309286
 20
2.8292201184
 10
-48.6678485961
 20
2.7869184203
 10
-48.6890226743
 20
2.7420277485
 10
-48.707868959
 20
2.6945655525
 10
-48.7242598535
 20
2.6448531701
 10
-48.738178696
 20
2.5928753321
 10
-48.7496421484
 20
2.5386473077
 10
-48.7585725984
 20
2.4825362418
 10
-48.7649441754
 20
2.4246645159
 10
-48.76878275
 20
2.3649097486
 10
-48.7700883223
 20
2.3032719398
  0
LWPOLYLINE
  5
2A1
100
AcDbEntity
  8
ASSI
100
AcDbPolyline
 62
7
  6
CONTINUOUS
 90
18
 70
0
 10
-46.8386866
 20
0.2644277444
 10
-46.8198840576
 20
0.2758030125
 10
-46.7836844342
 20
0.3008683107
 10
-46.7494319351
 20
0.3290059939
 10
-46.7171134367
 20
0.3601953542
 10
-46.686947748
 20
0.3942252275
 10
-46.6589494773
 20
0.4311148885
 10
-46.6331040162
 20
0.4708450625
 10
-46.6095863487
 20
0.5131467607
 10
-46.5884122705
 20
0.5580374325
 10
-46.5695659858
 20
0.6054996284
 10
-46.5531750914
 20
0.6552120108
 10
-46.5392562488
 20
0.7071898488
 10
-46.5277927965
 20
0.7614178733
 10
-46.5188623465
 20
0.8175289392
 10
-46.5124907695
 20
0.875400665
 10
-46.5086521948
 20
0.9351554323
 10
-46.5073466225
 20
0.9967932412
  0
LINE
  5
2A2
100
AcDbEntity
  8
0
100
AcDbLine
 62
7
  6
CONTINUOUS
 10
-74.6249400013
 20
-12.2344871503
 11
-74.9077827138
 21
-12.3977969876
  0
LINE
  5
2A3
100
AcDbEntity
  8
ASSI
100
AcDbLine
 62
253
  6
CONTINUOUS
 10
-47.6388294884
 20
2.9564466125
 11
-48.7700883223
 21
2.3032719398
  0
LINE
  5
2A4
100
AcDbEntity
  8
0
100
AcDbLine
 62
7
  6
CONTINUOUS
 10
-72.6248433607
 20
-15.6985329682
 11
-72.9076860732
 21
-15.8618428055
  0
LINE
  5
2A5
100
AcDbEntity
  8
0
100
AcDbLine
 62
7
  6
CONTINUOUS
 10
-68.851920908
 20
-22.4374187722
 11
-68.1448141268
 21
-22.0291441788
  0
LWPOLYLINE
  5
2A6
100
AcDbEntity
  8
ASSI
100
AcDbPolyline
 62
7
  6
CONTINUOUS
 90
34
 70
0
 10
56.5888220745
 20
-107.0145708835
 10
56.5711812321
 20
-106.99205196
 10
56.4997255155
 20
-106.9054355548
 10
56.4268189978
 20
-106.8215414285
 10
56.3524540524
 20
-106.7403838915
 10
56.2766383059
 20
-106.6619486334
 10
56.1997696144
 20
-106.5866472565
 10
56.1218424427
 20
-106.5144962352
 10
56.042862326
 20
-106.445479095
 10
55.9632437259
 20
-106.3799580153
 10
55.882983286
 20
-106.3179513742
 10
55.8020843626
 20
-106.2594407936
 10
55.7209714867
 20
-106.2047333175
 10
55.6396435336
 20
-106.1538489386
 10
55.558101628
 20
-106.1067676642
 10
55.4767736749
 20
-106.0637365615
 10
55.395660799
 20
-106.0247769216
 10
55.3147618757
 20
-105.9898674534
 10
55.2345014357
 20
-105.9591913502
 10
55.1548828356
 20
-105.9327708662
 10
55.0759027189
 20
-105.9105837473
 10
54.9979755472
 20
-105.8927464241
 10
54.9211068557
 20
-105.8792817629
 10
54.8452911092
 20
-105.8701668973
 10
54.7709261638
 20
-105.8654496593
 10
54.6980196462
 20
-105.8651531666
 10
54.6265639296
 20
-105.8692543014
 10
54.5569339901
 20
-105.8777315422
 10
54.4891394256
 20
-105.8906078938
 10
54.4231706381
 20
-105.9078603515
 10
54.3593738103
 20
-105.9293983801
 10
54.2977603597
 20
-105.9552445083
 10
54.2383188687
 20
-105.9853762074
 10
54.2238106497
 20
-105.9935739387
  0
LINE
  5
2A7
100
AcDbEntity
  8
ASSI
100
AcDbLine
 62
7
  6
CONTINUOUS
 10
-91.9206567355
 20
120.3145512297
 11
-94.2864465797
 21
124.5493699657
  0
LINE
  5
2A8
100
AcDbEntity
  8
ASSI
100
AcDbLine
 62
7
  6
CONTINUOUS
 10
-90.5064431731
 20
119.498002043
 11
-92.8722330174
 21
123.732820779
  0
LWPOLYLINE
  5
2A9
100
AcDbEntity
  8
ASSI
100
AcDbPolyline
 62
7
  6
CONTINUOUS
 90
22
 70
0
 10
-94.2864465797
 20
124.5493699657
 10
-94.4502949491
 20
124.8535752413
 10
-94.6065081199
 20
125.1658021568
 10
-94.7550860922
 20
125.4860507121
 10
-94.896091091
 20
125.814477881
 10
-95.0294608913
 20
126.1509266897
 10
-95.1550088177
 20
126.4949262169
 10
-95.2727239171
 20
126.8464870362
 10
-95.3826171426
 20
127.2055985741
 10
-95.4845346787
 20
127.5717581886
 10
-95.5784653568
 20
127.9449757494
 10
-95.6644203455
 20
128.3252413869
 10
-95.7422793352
 20
128.7120228501
 10
-95.8120309888
 20
129.1053292634
 10
-95.8736866433
 20
129.5051515024
 10
-95.9271600006
 20
129.9109299432
 10
-95.9724396025
 20
130.3226729266
 10
-96.0095369071
 20
130.7403721117
 10
-96.03839999
 20
131.1634428527
 10
-96.059011543
 20
131.5916902676
 10
-96.0713888742
 20
132.0253092383
 10
-96.0755319837
 20
132.4642997649
  0
LWPOLYLINE
  5
2AA
100
AcDbEntity
  8
ASSI
100
AcDbPolyline
 62
7
  6
CONTINUOUS
 90
22
 70
0
 10
-92.8722330174
 20
123.732820779
 10
-93.0360813867
 20
124.0370260547
 10
-93.1922945576
 20
124.3492529701
 10
-93.3408725298
 20
124.6695015254
 10
-93.4818775286
 20
124.9979286943
 10
-93.6152473289
 20
125.334377503
 10
-93.7407952553
 20
125.6783770302
 10
-93.8585103547
 20
126.0299378496
 10
-93.9684035802
 20
126.3890493874
 10
-94.0703211163
 20
126.7552090019
 10
-94.1642517945
 20
127.1284265628
 10
-94.2502067832
 20
127.5086922002
 10
-94.3280657729
 20
127.8954736634
 10
-94.3978174264
 20
128.2887800767
 10
-94.459473081
 20
128.6886023157
 10
-94.5129464382
 20
129.0943807566
 10
-94.5582260401
 20
129.5061237399
 10
-94.5953233447
 20
129.9238229251
 10
-94.6241864276
 20
130.3468936661
 10
-94.6447979806
 20
130.7751410809
 10
-94.6571753118
 20
131.2087600516
 10
-94.6613184213
 20
131.6477505782
  0
LWPOLYLINE
  5
2AB
100
AcDbEntity
  8
ASSI
100
AcDbPolyline
 62
7
  6
CONTINUOUS
 90
19
 70
0
 10
-91.9206567355
 20
120.3145512297
 10
-91.768277104
 20
120.0298887885
 10
-91.6242466278
 20
119.7365757385
 10
-91.4885653069
 20
119.4346120798
 10
-91.3611575565
 20
119.1237949972
 10
-91.2420989615
 20
118.8043273058
 10
-91.1316162761
 20
118.4768174513
 10
-91.0297258441
 20
118.1412501072
 10
-90.9364113217
 20
117.7976406
 10
-90.8518504322
 20
117.4466433549
 10
-90.7760598579
 20
117.0882442926
 10
-90.7090229165
 20
116.7224574924
 10
-90.6508672838
 20
116.3499796175
 10
-90.6016098856
 20
115.9707979163
 10
-90.5612337962
 20
115.5849251405
 10
-90.5298159144
 20
115.1930962081
 10
-90.5073818729
 20
114.795556092
 10
-90.4939060388
 20
114.3920598194
 10
-90.4893884123
 20
113.9826073903
  0
LWPOLYLINE
  5
2AC
100
AcDbEntity
  8
ASSI
100
AcDbPolyline
 62
7
  6
CONTINUOUS
 90
19
 70
0
 10
-90.5064431731
 20
119.498002043
 10
-90.3540635416
 20
119.2133396018
 10
-90.2100330654
 20
118.9200265519
 10
-90.0743517445
 20
118.6180628932
 10
-89.9469439941
 20
118.3072458105
 10
-89.8278853991
 20
117.9877781191
 10
-89.7174027137
 20
117.6602682646
 10
-89.6155122817
 20
117.3247009205
 10
-89.5221977593
 20
116.9810914133
 10
-89.4376368698
 20
116.6300941682
 10
-89.3618462955
 20
116.2716951059
 10
-89.2948093541
 20
115.9059083057
 10
-89.2366537214
 20
115.5334304309
 10
-89.1873963233
 20
115.1542487297
 10
-89.1470202339
 20
114.7683759538
 10
-89.115602352
 20
114.3765470215
 10
-89.0931683105
 20
113.9790069054
 10
-89.0796924765
 20
113.5755106328
 10
-89.07517485
 20
113.1660582037
  0
LWPOLYLINE
  5
2AD
100
AcDbEntity
  8
ASSI
100
AcDbPolyline
 62
7
  6
CONTINUOUS
 90
22
 70
0
 10
-47.3053297713
 20
92.5172973982
 10
-47.2936553967
 20
92.4684085998
 10
-47.274809112
 20
92.3991831867
 10
-47.2536350337
 20
92.3298412201
 10
-47.2301173662
 20
92.260381909
 10
-47.2042719052
 20
92.1908060444
 10
-47.1762736345
 20
92.1215846821
 10
-47.1461079458
 20
92.0527202277
 10
-47.1137894474
 20
91.9842102756
 10
-47.0795369483
 20
91.916518665
 10
-47.0433373248
 20
91.8496509489
 10
-47.0052037006
 20
91.7836015744
 10
-46.9653942552
 20
91.7188177214
 10
-46.9238976169
 20
91.6553079776
 10
-46.8807251574
 20
91.5930637553
 10
-46.8361691712
 20
91.5325064725
 10
-46.79022027
 20
91.4736475761
 10
-46.742887842
 20
91.416475619
 10
-46.6944923464
 20
91.3613776779
 10
-46.6450265694
 20
91.3083678263
 10
-46.5944977247
 20
91.2574319907
 10
-46.5578916112
 20
91.2227778638
  0
LINE
  5
2AE
100
AcDbEntity
  8
RACCORDO
100
AcDbLine
 62
253
  6
CONTINUOUS
 10
-1.7924050739
 20
-156.4128140269
 11
-1.8209628446
 21
-156.2093163703
  0
LWPOLYLINE
  5
2AF
100
AcDbEntity
  8
0
100
AcDbPolyline
 62
7
  6
CONTINUOUS
 90
19
 70
0
 10
-1.5
 20
-156.4445977626
 10
-1.5137821583
 20
-156.2177697681
 10
-1.5496656908
 20
-155.9887513009
 10
-1.6076505975
 20
-155.7575423609
 10
-1.6894654499
 20
-155.5201577898
 10
-1.7933816764
 20
-155.280582746
 10
-1.9142135624
 20
-155.0507727043
 10
-2.0528195264
 20
-154.8312232089
 10
-2.2083411498
 20
-154.6214387156
 10
-2.3730174622
 20
-154.4318880661
 10
-2.5473130363
 20
-154.2635980669
 10
-2.7307632994
 20
-154.1155419115
 10
-2.9142135624
 20
-153.9951080223
 10
-3.0976638254
 20
-153.9036981461
 10
-3.2811140884
 20
-153.8399105361
 10
-3.4554096625
 20
-153.8069283752
 10
-3.6200859749
 20
-153.8063149469
 10
-3.7756075984
 20
-153.8365069678
 10
-3.9142618825
 20
-153.8960256672
  0
LWPOLYLINE
  5
2B0
100
AcDbEntity
  8
RACCORDO
100
AcDbPolyline
 62
253
  6
CONTINUOUS
 90
25
 70
0
 10
-4.6112698372
 20
-155.4647387386
 10
-4.6025939716
 20
-155.6198099219
 10
-4.5782096259
 20
-155.7776354523
 10
-4.5381168
 20
-155.9382153298
 10
-4.4810455664
 20
-156.1048019935
 10
-4.4082658527
 20
-156.2741430044
 10
-4.3235874415
 20
-156.436481045
 10
-4.2264999523
 20
-156.5909546975
 10
-4.1175137657
 20
-156.7384253798
 10
-4.001969806
 20
-156.871720028
 10
-3.8794623075
 20
-156.9902314454
 10
-3.7503970358
 20
-157.0945668288
 10
-3.6213322118
 20
-157.1793747041
 10
-3.4922687166
 20
-157.2436116342
 10
-3.363205669
 20
-157.2883210562
 10
-3.2406986466
 20
-157.311281808
 10
-3.1251521182
 20
-157.3114191824
 10
-3.0161616149
 20
-157.2898078865
 10
-2.9190693075
 20
-157.2474508791
 10
-2.8343852186
 20
-157.1828953396
 10
-2.7615993255
 20
-157.0975940885
 10
-2.7045237318
 20
-156.996908547
 10
-2.6644291385
 20
-156.8826258552
 10
-2.6400448446
 20
-156.7529588728
 10
-2.6313708499
 20
-156.6079075999
  0
LWPOLYLINE
  5
2B1
100
AcDbEntity
  8
RACCORDO
100
AcDbPolyline
 62
253
  6
CONTINUOUS
 90
25
 70
0
 10
-2.6313708499
 20
-156.6079075999
 10
-2.6400467155
 20
-156.4528364166
 10
-2.6644310612
 20
-156.2950108863
 10
-2.7045238871
 20
-156.1344310088
 10
-2.7615951207
 20
-155.967844345
 10
-2.8343748344
 20
-155.7985033342
 10
-2.9190532456
 20
-155.6361652935
 10
-3.0161407348
 20
-155.481691641
 10
-3.1251269214
 20
-155.3342209587
 10
-3.2406708811
 20
-155.2009263105
 10
-3.3631783796
 20
-155.0824148931
 10
-3.4922436513
 20
-154.9780795097
 10
-3.6213084753
 20
-154.8932716344
 10
-3.7503719705
 20
-154.8290347043
 10
-3.8794350181
 20
-154.7843252823
 10
-4.0019420405
 20
-154.7613645305
 10
-4.117488569
 20
-154.7612271561
 10
-4.2264790722
 20
-154.782838452
 10
-4.3235713796
 20
-154.8251954594
 10
-4.4082554686
 20
-154.889750999
 10
-4.4810413616
 20
-154.97505225
 10
-4.5381169553
 20
-155.0757377916
 10
-4.5782115486
 20
-155.1900204834
 10
-4.6025958426
 20
-155.3196874657
 10
-4.6112698372
 20
-155.4647387386
  0
LWPOLYLINE
  5
2B2
100
AcDbEntity
  8
RACCORDO
100
AcDbPolyline
 62
7
  6
CONTINUOUS
 90
22
 70
0
 10
-4.7870057685
 20
-155.2197741232
 10
-4.7763065249
 20
-155.4264174612
 10
-4.7453180084
 20
-155.634255818
 10
-4.6956055408
 20
-155.8413150407
 10
-4.6284953029
 20
-156.0460724088
 10
-4.5451793966
 20
-156.2468973605
 10
-4.4470357672
 20
-156.4415952334
 10
-4.3354621535
 20
-156.6281042535
 10
-4.2114363673
 20
-156.8050411658
 10
-4.0756977522
 20
-156.9710786986
 10
-3.9276478165
 20
-157.1258930242
 10
-3.7694303895
 20
-157.2658950673
 10
-3.6059651377
 20
-157.3863329024
 10
-3.4382630208
 20
-157.4865997316
 10
-3.2671793898
 20
-157.5659946633
 10
-3.0978374263
 20
-157.6225017809
 10
-2.9330893416
 20
-157.6564795738
 10
-2.7724249716
 20
-157.6692257065
 10
-2.616721826
 20
-157.6613858731
 10
-2.4676719813
 20
-157.6336703611
 10
-2.327207526
 20
-157.5871856396
 10
-2.1970079546
 20
-157.5233813222
  0
LINE
  5
2B3
100
AcDbEntity
  8
RACCORDO
100
AcDbLine
 62
253
  6
CONTINUOUS
 10
-1.7828427125
 20
-156.6079075999
 11
-1.7924050739
 21
-156.4128140269
  0
LWPOLYLINE
  5
2B4
100
AcDbEntity
  8
0
100
AcDbPolyline
 62
7
  6
CONTINUOUS
 90
31
 70
0
 10
1.8587572106
 20
-148.994336078
 10
1.859748324
 20
-149.0378324749
 10
1.8626502099
 20
-149.0820826845
 10
1.8674628685
 20
-149.1270867068
 10
1.8742099222
 20
-149.1729717941
 10
1.8828677485
 20
-149.2196106942
 10
1.8933654799
 20
-149.2666216499
 10
1.9057182178
 20
-149.314007715
 10
1.9199108607
 20
-149.3617658358
 10
1.9358272365
 20
-149.409505094
 10
1.9534814932
 20
-149.4572253348
 10
1.9728594827
 20
-149.5049267129
 10
1.993802589
 20
-149.5522187746
 10
2.0163236581
 20
-149.5990981603
 10
2.0404098439
 20
-149.6455682295
 10
2.0658639918
 20
-149.6912486072
 10
2.0926973298
 20
-149.7361328117
 10
2.12089863
 20
-149.7802273247
 10
2.150237054
 20
-149.8231712159
 10
2.1807219352
 20
-149.8649550412
 10
2.2123439401
 20
-149.9055882446
 10
2.2448442309
 20
-149.9447382281
 10
2.2782300161
 20
-149.9823928178
 10
2.3124940872
 20
-150.0185641874
 10
2.3473559796
 20
-150.0529562608
 10
2.3828206002
 20
-150.0855544337
 10
2.4188830422
 20
-150.1163733104
 10
2.4552481208
 20
-150.1451606266
 10
2.4918174411
 20
-150.1718322943
 10
2.5286893982
 20
-150.1964724015
 10
2.5658639918
 20
-150.2190809482
  0
LINE
  5
2B5
100
AcDbEntity
  8
0
100
AcDbLine
 62
7
  6
CONTINUOUS
 10
0.4445436483
 20
-149.8108852647
 11
0.4445436483
 21
129.4514558672
  0
LINE
  5
2B6
100
AcDbEntity
  8
0
100
AcDbLine
 62
7
  6
CONTINUOUS
 10
1.8587572106
 20
-148.994336078
 11
1.8587572106
 21
128.6920016203
  0
LWPOLYLINE
  5
2B7
100
AcDbEntity
  8
0
100
AcDbPolyline
 62
7
  6
CONTINUOUS
 90
16
 70
0
 10
-13.6975919755
 20
-141.6453933981
 10
-13.6985830888
 20
-141.6877452822
 10
-13.7014849748
 20
-141.7286444666
 10
-13.7062976333
 20
-141.7680909514
 10
-13.713044687
 20
-141.8061847102
 10
-13.7217025133
 20
-141.8428257695
 10
-13.7322002447
 20
-141.8777142082
 10
-13.7445529826
 20
-141.9108356412
 10
-13.7587456255
 20
-141.9422044537
 10
-13.7746620013
 20
-141.9715638801
 10
-13.792316258
 20
-141.9988974278
 10
-13.8116942476
 20
-142.0242215893
 10
-13.8326373538
 20
-142.0473290768
 10
-13.8551584229
 20
-142.0682016964
 10
-13.8792446087
 20
-142.086857642
 10
-13.9046745965
 20
-142.1031302593
  0
LWPOLYLINE
  5
2B8
100
AcDbEntity
  8
ASSI
100
AcDbPolyline
 62
7
  6
CONTINUOUS
 90
7
 70
0
 10
-15.5838512867
 20
-65.0974300322
 10
-15.5996239906
 20
-65.1660052193
 10
-15.6149034201
 20
-65.2496688008
 10
-15.6268023163
 20
-65.3357773711
 10
-15.635293952
 20
-65.424184584
 10
-15.6404050545
 20
-65.5150367857
 10
-15.6421356237
 20
-65.6083339763
  0
LWPOLYLINE
  5
2B9
100
AcDbEntity
  8
RACCORDO
100
AcDbPolyline
 62
7
  6
CONTINUOUS
 90
20
 70
0
 10
-73.5732735736
 20
-115.6493761961
 10
-73.5735507769
 20
-115.6498436774
 10
-73.5699690248
 20
-115.6414595354
 10
-73.563179882
 20
-115.6180911205
 10
-73.556685636
 20
-115.5798544236
 10
-73.5532503529
 20
-115.5271512382
 10
-73.5551326285
 20
-115.4612555069
 10
-73.5640440855
 20
-115.3836434954
 10
-73.5814519384
 20
-115.2951973813
 10
-73.608261723
 20
-115.1983757002
 10
-73.6445780321
 20
-115.0964966839
 10
-73.6903787317
 20
-114.9917708133
 10
-73.7450556
 20
-114.8869957216
 10
-73.8067269508
 20
-114.7862253854
 10
-73.8738707982
 20
-114.6917197166
 10
-73.9446673299
 20
-114.605563378
 10
-74.0158163947
 20
-114.5307520527
 10
-74.0845760552
 20
-114.4685671089
 10
-74.1492071211
 20
-114.4188322957
 10
-74.2077488896
 20
-114.3812710795
  0
LINE
  5
2BA
100
AcDbEntity
  8
RACCORDO
100
AcDbLine
 62
253
  6
CONTINUOUS
 10
-73.5659286986
 20
-14.7934734384
 11
-73.6089887731
 21
-14.8082613883
  0
LWPOLYLINE
  5
2BB
100
AcDbEntity
  8
RACCORDO
100
AcDbPolyline
 62
253
  6
CONTINUOUS
 90
5
 70
0
 10
-73.6089887731
 20
-14.8082613883
 10
-73.6776327483
 20
-14.8143884036
 10
-73.7514168211
 20
-14.8052232861
 10
-73.8286927753
 20
-14.7809707666
 10
-73.9077343935
 20
-14.7421726042
  0
LWPOLYLINE
  5
2BC
100
AcDbEntity
  8
0
100
AcDbPolyline
 62
7
  6
CONTINUOUS
 90
17
 70
0
 10
27.3146013334
 20
-171.4488468871
 10
27.341534811
 20
-171.7815710885
 10
27.421309356
 20
-172.1327240333
 10
27.5508863807
 20
-172.4889304149
 10
27.7288148957
 20
-172.8426719454
 10
27.9420940916
 20
-173.1681015807
 10
28.1853392385
 20
-173.4591474436
 10
28.4492852043
 20
-173.7047236878
 10
28.7288148957
 20
-173.8983366273
 10
29.0035037495
 20
-174.0258394297
 10
29.2677297902
 20
-174.0862874916
 10
29.51142873
 20
-174.0773783651
 10
29.7288148957
 20
-173.9974468795
 10
29.9040044023
 20
-173.8523334366
 10
30.0344313057
 20
-173.6467740426
 10
30.1151276857
 20
-173.3885983909
 10
30.1430284581
 20
-173.0819451177
  0
LWPOLYLINE
  5
2BD
100
AcDbEntity
  8
0
100
AcDbPolyline
 62
7
  6
CONTINUOUS
 90
17
 70
0
 10
30.1430284581
 20
-173.0819452604
 10
30.1160949805
 20
-172.749221059
 10
30.0363204355
 20
-172.3980681142
 10
29.9067434107
 20
-172.0418617326
 10
29.7288148957
 20
-171.6881202021
 10
29.5155356999
 20
-171.3626905669
 10
29.272290553
 20
-171.0716447039
 10
29.0083445872
 20
-170.8260684597
 10
28.7288148957
 20
-170.6324555202
 10
28.454126042
 20
-170.5049527178
 10
28.1899000013
 20
-170.444504656
 10
27.9462010615
 20
-170.4534137824
 10
27.7288148957
 20
-170.533345268
 10
27.5536253892
 20
-170.6784587109
 10
27.4231984858
 20
-170.8840181049
 10
27.3425021058
 20
-171.1421937566
 10
27.3146013334
 20
-171.4488470299
  0
LWPOLYLINE
  5
2BE
100
AcDbEntity
  8
ASSI
100
AcDbPolyline
 62
7
  6
CONTINUOUS
 90
36
 70
0
 10
5.040737726
 20
-99.1869859858
 10
5.037686386
 20
-98.964664146
 10
5.0286145223
 20
-98.7395299359
 10
5.0135221348
 20
-98.5115833557
 10
4.9923819209
 20
-98.2805893766
 10
4.9652211832
 20
-98.0467830273
 10
4.9321218299
 20
-97.8108693939
 10
4.8930659341
 20
-97.5728421149
 10
4.8480714228
 20
-97.3327075519
 10
4.7972739851
 20
-97.0911898745
 10
4.7406561037
 20
-96.8482849077
 10
4.678235296
 20
-96.6039968265
 10
4.6101998033
 20
-96.3590623268
 10
4.5365326766
 20
-96.113479457
 10
4.4572508649
 20
-95.8672501686
 10
4.3725934573
 20
-95.6211170111
 10
4.2825442261
 20
-95.3750802749
 10
4.187119399
 20
-95.1291396697
 10
4.0866067469
 20
-94.8840368746
 10
3.9809909111
 20
-94.6397744188
 10
3.8702872504
 20
-94.396349773
 10
3.754829612
 20
-94.1544970291
 10
3.634603645
 20
-93.9142209322
 10
3.5096237003
 20
-93.6755167372
 10
3.3802666779
 20
-93.4391043004
 10
3.2465193646
 20
-93.20499054
 10
3.1083949736
 20
-92.9731685379
 10
2.9663100444
 20
-92.7443373958
 10
2.8202526212
 20
-92.5185061424
 10
2.6702346598
 20
-92.2956657491
 10
2.5167085669
 20
-92.076488232
 10
2.3596637524
 20
-91.8609846484
 10
2.1991108065
 20
-91.649143941
 10
2.0355339059
 20
-91.4416049545
 10
1.8689239224
 20
-91.2383806745
 10
1.8587572106
 20
-91.2264586008
  0
LWPOLYLINE
  5
2BF
100
AcDbEntity
  8
ASSI
100
AcDbPolyline
 62
7
  6
CONTINUOUS
 90
22
 70
0
 10
51.0026785031
 20
86.2672230313
 10
50.9778690717
 20
86.2171895515
 10
50.9478514941
 20
86.1469796617
 10
50.9210745482
 20
86.0736828747
 10
50.8975552693
 20
85.9972829633
 10
50.877276622
 20
85.9177961549
 10
50.8603450219
 20
85.8356395699
 10
50.846778064
 20
85.7507991738
 10
50.8365581533
 20
85.6632890013
 10
50.8297389205
 20
85.5735682767
 10
50.8263382426
 20
85.4816253797
 10
50.8263382426
 20
85.3874719307
 10
50.8297389205
 20
85.291602016
 10
50.8365581533
 20
85.1940066124
 10
50.846778064
 20
85.0946947431
 10
50.8603450219
 20
84.9941875641
 10
50.877276622
 20
84.8924787918
 10
50.8975552693
 20
84.7895747097
 10
50.9210745482
 20
84.6860153246
 10
50.9478514941
 20
84.5817971916
 10
50.9778690717
 20
84.4769237556
 10
51.0026785031
 20
84.3982409663
  0
LWPOLYLINE
  5
2C0
100
AcDbEntity
  8
RACCORDO
100
AcDbPolyline
 62
253
  6
CONTINUOUS
 90
6
 70
0
 10
-72.7261752787
 20
-116.5434303834
 10
-72.643946425
 20
-116.4264554885
 10
-72.5788080509
 20
-116.2897021254
 10
-72.5316410086
 20
-116.1350195184
 10
-72.5030832041
 20
-115.9644995717
 10
-72.4935208311
 20
-115.7804482671
  0
LWPOLYLINE
  5
2C1
100
AcDbEntity
  8
ASSI
100
AcDbPolyline
 62
7
  6
CONTINUOUS
 90
53
 70
0
 10
27.4913780286
 20
-171.5509155354
 10
27.4926825012
 20
-171.6169240951
 10
27.4965243525
 20
-171.6839950112
 10
27.5029035824
 20
-171.7521282837
 10
27.5118438984
 20
-171.8214693318
 10
27.5233215931
 20
-171.8918727364
 10
27.5372655444
 20
-171.9629022397
 10
27.5536910663
 20
-172.0345617292
 10
27.5725828449
 20
-172.1068473174
 10
27.5938238163
 20
-172.1793110835
 10
27.6174285678
 20
-172.2519541337
 10
27.6433825121
 20
-172.3247753618
 10
27.6715248246
 20
-172.3973235278
 10
27.7018690937
 20
-172.4695969361
 10
27.7344017309
 20
-172.5415972824
 10
27.7689211464
 20
-172.6128784132
 10
27.8054396768
 20
-172.6834358628
 10
27.8439449855
 20
-172.753274097
 10
27.8841984726
 20
-172.8219603601
 10
27.9262109932
 20
-172.8894874992
 10
27.9699716922
 20
-172.9558626672
 10
28.0152094046
 20
-173.0206745675
 10
28.0619333017
 20
-173.0839134931
 10
28.1101342121
 20
-173.1455891511
 10
28.1595134568
 20
-173.2053193655
 10
28.2100783525
 20
-173.2630920563
 10
28.2618215825
 20
-173.3189193034
 10
28.3144225176
 20
-173.372455171
 10
28.3678864836
 20
-173.4236854309
 10
28.4222081547
 20
-173.4726243113
 10
28.4770509243
 20
-173.5189685602
 10
28.5324180281
 20
-173.5627020665
 10
28.5883062304
 20
-173.6038409413
 10
28.6443692175
 20
-173.6421302657
 10
28.7006080747
 20
-173.677552346
 10
28.7570217167
 20
-173.7101248758
 10
28.8132605739
 20
-173.7396460182
 10
28.869323561
 20
-173.766096826
 10
28.9252117633
 20
-173.7894962463
 10
28.9805788671
 20
-173.8096992836
 10
29.0354216367
 20
-173.8266860904
 10
29.0897433078
 20
-173.8404765143
 10
29.1432072739
 20
-173.8509851022
 10
29.195808209
 20
-173.858191476
 10
29.247551439
 20
-173.8621160138
 10
29.2981163347
 20
-173.8627343971
 10
29.3474955794
 20
-173.8600260968
 10
29.3956964898
 20
-173.854011642
 10
29.4424203868
 20
-173.8447283014
 10
29.4876580992
 20
-173.8321557775
 10
29.5314187983
 20
-173.8163143679
 10
29.5734313189
 20
-173.7973022345
 10
29.6038531536
 20
-173.7809091543
  0
LWPOLYLINE
  5
2C2
100
AcDbEntity
  8
ASSI
100
AcDbPolyline
 62
7
  6
CONTINUOUS
 90
53
 70
0
 10
29.9662517628
 20
-172.9798766121
 10
29.9649472902
 20
-172.9138680524
 10
29.961105439
 20
-172.8467971364
 10
29.954726209
 20
-172.7786638639
 10
29.9457858931
 20
-172.7093228157
 10
29.9343081984
 20
-172.6389194111
 10
29.920364247
 20
-172.5678899078
 10
29.9039387251
 20
-172.4962304183
 10
29.8850469466
 20
-172.4239448301
 10
29.8638059751
 20
-172.351481064
 10
29.8402012237
 20
-172.2788380138
 10
29.8142472794
 20
-172.2060167857
 10
29.7861049669
 20
-172.1334686197
 10
29.7557606978
 20
-172.0611952114
 10
29.7232280606
 20
-171.9891948652
 10
29.688708645
 20
-171.9179137343
 10
29.6521901146
 20
-171.8473562847
 10
29.613684806
 20
-171.7775180505
 10
29.5734313189
 20
-171.7088317874
 10
29.5314187983
 20
-171.6413046483
 10
29.4876580992
 20
-171.5749294803
 10
29.4424203868
 20
-171.5101175801
 10
29.3956964898
 20
-171.4468786544
 10
29.3474955794
 20
-171.3852029964
 10
29.2981163347
 20
-171.325472782
 10
29.247551439
 20
-171.2677000913
 10
29.195808209
 20
-171.2118728441
 10
29.1432072739
 20
-171.1583369765
 10
29.0897433078
 20
-171.1071067166
 10
29.0354216367
 20
-171.0581678362
 10
28.9805788671
 20
-171.0118235874
 10
28.9252117633
 20
-170.968090081
 10
28.869323561
 20
-170.9269512062
 10
28.8132605739
 20
-170.8886618818
 10
28.7570217167
 20
-170.8532398016
 10
28.7006080747
 20
-170.8206672717
 10
28.6443692175
 20
-170.7911461293
 10
28.5883062304
 20
-170.7646953215
 10
28.5324180281
 20
-170.7412959012
 10
28.4770509243
 20
-170.7210928639
 10
28.4222081547
 20
-170.7041060571
 10
28.3678864836
 20
-170.6903156333
 10
28.3144225176
 20
-170.6798070454
 10
28.2618215825
 20
-170.6726006716
 10
28.2100783525
 20
-170.6686761337
 10
28.1595134568
 20
-170.6680577504
 10
28.1101342121
 20
-170.6707660507
 10
28.0619333017
 20
-170.6767805056
 10
28.0152094046
 20
-170.6860638461
 10
27.9699716922
 20
-170.69863637
 10
27.9262109932
 20
-170.7144777797
 10
27.8841984726
 20
-170.733489913
 10
27.8537766378
 20
-170.7498829932
  0
LWPOLYLINE
  5
2C3
100
AcDbEntity
  8
RACCORDO
100
AcDbPolyline
 62
253
  6
CONTINUOUS
 90
3
 70
0
 10
-74.3670137561
 20
-114.3925406505
 10
-74.322363189
 20
-114.3427019975
 10
-74.3124722801
 20
-114.3356325259
  0
LWPOLYLINE
  5
2C4
100
AcDbEntity
  8
ASSI
100
AcDbPolyline
 62
7
  6
CONTINUOUS
 90
21
 70
0
 10
-32.7360334843
 20
-71.7185899175
 10
-32.7903884244
 20
-71.7753424707
 10
-32.8960042602
 20
-71.8976424068
 10
-32.9965169123
 20
-72.0266757107
 10
-33.0919417394
 20
-72.1624221174
 10
-33.1819909706
 20
-72.3044722587
 10
-33.2666483783
 20
-72.4528451637
 10
-33.3459301899
 20
-72.6075218034
 10
-33.4195973166
 20
-72.7680357217
 10
-33.4876328093
 20
-72.93440454
 10
-33.550053617
 20
-73.1066106369
 10
-33.6066714984
 20
-73.2841346935
 10
-33.6574689361
 20
-73.4669927631
 10
-33.7024634474
 20
-73.6551687923
 10
-33.7415193432
 20
-73.8480953017
 10
-33.7746186965
 20
-74.0457866317
 10
-33.8017794342
 20
-74.2482284419
 10
-33.8229196481
 20
-74.4548102318
 10
-33.8380120356
 20
-74.6653285013
 10
-33.8470838993
 20
-74.8799867505
 10
-33.8501352393
 20
-75.0987849795
  0
LINE
  5
2C5
100
AcDbEntity
  8
0
100
AcDbLine
 62
7
  6
CONTINUOUS
 10
-51.8813581595
 20
-62.6468438872
 11
-68.851920908
 21
-72.4454341271
  0
LINE
  5
2C6
100
AcDbEntity
  8
0
100
AcDbLine
 62
7
  6
CONTINUOUS
 10
-51.8813581595
 20
-63.4632352542
 11
-50.4671445972
 21
-62.6466860675
  0
LWPOLYLINE
  5
2C7
100
AcDbEntity
  8
0
100
AcDbPolyline
 62
7
  6
CONTINUOUS
 90
31
 70
0
 10
-51.8813581595
 20
-62.6468438872
 10
-51.8431933302
 20
-62.6259521223
 10
-51.8034188405
 20
-62.6063379577
 10
-51.7620346903
 20
-62.5880013934
 10
-51.7189178476
 20
-62.570898908
 10
-51.6741913446
 20
-62.555074023
 10
-51.6282242774
 20
-62.5406573026
 10
-51.5810077929
 20
-62.5276608417
 10
-51.5325507444
 20
-62.5160725455
 10
-51.4832487883
 20
-62.5059866936
 10
-51.433095043
 20
-62.4974154702
 10
-51.3820963902
 20
-62.490346691
 10
-51.3306691311
 20
-62.4848380831
 10
-51.2788086117
 20
-62.4809024155
 10
-51.226519486
 20
-62.4785269192
 10
-51.1742320167
 20
-62.4777310136
 10
-51.1219481957
 20
-62.4785275781
 10
-51.0696660311
 20
-62.4809037333
 10
-51.0178098104
 20
-62.4848402609
 10
-50.9663804367
 20
-62.4903502399
 10
-50.915377007
 20
-62.4974205914
 10
-50.8652210998
 20
-62.5059928598
 10
-50.8159223044
 20
-62.5160788903
 10
-50.7674710315
 20
-62.5276668378
 10
-50.7202600924
 20
-62.5406627117
 10
-50.6742975533
 20
-62.5550786092
 10
-50.629575348
 20
-62.5709024331
 10
-50.5864620885
 20
-62.5880039011
 10
-50.5450806456
 20
-62.6063395857
 10
-50.5053081485
 20
-62.6259529144
 10
-50.4671445972
 20
-62.6468438872
  0
LWPOLYLINE
  5
2C8
100
AcDbEntity
  8
RACCORDO
100
AcDbPolyline
 62
253
  6
CONTINUOUS
 90
25
 70
0
 10
-74.3319984622
 20
85.3570596577
 10
-74.4598026177
 20
85.4415421997
 10
-74.5814697949
 20
85.5397101134
 10
-74.6969999937
 20
85.6515633986
 10
-74.8081516908
 20
85.7794620001
 10
-74.9131664095
 20
85.9210459732
 10
-75.0067687202
 20
86.0692354834
 10
-75.0883697227
 20
86.224363472
 10
-75.1585583172
 20
86.3860969977
 10
-75.2138257744
 20
86.5463574021
 10
-75.253412951
 20
86.7050681161
 10
-75.2780789903
 20
86.8623057087
 10
-75.2865925934
 20
87.0102212281
 10
-75.2781337691
 20
87.1483414876
 10
-75.2535225087
 20
87.2771396737
 10
-75.2139874865
 20
87.3901863944
 10
-75.1587713111
 20
87.486681955
 10
-75.088631374
 20
87.5674260501
 10
-75.0070685247
 20
87.6283883715
 10
-74.9135020649
 20
87.6685645581
 10
-74.8085126928
 20
87.6889589709
 10
-74.6973433521
 20
87.6885543846
 10
-74.5817416907
 20
87.6670117239
 10
-74.4599600608
 20
87.6246700641
 10
-74.3319984622
 20
87.561529405
  0
LWPOLYLINE
  5
2C9
100
AcDbEntity
  8
RACCORDO
100
AcDbPolyline
 62
253
  6
CONTINUOUS
 90
25
 70
0
 10
-74.3319984622
 20
87.561529405
 10
-74.2041943067
 20
87.4770468629
 10
-74.0825271296
 20
87.3788789493
 10
-73.9669969307
 20
87.2670256641
 10
-73.8558452337
 20
87.1391270626
 10
-73.7508305149
 20
86.9975430895
 10
-73.6572282042
 20
86.8493535793
 10
-73.5756272017
 20
86.6942255907
 10
-73.5054386072
 20
86.5324920649
 10
-73.45017115
 20
86.3722316606
 10
-73.4105839734
 20
86.2135209466
 10
-73.3859179341
 20
86.0562833539
 10
-73.377404331
 20
85.9083678346
 10
-73.3858631553
 20
85.7702475751
 10
-73.4104744158
 20
85.6414493889
 10
-73.4500094379
 20
85.5284026683
 10
-73.5052256133
 20
85.4319071077
 10
-73.5753655504
 20
85.3511630126
 10
-73.6569283998
 20
85.2902006912
 10
-73.7504948596
 20
85.2500245046
 10
-73.8554842317
 20
85.2296300918
 10
-73.9666535724
 20
85.2300346781
 10
-74.0822552337
 20
85.2515773388
 10
-74.2040368637
 20
85.2939189986
 10
-74.3319984622
 20
85.3570596577
  0
LWPOLYLINE
  5
2CA
100
AcDbEntity
  8
RACCORDO
100
AcDbPolyline
 62
253
  6
CONTINUOUS
 90
15
 70
0
 10
-73.9077343935
 20
86.0919065797
 10
-73.9867759334
 20
86.144383638
 10
-74.0640518305
 20
86.2093673858
 10
-74.1378358696
 20
86.2854062008
 10
-74.2064798384
 20
86.3708015102
 10
-74.2684503399
 20
86.4636457268
 10
-74.3223630485
 20
86.5618648599
 10
-74.3670136414
 20
86.6632648574
 10
-74.4014046955
 20
86.7655806109
 10
-74.4247679674
 20
86.8665265475
 10
-74.4365815599
 20
86.9638476985
 10
-74.4365815771
 20
87.055370072
 10
-74.4247680187
 20
87.1390492088
 10
-74.4014047796
 20
87.2130158553
 10
-74.3670137561
 20
87.2756177173
  0
LINE
  5
2CB
100
AcDbEntity
  8
ASSI
100
AcDbLine
 62
253
  6
CONTINUOUS
 10
40.8556961931
 20
110.2919174052
 11
40.8556961931
 21
108.6589768516
  0
LWPOLYLINE
  5
2CC
100
AcDbEntity
  8
ASSI
100
AcDbPolyline
 62
7
  6
CONTINUOUS
 90
20
 70
0
 10
-16.486867469
 20
-65.1661146059
 10
-16.5293168521
 20
-65.1921760234
 10
-16.5837775078
 20
-65.2305843193
 10
-16.6357542746
 20
-65.2731200649
 10
-16.6849743956
 20
-65.3195600465
 10
-16.7314233794
 20
-65.3699247884
 10
-16.7751157173
 20
-65.4241937663
 10
-16.8158221265
 20
-65.4820821946
 10
-16.8535269101
 20
-65.5436091003
 10
-16.8882457649
 20
-65.6087554564
 10
-16.9197964978
 20
-65.6771793963
 10
-16.9481624543
 20
-65.7488981498
 10
-16.9733602889
 20
-65.8238944871
 10
-16.9952577716
 20
-65.9017748522
 10
-17.013837553
 20
-65.9825544059
 10
-17.0291169824
 20
-66.0662179874
 10
-17.0410158786
 20
-66.1523265577
 10
-17.0495075144
 20
-66.2407337706
 10
-17.0546186169
 20
-66.3315859723
 10
-17.0563491861
 20
-66.4248831629
  0
LWPOLYLINE
  5
2CD
100
AcDbEntity
  8
ASSI
100
AcDbPolyline
 62
7
  6
CONTINUOUS
 90
26
 70
0
 10
-33.5041419339
 20
-72.0245787946
 10
-33.6038777536
 20
-72.0849228258
 10
-33.733234776
 20
-72.1719570156
 10
-33.8582147207
 20
-72.2663375032
 10
-33.9784406877
 20
-72.367779667
 10
-34.0938983261
 20
-72.4763048241
 10
-34.2046019868
 20
-72.5918916574
 10
-34.3102178225
 20
-72.7141915935
 10
-34.4107304747
 20
-72.8432248974
 10
-34.5061553018
 20
-72.9789713041
 10
-34.5962045329
 20
-73.1210214453
 10
-34.6808619406
 20
-73.2693943504
 10
-34.7601437523
 20
-73.42407099
 10
-34.833810879
 20
-73.5845849084
 10
-34.9018463716
 20
-73.7509537266
 10
-34.9642671794
 20
-73.9231598236
 10
-35.0208850608
 20
-74.1006838801
 10
-35.0716824985
 20
-74.2835419497
 10
-35.1166770098
 20
-74.471717979
 10
-35.1557329056
 20
-74.6646444884
 10
-35.1888322589
 20
-74.8623358184
 10
-35.2159929966
 20
-75.0647776286
 10
-35.2371332105
 20
-75.2713594185
 10
-35.252225598
 20
-75.481877688
 10
-35.2612974617
 20
-75.6965359372
 10
-35.2643488017
 20
-75.9153341661
  0
LINE
  5
2CE
100
AcDbEntity
  8
ASSI
100
AcDbLine
 62
253
  6
CONTINUOUS
 10
-33.8501352393
 20
-75.0987849795
 11
-35.2643488017
 21
-75.9153341661
  0
LWPOLYLINE
  5
2CF
100
AcDbEntity
  8
RACCORDO
100
AcDbPolyline
 62
7
  6
CONTINUOUS
 90
6
 70
0
 10
-74.2077488896
 20
87.2868872883
 10
-74.2487889317
 20
87.3085729619
 10
-74.282977763
 20
87.323214574
 10
-74.3090930793
 20
87.3317638759
 10
-74.3261540077
 20
87.3356108944
 10
-74.3311298345
 20
87.3363276675
  0
LINE
  5
2D0
100
AcDbEntity
  8
0
100
AcDbLine
 62
7
  6
CONTINUOUS
 10
-68.1448141268
 20
95.1343405409
 11
-68.851920908
 21
95.5426151343
  0
LWPOLYLINE
  5
2D1
100
AcDbEntity
  8
ASSI
100
AcDbPolyline
 62
7
  6
CONTINUOUS
 90
52
 70
0
 10
53.6543289326
 20
-107.2523424957
 10
53.6560595018
 20
-107.3476381042
 10
53.6611706043
 20
-107.444392479
 10
53.66966224
 20
-107.54260562
 10
53.6815611362
 20
-107.6424547374
 10
53.6968405657
 20
-107.743762621
 10
53.715420347
 20
-107.8459976405
 10
53.7373178297
 20
-107.9491646697
 10
53.7625156643
 20
-108.0532588348
 10
53.7908816209
 20
-108.1577338839
 10
53.8224323537
 20
-108.2625918193
 10
53.8571512086
 20
-108.3678306387
 10
53.8948559922
 20
-108.4728980834
 10
53.9355624013
 20
-108.5777932527
 10
53.9792547393
 20
-108.6825170473
 10
54.0257037231
 20
-108.7865199113
 10
54.074923844
 20
-108.8897980549
 10
54.1269006108
 20
-108.992355268
 10
54.1813612666
 20
-109.093653364
 10
54.2383188687
 20
-109.193685724
 10
54.2977603597
 20
-109.2924589669
 10
54.3593738103
 20
-109.3894547635
 10
54.4231706381
 20
-109.4846637697
 10
54.4891394256
 20
-109.5780953296
 10
54.5569339901
 20
-109.6692591449
 10
54.6265639296
 20
-109.7581432946
 10
54.6980196462
 20
-109.8447596998
 10
54.7709261638
 20
-109.9286538262
 10
54.8452911092
 20
-110.0098113631
 10
54.9211068557
 20
-110.0882466212
 10
54.9979755472
 20
-110.1635479982
 10
55.0759027189
 20
-110.2356990195
 10
55.1548828356
 20
-110.3047161597
 10
55.2345014357
 20
-110.3702372394
 10
55.3147618757
 20
-110.4322438805
 10
55.395660799
 20
-110.4907544611
 10
55.4767736749
 20
-110.5454619371
 10
55.558101628
 20
-110.5963463161
 10
55.6396435336
 20
-110.6434275905
 10
55.7209714867
 20
-110.6864586932
 10
55.8020843626
 20
-110.725418333
 10
55.882983286
 20
-110.7603278013
 10
55.9632437259
 20
-110.7910039045
 10
56.042862326
 20
-110.8174243884
 10
56.1218424427
 20
-110.8396115073
 10
56.1997696144
 20
-110.8574488306
 10
56.2766383059
 20
-110.8709134918
 10
56.3524540524
 20
-110.8800283573
 10
56.4268189978
 20
-110.8847455953
 10
56.4997255155
 20
-110.8850420881
 10
56.5711812321
 20
-110.8809409533
 10
56.5888220745
 20
-110.8787932325
  0
LWPOLYLINE
  5
2D2
100
AcDbEntity
  8
ASSI
100
AcDbPolyline
 62
7
  6
CONTINUOUS
 90
34
 70
0
 10
55.0685424949
 20
-106.435793309
 10
55.0702730641
 20
-106.5310889175
 10
55.0753841666
 20
-106.6278432923
 10
55.0838758024
 20
-106.7260564333
 10
55.0957746986
 20
-106.8259055507
 10
55.1110541281
 20
-106.9272134343
 10
55.1296339094
 20
-107.0294484539
 10
55.1515313921
 20
-107.1326154831
 10
55.1767292267
 20
-107.2367096482
 10
55.2050951832
 20
-107.3411846973
 10
55.2366459161
 20
-107.4460426326
 10
55.2713647709
 20
-107.551281452
 10
55.3090695546
 20
-107.6563488968
 10
55.3497759637
 20
-107.761244066
 10
55.3934683016
 20
-107.8659678606
 10
55.4399172854
 20
-107.9699707246
 10
55.4891374064
 20
-108.0732488683
 10
55.5411141732
 20
-108.1758060813
 10
55.595574829
 20
-108.2771041773
 10
55.6525324311
 20
-108.3771365373
 10
55.7119739221
 20
-108.4759097803
 10
55.7735873727
 20
-108.5729055768
 10
55.8373842005
 20
-108.6681145831
 10
55.9033529879
 20
-108.7615461429
 10
55.9711475524
 20
-108.8527099583
 10
56.0407774919
 20
-108.941594108
 10
56.1122332085
 20
-109.0282105132
 10
56.1851397262
 20
-109.1121046396
 10
56.2595046716
 20
-109.1932621765
 10
56.3353204181
 20
-109.2716974346
 10
56.4121891096
 20
-109.3469988115
 10
56.4901162813
 20
-109.4191498329
 10
56.569096398
 20
-109.488166973
 10
56.5888220745
 20
-109.504399959
  0
LWPOLYLINE
  5
2D3
100
AcDbEntity
  8
0
100
AcDbPolyline
 62
7
  6
CONTINUOUS
 90
24
 70
0
 10
58.0030356368
 20
-210.478911636
 10
58.0052112174
 20
-210.6204155946
 10
58.0116672256
 20
-210.7589286153
 10
58.0224036615
 20
-210.8944506979
 10
58.0374440168
 20
-211.0271395391
 10
58.0567647998
 20
-211.1568374423
 10
58.0802955354
 20
-211.2830713176
 10
58.1080515987
 20
-211.4058285141
 10
58.1400176146
 20
-211.5251216827
 10
58.176076983
 20
-211.6405156861
 10
58.216244653
 20
-211.7519962843
 10
58.2605056755
 20
-211.8595777174
 10
58.3086986027
 20
-211.9628675681
 10
58.3608377941
 20
-212.0618501633
 10
58.4169088902
 20
-212.1565411762
 10
58.4767073643
 20
-212.246595209
 10
58.5402468292
 20
-212.3319953272
 10
58.6075136721
 20
-212.4127584653
 10
58.6782625287
 20
-212.4885900294
 10
58.7525061154
 20
-212.5594720089
 10
58.8302317156
 20
-212.6254224144
 10
58.9111558153
 20
-212.6862006833
 10
58.9952900955
 20
-212.7417879264
 10
59.0384557823
 20
-212.7675837484
  0
LINE
  5
2D4
100
AcDbEntity
  8
ASSI
100
AcDbLine
 62
7
  6
CONTINUOUS
 10
51.0026785031
 20
47.5431843527
 11
51.0026785031
 21
96.5545031679
  0
LINE
  5
2D5
100
AcDbEntity
  8
ASSI
100
AcDbLine
 62
7
  6
CONTINUOUS
 10
52.4168920655
 20
46.726635166
 11
52.4168920655
 21
95.7379539812
  0
LINE
  5
2D6
100
AcDbEntity
  8
0
100
AcDbLine
 62
7
  6
CONTINUOUS
 10
56.5888220745
 20
-209.6623624493
 11
56.5888220745
 21
29.0614919782
  0
LINE
  5
2D7
100
AcDbEntity
  8
0
100
AcDbLine
 62
7
  6
CONTINUOUS
 10
58.0030356368
 20
-210.478911636
 11
58.0030356368
 21
28.2449427915
  0
LWPOLYLINE
  5
2D8
100
AcDbEntity
  8
0
100
AcDbPolyline
 62
7
  6
CONTINUOUS
 90
7
 70
0
 10
-72.6248433609
 20
-116.5326121519
 10
-72.5040597951
 20
-116.4423636403
 10
-72.4001435685
 20
-116.3227884502
 10
-72.3183287162
 20
-116.1798816199
 10
-72.2603438095
 20
-116.0156321966
 10
-72.224460277
 20
-115.8280511333
 10
-72.2106781187
 20
-115.6171384298
  0
LWPOLYLINE
  5
2D9
100
AcDbEntity
  8
RACCORDO
100
AcDbPolyline
 62
253
  6
CONTINUOUS
 90
3
 70
0
 10
-72.9076860732
 20
-116.6959219894
 10
-72.8243828491
 20
-116.6390451213
 10
-72.7261752787
 20
-116.5434303834
  0
LWPOLYLINE
  5
2DA
100
AcDbEntity
  8
RACCORDO
100
AcDbPolyline
 62
7
  6
CONTINUOUS
 90
10
 70
0
 10
-74.9077827138
 20
-113.2318761715
 10
-75.0174280573
 20
-113.3045443212
 10
-75.1197825066
 20
-113.3923843085
 10
-75.2130041937
 20
-113.4951250826
 10
-75.2953526729
 20
-113.6122306283
 10
-75.3652796494
 20
-113.7429608775
 10
-75.4215797518
 20
-113.8868091823
 10
-75.4631606199
 20
-114.043432256
 10
-75.4888805657
 20
-114.2121603159
 10
-75.4976838872
 20
-114.3923147909
  0
LINE
  5
2DB
100
AcDbEntity
  8
ASSI
100
AcDbLine
 62
7
  6
CONTINUOUS
 10
-13.7367436067
 20
-69.9291619832
 11
-13.6975919755
 21
-69.9051251908
  0
LWPOLYLINE
  5
2DC
100
AcDbEntity
  8
ASSI
100
AcDbPolyline
 62
7
  6
CONTINUOUS
 90
18
 70
0
 10
-48.4387483448
 20
-86.7760930107
 10
-48.4575508872
 20
-86.7874682787
 10
-48.4937505107
 20
-86.812533577
 10
-48.5280030098
 20
-86.8406712602
 10
-48.5603215081
 20
-86.8718606205
 10
-48.5904871968
 20
-86.9058904937
 10
-48.6184854675
 20
-86.9427801548
 10
-48.6443309286
 20
-86.9825103288
 10
-48.6678485961
 20
-87.0248120269
 10
-48.6890226743
 20
-87.0697026988
 10
-48.707868959
 20
-87.1171648947
 10
-48.7242598535
 20
-87.1668772771
 10
-48.738178696
 20
-87.2188551151
 10
-48.7496421484
 20
-87.2730831395
 10
-48.7585725984
 20
-87.3291942055
 10
-48.7649441754
 20
-87.3870659313
 10
-48.76878275
 20
-87.4468206986
 10
-48.7700883223
 20
-87.5084585074
  0
LWPOLYLINE
  5
2DD
100
AcDbEntity
  8
ASSI
100
AcDbPolyline
 62
7
  6
CONTINUOUS
 90
18
 70
0
 10
-46.8386866
 20
-89.5473027028
 10
-46.8198840576
 20
-89.5359274348
 10
-46.7836844342
 20
-89.5108621365
 10
-46.7494319351
 20
-89.4827244533
 10
-46.7171134367
 20
-89.451535093
 10
-46.686947748
 20
-89.4175052197
 10
-46.6589494773
 20
-89.3806155587
 10
-46.6331040162
 20
-89.3408853847
 10
-46.6095863487
 20
-89.2985836865
 10
-46.5884122705
 20
-89.2536930147
 10
-46.5695659858
 20
-89.2062308188
 10
-46.5531750914
 20
-89.1565184364
 10
-46.5392562488
 20
-89.1045405984
 10
-46.5277927965
 20
-89.050312574
 10
-46.5188623465
 20
-88.994201508
 10
-46.5124907695
 20
-88.9363297822
 10
-46.5086521948
 20
-88.8765750149
 10
-46.5073466225
 20
-88.8149372061
  0
LWPOLYLINE
  5
2DE
100
AcDbEntity
  8
ASSI
100
AcDbPolyline
 62
7
  6
CONTINUOUS
 90
26
 70
0
 10
-25.0037403892
 20
-86.7467576242
 10
-24.9040045696
 20
-86.686413593
 10
-24.7746475471
 20
-86.5993794033
 10
-24.6496676024
 20
-86.5049989157
 10
-24.5294416354
 20
-86.4035567519
 10
-24.413983997
 20
-86.2950315948
 10
-24.3032803363
 20
-86.1794447615
 10
-24.1976645006
 20
-86.0571448254
 10
-24.0971518485
 20
-85.9281115215
 10
-24.0017270213
 20
-85.7923651148
 10
-23.9116777902
 20
-85.6503149735
 10
-23.8270203825
 20
-85.5019420685
 10
-23.7477385709
 20
-85.3472654288
 10
-23.6740714442
 20
-85.1867515105
 10
-23.6060359515
 20
-85.0203826922
 10
-23.5436151438
 20
-84.8481765953
 10
-23.4869972624
 20
-84.6706525387
 10
-23.4361998247
 20
-84.4877944691
 10
-23.3912053133
 20
-84.2996184399
 10
-23.3521494175
 20
-84.1066919305
 10
-23.3190500643
 20
-83.9090006005
 10
-23.2918893266
 20
-83.7065587903
 10
-23.2707491126
 20
-83.4999770004
 10
-23.2556567252
 20
-83.2894587309
 10
-23.2465848615
 20
-83.0748004817
 10
-23.2435335215
 20
-82.8560022527
  0
LINE
  5
2DF
100
AcDbEntity
  8
ASSI
100
AcDbLine
 62
253
  6
CONTINUOUS
 10
-15.6421356237
 20
-65.6083339763
 11
-17.0563491861
 21
-66.4248831629
  0
LINE
  5
2E0
100
AcDbEntity
  8
ASSI
100
AcDbLine
 62
253
  6
CONTINUOUS
 10
-47.6388294884
 20
-86.8552838347
 11
-48.7700883223
 21
-87.5084585074
  0
LINE
  5
2E1
100
AcDbEntity
  8
0
100
AcDbLine
 62
253
  6
CONTINUOUS
 10
-68.851920908
 20
-108.1668767453
 11
-70.2661344704
 21
-108.9834259319
  0
LINE
  5
2E2
100
AcDbEntity
  8
0
100
AcDbLine
 62
7
  6
CONTINUOUS
 10
-74.6249400013
 20
-113.0685663342
 11
-74.9077827138
 21
-113.2318761715
  0
LINE
  5
2E3
100
AcDbEntity
  8
0
100
AcDbLine
 62
253
  6
CONTINUOUS
 10
-68.1448141268
 20
-109.3916216154
 11
-69.5590276892
 21
-110.2081708021
  0
LINE
  5
2E4
100
AcDbEntity
  8
ASSI
100
AcDbLine
 62
253
  6
CONTINUOUS
 10
-90.4893884123
 20
113.9826073903
 11
-89.07517485
 21
113.1660582037
  0
LINE
  5
2E5
100
AcDbEntity
  8
ASSI
100
AcDbLine
 62
253
  6
CONTINUOUS
 10
58.0030356368
 20
28.2449427915
 11
56.5888220745
 21
29.0614919782
  0
LINE
  5
2E6
100
AcDbEntity
  8
ASSI
100
AcDbLine
 62
253
  6
CONTINUOUS
 10
-91.9206567355
 20
120.3145512297
 11
-90.5064431731
 21
119.498002043
  0
LINE
  5
2E7
100
AcDbEntity
  8
ASSI
100
AcDbLine
 62
253
  6
CONTINUOUS
 10
56.5717673137
 20
34.5768866308
 11
55.1575537513
 21
35.3934358175
  0
LINE
  5
2E8
100
AcDbEntity
  8
ASSI
100
AcDbLine
 62
253
  6
CONTINUOUS
 10
-94.2864465797
 20
124.5493699657
 11
-92.8722330174
 21
123.732820779
  0
LINE
  5
2E9
100
AcDbEntity
  8
ASSI
100
AcDbLine
 62
253
  6
CONTINUOUS
 10
54.2059774694
 20
38.8117053669
 11
52.7917639071
 21
39.6282545535
  0
LWPOLYLINE
  5
2EA
100
AcDbEntity
  8
ASSI
100
AcDbPolyline
 62
7
  6
CONTINUOUS
 90
7
 70
0
 10
55.1268268319
 20
-105.924889365
 10
55.1110541281
 20
-105.9934645521
 10
55.0957746986
 20
-106.0771281335
 10
55.0838758024
 20
-106.1632367039
 10
55.0753841666
 20
-106.2516439167
 10
55.0702730641
 20
-106.3424961185
 10
55.0685424949
 20
-106.435793309
  0
LWPOLYLINE
  5
2EB
100
AcDbEntity
  8
RACCORDO
100
AcDbPolyline
 62
7
  6
CONTINUOUS
 90
20
 70
0
 10
-2.8625954549
 20
-156.4768355288
 10
-2.8628726583
 20
-156.4773030102
 10
-2.8592909062
 20
-156.4689188681
 10
-2.8525017634
 20
-156.4455504533
 10
-2.8460075173
 20
-156.4073137564
 10
-2.8425722342
 20
-156.354610571
 10
-2.8444545098
 20
-156.2887148396
 10
-2.8533659668
 20
-156.2111028282
 10
-2.8707738197
 20
-156.1226567141
 10
-2.8975836043
 20
-156.0258350329
 10
-2.9338999135
 20
-155.9239560166
 10
-2.979700613
 20
-155.8192301461
 10
-3.0343774813
 20
-155.7144550544
 10
-3.0960488321
 20
-155.6136847182
 10
-3.1631926796
 20
-155.5191790494
 10
-3.2339892112
 20
-155.4330227108
 10
-3.305138276
 20
-155.3582113855
 10
-3.3738979365
 20
-155.2960264417
 10
-3.4385290024
 20
-155.2462916285
 10
-3.4970707709
 20
-155.2087304123
  0
LINE
  5
2EC
100
AcDbEntity
  8
0
100
AcDbLine
 62
7
  6
CONTINUOUS
 10
-72.6248433607
 20
-116.5326121521
 11
-72.9076860732
 21
-116.6959219894
  0
LINE
  5
2ED
100
AcDbEntity
  8
0
100
AcDbLine
 62
7
  6
CONTINUOUS
 10
-52.5884649407
 20
-107.7567872251
 11
-61.4287005432
 21
-112.8610284678
  0
LINE
  5
2EE
100
AcDbEntity
  8
0
100
AcDbLine
 62
7
  6
CONTINUOUS
 10
-85.539640944
 20
-127.5987746411
 11
-79.4585226258
 21
-124.0876131385
  0
LINE
  5
2EF
100
AcDbEntity
  8
ASSI
100
AcDbLine
 62
253
  6
CONTINUOUS
 10
-96.0755319837
 20
132.4642997649
 11
-94.6613184213
 21
131.6477505782
  0
LINE
  5
2F0
100
AcDbEntity
  8
ASSI
100
AcDbLine
 62
253
  6
CONTINUOUS
 10
52.4168920655
 20
46.726635166
 11
51.0026785031
 21
47.5431843527
  0
LINE
  5
2F1
100
AcDbEntity
  8
ASSI
100
AcDbLine
 62
7
  6
CONTINUOUS
 10
55.1575537513
 20
35.3934358175
 11
52.7917639071
 21
39.6282545535
  0
LINE
  5
2F2
100
AcDbEntity
  8
ASSI
100
AcDbLine
 62
7
  6
CONTINUOUS
 10
56.5717673137
 20
34.5768866308
 11
54.2059774694
 21
38.8117053669
  0
LWPOLYLINE
  5
2F3
100
AcDbEntity
  8
ASSI
100
AcDbPolyline
 62
7
  6
CONTINUOUS
 90
22
 70
0
 10
52.7917639071
 20
39.6282545535
 10
52.6279155377
 20
39.9324598292
 10
52.4717023669
 20
40.2446867446
 10
52.3231243946
 20
40.5649352999
 10
52.1821193958
 20
40.8933624688
 10
52.0487495955
 20
41.2298112775
 10
51.9232016691
 20
41.5738108047
 10
51.8054865697
 20
41.9253716241
 10
51.6955933442
 20
42.2844831619
 10
51.5936758081
 20
42.6506427764
 10
51.49974513
 20
43.0238603372
 10
51.4137901413
 20
43.4041259747
 10
51.3359311516
 20
43.7909074379
 10
51.266179498
 20
44.1842138512
 10
51.2045238435
 20
44.5840360902
 10
51.1510504862
 20
44.9898145311
 10
51.1057708843
 20
45.4015575144
 10
51.0686735797
 20
45.8192566996
 10
51.0398104968
 20
46.2423274406
 10
51.0191989438
 20
46.6705748554
 10
51.0068216126
 20
47.1041938261
 10
51.0026785031
 20
47.5431843527
  0
LWPOLYLINE
  5
2F4
100
AcDbEntity
  8
ASSI
100
AcDbPolyline
 62
7
  6
CONTINUOUS
 90
22
 70
0
 10
54.2059774694
 20
38.8117053669
 10
54.0421291001
 20
39.1159106425
 10
53.8859159293
 20
39.428137558
 10
53.737337957
 20
39.7483861132
 10
53.5963329582
 20
40.0768132821
 10
53.4629631579
 20
40.4132620908
 10
53.3374152315
 20
40.7572616181
 10
53.2197001321
 20
41.1088224374
 10
53.1098069066
 20
41.4679339753
 10
53.0078893705
 20
41.8340935898
 10
52.9139586924
 20
42.2073111506
 10
52.8280037036
 20
42.5875767881
 10
52.7501447139
 20
42.9743582513
 10
52.6803930604
 20
43.3676646646
 10
52.6187374058
 20
43.7674869036
 10
52.5652640486
 20
44.1732653444
 10
52.5199844467
 20
44.5850083278
 10
52.4828871421
 20
45.0027075129
 10
52.4540240592
 20
45.4257782539
 10
52.4334125062
 20
45.8540256688
 10
52.421035175
 20
46.2876446395
 10
52.4168920655
 20
46.726635166
  0
LWPOLYLINE
  5
2F5
100
AcDbEntity
  8
ASSI
100
AcDbPolyline
 62
7
  6
CONTINUOUS
 90
19
 70
0
 10
55.1575537513
 20
35.3934358175
 10
55.3099333828
 20
35.1087733763
 10
55.453963859
 20
34.8154603264
 10
55.5896451799
 20
34.5134966677
 10
55.7170529303
 20
34.202679585
 10
55.8361115253
 20
33.8832118936
 10
55.9465942107
 20
33.5557020391
 10
56.0484846427
 20
33.220134695
 10
56.1417991651
 20
32.8765251878
 10
56.2263600546
 20
32.5255279427
 10
56.3021506289
 20
32.1671288804
 10
56.3691875703
 20
31.8013420802
 10
56.427343203
 20
31.4288642054
 10
56.4766006012
 20
31.0496825042
 10
56.5169766906
 20
30.6638097283
 10
56.5483945724
 20
30.271980796
 10
56.5708286139
 20
29.8744406799
 10
56.584304448
 20
29.4709444073
 10
56.5888220745
 20
29.0614919782
  0
LWPOLYLINE
  5
2F6
100
AcDbEntity
  8
ASSI
100
AcDbPolyline
 62
7
  6
CONTINUOUS
 90
19
 70
0
 10
56.5717673137
 20
34.5768866308
 10
56.7241469452
 20
34.2922241896
 10
56.8681774214
 20
33.9989111397
 10
57.0038587423
 20
33.696947481
 10
57.1312664927
 20
33.3861303984
 10
57.2503250877
 20
33.066662707
 10
57.3608077731
 20
32.7391528525
 10
57.4626982051
 20
32.4035855084
 10
57.5560127275
 20
32.0599760011
 10
57.640573617
 20
31.7089787561
 10
57.7163641913
 20
31.3505796938
 10
57.7834011327
 20
30.9847928936
 10
57.8415567654
 20
30.6123150187
 10
57.8908141635
 20
30.2331333175
 10
57.9311902529
 20
29.8472605417
 10
57.9626081348
 20
29.4554316093
 10
57.9850421763
 20
29.0578914932
 10
57.9985180103
 20
28.6543952206
 10
58.0030356368
 20
28.2449427915
  0
LINE
  5
2F7
100
AcDbEntity
  8
0
100
AcDbLine
 62
253
  6
CONTINUOUS
 10
95.1968523273
 20
120.4385668776
 11
95.1968523273
 21
-193.0860194109
  0
LWPOLYLINE
  5
2F8
100
AcDbEntity
  8
RACCORDO
100
AcDbPolyline
 62
253
  6
CONTINUOUS
 90
6
 70
0
 10
-2.01549716
 20
-157.3708897162
 10
-1.9332683063
 20
-157.2539148213
 10
-1.8681299322
 20
-157.1171614582
 10
-1.82096289
 20
-156.9624788512
 10
-1.7924050854
 20
-156.7919589045
 10
-1.7828427125
 20
-156.6079075999
  0
LWPOLYLINE
  5
2F9
100
AcDbEntity
  8
ASSI
100
AcDbPolyline
 62
7
  6
CONTINUOUS
 90
26
 70
0
 10
3.2805308582
 20
-103.0777413573
 10
3.3802666779
 20
-103.0173973261
 10
3.5096237003
 20
-102.9303631364
 10
3.634603645
 20
-102.8359826488
 10
3.754829612
 20
-102.734540485
 10
3.8702872504
 20
-102.6260153279
 10
3.9809909111
 20
-102.5104284946
 10
4.0866067469
 20
-102.3881285585
 10
4.187119399
 20
-102.2590952546
 10
4.2825442261
 20
-102.1233488479
 10
4.3725934573
 20
-101.9812987066
 10
4.4572508649
 20
-101.8329258016
 10
4.5365326766
 20
-101.6782491619
 10
4.6101998033
 20
-101.5177352436
 10
4.678235296
 20
-101.3513664254
 10
4.7406561037
 20
-101.1791603284
 10
4.7972739851
 20
-101.0016362718
 10
4.8480714228
 20
-100.8187782022
 10
4.8930659341
 20
-100.630602173
 10
4.9321218299
 20
-100.4376756636
 10
4.9652211832
 20
-100.2399843336
 10
4.9923819209
 20
-100.0375425234
 10
5.0135221348
 20
-99.8309607335
 10
5.0286145223
 20
-99.620442464
 10
5.037686386
 20
-99.4057842148
 10
5.040737726
 20
-99.1869859858
  0
LWPOLYLINE
  5
2FA
100
AcDbEntity
  8
ASSI
100
AcDbPolyline
 62
7
  6
CONTINUOUS
 90
19
 70
0
 10
-42.8569014809
 20
-129.9224236604
 10
-42.8667331332
 20
-129.9282331254
 10
-42.9052384419
 20
-129.9536063943
 10
-42.9417569723
 20
-129.9819931604
 10
-42.9762763878
 20
-130.0134121355
 10
-43.008809025
 20
-130.0478446077
 10
-43.0391532941
 20
-130.0850772147
 10
-43.0672956066
 20
-130.1251273437
 10
-43.0932495509
 20
-130.1679776074
 10
-43.1168543023
 20
-130.2133624824
 10
-43.1380952738
 20
-130.261297707
 10
-43.1569870523
 20
-130.3117675428
 10
-43.1734125742
 20
-130.3644592514
 10
-43.1873565256
 20
-130.4193866292
 10
-43.1988342203
 20
-130.4765358796
 10
-43.2077745362
 20
-130.535552875
 10
-43.2141537662
 20
-130.5963195727
 10
-43.2179956174
 20
-130.6589540152
 10
-43.21930009
 20
-130.7234562027
  0
LWPOLYLINE
  5
2FB
100
AcDbEntity
  8
ASSI
100
AcDbPolyline
 62
7
  6
CONTINUOUS
 90
19
 70
0
 10
-41.106824965
 20
-132.9534498216
 10
-41.0969933127
 20
-132.9476403565
 10
-41.058488004
 20
-132.9222670876
 10
-41.0219694736
 20
-132.8938803216
 10
-40.9874500581
 20
-132.8624613465
 10
-40.9549174209
 20
-132.8280288743
 10
-40.9245731518
 20
-132.7907962672
 10
-40.8964308393
 20
-132.7507461383
 10
-40.870476895
 20
-132.7078958746
 10
-40.8468721435
 20
-132.6625109996
 10
-40.8256311721
 20
-132.614575775
 10
-40.8067393935
 20
-132.5641059392
 10
-40.7903138716
 20
-132.5114142306
 10
-40.7763699203
 20
-132.4564868528
 10
-40.7648922256
 20
-132.3993376023
 10
-40.7559519096
 20
-132.340320607
 10
-40.7495726797
 20
-132.2795539093
 10
-40.7457308284
 20
-132.2169194668
 10
-40.7444263559
 20
-132.1524172793
  0
LINE
  5
2FC
100
AcDbEntity
  8
RACCORDO
100
AcDbLine
 62
253
  6
CONTINUOUS
 10
-73.5659286986
 20
-115.6275526223
 11
-73.6089887731
 21
-115.6423405722
  0
LWPOLYLINE
  5
2FD
100
AcDbEntity
  8
RACCORDO
100
AcDbPolyline
 62
253
  6
CONTINUOUS
 90
5
 70
0
 10
-73.6089887731
 20
86.0258177956
 10
-73.6776327483
 20
86.0196907803
 10
-73.7514168211
 20
86.0288558978
 10
-73.8286927753
 20
86.0531084174
 10
-73.9077343935
 20
86.0919065797
  0
LINE
  5
2FE
100
AcDbEntity
  8
0
100
AcDbLine
 62
7
  6
CONTINUOUS
 10
96.0755319837
 20
121.6633906575
 11
96.0755319837
 21
-191.8611956309
  0
LWPOLYLINE
  5
2FF
100
AcDbEntity
  8
RACCORDO
100
AcDbPolyline
 62
253
  6
CONTINUOUS
 90
3
 70
0
 10
-3.6563356375
 20
-155.2199999833
 10
-3.6116850703
 20
-155.1701613303
 10
-3.6017941614
 20
-155.1630918587
  0
LWPOLYLINE
  5
300
100
AcDbEntity
  8
ASSI
100
AcDbPolyline
 62
7
  6
CONTINUOUS
 90
20
 70
0
 10
-17.9402326626
 20
127.3847981095
 10
-18.021898371
 20
127.4299526412
 10
-18.1031370188
 20
127.4709572155
 10
-18.1839486058
 20
127.5078118326
 10
-18.2644732408
 20
127.5405665284
 10
-18.3445708151
 20
127.5691712669
 10
-18.4238210031
 20
127.5934759399
 10
-18.5022193501
 20
127.6134579424
 10
-18.5797703108
 20
127.6291398793
 10
-18.6560669233
 20
127.6404394571
 10
-18.7311025936
 20
127.6473336381
 10
-18.8048839157
 20
127.64984546
 10
-18.8770237096
 20
127.6479617415
 10
-18.9475133459
 20
127.6416593758
 10
-19.0163614539
 20
127.6309614697
 10
-19.0832067415
 20
127.6159241622
 10
-19.14803868
 20
127.5965246418
 10
-19.2108677982
 20
127.5727857201
 10
-19.2713643894
 20
127.5448319711
 10
-19.315294574
 20
127.5210285056
  0
LINE
  5
301
100
AcDbEntity
  8
ASSI
100
AcDbLine
 62
7
  6
CONTINUOUS
 10
-13.6975919755
 20
120.4445640271
 11
-17.9402326626
 21
122.8942115871
  0
LINE
  5
302
100
AcDbEntity
  8
ASSI
100
AcDbLine
 62
7
  6
CONTINUOUS
 10
-13.6975919755
 20
122.0776624004
 11
-16.5260191002
 21
123.7107607737
  0
LINE
  5
303
100
AcDbEntity
  8
ASSI
100
AcDbLine
 62
7
  6
CONTINUOUS
 10
-17.9402326626
 20
127.3847981095
 11
-13.6975919755
 21
124.9351505495
  0
LINE
  5
304
100
AcDbEntity
  8
ASSI
100
AcDbLine
 62
253
  6
CONTINUOUS
 10
-96.0755319837
 20
181.4756185801
 11
-94.6613184213
 21
180.6590693934
  0
LINE
  5
305
100
AcDbEntity
  8
ASSI
100
AcDbLine
 62
253
  6
CONTINUOUS
 10
52.4168920655
 20
95.7379539812
 11
51.0026785031
 21
96.5545031679
  0
LWPOLYLINE
  5
306
100
AcDbEntity
  8
0
100
AcDbPolyline
 62
7
  6
CONTINUOUS
 90
7
 70
0
 10
-1.9141652422
 20
-157.3600714846
 10
-1.7933816764
 20
-157.2698229731
 10
-1.6894654499
 20
-157.1502477829
 10
-1.6076505975
 20
-157.0073409527
 10
-1.5496656908
 20
-156.8430915294
 10
-1.5137821583
 20
-156.6555104661
 10
-1.5
 20
-156.4445977626
  0
LWPOLYLINE
  5
307
100
AcDbEntity
  8
RACCORDO
100
AcDbPolyline
 62
7
  6
CONTINUOUS
 90
10
 70
0
 10
-4.1971045951
 20
-154.0593355043
 10
-4.3067499387
 20
-154.1320036539
 10
-4.4091043879
 20
-154.2198436413
 10
-4.5023260751
 20
-154.3225844154
 10
-4.5846745542
 20
-154.439689961
 10
-4.6546015307
 20
-154.5704202103
 10
-4.7109016331
 20
-154.7142685151
 10
-4.7524825013
 20
-154.8708915888
 10
-4.7782024471
 20
-155.0396196487
 10
-4.7870057685
 20
-155.2197741237
  0
LWPOLYLINE
  5
308
100
AcDbEntity
  8
ASSI
100
AcDbPolyline
 62
7
  6
CONTINUOUS
 90
20
 70
0
 10
54.2238106497
 20
-105.9935739387
 10
54.1813612666
 20
-106.0196353562
 10
54.1269006108
 20
-106.0580436521
 10
54.074923844
 20
-106.1005793976
 10
54.0257037231
 20
-106.1470193793
 10
53.9792547393
 20
-106.1973841211
 10
53.9355624013
 20
-106.2516530991
 10
53.8948559922
 20
-106.3095415274
 10
53.8571512086
 20
-106.3710684331
 10
53.8224323537
 20
-106.4362147892
 10
53.7908816209
 20
-106.5046387291
 10
53.7625156643
 20
-106.5763574826
 10
53.7373178297
 20
-106.6513538199
 10
53.715420347
 20
-106.729234185
 10
53.6968405657
 20
-106.8100137387
 10
53.6815611362
 20
-106.8936773202
 10
53.66966224
 20
-106.9797858905
 10
53.6611706043
 20
-107.0681931034
 10
53.6560595018
 20
-107.1590453051
 10
53.6543289326
 20
-107.2523424957
  0
LINE
  5
309
100
AcDbEntity
  8
0
100
AcDbLine
 62
253
  6
CONTINUOUS
 10
-13.6976261455
 20
-141.6453342177
 11
-14.4046987567
 21
-142.0535890816
  0
LINE
  5
30A
100
AcDbEntity
  8
ASSI
100
AcDbLine
 62
253
  6
CONTINUOUS
 10
55.0685424949
 20
-106.435793309
 11
53.6543289326
 21
-107.2523424957
  0
LWPOLYLINE
  5
30B
100
AcDbEntity
  8
0
100
AcDbPolyline
 62
7
  6
CONTINUOUS
 90
16
 70
0
 10
-13.9046745965
 20
-142.1031302593
 10
-13.9315320947
 20
-142.1170419461
 10
-13.9597333949
 20
-142.1285703045
 10
-13.9890718189
 20
-142.137634919
 10
-14.0195567
 20
-142.1442155677
 10
-14.051178705
 20
-142.1483324725
 10
-14.0836789957
 20
-142.1499519349
 10
-14.117064781
 20
-142.1490534565
 10
-14.151328852
 20
-142.1456575358
 10
-14.1861907444
 20
-142.1397919696
 10
-14.221655365
 20
-142.1314364877
 10
-14.257717807
 20
-142.1206113603
 10
-14.2940828856
 20
-142.1074051952
 10
-14.330652206
 20
-142.0918475284
 10
-14.367524163
 20
-142.0739088239
 10
-14.4046987567
 20
-142.0535890816
  0
LWPOLYLINE
  5
30C
100
AcDbEntity
  8
ASSI
100
AcDbPolyline
 62
7
  6
CONTINUOUS
 90
58
 70
0
 10
40.8556961931
 20
108.6589768516
 10
41.0875601291
 20
108.5465671205
 10
41.3221975401
 20
108.428587745
 10
41.5594509766
 20
108.3050769209
 10
41.7992803716
 20
108.1760397328
 10
42.0414026066
 20
108.0415617182
 10
42.285294477
 20
107.9018341128
 10
42.5308117229
 20
107.7569665913
 10
42.7777703207
 20
107.6070284029
 10
43.0255923541
 20
107.4522007946
 10
43.2739238074
 20
107.2927560355
 10
43.5227991848
 20
107.1286808933
 10
43.7722202885
 20
106.9597299404
 10
44.0221218725
 20
106.785960069
 10
44.2722303509
 20
106.6075422739
 10
44.5222239058
 20
106.4243799495
 10
44.7720390283
 20
106.2365424532
 10
45.0213908304
 20
106.044213581
 10
45.2696272382
 20
105.8474811013
 10
45.5165713869
 20
105.6465349406
 10
45.7620645829
 20
105.4414982074
 10
46.0054909375
 20
105.232380183
 10
46.2467220847
 20
105.0193479492
 10
46.4855606884
 20
104.8025854544
 10
46.7212977858
 20
104.5821444956
 10
46.9538778575
 20
104.3581420962
 10
47.1830498675
 20
104.1308497443
 10
47.4078403687
 20
103.9005782166
 10
47.6281529124
 20
103.6675193961
 10
47.8438369897
 20
103.4319198394
 10
48.0538902585
 20
103.1942048485
 10
48.2581321297
 20
102.9547078854
 10
48.4565822868
 20
102.7135657292
 10
48.6485834861
 20
102.470924885
 10
48.8339189285
 20
102.2272120274
 10
49.0127021986
 20
101.9824636901
 10
49.1847644262
 20
101.7362344196
 10
49.3501716282
 20
101.4885141252
 10
49.5087170113
 20
101.2397469615
 10
49.6598183156
 20
100.9901622301
 10
49.8034183672
 20
100.739945316
 10
49.9395003146
 20
100.4893361917
 10
50.0675822877
 20
100.2386422539
 10
50.1875565608
 20
99.9882185506
 10
50.2995309136
 20
99.738109578
 10
50.4033581488
 20
99.4881511381
 10
50.499009818
 20
99.2385527419
 10
50.5865097961
 20
98.9894816286
 10
50.6657626695
 20
98.7407108975
 10
50.7367948436
 20
98.4921838741
 10
50.7995516164
 20
98.2443259874
 10
50.8538281475
 20
97.9976250082
 10
50.8996095929
 20
97.7522165764
 10
50.9369686866
 20
97.508289783
 10
50.9658901292
 20
97.2663847152
 10
50.9864255818
 20
97.0267648457
 10
50.9986641031
 20
96.7894299891
 10
51.0026785031
 20
96.5545031679
  0
LWPOLYLINE
  5
30D
100
AcDbEntity
  8
ASSI
100
AcDbPolyline
 62
7
  6
CONTINUOUS
 90
28
 70
0
 10
40.8556961931
 20
108.6589768516
 10
35.6679868823
 20
111.2176429555
 10
30.5074897211
 20
113.7941501446
 10
25.3742047095
 20
116.3884984188
 10
20.2679468553
 20
119.0007835741
 10
15.1889011508
 20
121.6309098145
 10
10.1376225719
 20
124.278589752
 10
5.114114153
 20
126.9438253045
 10
0.1183728598
 20
129.6266145541
 10
-4.849055434
 20
132.3266643581
 10
-9.7881676345
 20
135.0439766028
 10
-14.6989668357
 20
137.7785494019
 10
-19.5809164451
 20
140.5300839548
 10
-24.4340133105
 20
143.2985821149
 10
-29.2582605842
 20
146.0840420287
 10
-34.0531311314
 20
148.8861593352
 10
-38.8186217419
 20
151.7049358545
 10
-43.5547356259
 20
154.5403697665
 10
-48.2609552785
 20
157.3921512495
 10
-52.9372774333
 20
160.2602820898
 10
-57.5837053567
 20
163.1447605012
 10
-62.1997313438
 20
166.0452713029
 10
-66.7853520725
 20
168.9618162469
 10
-71.3405708649
 20
171.8943935814
 10
-75.8648899823
 20
174.8426828699
 10
-80.3581435116
 20
177.8065773004
 10
-84.820497366
 20
180.7861836851
 10
-89.2519515453
 20
183.7815020239
  0
LWPOLYLINE
  5
30E
100
AcDbEntity
  8
ASSI
100
AcDbPolyline
 62
7
  6
CONTINUOUS
 90
8
 70
0
 10
40.8556961931
 20
110.2919174052
 10
35.6679868823
 20
112.8505835091
 10
30.5074897211
 20
115.4270906982
 10
25.3742047095
 20
118.0214389723
 10
20.2679468553
 20
120.6337241277
 10
15.1889011508
 20
123.2638503681
 10
10.1376225719
 20
125.9115303056
 10
5.114114153
 20
128.5767658581
  0
LWPOLYLINE
  5
30F
100
AcDbEntity
  8
ASSI
100
AcDbPolyline
 62
7
  6
CONTINUOUS
 90
58
 70
0
 10
40.8556961931
 20
110.2919174052
 10
41.1258198912
 20
110.1568192791
 10
41.3988050655
 20
110.0148984986
 10
41.674465639
 20
109.8662002041
 10
41.9527478866
 20
109.7107267247
 10
42.2333235868
 20
109.5485828302
 10
42.5155935279
 20
109.3800055664
 10
42.7993820796
 20
109.2051215804
 10
43.0844769006
 20
109.0240156807
 10
43.3702295419
 20
108.8369220129
 10
43.6562245289
 20
108.6441640283
 10
43.9424997316
 20
108.44572441
 10
44.2290831019
 20
108.2413280164
 10
44.5158920282
 20
108.0310389066
 10
44.8026086842
 20
107.8150623424
 10
45.0888950699
 20
107.5933085946
 10
45.3746689575
 20
107.3658554901
 10
45.6596008329
 20
107.132924383
 10
45.9429839078
 20
106.8946558629
 10
46.224606544
 20
106.6512728777
 10
46.5042838106
 20
106.4029224297
 10
46.7813595332
 20
106.1496568831
 10
47.0556781103
 20
105.8916714485
 10
47.3270102227
 20
105.6291857691
 10
47.594601387
 20
105.362309203
 10
47.858379683
 20
105.0911764095
 10
48.1180547384
 20
104.8161118796
 10
48.372578417
 20
104.537541962
 10
48.6218349936
 20
104.255692423
 10
48.8656483344
 20
103.9708556524
 10
49.1029413761
 20
103.683596362
 10
49.3335069172
 20
103.3943122361
 10
49.5573619981
 20
103.1031613299
 10
49.7738187326
 20
102.8103680908
 10
49.9826308767
 20
102.5164425284
 10
50.1839226936
 20
102.2214220609
 10
50.3775535483
 20
101.9248142737
 10
50.5635950978
 20
101.6266035675
 10
50.7418093128
 20
101.3273185261
 10
50.9115860949
 20
101.0272751941
 10
51.0728620925
 20
100.726695098
 10
51.2256131725
 20
100.4258594065
 10
51.3693352259
 20
100.1251691526
 10
51.5039100416
 20
99.8250491932
 10
51.6294558946
 20
99.52554686
 10
51.7458368941
 20
99.226490082
 10
51.8530224652
 20
98.9281282213
 10
51.9510377779
 20
98.6306571661
 10
52.0397990036
 20
98.3338254663
 10
52.1193378273
 20
98.0375664194
 10
52.1895891227
 20
97.7423825286
 10
52.2503383028
 20
97.448866127
 10
52.3015755157
 20
97.1571819572
 10
52.3433790288
 20
96.8675490493
 10
52.3757351854
 20
96.580608243
 10
52.3987065141
 20
96.2966717665
 10
52.4123967914
 20
96.0157385492
 10
52.4168920655
 20
95.7379539812
  0
LWPOLYLINE
  5
310
100
AcDbEntity
  8
ASSI
100
AcDbPolyline
 62
7
  6
CONTINUOUS
 90
21
 70
0
 10
5.114114153
 20
128.5767658581
 10
0.1183728598
 20
131.2595551077
 10
-4.849055434
 20
133.9596049117
 10
-9.7881676345
 20
136.6769171564
 10
-14.6989668357
 20
139.4114899555
 10
-19.5809164451
 20
142.1630245084
 10
-24.4340133105
 20
144.9315226685
 10
-29.2582605842
 20
147.7169825823
 10
-34.0531311314
 20
150.5190998888
 10
-38.8186217419
 20
153.3378764081
 10
-43.5547356259
 20
156.1733103201
 10
-48.2609552785
 20
159.0250918031
 10
-52.9372774333
 20
161.8932226434
 10
-57.5837053567
 20
164.7777010547
 10
-62.1997313438
 20
167.6782118565
 10
-66.7853520725
 20
170.5947568005
 10
-71.3405708649
 20
173.5273341349
 10
-75.8648899823
 20
176.4756234235
 10
-80.3581435116
 20
179.439517854
 10
-84.820497366
 20
182.4191242387
 10
-89.2519515453
 20
185.4144425775
  0
LINE
  5
311
100
AcDbEntity
  8
0
100
AcDbLine
 62
7
  6
CONTINUOUS
 10
29.1569101542
 20
114.476729382
 11
47.3221732649
 21
103.9883341261
  0
LWPOLYLINE
  5
312
100
AcDbEntity
  8
RACCORDO
100
AcDbPolyline
 62
253
  6
CONTINUOUS
 90
3
 70
0
 10
-2.1970079546
 20
-157.5233813222
 10
-2.1137047305
 20
-157.466504454
 10
-2.01549716
 20
-157.3708897162
  0
LINE
  5
313
100
AcDbEntity
  8
0
100
AcDbLine
 62
253
  6
CONTINUOUS
 10
1.8587572106
 20
-148.994336078
 11
0.4445436483
 21
-149.8108852647
  0
LINE
  5
314
100
AcDbEntity
  8
0
100
AcDbLine
 62
7
  6
CONTINUOUS
 10
-3.9142618827
 20
-153.896025667
 11
-4.1971045951
 21
-154.0593355043
  0
LINE
  5
315
100
AcDbEntity
  8
0
100
AcDbLine
 62
253
  6
CONTINUOUS
 10
2.5658639918
 20
-150.2190809482
 11
1.1516504294
 21
-151.0356301348
  0
LINE
  5
316
100
AcDbEntity
  8
0
100
AcDbLine
 62
7
  6
CONTINUOUS
 10
-1.9141652421
 20
-157.3600714849
 11
-2.1970079546
 21
-157.5233813222
  0
LINE
  5
317
100
AcDbEntity
  8
RACCORDO
100
AcDbLine
 62
253
  6
CONTINUOUS
 10
-2.85525058
 20
-156.455011955
 11
-2.8983106544
 21
-156.469799905
  0
LWPOLYLINE
  5
318
100
AcDbEntity
  8
ASSI
100
AcDbPolyline
 62
7
  6
CONTINUOUS
 90
19
 70
0
 10
27.8537766378
 20
-170.7498829932
 10
27.8439449855
 20
-170.7556924582
 10
27.8054396768
 20
-170.7810657271
 10
27.7689211464
 20
-170.8094524932
 10
27.7344017309
 20
-170.8408714683
 10
27.7018690937
 20
-170.8753039405
 10
27.6715248246
 20
-170.9125365475
 10
27.6433825121
 20
-170.9525866764
 10
27.6174285678
 20
-170.9954369401
 10
27.5938238163
 20
-171.0408218151
 10
27.5725828449
 20
-171.0887570397
 10
27.5536910663
 20
-171.1392268756
 10
27.5372655444
 20
-171.1919185842
 10
27.5233215931
 20
-171.2468459619
 10
27.5118438984
 20
-171.3039952124
 10
27.5029035824
 20
-171.3630122078
 10
27.4965243525
 20
-171.4237789054
 10
27.4926825012
 20
-171.486413348
 10
27.4913780286
 20
-171.5509155354
  0
LWPOLYLINE
  5
319
100
AcDbEntity
  8
ASSI
100
AcDbPolyline
 62
7
  6
CONTINUOUS
 90
19
 70
0
 10
29.6038531536
 20
-173.7809091543
 10
29.613684806
 20
-173.7750996893
 10
29.6521901146
 20
-173.7497264204
 10
29.688708645
 20
-173.7213396543
 10
29.7232280606
 20
-173.6899206793
 10
29.7557606978
 20
-173.655488207
 10
29.7861049669
 20
-173.6182556
 10
29.8142472794
 20
-173.5782054711
 10
29.8402012237
 20
-173.5353552074
 10
29.8638059751
 20
-173.4899703324
 10
29.8850469466
 20
-173.4420351078
 10
29.9039387251
 20
-173.3915652719
 10
29.920364247
 20
-173.3388735633
 10
29.9343081984
 20
-173.2839461856
 10
29.9457858931
 20
-173.2267969351
 10
29.954726209
 20
-173.1677799397
 10
29.961105439
 20
-173.1070132421
 10
29.9649472902
 20
-173.0443787995
 10
29.9662517628
 20
-172.9798766121
  0
LINE
  5
31A
100
AcDbEntity
  8
0
100
AcDbLine
 62
253
  6
CONTINUOUS
 10
-44.1031835665
 20
211.4827753614
 11
86.0044641718
 21
136.3602501891
  0
LINE
  5
31B
100
AcDbEntity
  8
0
100
AcDbLine
 62
253
  6
CONTINUOUS
 10
87.5044641718
 20
136.5089155674
 11
87.5045366523
 21
136.5088737222
  0
LINE
  5
31C
100
AcDbEntity
  8
0
100
AcDbLine
 62
7
  6
CONTINUOUS
 10
-42.6031110861
 20
211.6313988945
 11
87.5045366523
 21
136.5088737222
  0
LWPOLYLINE
  5
31D
100
AcDbEntity
  8
0
100
AcDbPolyline
 62
253
  6
CONTINUOUS
 90
58
 70
0
 10
86.0044641718
 20
136.3602501891
 10
86.2577543823
 20
136.2099734917
 10
86.5108522476
 20
136.0517507036
 10
86.763565569
 20
135.8857019769
 10
87.0157024395
 20
135.7119534068
 10
87.2670713898
 20
135.5306369353
 10
87.517481534
 20
135.3418902518
 10
87.766742714
 20
135.1458566877
 10
88.0146656445
 20
134.9426851083
 10
88.2610620562
 20
134.7325297991
 10
88.5057448391
 20
134.5155503492
 10
88.7485281847
 20
134.2919115297
 10
88.9892277266
 20
134.0617831688
 10
89.227660681
 20
133.8253400227
 10
89.4636459853
 20
133.582761643
 10
89.6970044355
 20
133.3342322404
 10
89.9275588225
 20
133.0799405445
 10
90.1551340666
 20
132.820079661
 10
90.3795573502
 20
132.5548469245
 10
90.6006582495
 20
132.284443749
 10
90.8182688637
 20
132.0090754749
 10
91.0322239422
 20
131.728951213
 10
91.2423610106
 20
131.4442836858
 10
91.4485204937
 20
131.1552890657
 10
91.6505458369
 20
130.8621868112
 10
91.848283625
 20
130.5651995001
 10
92.0415836987
 20
130.2645526603
 10
92.2302992687
 20
129.9604745988
 10
92.414287027
 20
129.6531962282
 10
92.5934072559
 20
129.3429508915
 10
92.767523934
 20
129.0299741845
 10
92.9365048395
 20
128.7145037774
 10
93.1002216507
 20
128.3967792339
 10
93.2585500434
 20
128.0770418297
 10
93.4113697852
 20
127.7555343687
 10
93.5585648269
 20
127.4325009994
 10
93.7000233907
 20
127.1081870285
 10
93.835638055
 20
126.7828387358
 10
93.9653058359
 20
126.4567031859
 10
94.0889282654
 20
126.1300280418
 10
94.2064114665
 20
125.8030613759
 10
94.3176662241
 20
125.4760514822
 10
94.4226080528
 20
125.1492466872
 10
94.5211572614
 20
124.8228951621
 10
94.6132390128
 20
124.4972447336
 10
94.6987833816
 20
124.1725426959
 10
94.7777254066
 20
123.8490356234
 10
94.8500051402
 20
123.5269691827
 10
94.9155676943
 20
123.2065879465
 10
94.9743632816
 20
122.888135208
 10
95.0263472535
 20
122.5718527954
 10
95.0714801342
 20
122.2579808895
 10
95.1097276503
 20
121.9467578399
 10
95.1410607573
 20
121.6384199852
 10
95.1654556612
 20
121.3332014728
 10
95.1828938369
 20
121.0313340812
 10
95.1933620421
 20
120.7330470445
 10
95.1968523273
 20
120.4385668776
  0
LWPOLYLINE
  5
31E
100
AcDbEntity
  8
0
100
AcDbPolyline
 62
7
  6
CONTINUOUS
 90
52
 70
0
 10
87.5045366523
 20
136.5088737222
 10
87.7879351325
 20
136.3402491073
 10
88.0691140776
 20
136.1629908814
 10
88.3479542123
 20
135.9772744764
 10
88.624462247
 20
135.78318145
 10
88.8984021716
 20
135.580955369
 10
89.1692883255
 20
135.3710513983
 10
89.4369673989
 20
135.1536997865
 10
89.701364197
 20
134.9290655333
 10
89.9621031249
 20
134.6975769624
 10
90.2191032081
 20
134.4594212392
 10
90.4722195978
 20
134.2148410567
 10
90.7209827414
 20
133.9644154926
 10
90.9650946628
 20
133.7085977407
 10
91.2046591711
 20
133.4474263036
 10
91.4397982001
 20
133.1808828065
 10
91.6704526505
 20
132.9091250807
 10
91.8964578798
 20
132.6324324694
 10
92.117752564
 20
132.3509600693
 10
92.3342456152
 20
132.0648931412
 10
92.5458000624
 20
131.7744767583
 10
92.7522780604
 20
131.4799626943
 10
92.9535213825
 20
131.1816400168
 10
93.1494704012
 20
130.8796552723
 10
93.3401253995
 20
130.574046381
 10
93.525403501
 20
130.264964839
 10
93.7051521353
 20
129.9526774004
 10
93.8792576594
 20
129.637390351
 10
94.0475768526
 20
129.3193679767
 10
94.2100257728
 20
128.9987663629
 10
94.3665722935
 20
128.6756235182
 10
94.5171241105
 20
128.3500791002
 10
94.6615272764
 20
128.0224041748
 10
94.7996523254
 20
127.6928249499
 10
94.9313734831
 20
127.3615635671
 10
95.0565785418
 20
127.0288095743
 10
95.1751618471
 20
126.6947298988
 10
95.2869808917
 20
126.3595954446
 10
95.3919390425
 20
126.0235432094
 10
95.4899861463
 20
125.6865225896
 10
95.5810499611
 20
125.3484813685
 10
95.6649144251
 20
125.009876416
 10
95.7413338511
 20
124.6713990305
 10
95.8101684157
 20
124.3334079151
 10
95.8713461645
 20
123.9959386254
 10
95.9247579607
 20
123.6591692509
 10
95.9702886269
 20
123.3232970627
 10
96.0078218256
 20
122.9885098044
 10
96.037241968
 20
122.6549424803
 10
96.058423191
 20
122.3227589053
 10
96.071231747
 20
121.9921738372
 10
96.0755319837
 20
121.6633906575
  0
LINE
  5
31F
100
AcDbEntity
  8
0
100
AcDbLine
 62
253
  6
CONTINUOUS
 10
56.5888220745
 20
-182.7177385771
 11
56.305979362
 21
-182.8810484144
  0
LWPOLYLINE
  5
320
100
AcDbEntity
  8
0
100
AcDbPolyline
 62
7
  6
CONTINUOUS
 90
19
 70
0
 10
95.1968523273
 20
-193.0860194109
 10
95.2876237182
 20
-193.0312407412
 10
95.3738702773
 20
-192.9744573674
 10
95.4555920046
 20
-192.9156692895
 10
95.5329270598
 20
-192.8547571206
 10
95.6057372832
 20
-192.7918402477
 10
95.6736081951
 20
-192.7272768315
 10
95.7365116243
 20
-192.6610574811
 10
95.7944757419
 20
-192.5931915874
 10
95.8471705812
 20
-192.524065484
 10
95.8945660893
 20
-192.4536719834
 10
95.936692319
 20
-192.3820182732
 10
95.9733094626
 20
-192.3095122495
 10
96.0043860992
 20
-192.2361490512
 10
96.0299536496
 20
-192.1619335393
 10
96.0498665678
 20
-192.0872881934
 10
96.0640926031
 20
-192.0122105619
 10
96.0726640063
 20
-191.9367030964
 10
96.0755319837
 20
-191.8611956309
  0
LINE
  5
321
100
AcDbEntity
  8
0
100
AcDbLine
 62
7
  6
CONTINUOUS
 10
95.1968523273
 20
-193.0860194109
 11
61.5385695428
 21
-212.5198900533
  0
ENDSEC
  0
SECTION
  2
OBJECTS
  0
DICTIONARY
  5
C
100
AcDbDictionary
280
0
281
1
  3
ACAD_GROUP
350
D
  3
ACAD_MLINESTYLE
350
17
  3
ACAD_LAYOUT
350
1A
  3
ACAD_PLOTSETTINGS
350
19
  3
ACAD_PLOTSTYLENAME
350
E
  0
DICTIONARY
  5
D
102
{ACAD_REACTORS
330
C
102
}
100
AcDbDictionary
280
0
281
1
  0
ACDBDICTIONARYWDFLT
  5
E
102
{ACAD_REACTORS
330
C
102
}
100
AcDbDictionary
281
1
  3
Normal
350
F
100
AcDbDictionaryWithDefault
340
F
  0
DICTIONARY
  5
17
102
{ACAD_REACTORS
330
C
102
}
100
AcDbDictionary
280
0
281
1
  3
Standard
350
18
  0
DICTIONARY
  5
19
102
{ACAD_REACTORS
330
C
102
}
100
AcDbDictionary
281
1
  0
DICTIONARY
  5
1A
102
{ACAD_REACTORS
330
C
102
}
100
AcDbDictionary
281
1
  3
Model
350
322
  3
Layout1
350
323
  0
ACDBPLACEHOLDER
  5
F
102
{ACAD_REACTORS
330
E
102
}
  0
MLINESTYLE
  5
18
102
{ACAD_REACTORS
330
17
102
}
100
AcDbMlineStyle
  2
STANDARD
 70
0
  3

 62
256
 51
90.0
 52
90.0
 71
2
 49
0.5
 62
256
  6
BYLAYER
 49
-0.5
 62
256
  6
BYLAYER
  0
LAYOUT
  5
322
102
{ACAD_REACTORS
330
1A
102
}
100
AcDbPlotSettings
  1

  2
none_device
  4
ISO_A4_(297.00_x_210.00_MM)
  6

 40
0.0
 41
0.0
 42
0.0
 43
0.0
 44
297.0
 45
210.0
 46
0.0
 47
0.0
 48
0.0
 49
0.0
140
0.0
141
0.0
142
1.0
143
1.0
 70
1024
 72
1
 73
0
 74
0
  7

 75
0
147
1.0
148
0.0
149
0.0
100
AcDbLayout
  1
Model
 70
0
 71
0
 10
0.0
 20
0.0
 11
297.0
 21
210.0
 12
0.0
 22
0.0
 32
0.0
 14
0.0
 24
0.0
 34
0.0
 15
0.0
 25
0.0
 35
0.0
146
0.0
 13
0.0
 23
0.0
 33
0.0
 16
1.0
 26
0.0
 36
0.0
 17
0.0
 27
1.0
 37
0.0
 76
0
330
20F
345
0
346
0
  0
LAYOUT
  5
323
102
{ACAD_REACTORS
330
1A
102
}
100
AcDbPlotSettings
  1

  2
none_device
  4
ISO_A4_(297.00_x_210.00_MM)
  6

 40
0.0
 41
0.0
 42
0.0
 43
0.0
 44
297.0
 45
210.0
 46
0.0
 47
0.0
 48
0.0
 49
0.0
140
0.0
141
0.0
142
1.0
143
1.0
 70
0
 72
1
 73
0
 74
0
  7

 75
0
147
1.0
148
0.0
149
0.0
100
AcDbLayout
  1
Layout1
 70
0
 71
1
 10
0.0
 20
0.0
 11
297.0
 21
210.0
 12
0.0
 22
0.0
 32
0.0
 14
0.0
 24
0.0
 34
0.0
 15
0.0
 25
0.0
 35
0.0
146
0.0
 13
0.0
 23
0.0
 33
0.0
 16
1.0
 26
0.0
 36
0.0
 17
0.0
 27
1.0
 37
0.0
 76
0
330
210
345
0
346
0
  0
ENDSEC
  0
EOF
