  0
SECTION
  2
HEADER
  9
$ACADVER
  1
AC1021
  9
$DWGCODEPAGE
  3
ANSI_1252
  9
$EXTMAX
 10
297.0
 20
210.0
 30
0.0
  9
$EXTMIN
 10
0.0
 20
0.0
 30
0.0
  9
$LIMMIN
 10
0.0
 20
0.0
  9
$LIMMAX
 10
297.0
 20
210.0
  9
$VIEWCTR
 10
148.5
 20
105.0
  9
$VIEWSIZE
 40
210.0
  9
$CLAYER
  8
0
  9
$LTSCALE
 40
16.335
  9
$CELTYPE
  6
BYLAYER
  9
$DIMSCALE
 40
1.0
  9
$DIMASZ
 40
3.0
  9
$DIMEXO
 40
0.5
  9
$DIMDLI
 40
11.286
  9
$DIMEXE
 40
1.5
  9
$DIMCEN
 40
2.673
  9
$DIMLFAC
 40
1.0
  9
$DIMBLK
  1
_FILLED
  9
$DIMALT
 70
0
  9
$DIMALTF
 40
0.0393700787
  9
$DIMTXT
 40
3.0
  9
$DIMTOL
 70
1
  9
$DIMLIM
 70
0
  9
$DIMTFAC
 40
1.0
  9
$DIMTP
 40
0.01
  9
$DIMTM
 40
0.01
  9
$DIMGAP
 40
0.625
  9
$DIMDSEP
 70
44
  9
$AUNITS
 70
0
  9
$PDMODE
 70
3
  9
$PDSIZE
 40
3.0
  9
$HANDSEED
  5
2FE
  9
$TILEMODE
 70
1
  9
$MEASUREMENT
 70
1
  9
$INSUNITS
 70
4
  0
ENDSEC
  0
SECTION
  2
CLASSES
  0
CLASS
  1
ACDBDICTIONARYWDFLT
  2
AcDbDictionaryWithDefault
  3
AutoCAD 2000
 90
0
 91
1
280
0
281
0
  0
CLASS
  1
ACDBPLACEHOLDER
  2
AcDbPlaceHolder
  3
AutoCAD 2000
 90
0
 91
1
280
0
281
0
  0
CLASS
  1
LAYOUT
  2
AcDbLayout
  3
AutoCAD 2000
 90
0
 91
0
280
0
281
0
  0
ENDSEC
  0
SECTION
  2
TABLES
  0
TABLE
  2
VPORT
  5
8
100
AcDbSymbolTable
 70
2
  0
VPORT
  5
1F4
100
AcDbSymbolTableRecord
100
AcDbViewportTableRecord
  2
*ACTIVE
 70
0
 10
0.0
 20
0.0
 11
1.0
 21
1.0
 12
148.5
 22
105.0
 13
0.0
 23
0.0
 14
1.0
 24
1.0
 15
0.0
 25
0.0
 16
0.0
 26
0.0
 36
1.0
 17
0.0
 27
0.0
 37
0.0
 40
210.0
 41
1.4142857143
 42
50.0
 43
0.0
 44
0.0
 50
0.0
 51
0.0
 71
0
 72
100
 73
1
 74
1
 75
0
 76
0
 77
0
 78
0
  0
ENDTAB
  0
TABLE
  2
LTYPE
  5
5
100
AcDbSymbolTable
 70
6
  0
LTYPE
  5
14
100
AcDbSymbolTableRecord
100
AcDbLinetypeTableRecord
  2
BYBLOCK
 70
0
  3

 72
65
 73
0
 40
0.0
  0
LTYPE
  5
15
100
AcDbSymbolTableRecord
100
AcDbLinetypeTableRecord
  2
BYLAYER
 70
0
  3

 72
65
 73
0
 40
0.0
  0
LTYPE
  5
16
100
AcDbSymbolTableRecord
100
AcDbLinetypeTableRecord
  2
CONTINUOUS
 70
64
  3
Solid line
 72
65
 73
0
 40
0.0
  0
LTYPE
  5
1F5
100
AcDbSymbolTableRecord
100
AcDbLinetypeTableRecord
  2
CENTER
 70
64
  3
____ _ ____ _ ____ _ ____ _ ____ _ ____ _ ____
 72
65
 73
4
 40
0.6
 49
0.375
 74
0
 49
-0.075
 74
0
 49
0.075
 74
0
 49
-0.075
 74
0
  0
LTYPE
  5
1F6
100
AcDbSymbolTableRecord
100
AcDbLinetypeTableRecord
  2
HIDDEN
 70
64
  3
- - - - - - - - - - - - - - - - - - - -
 72
65
 73
2
 40
0.2
 49
0.1
 74
0
 49
-0.1
 74
0
  0
LTYPE
  5
1F7
100
AcDbSymbolTableRecord
100
AcDbLinetypeTableRecord
  2
PHANTOM
 70
64
  3
_____ _ _ _____ _ _ _____ _ _ _____
 72
65
 73
6
 40
0.8
 49
0.45
 74
0
 49
-0.05
 74
0
 49
0.1
 74
0
 49
-0.05
 74
0
 49
0.1
 74
0
 49
-0.05
 74
0
  0
LTYPE
  5
1F8
100
AcDbSymbolTableRecord
100
AcDbLinetypeTableRecord
  2
DOT
 70
64
  3
. . . . . . . . . . . . . . . . . . . .
 72
65
 73
2
 40
0.2
 49
0.1
 74
0
 49
-0.1
 74
0
  0
LTYPE
  5
1F9
100
AcDbSymbolTableRecord
100
AcDbLinetypeTableRecord
  2
DASHED
 70
64
  3
- - - - - - - - - - - - - - - - - - - -
 72
65
 73
2
 40
0.2
 49
0.1
 74
0
 49
-0.1
 74
0
  0
ENDTAB
  0
TABLE
  2
LAYER
  5
2
100
AcDbSymbolTable
 70
36
  0
LAYER
  5
10
100
AcDbSymbolTableRecord
100
AcDbLayerTableRecord
  2
0
 70
0
 62
7
  6
CONTINUOUS
370
-3
390
F
  0
LAYER
  5
1FA
100
AcDbSymbolTableRecord
100
AcDbLayerTableRecord
  2
DEFAULT_1
 70
0
 62
7
  6
CENTER
370
-3
390
F
  0
LAYER
  5
1FB
100
AcDbSymbolTableRecord
100
AcDbLayerTableRecord
  2
DEFAULT_2
 70
0
 62
7
  6
HIDDEN
370
-3
390
F
  0
LAYER
  5
1FC
100
AcDbSymbolTableRecord
100
AcDbLayerTableRecord
  2
DEFAULT_3
 70
0
 62
7
  6
PHANTOM
370
-3
390
F
  0
LAYER
  5
1FD
100
AcDbSymbolTableRecord
100
AcDbLayerTableRecord
  2
ASSI
 70
0
 62
7
  6
CONTINUOUS
370
-3
390
F
  0
LAYER
  5
1FE
100
AcDbSymbolTableRecord
100
AcDbLayerTableRecord
  2
COORDINATE
 70
0
 62
7
  6
CONTINUOUS
370
-3
390
F
  0
LAYER
  5
1FF
100
AcDbSymbolTableRecord
100
AcDbLayerTableRecord
  2
COPY_PUBLISH
 70
0
 62
7
  6
CONTINUOUS
370
-3
390
F
  0
LAYER
  5
200
100
AcDbSymbolTableRecord
100
AcDbLayerTableRecord
  2
COSMETICI
 70
0
 62
7
  6
CONTINUOUS
370
-3
390
F
  0
LAYER
  5
201
100
AcDbSymbolTableRecord
100
AcDbLayerTableRecord
  2
CURVE
 70
0
 62
7
  6
CONTINUOUS
370
-3
390
F
  0
LAYER
  5
202
100
AcDbSymbolTableRecord
100
AcDbLayerTableRecord
  2
DRAFT
 70
0
 62
7
  6
CONTINUOUS
370
-3
390
F
  0
LAYER
  5
203
100
AcDbSymbolTableRecord
100
AcDbLayerTableRecord
  2
IMPORT_IGES
 70
0
 62
7
  6
CONTINUOUS
370
-3
390
F
  0
LAYER
  5
204
100
AcDbSymbolTableRecord
100
AcDbLayerTableRecord
  2
NOTE
 70
0
 62
7
  6
CONTINUOUS
370
-3
390
F
  0
LAYER
  5
205
100
AcDbSymbolTableRecord
100
AcDbLayerTableRecord
  2
PIANI
 70
0
 62
7
  6
CONTINUOUS
370
-3
390
F
  0
LAYER
  5
206
100
AcDbSymbolTableRecord
100
AcDbLayerTableRecord
  2
PUNTI
 70
0
 62
7
  6
CONTINUOUS
370
-3
390
F
  0
LAYER
  5
207
100
AcDbSymbolTableRecord
100
AcDbLayerTableRecord
  2
RACCORDO
 70
0
 62
7
  6
CONTINUOUS
370
-3
390
F
  0
LAYER
  5
208
100
AcDbSymbolTableRecord
100
AcDbLayerTableRecord
  2
SIMBOLI
 70
0
 62
7
  6
CONTINUOUS
370
-3
390
F
  0
LAYER
  5
209
100
AcDbSymbolTableRecord
100
AcDbLayerTableRecord
  2
SMUSSO
 70
0
 62
7
  6
CONTINUOUS
370
-3
390
F
  0
LAYER
  5
20A
100
AcDbSymbolTableRecord
100
AcDbLayerTableRecord
  2
SNAPLINE
 70
0
 62
7
  6
CONTINUOUS
370
-3
390
F
  0
LAYER
  5
20B
100
AcDbSymbolTableRecord
100
AcDbLayerTableRecord
  2
SUPERFICI
 70
0
 62
7
  6
CONTINUOUS
370
-3
390
F
  0
LAYER
  5
20C
100
AcDbSymbolTableRecord
100
AcDbLayerTableRecord
  2
TRASH
 70
0
 62
7
  6
CONTINUOUS
370
-3
390
F
  0
ENDTAB
  0
TABLE
  2
STYLE
  5
3
100
AcDbSymbolTable
 70
1
  0
STYLE
  5
11
100
AcDbSymbolTableRecord
100
AcDbTextStyleTableRecord
  2
STANDARD
 70
0
 40
0.0
 41
0.8
 50
0.0
 71
0
 42
0.2
  3
txt
  4

  0
STYLE
  5
20D
100
AcDbSymbolTableRecord
100
AcDbTextStyleTableRecord
  2
TEXTSTYLE_1
 70
0
 40
0.0
 41
0.8
 50
0.0
 71
0
 42
0.2
  3
gdt
  4

  0
ENDTAB
  0
TABLE
  2
VIEW
  5
6
100
AcDbSymbolTable
 70
0
  0
ENDTAB
  0
TABLE
  2
UCS
  5
7
100
AcDbSymbolTable
 70
0
  0
ENDTAB
  0
TABLE
  2
APPID
  5
9
100
AcDbSymbolTable
 70
1
  0
APPID
  5
20E
100
AcDbSymbolTableRecord
100
AcDbRegAppTableRecord
  2
ACAD
 70
0
  0
ENDTAB
  0
TABLE
  2
BLOCK_RECORD
  5
1
100
AcDbSymbolTable
 70
0
  0
BLOCK_RECORD
  5
20F
100
AcDbSymbolTableRecord
100
AcDbBlockTableRecord
  2
*Model_Space
  0
BLOCK_RECORD
  5
210
100
AcDbSymbolTableRecord
100
AcDbBlockTableRecord
  2
*Paper_Space
  0
ENDTAB
  0
TABLE
  2
DIMSTYLE
  5
A
100
AcDbSymbolTable
 70
1
100
AcDbDimStyleTable
 71
0
  0
DIMSTYLE
105
211
100
AcDbSymbolTableRecord
100
AcDbDimStyleTableRecord
  2
STANDARD
 70
0
  3

  4

 40
1.0
 41
3.0
 42
0.5
 43
0.38
 44
1.5
 45
0.0
 46
0.0
 47
0.01
 48
0.01
140
3.0
141
0.09
142
0.0
143
25.4
144
1.0
145
0.0
146
1.0
147
0.625
 71
1.0
 72
0.0
 73
0
 74
0
 75
0
 76
0
 77
1
 78
8
170
0
171
2
172
0
173
0
174
0
175
0
176
0
177
0
178
0
270
2
271
2
272
2
273
2
274
2
275
0
280
0
281
0
282
0
283
1
284
8
285
0
286
0
287
3
288
0
340
11
278
44
  0
ENDTAB
  0
ENDSEC
  0
SECTION
  2
BLOCKS
  0
BLOCK
  5
20
100
AcDbEntity
  8
0
100
AcDbBlockBegin
  2
*Model_Space
 70
0
 10
0.0
 20
0.0
 30
0.0
  3
*Model_Space
  1

  0
ENDBLK
  5
21
100
AcDbEntity
  8
0
100
AcDbBlockEnd
  0
BLOCK
  5
1C
100
AcDbEntity
  8
0
100
AcDbBlockBegin
  2
*Paper_Space
 70
0
 10
0.0
 20
0.0
 30
0.0
  3
*Paper_Space
  1

  0
ENDBLK
  5
1D
100
AcDbEntity
  8
0
100
AcDbBlockEnd
  0
ENDSEC
  0
SECTION
  2
ENTITIES
  0
LINE
  5
212
100
AcDbEntity
  8
0
100
AcDbLine
 62
7
  6
CONTINUOUS
 10
-94.4275303369
 20
139.753682953
 11
-50.5996758202
 21
165.0593368589
  0
LWPOLYLINE
  5
213
100
AcDbEntity
  8
0
100
AcDbPolyline
 62
7
  6
CONTINUOUS
 90
31
 70
0
 10
-50.5996758202
 20
165.0593368589
 10
-50.3891833519
 20
165.1756016346
 10
-50.1736966003
 20
165.2841523046
 10
-49.953413203
 20
165.384802883
 10
-49.7286979989
 20
165.4773168446
 10
-49.4996112245
 20
165.5616051786
 10
-49.265876385
 20
165.6376691051
 10
-49.0276765443
 20
165.7053220379
 10
-48.785232653
 20
165.7643795447
 10
-48.5382791235
 20
165.8147627224
 10
-48.2869698204
 20
165.8562713602
 10
-48.0315370217
 20
165.8887026064
 10
-47.7717884648
 20
165.911900691
 10
-47.5078327196
 20
165.9256532483
 10
-47.2399267992
 20
165.9297469713
 10
-46.9680601305
 20
165.9239779427
 10
-46.6923339551
 20
165.908131297
 10
-46.4129916169
 20
165.8820046869
 10
-46.1301984162
 20
165.8454009872
 10
-45.8438595338
 20
165.7980804925
 10
-45.5543919752
 20
165.739882915
 10
-45.2626995613
 20
165.670812031
 10
-44.968857107
 20
165.5907399979
 10
-44.673094494
 20
165.4995796644
 10
-44.3765259076
 20
165.3975756573
 10
-44.0792634494
 20
165.2847120947
 10
-43.7814771032
 20
165.1609924665
 10
-43.4843521221
 20
165.0268988496
 10
-43.1883680919
 20
164.8827045783
 10
-42.893304888
 20
164.7283509376
 10
-42.599289258
 20
164.5639250821
  0
LWPOLYLINE
  5
214
100
AcDbEntity
  8
0
100
AcDbPolyline
 62
253
  6
CONTINUOUS
 90
18
 70
0
 10
-44.0993617384
 20
164.4153015491
 10
-43.9984252524
 20
164.4708066594
 10
-43.89771742
 20
164.5206373294
 10
-43.7974663768
 20
164.5646806767
 10
-43.6978992237
 20
164.6028369289
 10
-43.5992415123
 20
164.6350196498
 10
-43.5017167341
 20
164.6611559351
 10
-43.4055458141
 20
164.6811865779
 10
-43.3109466103
 20
164.6950662022
 10
-43.2181334203
 20
164.7027633662
 10
-43.1273164959
 20
164.7042606335
 10
-43.0387015666
 20
164.6995546121
 10
-42.9524893738
 20
164.6886559627
 10
-42.8688752157
 20
164.6715893744
 10
-42.7880485054
 20
164.6483935083
 10
-42.7101923413
 20
164.6191209107
 10
-42.6354830927
 20
164.5838378933
 10
-42.599289258
 20
164.5639250821
  0
LWPOLYLINE
  5
215
100
AcDbEntity
  8
0
100
AcDbPolyline
 62
253
  6
CONTINUOUS
 90
28
 70
0
 10
-50.5996758202
 20
165.0593368589
 10
-50.4075612421
 20
165.1638897439
 10
-50.2104233793
 20
165.2586473195
 10
-50.0081149481
 20
165.3437107406
 10
-49.8008071219
 20
165.419008035
 10
-49.5886753037
 20
165.4844754938
 10
-49.3718989781
 20
165.5400577249
 10
-49.1506615597
 20
165.5857077003
 10
-48.9251502373
 20
165.6213867954
 10
-48.6955558161
 20
165.6470648222
 10
-48.4620725558
 20
165.6627200545
 10
-48.2248980066
 20
165.6683392465
 10
-47.9842328419
 20
165.6639176437
 10
-47.7402806883
 20
165.6494589872
 10
-47.4932479539
 20
165.6249755106
 10
-47.2433436528
 20
165.5904879293
 10
-46.9907792292
 20
165.5460254232
 10
-46.7357683777
 20
165.4916256121
 10
-46.478526863
 20
165.4273345235
 10
-46.2192723371
 20
165.3532065543
 10
-45.9582241551
 20
165.269304424
 10
-45.69560319
 20
165.1756991223
 10
-45.4316316452
 20
165.0724698485
 10
-45.1665328671
 20
164.959703945
 10
-44.9005311557
 20
164.8374968229
 10
-44.633851575
 20
164.7059518817
 10
-44.3667197625
 20
164.5651804215
 10
-44.0993617384
 20
164.4153015491
  0
LWPOLYLINE
  5
216
100
AcDbEntity
  8
ASSI
100
AcDbPolyline
 62
7
  6
CONTINUOUS
 90
28
 70
0
 10
-94.4274700281
 20
139.7537177745
 10
-94.3298441352
 20
139.8064197112
 10
-94.1927597981
 20
139.8688829787
 10
-94.0500671398
 20
139.9211334516
 10
-93.9020213366
 20
139.9630975214
 10
-93.7487671604
 20
139.9947430364
 10
-93.5901149825
 20
140.0163156826
 10
-93.4262738399
 20
140.027817977
 10
-93.2574743472
 20
140.0292417014
 10
-93.0835835064
 20
140.0208759418
 10
-92.9048224509
 20
140.0027768012
 10
-92.7214367237
 20
139.9749792705
 10
-92.5333443168
 20
139.9377873361
 10
-92.3407700983
 20
139.8913004373
 10
-92.1439669655
 20
139.8355898124
 10
-91.9429010623
 20
139.7709494892
 10
-91.7379374404
 20
139.6975581282
 10
-91.5291908273
 20
139.6154830737
 10
-91.3162385528
 20
139.5248126838
 10
-91.0990754494
 20
139.4255374188
 10
-90.8781504025
 20
139.3178132663
 10
-90.6537142078
 20
139.2019598362
 10
-90.4259316581
 20
139.0781115226
 10
-90.1950937482
 20
138.9463984162
 10
-89.9616475021
 20
138.8072097127
 10
-89.7258934761
 20
138.6608183309
 10
-89.4879811799
 20
138.5073389
 10
-89.2481297172
 20
138.3469687651
  0
LWPOLYLINE
  5
217
100
AcDbEntity
  8
ASSI
100
AcDbPolyline
 62
7
  6
CONTINUOUS
 90
28
 70
0
 10
-93.4274213968
 20
138.0216950452
 10
-93.3521381811
 20
138.0620606047
 10
-93.2461217524
 20
138.1091529606
 10
-93.1353289992
 20
138.1476215173
 10
-93.0199696645
 20
138.1774075562
 10
-92.9001724231
 20
138.1984803064
 10
-92.7756883686
 20
138.2110987269
 10
-92.6466908005
 20
138.2152670132
 10
-92.5133784322
 20
138.2109761455
 10
-92.3755610095
 20
138.1985156081
 10
-92.2334211749
 20
138.1779354541
 10
-92.087171166
 20
138.1492627099
 10
-91.9366772855
 20
138.1127917241
 10
-91.7821250731
 20
138.0686093709
 10
-91.623733252
 20
138.0167731955
 10
-91.4614230692
 20
137.9575609213
 10
-91.2954951172
 20
137.8911285134
 10
-91.1260547705
 20
137.8175281645
 10
-90.9527191707
 20
137.7368491976
 10
-90.775487116
 20
137.6490817101
 10
-90.5947352619
 20
137.554359522
 10
-90.4106410953
 20
137.4529731221
 10
-90.2233392716
 20
137.3450389913
 10
-90.0330808019
 20
137.2306644436
 10
-89.8402235665
 20
137.1101905601
 10
-89.6450150922
 20
136.9838521929
 10
-89.4475886772
 20
136.8517424153
 10
-89.2481297172
 20
136.7140282115
  0
LINE
  5
218
100
AcDbEntity
  8
ASSI
100
AcDbLine
 62
253
  6
CONTINUOUS
 10
-89.2481297172
 20
138.3469687651
 11
-44.0993617384
 21
164.4153015491
  0
LINE
  5
219
100
AcDbEntity
  8
ASSI
100
AcDbLine
 62
253
  6
CONTINUOUS
 10
-94.6574965932
 20
133.591595581
 11
-89.248505588
 21
136.7146791969
  0
LINE
  5
21A
100
AcDbEntity
  8
0
100
AcDbLine
 62
7
  6
CONTINUOUS
 10
-68.8480990799
 20
116.9778655533
 11
-63.7130910965
 21
119.9427548061
  0
LINE
  5
21B
100
AcDbEntity
  8
0
100
AcDbLine
 62
7
  6
CONTINUOUS
 10
-68.8480990799
 20
115.34476718
 11
-62.3672127555
 21
119.0867497191
  0
LWPOLYLINE
  5
21C
100
AcDbEntity
  8
0
100
AcDbPolyline
 62
7
  6
CONTINUOUS
 90
9
 70
0
 10
56.5926439026
 20
-135.9044888242
 10
56.5631710947
 20
-135.9015677668
 10
56.5283092023
 20
-135.8957022006
 10
56.4928445817
 20
-135.8873467187
 10
56.4567821397
 20
-135.8765215913
 10
56.4204170611
 20
-135.8633154262
 10
56.3838477408
 20
-135.8477577593
 10
56.3469757837
 20
-135.8298190548
 10
56.3098011901
 20
-135.8094993126
  0
LWPOLYLINE
  5
21D
100
AcDbEntity
  8
0
100
AcDbPolyline
 62
7
  6
CONTINUOUS
 90
22
 70
0
 10
59.0422705702
 20
-165.6960468398
 10
59.1375794029
 20
-165.747015939
 10
59.2362606517
 20
-165.7918648672
 10
59.3380220364
 20
-165.8304756285
 10
59.4428764685
 20
-165.8628220732
 10
59.5508110366
 20
-165.8889303511
 10
59.6613739253
 20
-165.9086911724
 10
59.7745761522
 20
-165.9220779296
 10
59.8904066997
 20
-165.9291172303
 10
60.0083807
 20
-165.929779608
 10
60.128507138
 20
-165.9240383314
 10
60.2507770286
 20
-165.9119201317
 10
60.3746785489
 20
-165.8934757358
 10
60.5002185383
 20
-165.8686786252
 10
60.6273901573
 20
-165.8375553185
 10
60.7556610641
 20
-165.8002360981
 10
60.8850358667
 20
-165.7566949917
 10
61.0155099571
 20
-165.7069579716
 10
61.1465371693
 20
-165.6512332375
 10
61.277935448
 20
-165.5895901895
 10
61.4098868486
 20
-165.5219594274
 10
61.5423913709
 20
-165.4483409514
  0
LINE
  5
21E
100
AcDbEntity
  8
0
100
AcDbLine
 62
7
  6
CONTINUOUS
 10
-88.0359399166
 20
-80.7749314277
 11
-89.450153479
 21
-79.958382241
  0
LINE
  5
21F
100
AcDbEntity
  8
0
100
AcDbLine
 62
7
  6
CONTINUOUS
 10
57.6280570078
 20
-164.8794976532
 11
59.0422705702
 21
-165.6960468398
  0
LWPOLYLINE
  5
220
100
AcDbEntity
  8
0
100
AcDbPolyline
 62
7
  6
CONTINUOUS
 90
22
 70
0
 10
-89.450153479
 20
-79.958382241
 10
-89.5417128506
 20
-79.9014768346
 10
-89.6298998061
 20
-79.8384512573
 10
-89.7142243933
 20
-79.7696390769
 10
-89.7946704217
 20
-79.6950160368
 10
-89.8712540819
 20
-79.6146063937
 10
-89.9436547937
 20
-79.528746743
 10
-90.0118550228
 20
-79.4374142393
 10
-90.0758723036
 20
-79.3406317282
 10
-90.135438659
 20
-79.2388043422
 10
-90.1905354313
 20
-79.1319109341
 10
-90.2411812783
 20
-79.0199726513
 10
-90.2871641959
 20
-78.9034580685
 10
-90.3284646376
 20
-78.7823480026
 10
-90.3651021499
 20
-78.6566616368
 10
-90.3969233677
 20
-78.5269250957
 10
-90.4239081017
 20
-78.3931214014
 10
-90.4460765413
 20
-78.2552675318
 10
-90.4633358891
 20
-78.1139405445
 10
-90.4756552126
 20
-77.9693327923
 10
-90.4830654444
 20
-77.8212519226
 10
-90.4855665842
 20
-77.6696979353
  0
LWPOLYLINE
  5
221
100
AcDbEntity
  8
RACCORDO
100
AcDbPolyline
 62
253
  6
CONTINUOUS
 90
5
 70
0
 10
-2.8944888263
 20
-109.3982508031
 10
-2.9631328016
 20
-109.4043778185
 10
-3.0369168743
 20
-109.3952127009
 10
-3.1141928285
 20
-109.3709601814
 10
-3.1932344468
 20
-109.332162019
  0
LWPOLYLINE
  5
222
100
AcDbEntity
  8
0
100
AcDbPolyline
 62
7
  6
CONTINUOUS
 90
22
 70
0
 10
-88.0359399166
 20
-80.7749314276
 10
-87.9406310839
 20
-80.8259005268
 10
-87.8419498351
 20
-80.870749455
 10
-87.7401884504
 20
-80.9093602163
 10
-87.6353340183
 20
-80.9417066611
 10
-87.5273994502
 20
-80.9678149389
 10
-87.4168365615
 20
-80.9875757603
 10
-87.3036343346
 20
-81.0009625175
 10
-87.1878037871
 20
-81.0080018182
 10
-87.0698297868
 20
-81.0086641958
 10
-86.9497033488
 20
-81.0029229192
 10
-86.8274334582
 20
-80.9908047195
 10
-86.7035319379
 20
-80.9723603236
 10
-86.5779919485
 20
-80.9475632131
 10
-86.4508203295
 20
-80.9164399063
 10
-86.3225494227
 20
-80.879120686
 10
-86.1931746201
 20
-80.8355795795
 10
-86.0627005297
 20
-80.7858425594
 10
-85.9316733175
 20
-80.7301178254
 10
-85.8002750388
 20
-80.6684747773
 10
-85.6683236383
 20
-80.6008440153
 10
-85.5358191159
 20
-80.5272255393
  0
LINE
  5
223
100
AcDbEntity
  8
0
100
AcDbLine
 62
253
  6
CONTINUOUS
 10
-89.0713530219
 20
-78.486247122
 11
-90.4855665842
 21
-77.6696979353
  0
LINE
  5
224
100
AcDbEntity
  8
0
100
AcDbLine
 62
253
  6
CONTINUOUS
 10
56.5926439026
 20
-162.5908133475
 11
58.0068574649
 21
-163.4073625341
  0
LINE
  5
225
100
AcDbEntity
  8
0
100
AcDbLine
 62
7
  6
CONTINUOUS
 10
-79.4547007977
 20
-77.0160640367
 11
56.5926439026
 21
-155.5680957929
  0
LWPOLYLINE
  5
226
100
AcDbEntity
  8
0
100
AcDbPolyline
 62
7
  6
CONTINUOUS
 90
22
 70
0
 10
57.6280570078
 20
-164.8794976531
 10
57.5364976362
 20
-164.8225922468
 10
57.4483106807
 20
-164.7595666695
 10
57.3639860935
 20
-164.6907544891
 10
57.2835400651
 20
-164.616131449
 10
57.2069564049
 20
-164.5357218058
 10
57.1345556931
 20
-164.4498621552
 10
57.066355464
 20
-164.3585296515
 10
57.0023381832
 20
-164.2617471403
 10
56.9427718278
 20
-164.1599197544
 10
56.8876750555
 20
-164.0530263463
 10
56.8370292085
 20
-163.9410880634
 10
56.7910462909
 20
-163.8245734806
 10
56.7497458492
 20
-163.7034634148
 10
56.7131083369
 20
-163.577777049
 10
56.6812871191
 20
-163.4480405079
 10
56.6543023851
 20
-163.3142368136
 10
56.6321339455
 20
-163.1763829439
 10
56.6148745977
 20
-163.0350559567
 10
56.6025552742
 20
-162.8904482045
 10
56.5951450424
 20
-162.7423673348
 10
56.5926439026
 20
-162.5908133475
  0
LWPOLYLINE
  5
227
100
AcDbEntity
  8
0
100
AcDbPolyline
 62
7
  6
CONTINUOUS
 90
22
 70
0
 10
-89.0713530219
 20
-78.486247122
 10
-89.068851882
 20
-78.6378011093
 10
-89.0614416503
 20
-78.785881979
 10
-89.0491223268
 20
-78.9304897312
 10
-89.031862979
 20
-79.0718167184
 10
-89.0096945394
 20
-79.2096705881
 10
-88.9827098053
 20
-79.3434742824
 10
-88.9508885875
 20
-79.4732108235
 10
-88.9142510752
 20
-79.5988971893
 10
-88.8729506335
 20
-79.7200072551
 10
-88.826967716
 20
-79.8365218379
 10
-88.776321869
 20
-79.9484601208
 10
-88.7212250966
 20
-80.0553535289
 10
-88.6616587412
 20
-80.1571809148
 10
-88.5976414604
 20
-80.253963426
 10
-88.5294412313
 20
-80.3452959297
 10
-88.4570405195
 20
-80.4311555803
 10
-88.3804568594
 20
-80.5115652235
 10
-88.3000108309
 20
-80.5861882636
 10
-88.2156862437
 20
-80.655000444
 10
-88.1274992882
 20
-80.7180260213
 10
-88.0359399166
 20
-80.7749314276
  0
LINE
  5
228
100
AcDbEntity
  8
ASSI
100
AcDbLine
 62
7
  6
CONTINUOUS
 10
-96.0717101556
 20
85.3968259525
 11
-96.0717101556
 21
134.4081447677
  0
LINE
  5
229
100
AcDbEntity
  8
ASSI
100
AcDbLine
 62
7
  6
CONTINUOUS
 10
-94.6574965932
 20
84.5802767658
 11
-94.6574965932
 21
133.591595581
  0
LINE
  5
22A
100
AcDbEntity
  8
0
100
AcDbLine
 62
7
  6
CONTINUOUS
 10
-90.4855665842
 20
-77.6696979353
 11
-90.4855665842
 21
66.9151335779
  0
LINE
  5
22B
100
AcDbEntity
  8
ASSI
100
AcDbLine
 62
253
  6
CONTINUOUS
 10
-89.2481297172
 20
138.3469687651
 11
-89.2481297172
 21
136.7140282115
  0
LINE
  5
22C
100
AcDbEntity
  8
0
100
AcDbLine
 62
7
  6
CONTINUOUS
 10
-89.0713530219
 20
-78.486247122
 11
-89.0713530219
 21
66.0985843913
  0
LWPOLYLINE
  5
22D
100
AcDbEntity
  8
ASSI
100
AcDbPolyline
 62
7
  6
CONTINUOUS
 90
29
 70
0
 10
-94.6574965932
 20
133.591595581
 10
-94.656076363
 20
133.8362758068
 10
-94.6519160364
 20
134.0767318367
 10
-94.6449319767
 20
134.3127208573
 10
-94.6350442382
 20
134.544131126
 10
-94.6221716811
 20
134.7705747393
 10
-94.6062687471
 20
134.991414276
 10
-94.5873572917
 20
135.20637419
 10
-94.5653583751
 20
135.4152754733
 10
-94.5401440908
 20
135.6176726278
 10
-94.5117922491
 20
135.8131255922
 10
-94.480268859
 20
136.0016864876
 10
-94.44527963
 20
136.1836428168
 10
-94.4068101472
 20
136.3588644741
 10
-94.36486137
 20
136.5270208649
 10
-94.3191356467
 20
136.6880675601
 10
-94.2696537808
 20
136.841826503
 10
-94.2164199756
 20
136.9880243161
 10
-94.1591423292
 20
137.1265010854
 10
-94.0979221023
 20
137.2570073973
 10
-94.0327733321
 20
137.3794202129
 10
-93.9633076822
 20
137.493804952
 10
-93.8896577768
 20
137.5999202933
 10
-93.8118523959
 20
137.6976756529
 10
-93.7293343973
 20
137.7873374184
 10
-93.6420764678
 20
137.868794978
 10
-93.5502369383
 20
137.9417527073
 10
-93.45355248
 20
138.0062179268
 10
-93.4274213968
 20
138.0216950452
  0
LWPOLYLINE
  5
22E
100
AcDbEntity
  8
ASSI
100
AcDbPolyline
 62
7
  6
CONTINUOUS
 90
29
 70
0
 10
-96.0717101556
 20
134.4081447677
 10
-96.0697538494
 20
134.6974727357
 10
-96.0639747716
 20
134.9821459411
 10
-96.054274079
 20
135.2618774229
 10
-96.0405547839
 20
135.5365365685
 10
-96.0227235
 20
135.8056634994
 10
-96.0007339048
 20
136.0685005583
 10
-95.9746027491
 20
136.3247273416
 10
-95.9442458189
 20
136.5741270525
 10
-95.9095467069
 20
136.8161531264
 10
-95.8705982687
 20
137.0502849722
 10
-95.8273594351
 20
137.276584706
 10
-95.7795144687
 20
137.4953735927
 10
-95.7270388189
 20
137.7065022097
 10
-95.6699411346
 20
137.9095755156
 10
-95.6079242498
 20
138.1045094753
 10
-95.5410034855
 20
138.2910990074
 10
-95.4691930743
 20
138.4690156803
 10
-95.3922304401
 20
138.6380229283
 10
-95.3102336654
 20
138.7978269076
 10
-95.2232209289
 20
138.948281291
 10
-95.1308204553
 20
139.0894130633
 10
-95.0331929873
 20
139.2209347139
 10
-94.9303685328
 20
139.3427415017
 10
-94.8217638032
 20
139.4551048564
 10
-94.7073312983
 20
139.5579028434
 10
-94.5872733574
 20
139.6507773
 10
-94.461399589
 20
139.7336671205
 10
-94.4274700281
 20
139.7537177745
  0
LWPOLYLINE
  5
22F
100
AcDbEntity
  8
RACCORDO
100
AcDbPolyline
 62
7
  6
CONTINUOUS
 90
6
 70
0
 10
-3.4932489428
 20
-108.1371813104
 10
-3.5342889849
 20
-108.1154956369
 10
-3.5684778163
 20
-108.1008540248
 10
-3.5945931325
 20
-108.0923047229
 10
-3.6116540609
 20
-108.0884577044
 10
-3.6166298878
 20
-108.0877409313
  0
LWPOLYLINE
  5
230
100
AcDbEntity
  8
RACCORDO
100
AcDbPolyline
 62
7
  6
CONTINUOUS
 90
6
 70
0
 10
-74.2039270615
 20
-67.3097219777
 10
-74.2449671036
 20
-67.2880363041
 10
-74.2791559349
 20
-67.273394692
 10
-74.3052712512
 20
-67.2648453901
 10
-74.3223321796
 20
-67.2609983716
 10
-74.3273080064
 20
-67.2602815985
  0
LINE
  5
231
100
AcDbEntity
  8
0
100
AcDbLine
 62
7
  6
CONTINUOUS
 10
56.3098011901
 20
-135.8094993126
 11
1.1554722575
 21
-103.964081033
  0
LINE
  5
232
100
AcDbEntity
  8
0
100
AcDbLine
 62
7
  6
CONTINUOUS
 10
-14.4008769286
 20
-94.9820399798
 11
-69.5552058611
 21
-63.1366217002
  0
LINE
  5
233
100
AcDbEntity
  8
0
100
AcDbLine
 62
7
  6
CONTINUOUS
 10
56.5926439026
 20
-134.3397107766
 11
2.5696858199
 21
-103.1475318463
  0
LINE
  5
234
100
AcDbEntity
  8
0
100
AcDbLine
 62
7
  6
CONTINUOUS
 10
-13.6937701474
 20
-93.7572161998
 11
-68.1409922987
 21
-62.3200725136
  0
LWPOLYLINE
  5
235
100
AcDbEntity
  8
0
100
AcDbPolyline
 62
7
  6
CONTINUOUS
 90
31
 70
0
 10
-69.5552058611
 20
-63.1366217002
 10
-69.5923804548
 20
-63.1140131535
 10
-69.6292524118
 20
-63.0893730463
 10
-69.6658217322
 20
-63.0627013787
 10
-69.7021868108
 20
-63.0339140625
 10
-69.7382492528
 20
-63.0030951858
 10
-69.7737138733
 20
-62.9704970128
 10
-69.8085757658
 20
-62.9361049395
 10
-69.8428398368
 20
-62.8999335698
 10
-69.8762256221
 20
-62.8622789802
 10
-69.9087259128
 20
-62.8231289967
 10
-69.9403479178
 20
-62.7824957932
 10
-69.9708327989
 20
-62.7407119679
 10
-70.0001712229
 20
-62.6977680768
 10
-70.0283725231
 20
-62.6536735638
 10
-70.0552058611
 20
-62.6087893593
 10
-70.0806600091
 20
-62.5631089816
 10
-70.1047461949
 20
-62.5166389124
 10
-70.1272672639
 20
-62.4697595267
 10
-70.1482103702
 20
-62.422467465
 10
-70.1675883598
 20
-62.3747660869
 10
-70.1852426165
 20
-62.3270458461
 10
-70.2011589923
 20
-62.2793065879
 10
-70.2153516352
 20
-62.2315484671
 10
-70.2277043731
 20
-62.1841624019
 10
-70.2382021044
 20
-62.1371514462
 10
-70.2468599307
 20
-62.0905125462
 10
-70.2536069845
 20
-62.0446274588
 10
-70.258419643
 20
-61.9996234365
 10
-70.261321529
 20
-61.955373227
 10
-70.2623126423
 20
-61.9118768301
  0
LWPOLYLINE
  5
236
100
AcDbEntity
  8
0
100
AcDbPolyline
 62
7
  6
CONTINUOUS
 90
31
 70
0
 10
1.1554722575
 20
-103.964081033
 10
1.1182976639
 20
-103.9414724863
 10
1.0814257069
 20
-103.9168323791
 10
1.0448563865
 20
-103.8901607114
 10
1.0084913079
 20
-103.8613733952
 10
0.9724288659
 20
-103.8305545186
 10
0.9369642453
 20
-103.7979563456
 10
0.9021023529
 20
-103.7635642722
 10
0.8678382818
 20
-103.7273929026
 10
0.8344524966
 20
-103.689738313
 10
0.8019522058
 20
-103.6505883295
 10
0.7703302009
 20
-103.609955126
 10
0.7398453198
 20
-103.5681713007
 10
0.7105068957
 20
-103.5252274095
 10
0.6823055956
 20
-103.4811328966
 10
0.6554722575
 20
-103.436248692
 10
0.6300181096
 20
-103.3905683144
 10
0.6059319238
 20
-103.3440982451
 10
0.5834108547
 20
-103.2972188595
 10
0.5624677485
 20
-103.2499267978
 10
0.5430897589
 20
-103.2022254196
 10
0.5254355022
 20
-103.1545051789
 10
0.5095191264
 20
-103.1067659207
 10
0.4953264835
 20
-103.0590077999
 10
0.4829737456
 20
-103.0116217347
 10
0.4724760142
 20
-102.964610779
 10
0.4638181879
 20
-102.9179718789
 10
0.4570711342
 20
-102.8720867916
 10
0.4522584756
 20
-102.8270827693
 10
0.4493565897
 20
-102.7828325597
 10
0.4483654763
 20
-102.7393361629
  0
LWPOLYLINE
  5
237
100
AcDbEntity
  8
RACCORDO
100
AcDbPolyline
 62
253
  6
CONTINUOUS
 90
25
 70
0
 10
-74.3281766341
 20
-69.2395496083
 10
-74.4559807896
 20
-69.1550670662
 10
-74.5776479668
 20
-69.0568991526
 10
-74.6931781656
 20
-68.9450458674
 10
-74.8043298627
 20
-68.8171472659
 10
-74.9093445814
 20
-68.6755632928
 10
-75.0029468921
 20
-68.5273737826
 10
-75.0845478946
 20
-68.372245794
 10
-75.1547364891
 20
-68.2105122683
 10
-75.2100039463
 20
-68.0502518639
 10
-75.2495911229
 20
-67.8915411499
 10
-75.2742571622
 20
-67.7343035572
 10
-75.2827707653
 20
-67.5863880379
 10
-75.2743119411
 20
-67.4482677784
 10
-75.2497006806
 20
-67.3194695923
 10
-75.2101656584
 20
-67.2064228716
 10
-75.154949483
 20
-67.109927311
 10
-75.084809546
 20
-67.0291832159
 10
-75.0032466966
 20
-66.9682208945
 10
-74.9096802368
 20
-66.9280447079
 10
-74.8046908647
 20
-66.9076502951
 10
-74.693521524
 20
-66.9080548814
 10
-74.5779198626
 20
-66.9295975421
 10
-74.4561382327
 20
-66.9719392019
 10
-74.3281766341
 20
-67.035079861
  0
LWPOLYLINE
  5
238
100
AcDbEntity
  8
RACCORDO
100
AcDbPolyline
 62
253
  6
CONTINUOUS
 90
25
 70
0
 10
-74.3281766341
 20
-67.035079861
 10
-74.2003724786
 20
-67.1195624031
 10
-74.0787053015
 20
-67.2177303167
 10
-73.9631751026
 20
-67.3295836019
 10
-73.8520234056
 20
-67.4574822034
 10
-73.7470086868
 20
-67.5990661765
 10
-73.6534063761
 20
-67.7472556867
 10
-73.5718053736
 20
-67.9023836753
 10
-73.5016167791
 20
-68.064117201
 10
-73.4463493219
 20
-68.2243776054
 10
-73.4067621453
 20
-68.3830883194
 10
-73.382096106
 20
-68.5403259121
 10
-73.3735825029
 20
-68.6882414314
 10
-73.3820413272
 20
-68.8263616909
 10
-73.4066525877
 20
-68.955159877
 10
-73.4461876098
 20
-69.0682065977
 10
-73.5014037852
 20
-69.1647021583
 10
-73.5715437223
 20
-69.2454462534
 10
-73.6531065717
 20
-69.3064085748
 10
-73.7466730315
 20
-69.3465847614
 10
-73.8516624036
 20
-69.3669791742
 10
-73.9628317443
 20
-69.3665745879
 10
-74.0784334056
 20
-69.3450319272
 10
-74.2002150356
 20
-69.3026902674
 10
-74.3281766341
 20
-69.2395496083
  0
LWPOLYLINE
  5
239
100
AcDbEntity
  8
RACCORDO
100
AcDbPolyline
 62
253
  6
CONTINUOUS
 90
25
 70
0
 10
-3.6174985155
 20
-110.0670089411
 10
-3.745302671
 20
-109.982526399
 10
-3.8669698481
 20
-109.8843584854
 10
-3.982500047
 20
-109.7725052002
 10
-4.093651744
 20
-109.6446065987
 10
-4.1986664628
 20
-109.5030226256
 10
-4.2922687735
 20
-109.3548331154
 10
-4.373869776
 20
-109.1997051267
 10
-4.4440583705
 20
-109.037971601
 10
-4.4993258277
 20
-108.8777111967
 10
-4.5389130043
 20
-108.7190004827
 10
-4.5635790436
 20
-108.56176289
 10
-4.5720926467
 20
-108.4138473707
 10
-4.5636338224
 20
-108.2757271112
 10
-4.5390225619
 20
-108.146928925
 10
-4.4994875398
 20
-108.0338822043
 10
-4.4442713644
 20
-107.9373866437
 10
-4.3741314273
 20
-107.8566425486
 10
-4.2925685779
 20
-107.7956802273
 10
-4.1990021181
 20
-107.7555040407
 10
-4.094012746
 20
-107.7351096278
 10
-3.9828434053
 20
-107.7355142142
 10
-3.867241744
 20
-107.7570568749
 10
-3.745460114
 20
-107.7993985347
 10
-3.6174985155
 20
-107.8625391938
  0
LWPOLYLINE
  5
23A
100
AcDbEntity
  8
RACCORDO
100
AcDbPolyline
 62
253
  6
CONTINUOUS
 90
25
 70
0
 10
-3.6174985155
 20
-107.8625391938
 10
-3.48969436
 20
-107.9470217358
 10
-3.3680271828
 20
-108.0451896495
 10
-3.252496984
 20
-108.1570429346
 10
-3.1413452869
 20
-108.2849415362
 10
-3.0363305682
 20
-108.4265255093
 10
-2.9427282575
 20
-108.5747150195
 10
-2.861127255
 20
-108.7298430081
 10
-2.7909386605
 20
-108.8915765338
 10
-2.7356712033
 20
-109.0518369381
 10
-2.6960840267
 20
-109.2105476522
 10
-2.6714179874
 20
-109.3677852448
 10
-2.6629043843
 20
-109.5157007642
 10
-2.6713632085
 20
-109.6538210237
 10
-2.695974469
 20
-109.7826192098
 10
-2.7355094912
 20
-109.8956659305
 10
-2.7907256666
 20
-109.9921614911
 10
-2.8608656036
 20
-110.0729055862
 10
-2.942428453
 20
-110.1338679076
 10
-3.0359949128
 20
-110.1740440942
 10
-3.1409842849
 20
-110.194438507
 10
-3.2521536256
 20
-110.1940339207
 10
-3.367755287
 20
-110.17249126
 10
-3.4895369169
 20
-110.1301496001
 10
-3.6174985155
 20
-110.0670089411
  0
LWPOLYLINE
  5
23B
100
AcDbEntity
  8
RACCORDO
100
AcDbPolyline
 62
253
  6
CONTINUOUS
 90
15
 70
0
 10
-73.9039125654
 20
-68.5047026863
 10
-73.9829541053
 20
-68.452225628
 10
-74.0602300024
 20
-68.3872418802
 10
-74.1340140415
 20
-68.3112030652
 10
-74.2026580103
 20
-68.2258077558
 10
-74.2646285118
 20
-68.1329635392
 10
-74.3185412205
 20
-68.0347444061
 10
-74.3631918133
 20
-67.9333444086
 10
-74.3975828674
 20
-67.8310286551
 10
-74.4209461394
 20
-67.7300827185
 10
-74.4327597318
 20
-67.6327615675
 10
-74.432759749
 20
-67.541239194
 10
-74.4209461906
 20
-67.4575600572
 10
-74.3975829515
 20
-67.3835934107
 10
-74.363191928
 20
-67.3209915487
  0
LWPOLYLINE
  5
23C
100
AcDbEntity
  8
RACCORDO
100
AcDbPolyline
 62
253
  6
CONTINUOUS
 90
15
 70
0
 10
-3.1932344468
 20
-109.332162019
 10
-3.2722759867
 20
-109.2796849608
 10
-3.3495518837
 20
-109.214701213
 10
-3.4233359229
 20
-109.1386623979
 10
-3.4919798916
 20
-109.0532670886
 10
-3.5539503932
 20
-108.960422872
 10
-3.6078631018
 20
-108.8622037389
 10
-3.6525136946
 20
-108.7608037414
 10
-3.6869047488
 20
-108.6584879878
 10
-3.7102680207
 20
-108.5575420513
 10
-3.7220816131
 20
-108.4602209003
 10
-3.7220816304
 20
-108.3686985267
 10
-3.7102680719
 20
-108.28501939
 10
-3.6869048329
 20
-108.2110527434
 10
-3.6525138094
 20
-108.1484508815
  0
LWPOLYLINE
  5
23D
100
AcDbEntity
  8
0
100
AcDbPolyline
 62
7
  6
CONTINUOUS
 90
19
 70
0
 10
-72.2068562906
 20
-68.545589328
 10
-72.2206384489
 20
-68.3187613335
 10
-72.2565219814
 20
-68.0897428663
 10
-72.3145068881
 20
-67.8585339263
 10
-72.3963217404
 20
-67.6211493552
 10
-72.500237967
 20
-67.3815743114
 10
-72.6210698529
 20
-67.1517642697
 10
-72.759675817
 20
-66.9322147743
 10
-72.9151974404
 20
-66.722430281
 10
-73.0798737528
 20
-66.5328796315
 10
-73.2541693269
 20
-66.3645896323
 10
-73.4376195899
 20
-66.2165334769
 10
-73.6210698529
 20
-66.0960995877
 10
-73.804520116
 20
-66.0046897115
 10
-73.987970379
 20
-65.9409021015
 10
-74.1622659531
 20
-65.9079199406
 10
-74.3269422655
 20
-65.9073065123
 10
-74.4824638889
 20
-65.9374985332
 10
-74.6211181731
 20
-65.9970172326
  0
LWPOLYLINE
  5
23E
100
AcDbEntity
  8
RACCORDO
100
AcDbPolyline
 62
253
  6
CONTINUOUS
 90
25
 70
0
 10
-75.3181261278
 20
-67.565730304
 10
-75.3094502622
 20
-67.7208014873
 10
-75.2850659165
 20
-67.8786270176
 10
-75.2449730906
 20
-68.0392068951
 10
-75.187901857
 20
-68.2057935589
 10
-75.1151221432
 20
-68.3751345698
 10
-75.030443732
 20
-68.5374726104
 10
-74.9333562429
 20
-68.6919462629
 10
-74.8243700563
 20
-68.8394169452
 10
-74.7088260966
 20
-68.9727115934
 10
-74.5863185981
 20
-69.0912230108
 10
-74.4572533264
 20
-69.1955583942
 10
-74.3281885024
 20
-69.2803662695
 10
-74.1991250072
 20
-69.3446031996
 10
-74.0700619596
 20
-69.3893126216
 10
-73.9475549372
 20
-69.4122733734
 10
-73.8320084087
 20
-69.4124107478
 10
-73.7230179054
 20
-69.3907994519
 10
-73.6259255981
 20
-69.3484424445
 10
-73.5412415091
 20
-69.283886905
 10
-73.4684556161
 20
-69.1985856539
 10
-73.4113800224
 20
-69.0979001124
 10
-73.3712854291
 20
-68.9836174206
 10
-73.3469011351
 20
-68.8539504382
 10
-73.3382271405
 20
-68.7088991653
  0
LWPOLYLINE
  5
23F
100
AcDbEntity
  8
RACCORDO
100
AcDbPolyline
 62
253
  6
CONTINUOUS
 90
25
 70
0
 10
-73.3382271405
 20
-68.7088991653
 10
-73.346903006
 20
-68.553827982
 10
-73.3712873518
 20
-68.3960024517
 10
-73.4113801776
 20
-68.2354225742
 10
-73.4684514113
 20
-68.0688359104
 10
-73.541231125
 20
-67.8994948996
 10
-73.6259095362
 20
-67.7371568589
 10
-73.7229970254
 20
-67.5826832064
 10
-73.8319832119
 20
-67.4352125241
 10
-73.9475271717
 20
-67.3019178759
 10
-74.0700346702
 20
-67.1834064585
 10
-74.1990999418
 20
-67.0790710751
 10
-74.3281647659
 20
-66.9942631998
 10
-74.4572282611
 20
-66.9300262697
 10
-74.5862913087
 20
-66.8853168477
 10
-74.7087983311
 20
-66.8623560959
 10
-74.8243448595
 20
-66.8622187215
 10
-74.9333353628
 20
-66.8838300174
 10
-75.0304276702
 20
-66.9261870248
 10
-75.1151117591
 20
-66.9907425643
 10
-75.1878976522
 20
-67.0760438154
 10
-75.2449732459
 20
-67.1767293569
 10
-75.2850678392
 20
-67.2910120488
 10
-75.3094521331
 20
-67.4206790311
 10
-75.3181261278
 20
-67.565730304
  0
LWPOLYLINE
  5
240
100
AcDbEntity
  8
RACCORDO
100
AcDbPolyline
 62
7
  6
CONTINUOUS
 90
22
 70
0
 10
-75.4938620591
 20
-67.3207656886
 10
-75.4831628154
 20
-67.5274090266
 10
-75.452174299
 20
-67.7352473834
 10
-75.4024618313
 20
-67.942306606
 10
-75.3353515935
 20
-68.1470639742
 10
-75.2520356872
 20
-68.3478889259
 10
-75.1538920577
 20
-68.5425867988
 10
-75.0423184441
 20
-68.7290958189
 10
-74.9182926579
 20
-68.9060327312
 10
-74.7825540428
 20
-69.072070264
 10
-74.6345041071
 20
-69.2268845896
 10
-74.4762866801
 20
-69.3668866327
 10
-74.3128214283
 20
-69.4873244678
 10
-74.1451193114
 20
-69.587591297
 10
-73.9740356804
 20
-69.6669862287
 10
-73.8046937169
 20
-69.7234933463
 10
-73.6399456322
 20
-69.7574711392
 10
-73.4792812622
 20
-69.7702172719
 10
-73.3235781166
 20
-69.7623774385
 10
-73.1745282719
 20
-69.7346619265
 10
-73.0340638166
 20
-69.688177205
 10
-72.9038642451
 20
-69.6243728876
  0
LINE
  5
241
100
AcDbEntity
  8
RACCORDO
100
AcDbLine
 62
253
  6
CONTINUOUS
 10
-72.489699003
 20
-68.7088991653
 11
-72.4992613645
 21
-68.5138055923
  0
LWPOLYLINE
  5
242
100
AcDbEntity
  8
RACCORDO
100
AcDbPolyline
 62
7
  6
CONTINUOUS
 90
20
 70
0
 10
-73.5694517455
 20
35.4404861692
 10
-73.5697289489
 20
35.4400186878
 10
-73.5661471967
 20
35.4484028299
 10
-73.5593580539
 20
35.4717712447
 10
-73.5528638079
 20
35.5100079417
 10
-73.5494285248
 20
35.562711127
 10
-73.5513108004
 20
35.6286068584
 10
-73.5602222574
 20
35.7062188699
 10
-73.5776301103
 20
35.7946649839
 10
-73.6044398949
 20
35.8914866651
 10
-73.6407562041
 20
35.9933656814
 10
-73.6865569036
 20
36.0980915519
 10
-73.7412337719
 20
36.2028666436
 10
-73.8029051227
 20
36.3036369798
 10
-73.8700489702
 20
36.3981426486
 10
-73.9408455018
 20
36.4842989872
 10
-74.0119945666
 20
36.5591103125
 10
-74.0807542271
 20
36.6212952563
 10
-74.145385293
 20
36.6710300695
 10
-74.2039270615
 20
36.7085912857
  0
LWPOLYLINE
  5
243
100
AcDbEntity
  8
RACCORDO
100
AcDbPolyline
 62
253
  6
CONTINUOUS
 90
6
 70
0
 10
-72.7223534506
 20
34.5464319818
 10
-72.6401245969
 20
34.6634068767
 10
-72.5749862228
 20
34.8001602399
 10
-72.5278191805
 20
34.9548428468
 10
-72.499261376
 20
35.1253627935
 10
-72.489699003
 20
35.3094140981
  0
LWPOLYLINE
  5
244
100
AcDbEntity
  8
RACCORDO
100
AcDbPolyline
 62
253
  6
CONTINUOUS
 90
3
 70
0
 10
-74.363191928
 20
36.6973217147
 10
-74.3185413609
 20
36.7471603677
 10
-74.308650452
 20
36.7542298393
  0
LWPOLYLINE
  5
245
100
AcDbEntity
  8
ASSI
100
AcDbPolyline
 62
7
  6
CONTINUOUS
 90
55
 70
0
 10
-19.3114772749
 20
83.0254439076
 10
-19.3700345845
 20
82.9886046033
 10
-19.4260442644
 20
82.9471992387
 10
-19.4791210332
 20
82.901501876
 10
-19.5292481634
 20
82.8514880363
 10
-19.5764423825
 20
82.7971821987
 10
-19.6204350327
 20
82.7388935046
 10
-19.6612078539
 20
82.6765992383
 10
-19.6987791062
 20
82.6103221155
 10
-19.7329349112
 20
82.5404394258
 10
-19.7636557893
 20
82.466930605
 10
-19.7909612201
 20
82.3898162171
 10
-19.8146957647
 20
82.3095352439
 10
-19.8348390568
 20
82.2260696249
 10
-19.8514114627
 20
82.1394374205
 10
-19.8643186423
 20
82.0501317934
 10
-19.8735396912
 20
81.9581374961
 10
-19.8790955137
 20
81.8634697762
 10
-19.8809544828
 20
81.7666675394
 10
-19.8790955137
 20
81.6677186118
 10
-19.8735396912
 20
81.5666351673
 10
-19.8643186423
 20
81.4639926338
 10
-19.8514114627
 20
81.3597821194
 10
-19.8348390568
 20
81.2540125161
 10
-19.8146957647
 20
81.1472859282
 10
-19.7909612201
 20
81.0395968978
 10
-19.7636557893
 20
80.9309508829
 10
-19.7329349112
 20
80.8219663621
 10
-19.6987791062
 20
80.7126414048
 10
-19.6612078539
 20
80.6029779418
 10
-19.6204350327
 20
80.4936002434
 10
-19.5764423825
 20
80.3845099397
 10
-19.5292481634
 20
80.2757054007
 10
-19.4791210332
 20
80.1678060076
 10
-19.4260442644
 20
80.0608169227
 10
-19.3700345845
 20
79.9547329837
 10
-19.3114108345
 20
79.8501580843
 10
-19.2501581052
 20
79.7471008311
 10
-19.1862913058
 20
79.6455526177
 10
-19.1201740046
 20
79.5460915175
 10
-19.051793366
 20
79.4487294343
 10
-18.9811622257
 20
79.3534544644
 10
-18.9086826586
 20
79.2608089705
 10
-18.8343441225
 20
79.1708079495
 10
-18.7581571596
 20
79.0834364044
 10
-18.6805554722
 20
78.9991917068
 10
-18.6015309914
 20
78.9180916904
 10
-18.5210917861
 20
78.8401185214
 10
-18.4396957647
 20
78.7657160703
 10
-18.3573374701
 20
78.6949047022
 10
-18.2740223594
 20
78.627664052
 10
-18.1902247125
 20
78.5643768938
 10
-18.1061026227
 20
78.5051708193
 10
-18.0214979967
 20
78.4499182369
 10
-17.9364108345
 20
78.3986191466
  0
LINE
  5
246
100
AcDbEntity
  8
ASSI
100
AcDbLine
 62
253
  6
CONTINUOUS
 10
-16.5221972721
 20
79.2151683333
 11
-17.9364108345
 21
78.3986191466
  0
LINE
  5
247
100
AcDbEntity
  8
0
100
AcDbLine
 62
253
  6
CONTINUOUS
 10
-52.5846431126
 20
-60.6852381233
 11
-13.6937701474
 21
-83.1403407563
  0
LINE
  5
248
100
AcDbEntity
  8
0
100
AcDbLine
 62
253
  6
CONTINUOUS
 10
1.8625790387
 20
-92.1223818095
 11
56.5926439026
 21
-123.7228353331
  0
LINE
  5
249
100
AcDbEntity
  8
0
100
AcDbLine
 62
253
  6
CONTINUOUS
 10
-51.8775363315
 20
-59.4604932532
 11
-13.6937701474
 21
-81.5073212929
  0
LINE
  5
24A
100
AcDbEntity
  8
0
100
AcDbLine
 62
253
  6
CONTINUOUS
 10
1.8625790387
 20
-90.4893623461
 11
56.5926439026
 21
-122.0898158696
  0
LWPOLYLINE
  5
24B
100
AcDbEntity
  8
RACCORDO
100
AcDbPolyline
 62
253
  6
CONTINUOUS
 90
20
 70
0
 10
-72.5278191352
 20
-68.3103079357
 10
-72.5749861226
 20
-68.1011581391
 10
-72.6401244138
 20
-67.8891847653
 10
-72.722353164
 20
-67.6772541934
 10
-72.8205606523
 20
-67.4682318665
 10
-72.9334192406
 20
-67.2649439356
 10
-73.0594025554
 20
-67.0701401822
 10
-73.1968061548
 20
-66.8864561087
 10
-73.3437712097
 20
-66.7163762488
 10
-73.4983106992
 20
-66.5621997803
 10
-73.6583356246
 20
-66.4260107805
 10
-73.8216825584
 20
-66.3096507314
 10
-73.9861419518
 20
-66.2146938971
 10
-74.1494889258
 20
-66.1424249018
 10
-74.309513959
 20
-66.0938210214
 10
-74.4640535861
 20
-66.0695390782
 10
-74.6110187168
 20
-66.0699073268
 10
-74.7484222791
 20
-66.0949211074
 10
-74.8744055248
 20
-66.1442423832
 10
-74.9039608857
 20
-66.1603270697
  0
LINE
  5
24C
100
AcDbEntity
  8
RACCORDO
100
AcDbLine
 62
253
  6
CONTINUOUS
 10
-72.4992613645
 20
-68.5138055923
 11
-72.5278191352
 21
-68.3103079357
  0
LWPOLYLINE
  5
24D
100
AcDbEntity
  8
0
100
AcDbPolyline
 62
7
  6
CONTINUOUS
 90
19
 70
0
 10
-72.2068562906
 20
35.4727239354
 10
-72.2206384489
 20
35.6995519299
 10
-72.2565219814
 20
35.9285703971
 10
-72.3145068881
 20
36.1597793371
 10
-72.3963217404
 20
36.3971639082
 10
-72.500237967
 20
36.636738952
 10
-72.6210698529
 20
36.8665489937
 10
-72.759675817
 20
37.0860984891
 10
-72.9151974404
 20
37.2958829824
 10
-73.0798737528
 20
37.4854336319
 10
-73.2541693269
 20
37.6537236311
 10
-73.4376195899
 20
37.8017797865
 10
-73.6210698529
 20
37.9222136757
 10
-73.804520116
 20
38.0136235519
 10
-73.987970379
 20
38.0774111619
 10
-74.1622659531
 20
38.1103933228
 10
-74.3269422655
 20
38.1110067511
 10
-74.4824638889
 20
38.0808147302
 10
-74.6211181731
 20
38.0212960308
  0
LWPOLYLINE
  5
24E
100
AcDbEntity
  8
RACCORDO
100
AcDbPolyline
 62
253
  6
CONTINUOUS
 90
25
 70
0
 10
-75.3181261278
 20
36.4525829594
 10
-75.3094502622
 20
36.2975117761
 10
-75.2850659165
 20
36.1396862458
 10
-75.2449730906
 20
35.9791063683
 10
-75.187901857
 20
35.8125197045
 10
-75.1151221432
 20
35.6431786937
 10
-75.030443732
 20
35.480840653
 10
-74.9333562429
 20
35.3263670005
 10
-74.8243700563
 20
35.1788963182
 10
-74.7088260966
 20
35.04560167
 10
-74.5863185981
 20
34.9270902526
 10
-74.4572533264
 20
34.8227548692
 10
-74.3281885024
 20
34.7379469939
 10
-74.1991250072
 20
34.6737100638
 10
-74.0700619596
 20
34.6290006418
 10
-73.9475549372
 20
34.60603989
 10
-73.8320084087
 20
34.6059025156
 10
-73.7230179054
 20
34.6275138115
 10
-73.6259255981
 20
34.6698708189
 10
-73.5412415091
 20
34.7344263585
 10
-73.4684556161
 20
34.8197276095
 10
-73.4113800224
 20
34.9204131511
 10
-73.3712854291
 20
35.0346958429
 10
-73.3469011351
 20
35.1643628252
 10
-73.3382271405
 20
35.3094140981
  0
LWPOLYLINE
  5
24F
100
AcDbEntity
  8
RACCORDO
100
AcDbPolyline
 62
253
  6
CONTINUOUS
 90
25
 70
0
 10
-73.3382271405
 20
35.3094140981
 10
-73.346903006
 20
35.4644852814
 10
-73.3712873518
 20
35.6223108117
 10
-73.4113801776
 20
35.7828906892
 10
-73.4684514113
 20
35.949477353
 10
-73.541231125
 20
36.1188183639
 10
-73.6259095362
 20
36.2811564045
 10
-73.7229970254
 20
36.435630057
 10
-73.8319832119
 20
36.5831007393
 10
-73.9475271717
 20
36.7163953875
 10
-74.0700346702
 20
36.8349068049
 10
-74.1990999418
 20
36.9392421883
 10
-74.3281647659
 20
37.0240500636
 10
-74.4572282611
 20
37.0882869937
 10
-74.5862913087
 20
37.1329964157
 10
-74.7087983311
 20
37.1559571675
 10
-74.8243448595
 20
37.1560945419
 10
-74.9333353628
 20
37.134483246
 10
-75.0304276702
 20
37.0921262386
 10
-75.1151117591
 20
37.0275706991
 10
-75.1878976522
 20
36.942269448
 10
-75.2449732459
 20
36.8415839065
 10
-75.2850678392
 20
36.7273012147
 10
-75.3094521331
 20
36.5976342323
 10
-75.3181261278
 20
36.4525829594
  0
LWPOLYLINE
  5
250
100
AcDbEntity
  8
RACCORDO
100
AcDbPolyline
 62
7
  6
CONTINUOUS
 90
22
 70
0
 10
-75.4938620591
 20
36.6975475748
 10
-75.4831628154
 20
36.4909042368
 10
-75.452174299
 20
36.28306588
 10
-75.4024618313
 20
36.0760066574
 10
-75.3353515935
 20
35.8712492892
 10
-75.2520356872
 20
35.6704243375
 10
-75.1538920577
 20
35.4757264646
 10
-75.0423184441
 20
35.2892174445
 10
-74.9182926579
 20
35.1122805322
 10
-74.7825540428
 20
34.9462429994
 10
-74.6345041071
 20
34.7914286738
 10
-74.4762866801
 20
34.6514266308
 10
-74.3128214283
 20
34.5309887956
 10
-74.1451193114
 20
34.4307219664
 10
-73.9740356804
 20
34.3513270347
 10
-73.8046937169
 20
34.2948199171
 10
-73.6399456322
 20
34.2608421242
 10
-73.4792812622
 20
34.2480959915
 10
-73.3235781166
 20
34.2559358249
 10
-73.1745282719
 20
34.2836513369
 10
-73.0340638166
 20
34.3301360584
 10
-72.9038642451
 20
34.3939403758
  0
LINE
  5
251
100
AcDbEntity
  8
RACCORDO
100
AcDbLine
 62
253
  6
CONTINUOUS
 10
-72.489699003
 20
35.3094140981
 11
-72.4992613645
 21
35.5045076711
  0
LWPOLYLINE
  5
252
100
AcDbEntity
  8
0
100
AcDbPolyline
 62
7
  6
CONTINUOUS
 90
31
 70
0
 10
-68.8480990799
 20
-61.0953276434
 10
-68.8471079666
 20
-61.1388240403
 10
-68.8442060806
 20
-61.1830742499
 10
-68.8393934221
 20
-61.2280782722
 10
-68.8326463684
 20
-61.2739633595
 10
-68.8239885421
 20
-61.3206022596
 10
-68.8134908107
 20
-61.3676132153
 10
-68.8011380728
 20
-61.4149992804
 10
-68.7869454299
 20
-61.4627574012
 10
-68.7710290541
 20
-61.5104966594
 10
-68.7533747974
 20
-61.5582169002
 10
-68.7339968078
 20
-61.6059182783
 10
-68.7130537016
 20
-61.65321034
 10
-68.6905326325
 20
-61.7000897257
 10
-68.6664464467
 20
-61.7465597949
 10
-68.6409922987
 20
-61.7922401726
 10
-68.6141589607
 20
-61.8371243771
 10
-68.5859576605
 20
-61.8812188901
 10
-68.5566192365
 20
-61.9241627813
 10
-68.5261343554
 20
-61.9659466066
 10
-68.4945123504
 20
-62.00657981
 10
-68.4620120597
 20
-62.0457297935
 10
-68.4286262744
 20
-62.0833843832
 10
-68.3943622034
 20
-62.1195557528
 10
-68.359500311
 20
-62.1539478262
 10
-68.3240356904
 20
-62.1865459991
 10
-68.2879732484
 20
-62.2173648758
 10
-68.2516081698
 20
-62.246152192
 10
-68.2150388494
 20
-62.2728238597
 10
-68.1781668924
 20
-62.2974639669
 10
-68.1409922987
 20
-62.3200725136
  0
LINE
  5
253
100
AcDbEntity
  8
0
100
AcDbLine
 62
7
  6
CONTINUOUS
 10
-70.2623126423
 20
-61.9118768301
 11
-70.2623126423
 21
124.1352147244
  0
LINE
  5
254
100
AcDbEntity
  8
0
100
AcDbLine
 62
7
  6
CONTINUOUS
 10
-68.8480990799
 20
-61.0953276434
 11
-68.8480990799
 21
123.2247665488
  0
LINE
  5
255
100
AcDbEntity
  8
0
100
AcDbLine
 62
7
  6
CONTINUOUS
 10
-68.1409922987
 20
28.2266390025
 11
-68.1409922987
 21
44.5560445383
  0
LWPOLYLINE
  5
256
100
AcDbEntity
  8
0
100
AcDbPolyline
 62
7
  6
CONTINUOUS
 90
7
 70
0
 10
-72.6210215328
 20
34.5572502134
 10
-72.500237967
 20
34.6474987249
 10
-72.3963217404
 20
34.7670739151
 10
-72.3145068881
 20
34.9099807453
 10
-72.2565219814
 20
35.0742301686
 10
-72.2206384489
 20
35.261811232
 10
-72.2068562906
 20
35.4727239354
  0
LWPOLYLINE
  5
257
100
AcDbEntity
  8
RACCORDO
100
AcDbPolyline
 62
253
  6
CONTINUOUS
 90
3
 70
0
 10
-72.9038642451
 20
34.3939403758
 10
-72.820561021
 20
34.450817244
 10
-72.7223534506
 20
34.5464319818
  0
LWPOLYLINE
  5
258
100
AcDbEntity
  8
RACCORDO
100
AcDbPolyline
 62
7
  6
CONTINUOUS
 90
10
 70
0
 10
-74.9039608857
 20
37.8579861937
 10
-75.0136062293
 20
37.7853180441
 10
-75.1159606785
 20
37.6974780567
 10
-75.2091823657
 20
37.5947372826
 10
-75.2915308448
 20
37.477631737
 10
-75.3614578213
 20
37.3469014877
 10
-75.4177579237
 20
37.2030531829
 10
-75.4593387918
 20
37.0464301092
 10
-75.4850587376
 20
36.8777020493
 10
-75.4938620591
 20
36.6975475743
  0
LWPOLYLINE
  5
259
100
AcDbEntity
  8
ASSI
100
AcDbPolyline
 62
7
  6
CONTINUOUS
 90
17
 70
0
 10
-48.4349290305
 20
50.1071908892
 10
-48.4642491636
 20
50.0889853376
 10
-48.501537859
 20
50.0617108772
 10
-48.5367680669
 20
50.0310424682
 10
-48.5696781087
 20
49.9972079056
 10
-48.600250708
 20
49.9601836139
 10
-48.6285031412
 20
49.9199931688
 10
-48.6542255581
 20
49.8769350919
 10
-48.6773991201
 20
49.8309880305
 10
-48.6980426659
 20
49.7821733373
 10
-48.7160028618
 20
49.7308535923
 10
-48.7312597273
 20
49.6770101426
 10
-48.7438332429
 20
49.6206616411
 10
-48.7536300166
 20
49.5622266263
 10
-48.7606189177
 20
49.5018446113
 10
-48.7648310769
 20
49.4393760831
 10
-48.7662664942
 20
49.3748210416
  0
LWPOLYLINE
  5
25A
100
AcDbEntity
  8
ASSI
100
AcDbPolyline
 62
7
  6
CONTINUOUS
 90
17
 70
0
 10
-46.8348622582
 20
47.3359724954
 10
-46.8055421251
 20
47.354178047
 10
-46.7682534297
 20
47.3814525074
 10
-46.7330232218
 20
47.4121209164
 10
-46.70011318
 20
47.445955479
 10
-46.6695405807
 20
47.4829797707
 10
-46.6412881475
 20
47.5231702158
 10
-46.6155657305
 20
47.5662282928
 10
-46.5923921686
 20
47.6121753542
 10
-46.5717486228
 20
47.6609900473
 10
-46.5537884269
 20
47.7123097923
 10
-46.5385315614
 20
47.766153242
 10
-46.5259580458
 20
47.8225017435
 10
-46.5161612721
 20
47.8809367583
 10
-46.5091723709
 20
47.9413187733
 10
-46.5049602117
 20
48.0037873016
 10
-46.5035247944
 20
48.068342343
  0
LINE
  5
25B
100
AcDbEntity
  8
0
100
AcDbLine
 62
7
  6
CONTINUOUS
 10
-68.8480990799
 20
44.147769945
 11
-68.1409922987
 21
44.5560445383
  0
LINE
  5
25C
100
AcDbEntity
  8
0
100
AcDbLine
 62
7
  6
CONTINUOUS
 10
-74.6211181732
 20
38.021296031
 11
-74.9039608857
 21
37.8579861937
  0
LINE
  5
25D
100
AcDbEntity
  8
ASSI
100
AcDbLine
 62
253
  6
CONTINUOUS
 10
-47.6353682312
 20
50.0277875253
 11
-48.7662664942
 21
49.3748210416
  0
LINE
  5
25E
100
AcDbEntity
  8
0
100
AcDbLine
 62
7
  6
CONTINUOUS
 10
-72.6210215327
 20
34.5572502131
 11
-72.9038642451
 21
34.3939403758
  0
LWPOLYLINE
  5
25F
100
AcDbEntity
  8
RACCORDO
100
AcDbPolyline
 62
253
  6
CONTINUOUS
 90
20
 70
0
 10
-72.5278191352
 20
35.7080053277
 10
-72.5749861226
 20
35.9171551243
 10
-72.6401244138
 20
36.1291284981
 10
-72.722353164
 20
36.34105907
 10
-72.8205606523
 20
36.5500813969
 10
-72.9334192406
 20
36.7533693278
 10
-73.0594025554
 20
36.9481730812
 10
-73.1968061548
 20
37.1318571548
 10
-73.3437712097
 20
37.3019370146
 10
-73.4983106992
 20
37.4561134831
 10
-73.6583356246
 20
37.5923024829
 10
-73.8216825584
 20
37.708662532
 10
-73.9861419518
 20
37.8036193664
 10
-74.1494889258
 20
37.8758883616
 10
-74.309513959
 20
37.924492242
 10
-74.4640535861
 20
37.9487741852
 10
-74.6110187168
 20
37.9484059366
 10
-74.7484222791
 20
37.923392156
 10
-74.8744055248
 20
37.8740708802
 10
-74.9039608857
 20
37.8579861937
  0
LINE
  5
260
100
AcDbEntity
  8
RACCORDO
100
AcDbLine
 62
253
  6
CONTINUOUS
 10
-72.4992613645
 20
35.5045076711
 11
-72.5278191352
 21
35.7080053277
  0
LWPOLYLINE
  5
261
100
AcDbEntity
  8
0
100
AcDbPolyline
 62
7
  6
CONTINUOUS
 90
17
 70
0
 10
-43.3922549572
 20
-84.69289684
 10
-43.3653214796
 20
-85.0256210414
 10
-43.2855469346
 20
-85.3767739862
 10
-43.1559699098
 20
-85.7329803678
 10
-42.9780413948
 20
-86.0867218983
 10
-42.764762199
 20
-86.4121515336
 10
-42.5215170521
 20
-86.7031973965
 10
-42.2575710863
 20
-86.9487736407
 10
-41.9780413948
 20
-87.1423865803
 10
-41.7033525411
 20
-87.2698893826
 10
-41.4391265004
 20
-87.3303374445
 10
-41.1954275606
 20
-87.321428318
 10
-40.9780413948
 20
-87.2414968324
 10
-40.8028518883
 20
-87.0963833895
 10
-40.6724249849
 20
-86.8908239955
 10
-40.5917286049
 20
-86.6326483438
 10
-40.5638278325
 20
-86.3259950706
  0
LWPOLYLINE
  5
262
100
AcDbEntity
  8
ASSI
100
AcDbPolyline
 62
7
  6
CONTINUOUS
 90
49
 70
0
 10
-48.7662664942
 20
-40.4369094056
 10
-48.7648310769
 20
-40.5031220309
 10
-48.7606189177
 20
-40.570454655
 10
-48.7536300166
 20
-40.6389072779
 10
-48.7438332429
 20
-40.7086553614
 10
-48.7312597273
 20
-40.7795234436
 10
-48.7160028618
 20
-40.8509851392
 10
-48.6980426659
 20
-40.9230448682
 10
-48.6773991201
 20
-40.9956982105
 10
-48.6542255581
 20
-41.0684055204
 10
-48.6285031412
 20
-41.1411671997
 10
-48.600250708
 20
-41.2139828465
 10
-48.5696781087
 20
-41.2863116096
 10
-48.5367680669
 20
-41.3581498634
 10
-48.501537859
 20
-41.4295012335
 10
-48.4642491636
 20
-41.4998357447
 10
-48.424886653
 20
-41.5691458253
 10
-48.383465655
 20
-41.6374390469
 10
-48.3402938314
 20
-41.7042081495
 10
-48.2953581454
 20
-41.7694417841
 10
-48.2486716339
 20
-41.8331512996
 10
-48.2005810693
 20
-41.8948634821
 10
-48.1510759969
 20
-41.9545634591
 10
-48.1001668714
 20
-42.0122661032
 10
-48.0482318296
 20
-42.0675428174
 10
-47.9952632323
 20
-42.1203755381
 10
-47.9412687186
 20
-42.170782329
 10
-47.8866493425
 20
-42.2183887845
 10
-47.8314004512
 20
-42.2631740531
 10
-47.7755266975
 20
-42.3051589864
 10
-47.7194430938
 20
-42.3440317337
 10
-47.6631480775
 20
-42.3797691213
 10
-47.6066432112
 20
-42.412394323
 10
-47.5503481948
 20
-42.4416650091
 10
-47.4942645911
 20
-42.4675562016
 10
-47.4383908374
 20
-42.4900928785
 10
-47.3831419462
 20
-42.5091076447
 10
-47.3285225701
 20
-42.5245742756
 10
-47.2745280564
 20
-42.5365189957
 10
-47.2215594591
 20
-42.5448530835
 10
-47.1696244173
 20
-42.5495496538
 10
-47.1187152918
 20
-42.5506355917
 10
-47.0692102194
 20
-42.5481028314
 10
-47.0211196548
 20
-42.5419244275
 10
-46.9744331433
 20
-42.5321273252
 10
-46.9294974573
 20
-42.5187842944
 10
-46.8863256337
 20
-42.5018689316
 10
-46.8449046357
 20
-42.4814076403
 10
-46.8348622582
 20
-42.4757579518
  0
LINE
  5
263
100
AcDbEntity
  8
0
100
AcDbLine
 62
253
  6
CONTINUOUS
 10
-51.8775363315
 20
-22.6376837698
 11
-51.8775363315
 21
112.5451808186
  0
LINE
  5
264
100
AcDbEntity
  8
0
100
AcDbLine
 62
7
  6
CONTINUOUS
 10
-51.8775363315
 20
-22.6376837698
 11
-51.8775363315
 21
-59.4604932532
  0
LINE
  5
265
100
AcDbEntity
  8
0
100
AcDbLine
 62
253
  6
CONTINUOUS
 10
-50.4633227691
 20
111.6778005572
 11
-50.4633227691
 21
-21.8212924029
  0
LINE
  5
266
100
AcDbEntity
  8
0
100
AcDbLine
 62
7
  6
CONTINUOUS
 10
-50.4633227691
 20
-21.8212924029
 11
-50.4633227691
 21
-23.4542329565
  0
LWPOLYLINE
  5
267
100
AcDbEntity
  8
0
100
AcDbPolyline
 62
7
  6
CONTINUOUS
 90
34
 70
0
 10
-51.8775363315
 20
-59.4604932532
 10
-51.8783523142
 20
-59.49995916
 10
-51.8807514233
 20
-59.5400763207
 10
-51.8847336589
 20
-59.5808447352
 10
-51.8903151902
 20
-59.6223595638
 10
-51.8974798479
 20
-59.6645256462
 10
-51.9061791245
 20
-59.7070575015
 10
-51.9164234335
 20
-59.7499576118
 10
-51.9282023614
 20
-59.793223495
 10
-51.9414361603
 20
-59.8365622242
 10
-51.9561347025
 20
-59.8799742936
 10
-51.9722881157
 20
-59.9234592089
 10
-51.9897870349
 20
-59.9667225604
 10
-52.0086405903
 20
-60.0097628444
 10
-52.0288396518
 20
-60.0525815644
 10
-52.0502474637
 20
-60.0948888211
 10
-52.0728722284
 20
-60.1366811436
 10
-52.0967057435
 20
-60.1779620027
 10
-52.1215866469
 20
-60.2184519108
 10
-52.1475220459
 20
-60.2581455007
 10
-52.174504833
 20
-60.2970481396
 10
-52.2023523244
 20
-60.3348964414
 10
-52.2310703877
 20
-60.3716832517
 10
-52.2606531552
 20
-60.4074157248
 10
-52.2909003399
 20
-60.441851938
 10
-52.3218164506
 20
-60.4749830952
 10
-52.3533969785
 20
-60.5068179925
 10
-52.3854281112
 20
-60.5371410952
 10
-52.4179129064
 20
-60.5659421445
 10
-52.4508483063
 20
-60.5932313993
 10
-52.4840113254
 20
-60.6188241004
 10
-52.5173276353
 20
-60.6426586616
 10
-52.5508715644
 20
-60.6647966692
 10
-52.5846431126
 20
-60.6852381233
  0
LINE
  5
268
100
AcDbEntity
  8
0
100
AcDbLine
 62
7
  6
CONTINUOUS
 10
-68.8480990799
 20
27.8183644092
 11
-68.1409922987
 21
28.2266390025
  0
LINE
  5
269
100
AcDbEntity
  8
RACCORDO
100
AcDbLine
 62
253
  6
CONTINUOUS
 10
-73.5621068705
 20
35.462309743
 11
-73.605166945
 21
35.447521793
  0
LWPOLYLINE
  5
26A
100
AcDbEntity
  8
RACCORDO
100
AcDbPolyline
 62
253
  6
CONTINUOUS
 90
5
 70
0
 10
-73.605166945
 20
-68.5707914704
 10
-73.6738109202
 20
-68.5769184857
 10
-73.747594993
 20
-68.5677533682
 10
-73.8248709472
 20
-68.5435008486
 10
-73.9039125654
 20
-68.5047026863
  0
LWPOLYLINE
  5
26B
100
AcDbEntity
  8
ASSI
100
AcDbPolyline
 62
7
  6
CONTINUOUS
 90
10
 70
0
 10
1.8625790387
 20
-55.299457632
 10
2.0394168093
 20
-55.2882279085
 10
2.213441243
 20
-55.2681386802
 10
2.3838284101
 20
-55.2392113545
 10
2.5505907093
 20
-55.2014760586
 10
2.713158388
 20
-55.1550617173
 10
2.8715170987
 20
-55.0999386444
 10
3.0256811888
 20
-55.036136526
 10
3.1751239482
 20
-54.9638733457
 10
3.2843513509
 20
-54.9039550705
  0
LWPOLYLINE
  5
26C
100
AcDbEntity
  8
ASSI
100
AcDbPolyline
 62
7
  6
CONTINUOUS
 90
13
 70
0
 10
1.8625790387
 20
-54.2869994003
 10
1.9548893712
 20
-54.3146194383
 10
2.1504685647
 20
-54.3649727001
 10
2.3443300943
 20
-54.4066741583
 10
2.5358116215
 20
-54.4395813374
 10
2.7249050055
 20
-54.463664157
 10
2.9116183871
 20
-54.4789526975
 10
3.0953138495
 20
-54.4853947249
 10
3.2759810702
 20
-54.48295998
 10
3.4536303717
 20
-54.4716787218
 10
3.6276548053
 20
-54.4515894935
 10
3.7980419725
 20
-54.4226621678
 10
3.9314085796
 20
-54.3924837138
  0
LWPOLYLINE
  5
26D
100
AcDbEntity
  8
ASSI
100
AcDbPolyline
 62
7
  6
CONTINUOUS
 90
21
 70
0
 10
-47.3017775479
 20
-40.0344831016
 10
-47.2838291035
 20
-40.1064956815
 10
-47.2631855577
 20
-40.1791490239
 10
-47.2400119958
 20
-40.2518563337
 10
-47.2142895788
 20
-40.324618013
 10
-47.1860371456
 20
-40.3974336598
 10
-47.1554645463
 20
-40.4697624229
 10
-47.1225545045
 20
-40.5416006768
 10
-47.0873242966
 20
-40.6129520469
 10
-47.0500356012
 20
-40.683286558
 10
-47.0106730906
 20
-40.7525966386
 10
-46.9692520926
 20
-40.8208898603
 10
-46.926080269
 20
-40.8876589628
 10
-46.881144583
 20
-40.9528925974
 10
-46.8344580715
 20
-41.0166021129
 10
-46.7863675069
 20
-41.0783142954
 10
-46.7368624345
 20
-41.1380142725
 10
-46.685953309
 20
-41.1957169165
 10
-46.6340182672
 20
-41.2509936308
 10
-46.5810496699
 20
-41.3038263514
 10
-46.5538001784
 20
-41.3292652215
  0
LWPOLYLINE
  5
26E
100
AcDbEntity
  8
ASSI
100
AcDbPolyline
 62
7
  6
CONTINUOUS
 90
27
 70
0
 10
-41.7860590673
 20
-84.2092083075
 10
-41.7767283309
 20
-84.2756384408
 10
-41.7629760482
 20
-84.3531504058
 10
-41.7462888515
 20
-84.4313116353
 10
-41.7266448873
 20
-84.5101269639
 10
-41.7040660091
 20
-84.5895915571
 10
-41.6787199257
 20
-84.6691151773
 10
-41.6505860321
 20
-84.748698264
 10
-41.6196849334
 20
-84.8283403777
 10
-41.5862461528
 20
-84.9074499623
 10
-41.5502507947
 20
-84.9860230525
 10
-41.5117177547
 20
-85.0640636135
 10
-41.4709332442
 20
-85.1409919851
 10
-41.4278804982
 20
-85.2167998857
 10
-41.3825762816
 20
-85.2914955969
 10
-41.3353570995
 20
-85.3645243028
 10
-41.286208693
 20
-85.4358735907
 10
-41.235145321
 20
-85.5055558733
 10
-41.182546266
 20
-85.5730535728
 10
-41.1284000931
 20
-85.6383504228
 10
-41.0727182371
 20
-85.7014626897
 10
-41.0159142851
 20
-85.7619215959
 10
-40.9579798818
 20
-85.8197073841
 10
-40.8989233824
 20
-85.8748398116
 10
-40.8391834398
 20
-85.9269093724
 10
-40.778754965
 20
-85.9758932599
 10
-40.75581016
 20
-85.9931345592
  0
LWPOLYLINE
  5
26F
100
AcDbEntity
  8
0
100
AcDbPolyline
 62
7
  6
CONTINUOUS
 90
17
 70
0
 10
-40.5638278325
 20
-86.3259952133
 10
-40.5907613101
 20
-85.9932710119
 10
-40.6705358551
 20
-85.6421180671
 10
-40.8001128798
 20
-85.2859116855
 10
-40.9780413948
 20
-84.932170155
 10
-41.1913205907
 20
-84.6067405198
 10
-41.4345657376
 20
-84.3156946568
 10
-41.6985117034
 20
-84.0701184126
 10
-41.9780413948
 20
-83.8765054731
 10
-42.2527302486
 20
-83.7490026707
 10
-42.5169562893
 20
-83.6885546089
 10
-42.7606552291
 20
-83.6974637353
 10
-42.9780413948
 20
-83.7773952209
 10
-43.1532309014
 20
-83.9225086638
 10
-43.2836578048
 20
-84.1280680578
 10
-43.3643541848
 20
-84.3862437095
 10
-43.3922549572
 20
-84.6928969828
  0
LWPOLYLINE
  5
270
100
AcDbEntity
  8
ASSI
100
AcDbPolyline
 62
7
  6
CONTINUOUS
 90
49
 70
0
 10
-48.7662664942
 20
49.3748210416
 10
-48.7648310769
 20
49.3086084163
 10
-48.7606189177
 20
49.2412757922
 10
-48.7536300166
 20
49.1728231693
 10
-48.7438332429
 20
49.1030750858
 10
-48.7312597273
 20
49.0322070036
 10
-48.7160028618
 20
48.9607453081
 10
-48.6980426659
 20
48.888685579
 10
-48.6773991201
 20
48.8160322367
 10
-48.6542255581
 20
48.7433249268
 10
-48.6285031412
 20
48.6705632475
 10
-48.600250708
 20
48.5977476007
 10
-48.5696781087
 20
48.5254188377
 10
-48.5367680669
 20
48.4535805838
 10
-48.501537859
 20
48.3822292137
 10
-48.4642491636
 20
48.3118947025
 10
-48.424886653
 20
48.2425846219
 10
-48.383465655
 20
48.1742914003
 10
-48.3402938314
 20
48.1075222977
 10
-48.2953581454
 20
48.0422886631
 10
-48.2486716339
 20
47.9785791476
 10
-48.2005810693
 20
47.9168669651
 10
-48.1510759969
 20
47.8571669881
 10
-48.1001668714
 20
47.799464344
 10
-48.0482318296
 20
47.7441876298
 10
-47.9952632323
 20
47.6913549091
 10
-47.9412687186
 20
47.6409481183
 10
-47.8866493425
 20
47.5933416627
 10
-47.8314004512
 20
47.5485563941
 10
-47.7755266975
 20
47.5065714608
 10
-47.7194430938
 20
47.4676987135
 10
-47.6631480775
 20
47.4319613259
 10
-47.6066432112
 20
47.3993361242
 10
-47.5503481948
 20
47.3700654381
 10
-47.4942645911
 20
47.3441742456
 10
-47.4383908374
 20
47.3216375687
 10
-47.3831419462
 20
47.3026228025
 10
-47.3285225701
 20
47.2871561716
 10
-47.2745280564
 20
47.2752114515
 10
-47.2215594591
 20
47.2668773637
 10
-47.1696244173
 20
47.2621807934
 10
-47.1187152918
 20
47.2610948555
 10
-47.0692102194
 20
47.2636276158
 10
-47.0211196548
 20
47.2698060197
 10
-46.9744331433
 20
47.279603122
 10
-46.9294974573
 20
47.2929461528
 10
-46.8863256337
 20
47.3098615156
 10
-46.8449046357
 20
47.330322807
 10
-46.8348622582
 20
47.3359724954
  0
LWPOLYLINE
  5
271
100
AcDbEntity
  8
ASSI
100
AcDbPolyline
 62
7
  6
CONTINUOUS
 90
49
 70
0
 10
-46.5035247944
 20
-41.7433881042
 10
-46.5049602117
 20
-41.6771754789
 10
-46.5091723709
 20
-41.6098428548
 10
-46.5161612721
 20
-41.5413902319
 10
-46.5259580458
 20
-41.4716421484
 10
-46.5385315614
 20
-41.4007740662
 10
-46.5537884269
 20
-41.3293123706
 10
-46.5717486228
 20
-41.2572526416
 10
-46.5923921686
 20
-41.1845992993
 10
-46.6155657305
 20
-41.1118919894
 10
-46.6412881475
 20
-41.0391303101
 10
-46.6695405807
 20
-40.9663146633
 10
-46.70011318
 20
-40.8939859003
 10
-46.7330232218
 20
-40.8221476464
 10
-46.7682534297
 20
-40.7507962763
 10
-46.8055421251
 20
-40.6804617651
 10
-46.8449046357
 20
-40.6111516845
 10
-46.8863256337
 20
-40.5428584629
 10
-46.9294974573
 20
-40.4760893603
 10
-46.9744331433
 20
-40.4108557257
 10
-47.0211196548
 20
-40.3471462102
 10
-47.0692102194
 20
-40.2854340277
 10
-47.1187152918
 20
-40.2257340507
 10
-47.1696244173
 20
-40.1680314066
 10
-47.2215594591
 20
-40.1127546924
 10
-47.2745280564
 20
-40.0599219717
 10
-47.3285225701
 20
-40.0095151809
 10
-47.3831419462
 20
-39.9619087253
 10
-47.4383908374
 20
-39.9171234567
 10
-47.4942645911
 20
-39.8751385234
 10
-47.5503481948
 20
-39.8362657761
 10
-47.6066432112
 20
-39.8005283885
 10
-47.6631480775
 20
-39.7679031868
 10
-47.7194430938
 20
-39.7386325007
 10
-47.7755266975
 20
-39.7127413082
 10
-47.8314004512
 20
-39.6902046313
 10
-47.8866493425
 20
-39.6711898651
 10
-47.9412687186
 20
-39.6557232342
 10
-47.9952632323
 20
-39.6437785141
 10
-48.0482318296
 20
-39.6354444263
 10
-48.1001668714
 20
-39.630747856
 10
-48.1510759969
 20
-39.6296619181
 10
-48.2005810693
 20
-39.6321946784
 10
-48.2486716339
 20
-39.6383730823
 10
-48.2953581454
 20
-39.6481701846
 10
-48.3402938314
 20
-39.6615132154
 10
-48.383465655
 20
-39.6784285782
 10
-48.424886653
 20
-39.6988898696
 10
-48.4349290305
 20
-39.704539558
  0
LWPOLYLINE
  5
272
100
AcDbEntity
  8
ASSI
100
AcDbPolyline
 62
7
  6
CONTINUOUS
 90
49
 70
0
 10
-46.5035247944
 20
48.068342343
 10
-46.5049602117
 20
48.1345549683
 10
-46.5091723709
 20
48.2018875924
 10
-46.5161612721
 20
48.2703402153
 10
-46.5259580458
 20
48.3400882988
 10
-46.5385315614
 20
48.410956381
 10
-46.5537884269
 20
48.4824180766
 10
-46.5717486228
 20
48.5544778056
 10
-46.5923921686
 20
48.6271311479
 10
-46.6155657305
 20
48.6998384578
 10
-46.6412881475
 20
48.7726001371
 10
-46.6695405807
 20
48.8454157839
 10
-46.70011318
 20
48.917744547
 10
-46.7330232218
 20
48.9895828008
 10
-46.7682534297
 20
49.0609341709
 10
-46.8055421251
 20
49.1312686821
 10
-46.8449046357
 20
49.2005787627
 10
-46.8863256337
 20
49.2688719843
 10
-46.9294974573
 20
49.3356410869
 10
-46.9744331433
 20
49.4008747215
 10
-47.0211196548
 20
49.464584237
 10
-47.0692102194
 20
49.5262964195
 10
-47.1187152918
 20
49.5859963965
 10
-47.1696244173
 20
49.6436990406
 10
-47.2215594591
 20
49.6989757548
 10
-47.2745280564
 20
49.7518084755
 10
-47.3285225701
 20
49.8022152664
 10
-47.3831419462
 20
49.8498217219
 10
-47.4383908374
 20
49.8946069905
 10
-47.4942645911
 20
49.9365919238
 10
-47.5503481948
 20
49.9754646711
 10
-47.6066432112
 20
50.0112020587
 10
-47.6631480775
 20
50.0438272604
 10
-47.7194430938
 20
50.0730979465
 10
-47.7755266975
 20
50.098989139
 10
-47.8314004512
 20
50.1215258159
 10
-47.8866493425
 20
50.1405405821
 10
-47.9412687186
 20
50.156007213
 10
-47.9952632323
 20
50.1679519331
 10
-48.0482318296
 20
50.1762860209
 10
-48.1001668714
 20
50.1809825912
 10
-48.1510759969
 20
50.1820685291
 10
-48.2005810693
 20
50.1795357688
 10
-48.2486716339
 20
50.1733573649
 10
-48.2953581454
 20
50.1635602626
 10
-48.3402938314
 20
50.1502172318
 10
-48.383465655
 20
50.133301869
 10
-48.424886653
 20
50.1128405777
 10
-48.4349290305
 20
50.1071908892
  0
LWPOLYLINE
  5
273
100
AcDbEntity
  8
ASSI
100
AcDbPolyline
 62
7
  6
CONTINUOUS
 90
49
 70
0
 10
-43.2154782619
 20
-84.7949654883
 10
-43.2139082743
 20
-84.8673855473
 10
-43.2093012251
 20
-84.9410306049
 10
-43.2016571145
 20
-85.0159006612
 10
-43.1909418933
 20
-85.0921876275
 10
-43.1771896105
 20
-85.1696995924
 10
-43.1605024139
 20
-85.2478608219
 10
-43.1408584496
 20
-85.3266761505
 10
-43.1182795715
 20
-85.4061407437
 10
-43.0929334881
 20
-85.4856643639
 10
-43.0647995945
 20
-85.5652474506
 10
-43.0338984957
 20
-85.6448895644
 10
-43.0004597152
 20
-85.7239991489
 10
-42.964464357
 20
-85.8025722391
 10
-42.9259313171
 20
-85.8806128002
 10
-42.8851468065
 20
-85.9575411717
 10
-42.8420940606
 20
-86.0333490724
 10
-42.796789844
 20
-86.1080447836
 10
-42.7495706619
 20
-86.1810734895
 10
-42.7004222554
 20
-86.2524227773
 10
-42.6493588834
 20
-86.3221050599
 10
-42.5967598284
 20
-86.3896027595
 10
-42.5426136554
 20
-86.4548996094
 10
-42.4869317995
 20
-86.5180118763
 10
-42.4301278475
 20
-86.5784707825
 10
-42.3721934441
 20
-86.6362565708
 10
-42.3131369448
 20
-86.6913889983
 10
-42.2533970022
 20
-86.743458559
 10
-42.1929685274
 20
-86.7924424466
 10
-42.1318566093
 20
-86.8383634673
 10
-42.0705151677
 20
-86.8808805347
 10
-42.0089424936
 20
-86.9199683024
 10
-41.9471402961
 20
-86.9556521167
 10
-41.885567622
 20
-86.9876669297
 10
-41.8242261804
 20
-87.0159854215
 10
-41.7631142623
 20
-87.0406349119
 10
-41.7026857875
 20
-87.0614323124
 10
-41.6429458449
 20
-87.0783489399
 10
-41.5838893455
 20
-87.0914134775
 10
-41.5259549422
 20
-87.1005288861
 10
-41.4691509902
 20
-87.1056657598
 10
-41.4134691342
 20
-87.1068535045
 10
-41.3593229613
 20
-87.1040832978
 10
-41.3067239063
 20
-87.0973256685
 10
-41.2556605343
 20
-87.086610088
 10
-41.2065121278
 20
-87.072016148
 10
-41.1592929457
 20
-87.05351497
 10
-41.1139887291
 20
-87.0311354325
 10
-41.1030048787
 20
-87.0249560858
  0
LWPOLYLINE
  5
274
100
AcDbEntity
  8
ASSI
100
AcDbPolyline
 62
7
  6
CONTINUOUS
 90
49
 70
0
 10
-40.7406045278
 20
-86.223926565
 10
-40.7421745154
 20
-86.151506506
 10
-40.7467815646
 20
-86.0778614484
 10
-40.7544256752
 20
-86.0029913921
 10
-40.7651408964
 20
-85.9267044259
 10
-40.7788931792
 20
-85.8491924609
 10
-40.7955803758
 20
-85.7710312314
 10
-40.81522434
 20
-85.6922159028
 10
-40.8378032182
 20
-85.6127513096
 10
-40.8631493016
 20
-85.5332276894
 10
-40.8912831952
 20
-85.4536446027
 10
-40.922184294
 20
-85.374002489
 10
-40.9556230745
 20
-85.2948929044
 10
-40.9916184327
 20
-85.2163198142
 10
-41.0301514726
 20
-85.1382792532
 10
-41.0709359832
 20
-85.0613508816
 10
-41.1139887291
 20
-84.9855429809
 10
-41.1592929457
 20
-84.9108472698
 10
-41.2065121278
 20
-84.8378185639
 10
-41.2556605343
 20
-84.766469276
 10
-41.3067239063
 20
-84.6967869934
 10
-41.3593229613
 20
-84.6292892938
 10
-41.4134691342
 20
-84.5639924439
 10
-41.4691509902
 20
-84.500880177
 10
-41.5259549422
 20
-84.4404212708
 10
-41.5838893455
 20
-84.3826354826
 10
-41.6429458449
 20
-84.3275030551
 10
-41.7026857875
 20
-84.2754334943
 10
-41.7631142623
 20
-84.2264496068
 10
-41.8242261804
 20
-84.180528586
 10
-41.885567622
 20
-84.1380115186
 10
-41.9471402961
 20
-84.0989237509
 10
-42.0089424936
 20
-84.0632399366
 10
-42.0705151677
 20
-84.0312251236
 10
-42.1318566093
 20
-84.0029066319
 10
-42.1929685274
 20
-83.9782571415
 10
-42.2533970022
 20
-83.9574597409
 10
-42.3131369448
 20
-83.9405431134
 10
-42.3721934441
 20
-83.9274785758
 10
-42.4301278475
 20
-83.9183631673
 10
-42.4869317995
 20
-83.9132262935
 10
-42.5426136554
 20
-83.9120385489
 10
-42.5967598284
 20
-83.9148087555
 10
-42.6493588834
 20
-83.9215663848
 10
-42.7004222554
 20
-83.9322819654
 10
-42.7495706619
 20
-83.9468759053
 10
-42.796789844
 20
-83.9653770834
 10
-42.8420940606
 20
-83.9877566208
 10
-42.853077911
 20
-83.9939359676
  0
LWPOLYLINE
  5
275
100
AcDbEntity
  8
ASSI
100
AcDbPolyline
 62
7
  6
CONTINUOUS
 90
43
 70
0
 10
-18.4082238857
 20
83.0940060398
 10
-18.4206254945
 20
83.0426188115
 10
-18.4371979004
 20
82.9559866071
 10
-18.4501050799
 20
82.8666809801
 10
-18.4593261288
 20
82.7746866828
 10
-18.4648819513
 20
82.6800189629
 10
-18.4667409204
 20
82.5832167261
 10
-18.4648819513
 20
82.4842677984
 10
-18.4593261288
 20
82.3831843539
 10
-18.4501050799
 20
82.2805418205
 10
-18.4371979004
 20
82.1763313061
 10
-18.4206254945
 20
82.0705617027
 10
-18.4004822023
 20
81.9638351149
 10
-18.3767476577
 20
81.8561460844
 10
-18.3494422269
 20
81.7475000695
 10
-18.3187213488
 20
81.6385155487
 10
-18.2845655438
 20
81.5291905915
 10
-18.2469942915
 20
81.4195271284
 10
-18.2062214703
 20
81.3101494301
 10
-18.1622288201
 20
81.2010591264
 10
-18.115034601
 20
81.0922545874
 10
-18.0649074708
 20
80.9843551943
 10
-18.011830702
 20
80.8773661094
 10
-17.9558210221
 20
80.7712821703
 10
-17.8971972721
 20
80.6667072709
 10
-17.8359445428
 20
80.5636500178
 10
-17.7720777434
 20
80.4621018043
 10
-17.7059604422
 20
80.3626407041
 10
-17.6375798037
 20
80.265278621
 10
-17.5669486633
 20
80.1700036511
 10
-17.4944690963
 20
80.0773581571
 10
-17.4201305601
 20
79.9873571361
 10
-17.3439435973
 20
79.8999855911
 10
-17.2663419098
 20
79.8157408934
 10
-17.1873174291
 20
79.734640877
 10
-17.1068782237
 20
79.6566677081
 10
-17.0254822023
 20
79.5822652569
 10
-16.9431239077
 20
79.5114538889
 10
-16.859808797
 20
79.4442132386
 10
-16.7760111501
 20
79.3809260805
 10
-16.6918890603
 20
79.321720006
 10
-16.6072844343
 20
79.2664674235
 10
-16.5221972721
 20
79.2151683333
  0
LWPOLYLINE
  5
276
100
AcDbEntity
  8
0
100
AcDbPolyline
 62
253
  6
CONTINUOUS
 90
18
 70
0
 10
86.0082859999
 20
89.2927763768
 10
86.1092224859
 20
89.3482814871
 10
86.2099303184
 20
89.3981121571
 10
86.3101813615
 20
89.4421555044
 10
86.4097485146
 20
89.4803117566
 10
86.508406226
 20
89.5124944775
 10
86.6059310042
 20
89.5386307628
 10
86.7021019242
 20
89.5586614056
 10
86.796701128
 20
89.5725410299
 10
86.889514318
 20
89.5802381939
 10
86.9803312424
 20
89.5817354612
 10
87.0689461717
 20
89.5770294398
 10
87.1551583645
 20
89.5661307904
 10
87.2387725226
 20
89.5490642021
 10
87.3195992329
 20
89.525868336
 10
87.397455397
 20
89.4965957384
 10
87.4721646456
 20
89.461312721
 10
87.5083584803
 20
89.4413999098
  0
LINE
  5
277
100
AcDbEntity
  8
0
100
AcDbLine
 62
7
  6
CONTINUOUS
 10
-51.8775363315
 20
-22.6376837698
 11
-50.4633227691
 21
-23.4542329565
  0
LINE
  5
278
100
AcDbEntity
  8
ASSI
100
AcDbLine
 62
7
  6
CONTINUOUS
 10
-91.9168349074
 20
73.2470774173
 11
-94.2826247517
 21
77.4818961533
  0
LINE
  5
279
100
AcDbEntity
  8
ASSI
100
AcDbLine
 62
7
  6
CONTINUOUS
 10
-90.502621345
 20
72.4305282306
 11
-92.8684111893
 21
76.6653469666
  0
LWPOLYLINE
  5
27A
100
AcDbEntity
  8
ASSI
100
AcDbPolyline
 62
7
  6
CONTINUOUS
 90
19
 70
0
 10
-94.2826247517
 20
77.4818961533
 10
-94.4730992911
 20
77.8377242048
 10
-94.6531373863
 20
78.2043655172
 10
-94.8227390374
 20
78.5818200906
 10
-94.9819987254
 20
78.9703414439
 10
-95.1308219692
 20
79.3696760582
 10
-95.2689253259
 20
79.7790633763
 10
-95.396288366
 20
80.1985225564
 10
-95.5129315189
 20
80.6280344404
 10
-95.6186326308
 20
81.0667809968
 10
-95.7133708487
 20
81.5147798247
 10
-95.7971670255
 20
81.9720133249
 10
-95.8698615663
 20
82.4376106685
 10
-95.931433314
 20
82.911587795
 10
-95.9819034257
 20
83.3939287648
 10
-96.0211757781
 20
83.8837149302
 10
-96.04921833
 20
84.3806400754
 10
-96.0660631225
 20
84.8850104161
 10
-96.0717101556
 20
85.3968259525
  0
LWPOLYLINE
  5
27B
100
AcDbEntity
  8
ASSI
100
AcDbPolyline
 62
7
  6
CONTINUOUS
 90
19
 70
0
 10
-91.9168349074
 20
73.2470774173
 10
-91.7644552759
 20
72.9624149761
 10
-91.6204247997
 20
72.6691019262
 10
-91.4847434788
 20
72.3671382675
 10
-91.3573357284
 20
72.0563211848
 10
-91.2382771334
 20
71.7368534934
 10
-91.127794448
 20
71.4093436389
 10
-91.025904016
 20
71.0737762948
 10
-90.9325894936
 20
70.7301667876
 10
-90.8480286041
 20
70.3791695425
 10
-90.7722380298
 20
70.0207704802
 10
-90.7052010884
 20
69.65498368
 10
-90.6470454557
 20
69.2825058051
 10
-90.5977880575
 20
68.903324104
 10
-90.5574119682
 20
68.5174513281
 10
-90.5259940863
 20
68.1256223958
 10
-90.5035600448
 20
67.7280822796
 10
-90.4900842108
 20
67.324586007
 10
-90.4855665842
 20
66.9151335779
  0
LWPOLYLINE
  5
27C
100
AcDbEntity
  8
ASSI
100
AcDbPolyline
 62
7
  6
CONTINUOUS
 90
19
 70
0
 10
-92.8684111893
 20
76.6653469666
 10
-93.0588857287
 20
77.0211750181
 10
-93.238923824
 20
77.3878163306
 10
-93.4085254751
 20
77.7652709039
 10
-93.567785163
 20
78.1537922572
 10
-93.7166084068
 20
78.5531268715
 10
-93.8547117636
 20
78.9625141896
 10
-93.9820748036
 20
79.3819733698
 10
-94.0987179565
 20
79.8114852538
 10
-94.2044190684
 20
80.2502318101
 10
-94.2991572863
 20
80.698230638
 10
-94.3829534631
 20
81.1554641383
 10
-94.4556480039
 20
81.6210614818
 10
-94.5172197516
 20
82.0950386083
 10
-94.5676898633
 20
82.5773795781
 10
-94.6069622157
 20
83.0671657436
 10
-94.6350047676
 20
83.5640908887
 10
-94.6518495601
 20
84.0684612295
 10
-94.6574965932
 20
84.5802767658
  0
LWPOLYLINE
  5
27D
100
AcDbEntity
  8
ASSI
100
AcDbPolyline
 62
7
  6
CONTINUOUS
 90
19
 70
0
 10
-90.502621345
 20
72.4305282306
 10
-90.3502417135
 20
72.1458657894
 10
-90.2062112373
 20
71.8525527395
 10
-90.0705299164
 20
71.5505890808
 10
-89.943122166
 20
71.2397719982
 10
-89.824063571
 20
70.9203043067
 10
-89.7135808856
 20
70.5927944523
 10
-89.6116904536
 20
70.2572271081
 10
-89.5183759312
 20
69.9136176009
 10
-89.4338150417
 20
69.5626203558
 10
-89.3580244674
 20
69.2042212935
 10
-89.290987526
 20
68.8384344933
 10
-89.2328318933
 20
68.4659566185
 10
-89.1835744952
 20
68.0867749173
 10
-89.1431984058
 20
67.7009021415
 10
-89.1117805239
 20
67.3090732091
 10
-89.0893464824
 20
66.911533093
 10
-89.0758706484
 20
66.5080368204
 10
-89.0713530219
 20
66.0985843913
  0
LWPOLYLINE
  5
27E
100
AcDbEntity
  8
ASSI
100
AcDbPolyline
 62
7
  6
CONTINUOUS
 90
71
 70
0
 10
-35.2605269736
 20
-27.7415501906
 10
-35.25706543
 20
-27.9783853133
 10
-35.2467862774
 20
-28.2183563295
 10
-35.2296895157
 20
-28.4614632391
 10
-35.2057401058
 20
-28.7079903714
 10
-35.1749730869
 20
-28.9576533972
 10
-35.1374935761
 20
-29.2095993289
 10
-35.0932786137
 20
-29.463835975
 10
-35.0423511595
 20
-29.7203555269
 10
-34.9848852099
 20
-29.9782815713
 10
-34.9208584003
 20
-30.2376189191
 10
-34.8502930954
 20
-30.4983627595
 10
-34.7734303854
 20
-30.7596222464
 10
-34.6902487303
 20
-31.0213991438
 10
-34.6007696702
 20
-31.2836916879
 10
-34.5052989152
 20
-31.5456037415
 10
-34.4038159711
 20
-31.8071340033
 10
-34.296341332
 20
-32.0682837747
 10
-34.1832421912
 20
-32.3281608229
 10
-34.0644993103
 20
-32.5867607947
 10
-33.9401319275
 20
-32.8440880433
 10
-33.8105649511
 20
-33.0992633959
 10
-33.675780596
 20
-33.352279492
 10
-33.5357966472
 20
-33.6031436921
 10
-33.3910913677
 20
-33.8509989046
 10
-33.2416486083
 20
-34.0958348375
 10
-33.0874845182
 20
-34.3376617829
 10
-32.9291258075
 20
-34.5756535255
 10
-32.7665581288
 20
-34.8097969473
 10
-32.5997958296
 20
-35.0401051663
 10
-32.4294086625
 20
-35.2657913216
 10
-32.2553842288
 20
-35.4868396039
 10
-32.0777349273
 20
-35.7032658225
 10
-31.8970677067
 20
-35.9143305452
 10
-31.7133722442
 20
-36.1200154334
 10
-31.5266588627
 20
-36.3203388257
 10
-31.3375654786
 20
-36.5146163062
 10
-31.1460839514
 20
-36.702827195
 10
-30.9522224218
 20
-36.884992172
 10
-30.7566432284
 20
-37.0604888604
 10
-30.559340496
 20
-37.2292944515
 10
-30.3603200999
 20
-37.391431754
 10
-30.1602620043
 20
-37.5463468167
 10
-29.9591626598
 20
-37.6940149363
 10
-29.7570256158
 20
-37.8344608161
 10
-29.5545414848
 20
-37.9672046149
 10
-29.3517090796
 20
-38.0922199883
 10
-29.1485295874
 20
-38.2095332807
 10
-28.9456971821
 20
-38.3187436847
 10
-28.7432130511
 20
-38.4198234849
 10
-28.5410760071
 20
-38.5128003967
 10
-28.3399766627
 20
-38.5973567594
 10
-28.1399185671
 20
-38.6734637709
 10
-27.9408981709
 20
-38.7411502332
 10
-27.7435954386
 20
-38.8001848918
 10
-27.5480162452
 20
-38.8505381537
 10
-27.3541547155
 20
-38.8922396118
 10
-27.1626731883
 20
-38.9251467909
 10
-26.9735798043
 20
-38.9492296105
 10
-26.7868664227
 20
-38.9645181511
 10
-26.6031709603
 20
-38.9709601784
 10
-26.4225037397
 20
-38.9685254335
 10
-26.2448544381
 20
-38.9572441754
 10
-26.0708300045
 20
-38.9371549471
 10
-25.9004428374
 20
-38.9082276214
 10
-25.7336805381
 20
-38.8704923255
 10
-25.5711128594
 20
-38.8240779842
 10
-25.4127541488
 20
-38.7689549113
 10
-25.2585900587
 20
-38.7051527929
 10
-25.1091472993
 20
-38.6328896125
 10
-24.9999198966
 20
-38.5729713374
  0
LWPOLYLINE
  5
27F
100
AcDbEntity
  8
ASSI
100
AcDbPolyline
 62
7
  6
CONTINUOUS
 90
66
 70
0
 10
-33.8463134112
 20
-26.925001004
 10
-33.8428518677
 20
-27.1618361267
 10
-33.832572715
 20
-27.4018071428
 10
-33.8154759533
 20
-27.6449140525
 10
-33.7915265434
 20
-27.8914411848
 10
-33.7607595245
 20
-28.1411042106
 10
-33.7232800137
 20
-28.3930501422
 10
-33.6790650513
 20
-28.6472867883
 10
-33.6281375971
 20
-28.9038063403
 10
-33.5706716475
 20
-29.1617323847
 10
-33.5066448379
 20
-29.4210697325
 10
-33.436079533
 20
-29.6818135728
 10
-33.359216823
 20
-29.9430730598
 10
-33.276035168
 20
-30.2048499572
 10
-33.1865561079
 20
-30.4671425012
 10
-33.0910853529
 20
-30.7290545549
 10
-32.9896024087
 20
-30.9905848167
 10
-32.8821277697
 20
-31.251734588
 10
-32.7690286288
 20
-31.5116116362
 10
-32.6502857479
 20
-31.770211608
 10
-32.5259183652
 20
-32.0275388566
 10
-32.3963513887
 20
-32.2827142092
 10
-32.2615670336
 20
-32.5357303053
 10
-32.1215830848
 20
-32.7865945054
 10
-31.9768778053
 20
-33.034449718
 10
-31.8274350459
 20
-33.2792856509
 10
-31.6732709558
 20
-33.5211125963
 10
-31.5149122452
 20
-33.7591043389
 10
-31.3523445665
 20
-33.9932477606
 10
-31.1855822672
 20
-34.2235559796
 10
-31.0151951001
 20
-34.449242135
 10
-30.8411706665
 20
-34.6702904172
 10
-30.6635213649
 20
-34.8867166358
 10
-30.4828541443
 20
-35.0977813586
 10
-30.2991586819
 20
-35.3034662467
 10
-30.1124453003
 20
-35.5037896391
 10
-29.9233519163
 20
-35.6980671195
 10
-29.7318703891
 20
-35.8862780084
 10
-29.5380088594
 20
-36.0684429854
 10
-29.342429666
 20
-36.2439396737
 10
-29.1451269337
 20
-36.4127452648
 10
-28.9461065375
 20
-36.5748825673
 10
-28.7460484419
 20
-36.72979763
 10
-28.5449490975
 20
-36.8774657496
 10
-28.3428120535
 20
-37.0179116294
 10
-28.1403279225
 20
-37.1506554283
 10
-27.9374955172
 20
-37.2756708016
 10
-27.734316025
 20
-37.392984094
 10
-27.5314836198
 20
-37.5021944981
 10
-27.3289994888
 20
-37.6032742982
 10
-27.1268624448
 20
-37.6962512101
 10
-26.9257631003
 20
-37.7808075727
 10
-26.7257050047
 20
-37.8569145842
 10
-26.5266846086
 20
-37.9246010466
 10
-26.3293818762
 20
-37.9836357052
 10
-26.1338026828
 20
-38.033988967
 10
-25.9399411532
 20
-38.0756904252
 10
-25.748459626
 20
-38.1085976043
 10
-25.5593662419
 20
-38.1326804239
 10
-25.3726528604
 20
-38.1479689644
 10
-25.1889573979
 20
-38.1544109918
 10
-25.0082901773
 20
-38.1519762469
 10
-24.8306408758
 20
-38.1406949887
 10
-24.6566164421
 20
-38.1206057604
 10
-24.486229275
 20
-38.0916784347
 10
-24.3528626679
 20
-38.0614999807
  0
LWPOLYLINE
  5
280
100
AcDbEntity
  8
RACCORDO
100
AcDbPolyline
 62
7
  6
CONTINUOUS
 90
20
 70
0
 10
-73.5694517455
 20
-68.5778270942
 10
-73.5697289489
 20
-68.5782945756
 10
-73.5661471967
 20
-68.5699104335
 10
-73.5593580539
 20
-68.5465420187
 10
-73.5528638079
 20
-68.5083053218
 10
-73.5494285248
 20
-68.4556021364
 10
-73.5513108004
 20
-68.389706405
 10
-73.5602222574
 20
-68.3120943936
 10
-73.5776301103
 20
-68.2236482795
 10
-73.6044398949
 20
-68.1268265983
 10
-73.6407562041
 20
-68.024947582
 10
-73.6865569036
 20
-67.9202217115
 10
-73.7412337719
 20
-67.8154466198
 10
-73.8029051227
 20
-67.7146762836
 10
-73.8700489702
 20
-67.6201706148
 10
-73.9408455018
 20
-67.5340142762
 10
-74.0119945666
 20
-67.4592029509
 10
-74.0807542271
 20
-67.3970180071
 10
-74.145385293
 20
-67.3472831939
 10
-74.2039270615
 20
-67.3097219777
  0
LINE
  5
281
100
AcDbEntity
  8
ASSI
100
AcDbLine
 62
253
  6
CONTINUOUS
 10
86.0082859999
 20
89.2927763768
 11
40.8595180212
 21
63.2244435928
  0
LWPOLYLINE
  5
282
100
AcDbEntity
  8
ASSI
100
AcDbPolyline
 62
7
  6
CONTINUOUS
 90
21
 70
0
 10
-47.3017775479
 20
49.7772473456
 10
-47.2838291035
 20
49.7052347657
 10
-47.2631855577
 20
49.6325814234
 10
-47.2400119958
 20
49.5598741135
 10
-47.2142895788
 20
49.4871124342
 10
-47.1860371456
 20
49.4142967874
 10
-47.1554645463
 20
49.3419680243
 10
-47.1225545045
 20
49.2701297704
 10
-47.0873242966
 20
49.1987784003
 10
-47.0500356012
 20
49.1284438892
 10
-47.0106730906
 20
49.0591338086
 10
-46.9692520926
 20
48.9908405869
 10
-46.926080269
 20
48.9240714844
 10
-46.881144583
 20
48.8588378498
 10
-46.8344580715
 20
48.7951283343
 10
-46.7863675069
 20
48.7334161518
 10
-46.7368624345
 20
48.6737161747
 10
-46.685953309
 20
48.6160135307
 10
-46.6340182672
 20
48.5607368165
 10
-46.5810496699
 20
48.5079040958
 10
-46.5538001784
 20
48.4824652257
  0
LWPOLYLINE
  5
283
100
AcDbEntity
  8
RACCORDO
100
AcDbPolyline
 62
253
  6
CONTINUOUS
 90
20
 70
0
 10
-1.8171410165
 20
-109.1377672685
 10
-1.864308004
 20
-108.9286174719
 10
-1.9294462952
 20
-108.7166440981
 10
-2.0116750453
 20
-108.5047135262
 10
-2.1098825336
 20
-108.2956911993
 10
-2.2227411219
 20
-108.0924032684
 10
-2.3487244367
 20
-107.897599515
 10
-2.4861280362
 20
-107.7139154414
 10
-2.633093091
 20
-107.5438355816
 10
-2.7876325806
 20
-107.389659113
 10
-2.9476575059
 20
-107.2534701133
 10
-3.1110044397
 20
-107.1371100642
 10
-3.2754638332
 20
-107.0421532298
 10
-3.4388108071
 20
-106.9698842346
 10
-3.5988358404
 20
-106.9212803542
 10
-3.7533754674
 20
-106.896998411
 10
-3.9003405982
 20
-106.8973666596
 10
-4.0377441605
 20
-106.9223804401
 10
-4.1637274062
 20
-106.971701716
 10
-4.193282767
 20
-106.9877864025
  0
LWPOLYLINE
  5
284
100
AcDbEntity
  8
ASSI
100
AcDbPolyline
 62
7
  6
CONTINUOUS
 90
55
 70
0
 10
-17.052527358
 20
-17.842864049
 10
-17.0506473042
 20
-17.9421965953
 10
-17.045102024
 20
-18.0430882305
 10
-17.0358915175
 20
-18.1455389546
 10
-17.022984338
 20
-18.2497494691
 10
-17.0064119321
 20
-18.3555190724
 10
-16.98626864
 20
-18.4622456602
 10
-16.9625340953
 20
-18.5699346907
 10
-16.9352286645
 20
-18.6785807056
 10
-16.9045077865
 20
-18.7875652264
 10
-16.8703519814
 20
-18.8968901836
 10
-16.8327807292
 20
-19.0065536467
 10
-16.7920079079
 20
-19.115931345
 10
-16.7480152578
 20
-19.2250216487
 10
-16.7008210386
 20
-19.3338261877
 10
-16.6506939084
 20
-19.4417255809
 10
-16.5976171396
 20
-19.5487146657
 10
-16.5416074598
 20
-19.6547986048
 10
-16.4829837098
 20
-19.7593735042
 10
-16.4217309805
 20
-19.8624307573
 10
-16.357864181
 20
-19.9639789708
 10
-16.2917468798
 20
-20.063440071
 10
-16.2233662413
 20
-20.1608021542
 10
-16.1527351009
 20
-20.256077124
 10
-16.0802555339
 20
-20.348722618
 10
-16.0059169977
 20
-20.438723639
 10
-15.9297300349
 20
-20.526095184
 10
-15.8521283475
 20
-20.6103398817
 10
-15.7731038667
 20
-20.6914398981
 10
-15.6926646614
 20
-20.769413067
 10
-15.61126864
 20
-20.8438155182
 10
-15.5289103453
 20
-20.9146268862
 10
-15.4455952347
 20
-20.9818675365
 10
-15.3617975878
 20
-21.0451546946
 10
-15.2775146526
 20
-21.1044658121
 10
-15.1927491812
 20
-21.1598234376
 10
-15.1079837098
 20
-21.2109124418
 10
-15.0232182384
 20
-21.2577084792
 10
-14.9384527669
 20
-21.3002358955
 10
-14.8541698317
 20
-21.3382525989
 10
-14.7703721849
 20
-21.3717328629
 10
-14.6870570742
 20
-21.4007024141
 10
-14.6046987796
 20
-21.4249963403
 10
-14.5233027581
 20
-21.4445879744
 10
-14.4428635528
 20
-21.4595039835
 10
-14.3638390721
 20
-21.4696594566
 10
-14.2862373846
 20
-21.4750272425
 10
-14.2100504218
 20
-21.4756344924
 10
-14.1357118856
 20
-21.4714777496
 10
-14.0632323186
 20
-21.4625298429
 10
-13.9926011782
 20
-21.4488179435
 10
-13.9242205397
 20
-21.4304201077
 10
-13.8581032385
 20
-21.4073096097
 10
-13.794236439
 20
-21.3795131753
 10
-13.7329172694
 20
-21.3471506804
  0
LWPOLYLINE
  5
285
100
AcDbEntity
  8
ASSI
100
AcDbPolyline
 62
7
  6
CONTINUOUS
 90
37
 70
0
 10
-15.6383137956
 20
-17.0263148624
 10
-15.6364337418
 20
-17.1256474087
 10
-15.6308884617
 20
-17.2265390439
 10
-15.6216779552
 20
-17.3289897679
 10
-15.6087707756
 20
-17.4332002824
 10
-15.5921983697
 20
-17.5389698857
 10
-15.5720550776
 20
-17.6456964736
 10
-15.548320533
 20
-17.753385504
 10
-15.5210151021
 20
-17.8620315189
 10
-15.4902942241
 20
-17.9710160397
 10
-15.4561384191
 20
-18.0803409969
 10
-15.4185671668
 20
-18.19000446
 10
-15.3777943455
 20
-18.2993821584
 10
-15.3338016954
 20
-18.4084724621
 10
-15.2866074762
 20
-18.5172770011
 10
-15.2364803461
 20
-18.6251763942
 10
-15.1834035772
 20
-18.7321654791
 10
-15.1273938974
 20
-18.8382494181
 10
-15.0687701474
 20
-18.9428243175
 10
-15.0075174181
 20
-19.0458815706
 10
-14.9436506187
 20
-19.1474297841
 10
-14.8775333175
 20
-19.2468908843
 10
-14.8091526789
 20
-19.3442529675
 10
-14.7385215386
 20
-19.4395279374
 10
-14.6660419715
 20
-19.5321734313
 10
-14.5917034354
 20
-19.6221744523
 10
-14.5155164725
 20
-19.7095459974
 10
-14.4379147851
 20
-19.793790695
 10
-14.3588903043
 20
-19.8748907114
 10
-14.278451099
 20
-19.9528638804
 10
-14.1970550776
 20
-20.0272663315
 10
-14.114696783
 20
-20.0980776996
 10
-14.0313816723
 20
-20.1653183498
 10
-13.9475840254
 20
-20.2286055079
 10
-13.8633010902
 20
-20.2879166255
 10
-13.7785356188
 20
-20.3432742509
 10
-13.6937701474
 20
-20.3943632552
  0
LWPOLYLINE
  5
286
100
AcDbEntity
  8
ASSI
100
AcDbPolyline
 62
7
  6
CONTINUOUS
 90
71
 70
0
 10
-23.2397116934
 20
-34.6822182772
 10
-23.2431732369
 20
-34.4453831545
 10
-23.2534523896
 20
-34.2054121384
 10
-23.2705491513
 20
-33.9623052287
 10
-23.2944985612
 20
-33.7157780964
 10
-23.3252655801
 20
-33.4661150706
 10
-23.3627450909
 20
-33.2141691389
 10
-23.4069600533
 20
-32.9599324929
 10
-23.4578875075
 20
-32.7034129409
 10
-23.5153534571
 20
-32.4454868965
 10
-23.5793802667
 20
-32.1861495487
 10
-23.6499455716
 20
-31.9254057084
 10
-23.7268082816
 20
-31.6641462214
 10
-23.8099899366
 20
-31.402369324
 10
-23.8994689967
 20
-31.14007678
 10
-23.9949397517
 20
-30.8781647263
 10
-24.0964226959
 20
-30.6166344645
 10
-24.2038973349
 20
-30.3554846932
 10
-24.3169964758
 20
-30.095607645
 10
-24.4357393567
 20
-29.8370076732
 10
-24.5601067394
 20
-29.5796804246
 10
-24.6896737159
 20
-29.324505072
 10
-24.824458071
 20
-29.0714889759
 10
-24.9644420198
 20
-28.8206247758
 10
-25.1091472993
 20
-28.5727695632
 10
-25.2585900587
 20
-28.3279336303
 10
-25.4127541488
 20
-28.0861066849
 10
-25.5711128594
 20
-27.8481149423
 10
-25.7336805381
 20
-27.6139715206
 10
-25.9004428374
 20
-27.3836633016
 10
-26.0708300045
 20
-27.1579771462
 10
-26.2448544381
 20
-26.936928864
 10
-26.4225037397
 20
-26.7205026454
 10
-26.6031709603
 20
-26.5094379226
 10
-26.7868664227
 20
-26.3037530345
 10
-26.9735798043
 20
-26.1034296421
 10
-27.1626731883
 20
-25.9091521617
 10
-27.3541547155
 20
-25.7209412728
 10
-27.5480162452
 20
-25.5387762958
 10
-27.7435954386
 20
-25.3632796075
 10
-27.9408981709
 20
-25.1944740164
 10
-28.1399185671
 20
-25.0323367139
 10
-28.3399766627
 20
-24.8774216512
 10
-28.5410760071
 20
-24.7297535316
 10
-28.7432130511
 20
-24.5893076518
 10
-28.9456971821
 20
-24.4565638529
 10
-29.1485295874
 20
-24.3315484796
 10
-29.3517090796
 20
-24.2142351872
 10
-29.5545414848
 20
-24.1050247831
 10
-29.7570256158
 20
-24.003944983
 10
-29.9591626598
 20
-23.9109680711
 10
-30.1602620043
 20
-23.8264117084
 10
-30.3603200999
 20
-23.750304697
 10
-30.559340496
 20
-23.6826182346
 10
-30.7566432284
 20
-23.623583576
 10
-30.9522224218
 20
-23.5732303142
 10
-31.1460839514
 20
-23.531528856
 10
-31.3375654786
 20
-23.4986216769
 10
-31.5266588627
 20
-23.4745388573
 10
-31.7133722442
 20
-23.4592503168
 10
-31.8970677067
 20
-23.4528082894
 10
-32.0777349273
 20
-23.4552430343
 10
-32.2553842288
 20
-23.4665242925
 10
-32.4294086625
 20
-23.4866135208
 10
-32.5997958296
 20
-23.5155408465
 10
-32.7665581288
 20
-23.5532761423
 10
-32.9291258075
 20
-23.5996904836
 10
-33.0874845182
 20
-23.6548135566
 10
-33.2416486083
 20
-23.718615675
 10
-33.3910913677
 20
-23.7908788553
 10
-33.5003187704
 20
-23.8507971304
  0
LINE
  5
287
100
AcDbEntity
  8
0
100
AcDbLine
 62
7
  6
CONTINUOUS
 10
-13.6937701474
 20
90.1534611683
 11
-13.6937701474
 21
-94.5738442963
  0
LWPOLYLINE
  5
288
100
AcDbEntity
  8
0
100
AcDbPolyline
 62
7
  6
CONTINUOUS
 90
16
 70
0
 10
-13.6937701474
 20
-94.5738442963
 10
-13.6947612607
 20
-94.6161961803
 10
-13.6976631467
 20
-94.6570953647
 10
-13.7024758052
 20
-94.6965418496
 10
-13.7092228589
 20
-94.7346356084
 10
-13.7178806853
 20
-94.7712766676
 10
-13.7283784166
 20
-94.8061651063
 10
-13.7407311545
 20
-94.8392865394
 10
-13.7549237974
 20
-94.8706553519
 10
-13.7708401732
 20
-94.9000147783
 10
-13.7884944299
 20
-94.9273483259
 10
-13.8078724195
 20
-94.9526724875
 10
-13.8288155258
 20
-94.975779975
 10
-13.8513365948
 20
-94.9966525946
 10
-13.8754227806
 20
-95.0153085402
 10
-13.9008527684
 20
-95.0315811574
  0
LWPOLYLINE
  5
289
100
AcDbEntity
  8
ASSI
100
AcDbPolyline
 62
7
  6
CONTINUOUS
 90
7
 70
0
 10
-15.579796761
 20
-16.5155255487
 10
-15.5921983697
 20
-16.5669127769
 10
-15.6087707756
 20
-16.6535449813
 10
-15.6216779552
 20
-16.7428506083
 10
-15.6308884617
 20
-16.8346652704
 10
-15.6364337418
 20
-16.9291533551
 10
-15.6383137956
 20
-17.0263148624
  0
LWPOLYLINE
  5
28A
100
AcDbEntity
  8
RACCORDO
100
AcDbPolyline
 62
253
  6
CONTINUOUS
 90
6
 70
0
 10
-72.7223534506
 20
-69.4718812816
 10
-72.6401245969
 20
-69.3549063867
 10
-72.5749862228
 20
-69.2181530236
 10
-72.5278191805
 20
-69.0634704166
 10
-72.499261376
 20
-68.8929504699
 10
-72.489699003
 20
-68.7088991653
  0
LWPOLYLINE
  5
28B
100
AcDbEntity
  8
0
100
AcDbPolyline
 62
253
  6
CONTINUOUS
 90
18
 70
0
 10
95.2006741553
 20
73.3710930652
 10
95.2992079049
 20
73.4307598371
 10
95.392712971
 20
73.4930660644
 10
95.4809775346
 20
73.5578706034
 10
95.5638016479
 20
73.625026651
 10
95.6409976878
 20
73.6943820772
 10
95.7123907805
 20
73.7657797696
 10
95.7778191975
 20
73.8390579894
 10
95.8371347225
 20
73.9140507381
 10
95.8902029868
 20
73.9905881327
 10
95.9369037736
 20
74.0684967916
 10
95.9771312907
 20
74.1476002265
 10
96.0107944097
 20
74.2277192428
 10
96.0378168729
 20
74.3086723451
 10
96.0581374658
 20
74.3902761485
 10
96.0717101556
 20
74.4723457943
 10
96.0785041959
 20
74.5546953682
 10
96.0793538118
 20
74.5959168452
  0
LINE
  5
28C
100
AcDbEntity
  8
ASSI
100
AcDbLine
 62
253
  6
CONTINUOUS
 10
95.2006741553
 20
73.3710930652
 11
52.4207138936
 21
48.6704801689
  0
LWPOLYLINE
  5
28D
100
AcDbEntity
  8
RACCORDO
100
AcDbPolyline
 62
253
  6
CONTINUOUS
 90
25
 70
0
 10
-74.3281766341
 20
34.7787636551
 10
-74.4559807896
 20
34.8632461972
 10
-74.5776479668
 20
34.9614141108
 10
-74.6931781656
 20
35.073267396
 10
-74.8043298627
 20
35.2011659975
 10
-74.9093445814
 20
35.3427499706
 10
-75.0029468921
 20
35.4909394808
 10
-75.0845478946
 20
35.6460674694
 10
-75.1547364891
 20
35.8078009952
 10
-75.2100039463
 20
35.9680613995
 10
-75.2495911229
 20
36.1267721135
 10
-75.2742571622
 20
36.2840097062
 10
-75.2827707653
 20
36.4319252255
 10
-75.2743119411
 20
36.570045485
 10
-75.2497006806
 20
36.6988436712
 10
-75.2101656584
 20
36.8118903918
 10
-75.154949483
 20
36.9083859524
 10
-75.084809546
 20
36.9891300475
 10
-75.0032466966
 20
37.0500923689
 10
-74.9096802368
 20
37.0902685555
 10
-74.8046908647
 20
37.1106629683
 10
-74.693521524
 20
37.110258382
 10
-74.5779198626
 20
37.0887157213
 10
-74.4561382327
 20
37.0463740615
 10
-74.3281766341
 20
36.9832334024
  0
LWPOLYLINE
  5
28E
100
AcDbEntity
  8
RACCORDO
100
AcDbPolyline
 62
253
  6
CONTINUOUS
 90
15
 70
0
 10
-73.9039125654
 20
35.5136105772
 10
-73.9829541053
 20
35.5660876354
 10
-74.0602300024
 20
35.6310713832
 10
-74.1340140415
 20
35.7071101982
 10
-74.2026580103
 20
35.7925055076
 10
-74.2646285118
 20
35.8853497242
 10
-74.3185412205
 20
35.9835688573
 10
-74.3631918133
 20
36.0849688548
 10
-74.3975828674
 20
36.1872846083
 10
-74.4209461394
 20
36.2882305449
 10
-74.4327597318
 20
36.3855516959
 10
-74.432759749
 20
36.4770740694
 10
-74.4209461906
 20
36.5607532062
 10
-74.3975829515
 20
36.6347198527
 10
-74.363191928
 20
36.6973217147
  0
LWPOLYLINE
  5
28F
100
AcDbEntity
  8
ASSI
100
AcDbPolyline
 62
7
  6
CONTINUOUS
 90
38
 70
0
 10
-13.6937701474
 20
-18.24181525
 10
-13.7329837098
 20
-18.1718648571
 10
-13.794236439
 20
-18.068807604
 10
-13.8581032385
 20
-17.9672593905
 10
-13.9242205397
 20
-17.8677982903
 10
-13.9926011782
 20
-17.7704362072
 10
-14.0632323186
 20
-17.6751612373
 10
-14.1357118856
 20
-17.5825157434
 10
-14.2100504218
 20
-17.4925147224
 10
-14.2862373846
 20
-17.4051431773
 10
-14.3638390721
 20
-17.3208984797
 10
-14.4428635528
 20
-17.2397984632
 10
-14.5233027581
 20
-17.1618252943
 10
-14.6046987796
 20
-17.0874228432
 10
-14.6870570742
 20
-17.0166114751
 10
-14.7703721849
 20
-16.9493708248
 10
-14.8541698317
 20
-16.8860836667
 10
-14.9384527669
 20
-16.8267725492
 10
-15.0232182384
 20
-16.7714149238
 10
-15.1079837098
 20
-16.7203259195
 10
-15.1927491812
 20
-16.6735298821
 10
-15.2775146526
 20
-16.6310024659
 10
-15.3617975878
 20
-16.5929857625
 10
-15.4455952347
 20
-16.5595054984
 10
-15.5289103453
 20
-16.5305359472
 10
-15.61126864
 20
-16.506242021
 10
-15.6926646614
 20
-16.4866503869
 10
-15.7731038667
 20
-16.4717343778
 10
-15.8521283475
 20
-16.4615789047
 10
-15.9297300349
 20
-16.4562111188
 10
-16.0059169977
 20
-16.4556038689
 10
-16.0802555339
 20
-16.4597606117
 10
-16.1527351009
 20
-16.4687085184
 10
-16.2233662413
 20
-16.4824204178
 10
-16.2917468798
 20
-16.5008182536
 10
-16.357864181
 20
-16.5239287516
 10
-16.4217309805
 20
-16.551725186
 10
-16.4830501501
 20
-16.5840876809
  0
LINE
  5
290
100
AcDbEntity
  8
RACCORDO
100
AcDbLine
 62
253
  6
CONTINUOUS
 10
-1.7885832458
 20
-109.3412649251
 11
-1.8171410165
 21
-109.1377672685
  0
LWPOLYLINE
  5
291
100
AcDbEntity
  8
0
100
AcDbPolyline
 62
7
  6
CONTINUOUS
 90
19
 70
0
 10
-1.4961781719
 20
-109.3730486608
 10
-1.5099603303
 20
-109.1462206663
 10
-1.5458438628
 20
-108.917202199
 10
-1.6038287694
 20
-108.685993259
 10
-1.6856436218
 20
-108.448608688
 10
-1.7895598483
 20
-108.2090336442
 10
-1.9103917343
 20
-107.9792236024
 10
-2.0489976983
 20
-107.7596741071
 10
-2.2045193218
 20
-107.5498896138
 10
-2.3691956341
 20
-107.3603389643
 10
-2.5434912082
 20
-107.192048965
 10
-2.7269414713
 20
-107.0439928096
 10
-2.9103917343
 20
-106.9235589205
 10
-3.0938419973
 20
-106.8321490442
 10
-3.2772922603
 20
-106.7683614343
 10
-3.4515878344
 20
-106.7353792734
 10
-3.6162641468
 20
-106.7347658451
 10
-3.7717857703
 20
-106.7649578659
 10
-3.9104400544
 20
-106.8244765654
  0
LWPOLYLINE
  5
292
100
AcDbEntity
  8
RACCORDO
100
AcDbPolyline
 62
253
  6
CONTINUOUS
 90
25
 70
0
 10
-4.6074480091
 20
-108.3931896368
 10
-4.5987721436
 20
-108.54826082
 10
-4.5743877978
 20
-108.7060863504
 10
-4.534294972
 20
-108.8666662279
 10
-4.4772237383
 20
-109.0332528917
 10
-4.4044440246
 20
-109.2025939025
 10
-4.3197656134
 20
-109.3649319431
 10
-4.2226781242
 20
-109.5194055957
 10
-4.1136919377
 20
-109.666876278
 10
-3.9981479779
 20
-109.8001709262
 10
-3.8756404794
 20
-109.9186823436
 10
-3.7465752078
 20
-110.0230177269
 10
-3.6175103838
 20
-110.1078256023
 10
-3.4884468885
 20
-110.1720625323
 10
-3.3593838409
 20
-110.2167719544
 10
-3.2368768185
 20
-110.2397327062
 10
-3.1213302901
 20
-110.2398700806
 10
-3.0123397868
 20
-110.2182587847
 10
-2.9152474794
 20
-110.1759017773
 10
-2.8305633905
 20
-110.1113462377
 10
-2.7577774975
 20
-110.0260449867
 10
-2.7007019037
 20
-109.9253594451
 10
-2.6606073105
 20
-109.8110767533
 10
-2.6362230165
 20
-109.681409771
 10
-2.6275490218
 20
-109.5363584981
  0
LWPOLYLINE
  5
293
100
AcDbEntity
  8
RACCORDO
100
AcDbPolyline
 62
253
  6
CONTINUOUS
 90
25
 70
0
 10
-2.6275490218
 20
-109.5363584981
 10
-2.6362248874
 20
-109.3812873148
 10
-2.6606092331
 20
-109.2234617844
 10
-2.700702059
 20
-109.0628819069
 10
-2.7577732926
 20
-108.8962952432
 10
-2.8305530064
 20
-108.7269542323
 10
-2.9152314176
 20
-108.5646161917
 10
-3.0123189067
 20
-108.4101425392
 10
-3.1213050933
 20
-108.2626718569
 10
-3.2368490531
 20
-108.1293772087
 10
-3.3593565515
 20
-108.0108657912
 10
-3.4884218232
 20
-107.9065304079
 10
-3.6174866472
 20
-107.8217225326
 10
-3.7465501424
 20
-107.7574856025
 10
-3.87561319
 20
-107.7127761804
 10
-3.9981202124
 20
-107.6898154287
 10
-4.1136667409
 20
-107.6896780543
 10
-4.2226572442
 20
-107.7112893502
 10
-4.3197495515
 20
-107.7536463576
 10
-4.4044336405
 20
-107.8182018971
 10
-4.4772195335
 20
-107.9035031482
 10
-4.5342951272
 20
-108.0041886897
 10
-4.5743897205
 20
-108.1184713815
 10
-4.5987740145
 20
-108.2481383639
 10
-4.6074480091
 20
-108.3931896368
  0
LWPOLYLINE
  5
294
100
AcDbEntity
  8
RACCORDO
100
AcDbPolyline
 62
7
  6
CONTINUOUS
 90
22
 70
0
 10
-4.7831839404
 20
-108.1482250214
 10
-4.7724846968
 20
-108.3548683594
 10
-4.7414961803
 20
-108.5627067162
 10
-4.6917837127
 20
-108.7697659388
 10
-4.6246734749
 20
-108.974523307
 10
-4.5413575685
 20
-109.1753482586
 10
-4.4432139391
 20
-109.3700461315
 10
-4.3316403254
 20
-109.5565551517
 10
-4.2076145392
 20
-109.7334920639
 10
-4.0718759242
 20
-109.8995295968
 10
-3.9238259884
 20
-110.0543439224
 10
-3.7656085614
 20
-110.1943459654
 10
-3.6021433096
 20
-110.3147838006
 10
-3.4344411928
 20
-110.4150506298
 10
-3.2633575617
 20
-110.4944455614
 10
-3.0940155982
 20
-110.5509526791
 10
-2.9292675135
 20
-110.584930472
 10
-2.7686031435
 20
-110.5976766047
 10
-2.612899998
 20
-110.5898367713
 10
-2.4638501532
 20
-110.5621212593
 10
-2.3233856979
 20
-110.5156365378
 10
-2.1931861265
 20
-110.4518322204
  0
LINE
  5
295
100
AcDbEntity
  8
RACCORDO
100
AcDbLine
 62
253
  6
CONTINUOUS
 10
-1.7790208844
 20
-109.5363584981
 11
-1.7885832458
 21
-109.3412649251
  0
LWPOLYLINE
  5
296
100
AcDbEntity
  8
0
100
AcDbPolyline
 62
7
  6
CONTINUOUS
 90
31
 70
0
 10
1.8625790387
 20
-101.9227869762
 10
1.8635701521
 20
-101.9662833731
 10
1.866472038
 20
-102.0105335826
 10
1.8712846966
 20
-102.0555376049
 10
1.8780317503
 20
-102.1014226923
 10
1.8866895766
 20
-102.1480615923
 10
1.8971873079
 20
-102.1950725481
 10
1.9095400458
 20
-102.2424586132
 10
1.9237326888
 20
-102.290216734
 10
1.9396490646
 20
-102.3379559922
 10
1.9573033213
 20
-102.385676233
 10
1.9766813108
 20
-102.4333776111
 10
1.9976244171
 20
-102.4806696728
 10
2.0201454862
 20
-102.5275490585
 10
2.044231672
 20
-102.5740191277
 10
2.0696858199
 20
-102.6196995054
 10
2.0965191579
 20
-102.6645837099
 10
2.1247204581
 20
-102.7086782229
 10
2.1540588821
 20
-102.751622114
 10
2.1845437633
 20
-102.7934059393
 10
2.2161657682
 20
-102.8340391428
 10
2.2486660589
 20
-102.8731891263
 10
2.2820518442
 20
-102.9108437159
 10
2.3163159153
 20
-102.9470150856
 10
2.3511778077
 20
-102.9814071589
 10
2.3866424283
 20
-103.0140053319
 10
2.4227048702
 20
-103.0448242086
 10
2.4590699489
 20
-103.0736115248
 10
2.4956392692
 20
-103.1002831924
 10
2.5325112262
 20
-103.1249232996
 10
2.5696858199
 20
-103.1475318463
  0
LINE
  5
297
100
AcDbEntity
  8
0
100
AcDbLine
 62
7
  6
CONTINUOUS
 10
0.4483654763
 20
-102.7393361629
 11
0.4483654763
 21
82.3839820548
  0
LWPOLYLINE
  5
298
100
AcDbEntity
  8
RACCORDO
100
AcDbPolyline
 62
253
  6
CONTINUOUS
 90
3
 70
0
 10
-74.363191928
 20
-67.3209915487
 10
-74.3185413609
 20
-67.2711528957
 10
-74.308650452
 20
-67.2640834241
  0
LWPOLYLINE
  5
299
100
AcDbEntity
  8
ASSI
100
AcDbPolyline
 62
7
  6
CONTINUOUS
 90
20
 70
0
 10
-32.7331624367
 20
-23.5457193005
 10
-32.7690286288
 20
-23.5824118353
 10
-32.8821277697
 20
-23.7116848306
 10
-32.9896024087
 20
-23.8487255828
 10
-33.0910853529
 20
-23.9930658844
 10
-33.1865561079
 20
-24.1447307032
 10
-33.276035168
 20
-24.3036950716
 10
-33.359216823
 20
-24.4694158787
 10
-33.436079533
 20
-24.6419162348
 10
-33.5066448379
 20
-24.8211730298
 10
-33.5706716475
 20
-25.0065738228
 10
-33.6281375971
 20
-25.1981396291
 10
-33.6790650513
 20
-25.3958494334
 10
-33.7232800137
 20
-25.5990277492
 10
-33.7607595245
 20
-25.8076932812
 10
-33.7915265434
 20
-26.0218273248
 10
-33.8154759533
 20
-26.2406982789
 10
-33.832572715
 20
-26.4640622767
 10
-33.8428518677
 20
-26.692163185
 10
-33.8463134112
 20
-26.925001004
  0
LINE
  5
29A
100
AcDbEntity
  8
0
100
AcDbLine
 62
7
  6
CONTINUOUS
 10
-51.8775363315
 20
-21.8212924029
 11
-68.8480990799
 21
-31.6198826427
  0
LINE
  5
29B
100
AcDbEntity
  8
0
100
AcDbLine
 62
7
  6
CONTINUOUS
 10
-51.8775363315
 20
-22.6376837698
 11
-50.4633227691
 21
-21.8211345831
  0
LWPOLYLINE
  5
29C
100
AcDbEntity
  8
0
100
AcDbPolyline
 62
7
  6
CONTINUOUS
 90
31
 70
0
 10
-51.8775363315
 20
-21.8212924029
 10
-51.8393747508
 20
-21.8004023235
 10
-51.7996037555
 20
-21.7807896248
 10
-51.7582233456
 20
-21.7624543068
 10
-51.7151105178
 20
-21.7453528579
 10
-51.6703882754
 20
-21.7295287897
 10
-51.6244256275
 20
-21.7151126369
 10
-51.5772142571
 20
-21.7021165403
 10
-51.5287624811
 20
-21.6905283592
 10
-51.4794642601
 20
-21.6804422068
 10
-51.429311982
 20
-21.671870069
 10
-51.3783132588
 20
-21.6647999599
 10
-51.3268848871
 20
-21.6592900358
 10
-51.2750223602
 20
-21.6553531217
 10
-51.2227301849
 20
-21.6529763924
 10
-51.1704386776
 20
-21.6521795292
 10
-51.1181482463
 20
-21.6529757057
 10
-51.0658584831
 20
-21.6553517482
 10
-51.0139984815
 20
-21.6592878164
 10
-50.9625733465
 20
-21.6647964092
 10
-50.9115779731
 20
-21.6718650277
 10
-50.8614261406
 20
-21.6804363347
 10
-50.8121230421
 20
-21.6905228398
 10
-50.7636634844
 20
-21.7021120334
 10
-50.7164456666
 20
-21.7151090497
 10
-50.6704796896
 20
-21.7295257218
 10
-50.6257554525
 20
-21.7453502165
 10
-50.5826408522
 20
-21.7624521685
 10
-50.541258521
 20
-21.7807881227
 10
-50.5014858266
 20
-21.8004015341
 10
-50.4633227691
 20
-21.8212924029
  0
LWPOLYLINE
  5
29D
100
AcDbEntity
  8
RACCORDO
100
AcDbPolyline
 62
7
  6
CONTINUOUS
 90
6
 70
0
 10
-74.2039270615
 20
36.7085912857
 10
-74.2449671036
 20
36.7302769593
 10
-74.2791559349
 20
36.7449185714
 10
-74.3052712512
 20
36.7534678733
 10
-74.3223321796
 20
36.7573148918
 10
-74.3273080064
 20
36.7580316649
  0
LWPOLYLINE
  5
29E
100
AcDbEntity
  8
RACCORDO
100
AcDbPolyline
 62
253
  6
CONTINUOUS
 90
25
 70
0
 10
-74.3281766341
 20
36.9832334024
 10
-74.2003724786
 20
36.8987508603
 10
-74.0787053015
 20
36.8005829467
 10
-73.9631751026
 20
36.6887296615
 10
-73.8520234056
 20
36.56083106
 10
-73.7470086868
 20
36.4192470869
 10
-73.6534063761
 20
36.2710575767
 10
-73.5718053736
 20
36.1159295881
 10
-73.5016167791
 20
35.9541960624
 10
-73.4463493219
 20
35.793935658
 10
-73.4067621453
 20
35.635224944
 10
-73.382096106
 20
35.4779873513
 10
-73.3735825029
 20
35.330071832
 10
-73.3820413272
 20
35.1919515725
 10
-73.4066525877
 20
35.0631533864
 10
-73.4461876098
 20
34.9501066657
 10
-73.5014037852
 20
34.8536111051
 10
-73.5715437223
 20
34.77286701
 10
-73.6531065717
 20
34.7119046886
 10
-73.7466730315
 20
34.671728502
 10
-73.8516624036
 20
34.6513340892
 10
-73.9628317443
 20
34.6517386755
 10
-74.0784334056
 20
34.6732813362
 10
-74.2002150356
 20
34.715622996
 10
-74.3281766341
 20
34.7787636551
  0
LWPOLYLINE
  5
29F
100
AcDbEntity
  8
ASSI
100
AcDbPolyline
 62
7
  6
CONTINUOUS
 90
33
 70
0
 10
5.0445595541
 20
-51.0132020103
 10
5.0410980105
 20
-50.7763668876
 10
5.0308188579
 20
-50.5363958715
 10
5.0137220962
 20
-50.2932889618
 10
4.9897726863
 20
-50.0467618295
 10
4.9590056674
 20
-49.7970988037
 10
4.9215261566
 20
-49.5451528721
 10
4.8773111942
 20
-49.290916226
 10
4.8263837399
 20
-49.0343966741
 10
4.7689177903
 20
-48.7764706296
 10
4.7048909808
 20
-48.5171332818
 10
4.6343256759
 20
-48.2563894415
 10
4.5574629659
 20
-47.9951299545
 10
4.4742813108
 20
-47.7333530571
 10
4.3848022507
 20
-47.4710605131
 10
4.2893314957
 20
-47.2091484594
 10
4.1878485516
 20
-46.9476181977
 10
4.0803739125
 20
-46.6864684263
 10
3.9672747717
 20
-46.4265913781
 10
3.8485318908
 20
-46.1679914063
 10
3.724164508
 20
-45.9106641577
 10
3.5945975316
 20
-45.6554888051
 10
3.4598131765
 20
-45.402472709
 10
3.3198292277
 20
-45.1516085089
 10
3.1751239482
 20
-44.9037532963
 10
3.0256811888
 20
-44.6589173634
 10
2.8715170987
 20
-44.417090418
 10
2.713158388
 20
-44.1790986754
 10
2.5505907093
 20
-43.9449552537
 10
2.3838284101
 20
-43.7146470347
 10
2.213441243
 20
-43.4889608793
 10
2.0394168093
 20
-43.2679125971
 10
1.8625790387
 20
-43.0524750487
  0
LINE
  5
2A0
100
AcDbEntity
  8
0
100
AcDbLine
 62
7
  6
CONTINUOUS
 10
1.8625790387
 20
-101.9227869762
 11
1.8625790387
 21
81.6245278079
  0
LWPOLYLINE
  5
2A1
100
AcDbEntity
  8
0
100
AcDbPolyline
 62
7
  6
CONTINUOUS
 90
7
 70
0
 10
-72.6210215328
 20
-69.46106305
 10
-72.500237967
 20
-69.3708145385
 10
-72.3963217404
 20
-69.2512393483
 10
-72.3145068881
 20
-69.1083325181
 10
-72.2565219814
 20
-68.9440830948
 10
-72.2206384489
 20
-68.7565020315
 10
-72.2068562906
 20
-68.545589328
  0
LWPOLYLINE
  5
2A2
100
AcDbEntity
  8
RACCORDO
100
AcDbPolyline
 62
7
  6
CONTINUOUS
 90
10
 70
0
 10
-74.9039608857
 20
-66.1603270697
 10
-75.0136062293
 20
-66.2329952193
 10
-75.1159606785
 20
-66.3208352067
 10
-75.2091823657
 20
-66.4235759808
 10
-75.2915308448
 20
-66.5406815264
 10
-75.3614578213
 20
-66.6714117757
 10
-75.4177579237
 20
-66.8152600805
 10
-75.4593387918
 20
-66.9718831542
 10
-75.4850587376
 20
-67.1406112141
 10
-75.4938620591
 20
-67.3207656891
  0
LWPOLYLINE
  5
2A3
100
AcDbEntity
  8
ASSI
100
AcDbPolyline
 62
7
  6
CONTINUOUS
 90
19
 70
0
 10
-16.4830501501
 20
-16.5840876809
 10
-16.5416074598
 20
-16.6209269851
 10
-16.5976171396
 20
-16.6623323498
 10
-16.6506939084
 20
-16.7080297124
 10
-16.7008210386
 20
-16.7580435521
 10
-16.7480152578
 20
-16.8123493898
 10
-16.7920079079
 20
-16.8706380838
 10
-16.8327807292
 20
-16.9329323502
 10
-16.8703519814
 20
-16.9992094729
 10
-16.9045077865
 20
-17.0690921627
 10
-16.9352286645
 20
-17.1426009835
 10
-16.9625340953
 20
-17.2197153713
 10
-16.98626864
 20
-17.2999963446
 10
-17.0064119321
 20
-17.3834619636
 10
-17.022984338
 20
-17.470094168
 10
-17.0358915175
 20
-17.559399795
 10
-17.045102024
 20
-17.6512144571
 10
-17.0506473042
 20
-17.7457025417
 10
-17.052527358
 20
-17.842864049
  0
LINE
  5
2A4
100
AcDbEntity
  8
ASSI
100
AcDbLine
 62
7
  6
CONTINUOUS
 10
-13.7329172694
 20
-21.3471506804
 11
-13.6937701474
 21
-21.3225226238
  0
LWPOLYLINE
  5
2A5
100
AcDbEntity
  8
ASSI
100
AcDbPolyline
 62
7
  6
CONTINUOUS
 90
17
 70
0
 10
-48.4349290305
 20
-39.704539558
 10
-48.4642491636
 20
-39.7227451096
 10
-48.501537859
 20
-39.75001957
 10
-48.5367680669
 20
-39.780687979
 10
-48.5696781087
 20
-39.8145225416
 10
-48.600250708
 20
-39.8515468333
 10
-48.6285031412
 20
-39.8917372784
 10
-48.6542255581
 20
-39.9347953554
 10
-48.6773991201
 20
-39.9807424168
 10
-48.6980426659
 20
-40.0295571099
 10
-48.7160028618
 20
-40.0808768549
 10
-48.7312597273
 20
-40.1347203046
 10
-48.7438332429
 20
-40.1910688061
 10
-48.7536300166
 20
-40.2495038209
 10
-48.7606189177
 20
-40.3098858359
 10
-48.7648310769
 20
-40.3723543642
 10
-48.7662664942
 20
-40.4369094056
  0
LWPOLYLINE
  5
2A6
100
AcDbEntity
  8
ASSI
100
AcDbPolyline
 62
7
  6
CONTINUOUS
 90
17
 70
0
 10
-46.8348622582
 20
-42.4757579518
 10
-46.8055421251
 20
-42.4575524002
 10
-46.7682534297
 20
-42.4302779398
 10
-46.7330232218
 20
-42.3996095308
 10
-46.70011318
 20
-42.3657749682
 10
-46.6695405807
 20
-42.3287506765
 10
-46.6412881475
 20
-42.2885602314
 10
-46.6155657305
 20
-42.2455021545
 10
-46.5923921686
 20
-42.1995550931
 10
-46.5717486228
 20
-42.1507403999
 10
-46.5537884269
 20
-42.0994206549
 10
-46.5385315614
 20
-42.0455772052
 10
-46.5259580458
 20
-41.9892287037
 10
-46.5161612721
 20
-41.9307936889
 10
-46.5091723709
 20
-41.8704116739
 10
-46.5049602117
 20
-41.8079431457
 10
-46.5035247944
 20
-41.7433881042
  0
LWPOLYLINE
  5
2A7
100
AcDbEntity
  8
ASSI
100
AcDbPolyline
 62
7
  6
CONTINUOUS
 90
25
 70
0
 10
-33.5003187704
 20
-23.8507971304
 10
-33.5357966472
 20
-23.8716320382
 10
-33.675780596
 20
-23.960846283
 10
-33.8105649511
 20
-24.0582167844
 10
-33.9401319275
 20
-24.1637714403
 10
-34.0644993103
 20
-24.2774823527
 10
-34.1832421912
 20
-24.398961022
 10
-34.296341332
 20
-24.5282340173
 10
-34.4038159711
 20
-24.6652747694
 10
-34.5052989152
 20
-24.809615071
 10
-34.6007696702
 20
-24.9612798899
 10
-34.6902487303
 20
-25.1202442582
 10
-34.7734303854
 20
-25.2859650654
 10
-34.8502930954
 20
-25.4584654215
 10
-34.9208584003
 20
-25.6377222165
 10
-34.9848852099
 20
-25.8231230095
 10
-35.0423511595
 20
-26.0146888157
 10
-35.0932786137
 20
-26.2123986201
 10
-35.1374935761
 20
-26.4155769359
 10
-35.1749730869
 20
-26.6242424679
 10
-35.2057401058
 20
-26.8383765114
 10
-35.2296895157
 20
-27.0572474656
 10
-35.2467862774
 20
-27.2806114633
 10
-35.25706543
 20
-27.5087123717
 10
-35.2605269736
 20
-27.7415501906
  0
LINE
  5
2A8
100
AcDbEntity
  8
ASSI
100
AcDbLine
 62
253
  6
CONTINUOUS
 10
-33.8463134112
 20
-26.925001004
 11
-35.2605269736
 21
-27.7415501906
  0
LINE
  5
2A9
100
AcDbEntity
  8
ASSI
100
AcDbLine
 62
253
  6
CONTINUOUS
 10
-15.6383137956
 20
-17.0263148624
 11
-17.052527358
 21
-17.842864049
  0
LINE
  5
2AA
100
AcDbEntity
  8
ASSI
100
AcDbLine
 62
253
  6
CONTINUOUS
 10
-47.6353682312
 20
-39.783942922
 11
-48.7662664942
 21
-40.4369094056
  0
LINE
  5
2AB
100
AcDbEntity
  8
0
100
AcDbLine
 62
7
  6
CONTINUOUS
 10
-68.1409922987
 20
44.5560445383
 11
-68.8480990799
 21
44.9643191317
  0
LINE
  5
2AC
100
AcDbEntity
  8
ASSI
100
AcDbLine
 62
253
  6
CONTINUOUS
 10
-90.4855665842
 20
66.9151335779
 11
-89.0713530219
 21
66.0985843913
  0
LINE
  5
2AD
100
AcDbEntity
  8
ASSI
100
AcDbLine
 62
253
  6
CONTINUOUS
 10
58.0068574649
 20
-18.8225310209
 11
56.5926439026
 21
-18.0059818342
  0
LWPOLYLINE
  5
2AE
100
AcDbEntity
  8
ASSI
100
AcDbPolyline
 62
7
  6
CONTINUOUS
 90
32
 70
0
 10
56.5926439026
 20
-58.4325711883
 10
56.574966233
 20
-58.4099750761
 10
56.5006276969
 20
-58.3199740551
 10
56.424440734
 20
-58.23260251
 10
56.3468390466
 20
-58.1483578124
 10
56.2678145658
 20
-58.067257796
 10
56.1873753605
 20
-57.9892846271
 10
56.1059793391
 20
-57.9148821759
 10
56.0236210445
 20
-57.8440708079
 10
55.9403059338
 20
-57.7768301576
 10
55.8565082869
 20
-57.7135429995
 10
55.7722253517
 20
-57.6542318819
 10
55.6874598803
 20
-57.5988742565
 10
55.6026944089
 20
-57.5477852523
 10
55.5179289375
 20
-57.5009892149
 10
55.4331634661
 20
-57.4584617986
 10
55.3488805309
 20
-57.4204450952
 10
55.265082884
 20
-57.3869648312
 10
55.1817677733
 20
-57.35799528
 10
55.0994094787
 20
-57.3337013538
 10
55.0180134573
 20
-57.3141097197
 10
54.937574252
 20
-57.2991937106
 10
54.8585497712
 20
-57.2890382375
 10
54.7809480838
 20
-57.2836704516
 10
54.7047611209
 20
-57.2830632017
 10
54.6304225848
 20
-57.2872199445
 10
54.5579430177
 20
-57.2961678511
 10
54.4873118774
 20
-57.3098797506
 10
54.4189312388
 20
-57.3282775864
 10
54.3528139376
 20
-57.3513880844
 10
54.2889471382
 20
-57.3791845188
 10
54.2276279685
 20
-57.4115470137
  0
LWPOLYLINE
  5
2AF
100
AcDbEntity
  8
ASSI
100
AcDbPolyline
 62
7
  6
CONTINUOUS
 90
27
 70
0
 10
28.9246190513
 20
-125.0366676403
 10
28.9339497878
 20
-125.1030977736
 10
28.9477020705
 20
-125.1806097385
 10
28.9643892671
 20
-125.2587709681
 10
28.9840332314
 20
-125.3375862967
 10
29.0066121096
 20
-125.4170508898
 10
29.031958193
 20
-125.49657451
 10
29.0600920865
 20
-125.5761575967
 10
29.0909931853
 20
-125.6557997105
 10
29.1244319658
 20
-125.7349092951
 10
29.160427324
 20
-125.8134823852
 10
29.1989603639
 20
-125.8915229463
 10
29.2397448745
 20
-125.9684513179
 10
29.2827976205
 20
-126.0442592185
 10
29.3281018371
 20
-126.1189549297
 10
29.3753210191
 20
-126.1919836356
 10
29.4244694257
 20
-126.2633329235
 10
29.4755327976
 20
-126.333015206
 10
29.5281318526
 20
-126.4005129056
 10
29.5822780256
 20
-126.4658097555
 10
29.6379598816
 20
-126.5289220225
 10
29.6947638336
 20
-126.5893809286
 10
29.7526982369
 20
-126.6471667169
 10
29.8117547362
 20
-126.7022991444
 10
29.8714946788
 20
-126.7543687051
 10
29.9319231536
 20
-126.8033525927
 10
29.9548679587
 20
-126.8205938919
  0
LWPOLYLINE
  5
2B0
100
AcDbEntity
  8
0
100
AcDbPolyline
 62
7
  6
CONTINUOUS
 90
17
 70
0
 10
27.3184231614
 20
-125.5203561728
 10
27.345356639
 20
-125.8530803742
 10
27.425131184
 20
-126.204233319
 10
27.5547082088
 20
-126.5604397006
 10
27.7326367238
 20
-126.9141812311
 10
27.9459159197
 20
-127.2396108663
 10
28.1891610665
 20
-127.5306567293
 10
28.4531070323
 20
-127.7762329735
 10
28.7326367238
 20
-127.969845913
 10
29.0073255776
 20
-128.0973487154
 10
29.2715516183
 20
-128.1577967772
 10
29.5152505581
 20
-128.1488876508
 10
29.7326367238
 20
-128.0689561652
 10
29.9078262304
 20
-127.9238427223
 10
30.0382531338
 20
-127.7182833283
 10
30.1189495138
 20
-127.4601076766
 10
30.1468502862
 20
-127.1534544033
  0
LWPOLYLINE
  5
2B1
100
AcDbEntity
  8
0
100
AcDbPolyline
 62
7
  6
CONTINUOUS
 90
17
 70
0
 10
30.1468502862
 20
-127.1534545461
 10
30.1199168086
 20
-126.8207303447
 10
30.0401422636
 20
-126.4695773999
 10
29.9105652388
 20
-126.1133710183
 10
29.7326367238
 20
-125.7596294878
 10
29.5193575279
 20
-125.4341998525
 10
29.2761123811
 20
-125.1431539896
 10
29.0121664153
 20
-124.8975777454
 10
28.7326367238
 20
-124.7039648059
 10
28.45794787
 20
-124.5764620035
 10
28.1937218294
 20
-124.5160139416
 10
27.9500228896
 20
-124.5249230681
 10
27.7326367238
 20
-124.6048545537
 10
27.5574472172
 20
-124.7499679966
 10
27.4270203138
 20
-124.9555273906
 10
27.3463239339
 20
-125.2137030423
 10
27.3184231614
 20
-125.5203563155
  0
LWPOLYLINE
  5
2B2
100
AcDbEntity
  8
ASSI
100
AcDbPolyline
 62
7
  6
CONTINUOUS
 90
49
 70
0
 10
27.4951998567
 20
-125.6224248211
 10
27.4967698444
 20
-125.6948448801
 10
27.5013768935
 20
-125.7684899377
 10
27.5090210041
 20
-125.843359994
 10
27.5197362254
 20
-125.9196469603
 10
27.5334885081
 20
-125.9971589252
 10
27.5501757048
 20
-126.0753201547
 10
27.569819669
 20
-126.1541354833
 10
27.5923985472
 20
-126.2336000765
 10
27.6177446306
 20
-126.3131236967
 10
27.6458785241
 20
-126.3927067834
 10
27.6767796229
 20
-126.4723488971
 10
27.7102184035
 20
-126.5514584817
 10
27.7462137616
 20
-126.6300315719
 10
27.7847468015
 20
-126.7080721329
 10
27.8255313121
 20
-126.7850005045
 10
27.8685840581
 20
-126.8608084052
 10
27.9138882747
 20
-126.9355041163
 10
27.9611074567
 20
-127.0085328222
 10
28.0102558633
 20
-127.0798821101
 10
28.0613192353
 20
-127.1495643927
 10
28.1139182903
 20
-127.2170620923
 10
28.1680644632
 20
-127.2823589422
 10
28.2237463192
 20
-127.3454712091
 10
28.2805502712
 20
-127.4059301153
 10
28.3384846745
 20
-127.4637159035
 10
28.3975411738
 20
-127.5188483311
 10
28.4572811164
 20
-127.5709178918
 10
28.5177095913
 20
-127.6199017793
 10
28.5788215094
 20
-127.6658228001
 10
28.6401629509
 20
-127.7083398675
 10
28.701735625
 20
-127.7474276352
 10
28.7635378226
 20
-127.7831114495
 10
28.8251104967
 20
-127.8151262625
 10
28.8864519383
 20
-127.8434447542
 10
28.9475638563
 20
-127.8680942446
 10
29.0079923312
 20
-127.8888916452
 10
29.0677322738
 20
-127.9058082727
 10
29.1267887731
 20
-127.9188728103
 10
29.1847231764
 20
-127.9279882188
 10
29.2415271284
 20
-127.9331250926
 10
29.2972089844
 20
-127.9343128372
 10
29.3513551573
 20
-127.9315426306
 10
29.4039542124
 20
-127.9247850013
 10
29.4550175843
 20
-127.9140694207
 10
29.5041659909
 20
-127.8994754808
 10
29.5513851729
 20
-127.8809743027
 10
29.5966893895
 20
-127.8585947653
 10
29.6076732399
 20
-127.8524154185
  0
LWPOLYLINE
  5
2B3
100
AcDbEntity
  8
ASSI
100
AcDbPolyline
 62
7
  6
CONTINUOUS
 90
49
 70
0
 10
29.9700735909
 20
-127.0513858978
 10
29.9685036032
 20
-126.9789658388
 10
29.9638965541
 20
-126.9053207812
 10
29.9562524435
 20
-126.8304507249
 10
29.9455372222
 20
-126.7541637586
 10
29.9317849395
 20
-126.6766517937
 10
29.9150977429
 20
-126.5984905642
 10
29.8954537786
 20
-126.5196752356
 10
29.8728749004
 20
-126.4402106424
 10
29.847528817
 20
-126.3606870222
 10
29.8193949235
 20
-126.2811039355
 10
29.7884938247
 20
-126.2014618218
 10
29.7550550442
 20
-126.1223522372
 10
29.719059686
 20
-126.043779147
 10
29.6805266461
 20
-125.9657385859
 10
29.6397421355
 20
-125.8888102144
 10
29.5966893895
 20
-125.8130023137
 10
29.5513851729
 20
-125.7383066025
 10
29.5041659909
 20
-125.6652778966
 10
29.4550175843
 20
-125.5939286088
 10
29.4039542124
 20
-125.5242463262
 10
29.3513551573
 20
-125.4567486266
 10
29.2972089844
 20
-125.3914517767
 10
29.2415271284
 20
-125.3283395098
 10
29.1847231764
 20
-125.2678806036
 10
29.1267887731
 20
-125.2100948153
 10
29.0677322738
 20
-125.1549623878
 10
29.0079923312
 20
-125.1028928271
 10
28.9475638563
 20
-125.0539089395
 10
28.8864519383
 20
-125.0079879188
 10
28.8251104967
 20
-124.9654708514
 10
28.7635378226
 20
-124.9263830837
 10
28.701735625
 20
-124.8906992694
 10
28.6401629509
 20
-124.8586844564
 10
28.5788215094
 20
-124.8303659646
 10
28.5177095913
 20
-124.8057164742
 10
28.4572811164
 20
-124.7849190737
 10
28.3975411738
 20
-124.7680024462
 10
28.3384846745
 20
-124.7549379086
 10
28.2805502712
 20
-124.7458225001
 10
28.2237463192
 20
-124.7406856263
 10
28.1680644632
 20
-124.7394978817
 10
28.1139182903
 20
-124.7422680883
 10
28.0613192353
 20
-124.7490257176
 10
28.0102558633
 20
-124.7597412981
 10
27.9611074567
 20
-124.7743352381
 10
27.9138882747
 20
-124.7928364161
 10
27.8685840581
 20
-124.8152159536
 10
27.8576002077
 20
-124.8213953003
  0
LWPOLYLINE
  5
2B4
100
AcDbEntity
  8
RACCORDO
100
AcDbPolyline
 62
253
  6
CONTINUOUS
 90
3
 70
0
 10
-72.9038642451
 20
-69.6243728876
 10
-72.820561021
 20
-69.5674960194
 10
-72.7223534506
 20
-69.4718812816
  0
LWPOLYLINE
  5
2B5
100
AcDbEntity
  8
ASSI
100
AcDbPolyline
 62
7
  6
CONTINUOUS
 90
25
 70
0
 10
-24.9999198966
 20
-38.5729713374
 10
-24.9644420198
 20
-38.5521364296
 10
-24.824458071
 20
-38.4629221848
 10
-24.6896737159
 20
-38.3655516835
 10
-24.5601067394
 20
-38.2599970276
 10
-24.4357393567
 20
-38.1462861151
 10
-24.3169964758
 20
-38.0248074459
 10
-24.2038973349
 20
-37.8955344506
 10
-24.0964226959
 20
-37.7584936984
 10
-23.9949397517
 20
-37.6141533968
 10
-23.8994689967
 20
-37.462488578
 10
-23.8099899366
 20
-37.3035242096
 10
-23.7268082816
 20
-37.1378034025
 10
-23.6499455716
 20
-36.9653030464
 10
-23.5793802667
 20
-36.7860462514
 10
-23.5153534571
 20
-36.6006454584
 10
-23.4578875075
 20
-36.4090796521
 10
-23.4069600533
 20
-36.2113698478
 10
-23.3627450909
 20
-36.008191532
 10
-23.3252655801
 20
-35.7995259999
 10
-23.2944985612
 20
-35.5853919564
 10
-23.2705491513
 20
-35.3665210023
 10
-23.2534523896
 20
-35.1431570045
 10
-23.2431732369
 20
-34.9150560962
 10
-23.2397116934
 20
-34.6822182772
  0
LINE
  5
2B6
100
AcDbEntity
  8
0
100
AcDbLine
 62
253
  6
CONTINUOUS
 10
-68.8480990799
 20
-61.0953276434
 11
-70.2623126423
 21
-61.9118768301
  0
LINE
  5
2B7
100
AcDbEntity
  8
0
100
AcDbLine
 62
7
  6
CONTINUOUS
 10
-74.6211181732
 20
-65.9970172324
 11
-74.9039608857
 21
-66.1603270697
  0
LINE
  5
2B8
100
AcDbEntity
  8
0
100
AcDbLine
 62
253
  6
CONTINUOUS
 10
-68.1409922987
 20
-62.3200725136
 11
-69.5552058611
 21
-63.1366217002
  0
LINE
  5
2B9
100
AcDbEntity
  8
0
100
AcDbLine
 62
7
  6
CONTINUOUS
 10
-72.6210215327
 20
-69.4610630503
 11
-72.9038642451
 21
-69.6243728876
  0
LINE
  5
2BA
100
AcDbEntity
  8
0
100
AcDbLine
 62
7
  6
CONTINUOUS
 10
-52.5846431126
 20
-60.6852381233
 11
-61.778534606
 21
-65.993675845
  0
LINE
  5
2BB
100
AcDbEntity
  8
0
100
AcDbLine
 62
7
  6
CONTINUOUS
 10
-85.5358191159
 20
-80.5272255393
 11
-79.4547007977
 21
-77.0160640367
  0
LINE
  5
2BC
100
AcDbEntity
  8
ASSI
100
AcDbLine
 62
253
  6
CONTINUOUS
 10
-91.9168349074
 20
73.2470774173
 11
-90.502621345
 21
72.4305282306
  0
LINE
  5
2BD
100
AcDbEntity
  8
ASSI
100
AcDbLine
 62
253
  6
CONTINUOUS
 10
56.5755891418
 20
-12.4905871815
 11
55.1613755794
 21
-11.6740379949
  0
LINE
  5
2BE
100
AcDbEntity
  8
ASSI
100
AcDbLine
 62
253
  6
CONTINUOUS
 10
-94.2826247517
 20
77.4818961533
 11
-92.8684111893
 21
76.6653469666
  0
LINE
  5
2BF
100
AcDbEntity
  8
ASSI
100
AcDbLine
 62
253
  6
CONTINUOUS
 10
54.2097992975
 20
-8.2557684455
 11
52.7955857351
 21
-7.4392192589
  0
LINE
  5
2C0
100
AcDbEntity
  8
ASSI
100
AcDbLine
 62
253
  6
CONTINUOUS
 10
-96.0717101556
 20
85.3968259525
 11
-94.6574965932
 21
84.5802767658
  0
LINE
  5
2C1
100
AcDbEntity
  8
ASSI
100
AcDbLine
 62
253
  6
CONTINUOUS
 10
52.4207138936
 20
-0.3408386463
 11
51.0065003312
 21
0.4757105403
  0
LWPOLYLINE
  5
2C2
100
AcDbEntity
  8
ASSI
100
AcDbPolyline
 62
7
  6
CONTINUOUS
 90
21
 70
0
 10
51.0065003312
 20
41.7718170946
 10
50.9777432074
 20
41.712980093
 10
50.9470223294
 20
41.6394712722
 10
50.9197168986
 20
41.5623568843
 10
50.8959823539
 20
41.4820759111
 10
50.8758390618
 20
41.3986102921
 10
50.8592666559
 20
41.3119780877
 10
50.8463594764
 20
41.2226724607
 10
50.8371384275
 20
41.1306781634
 10
50.831582605
 20
41.0360104434
 10
50.8297236359
 20
40.9392082067
 10
50.831582605
 20
40.840259279
 10
50.8371384275
 20
40.7391758345
 10
50.8463594764
 20
40.6365333011
 10
50.8592666559
 20
40.5323227866
 10
50.8758390618
 20
40.4265531833
 10
50.8959823539
 20
40.3198265954
 10
50.9197168986
 20
40.212137565
 10
50.9470223294
 20
40.1034915501
 10
50.9777432074
 20
39.9945070293
 10
51.0065003312
 20
39.902462022
  0
LWPOLYLINE
  5
2C3
100
AcDbEntity
  8
ASSI
100
AcDbPolyline
 62
7
  6
CONTINUOUS
 90
50
 70
0
 10
53.6581507606
 20
-58.6703233818
 10
53.6600308144
 20
-58.7696559281
 10
53.6655760946
 20
-58.8705475633
 10
53.6747866011
 20
-58.9729982874
 10
53.6876937807
 20
-59.0772088018
 10
53.7042661866
 20
-59.1829784052
 10
53.7244094787
 20
-59.289704993
 10
53.7481440233
 20
-59.3973940234
 10
53.7754494541
 20
-59.5060400384
 10
53.8061703322
 20
-59.6150245591
 10
53.8403261372
 20
-59.7243495164
 10
53.8778973895
 20
-59.8340129795
 10
53.9186702107
 20
-59.9433906778
 10
53.9626628609
 20
-60.0524809815
 10
54.00985708
 20
-60.1612855205
 10
54.0599842102
 20
-60.2691849136
 10
54.113060979
 20
-60.3761739985
 10
54.1690706589
 20
-60.4822579375
 10
54.2276944089
 20
-60.586832837
 10
54.2889471382
 20
-60.6898900901
 10
54.3528139376
 20
-60.7914383036
 10
54.4189312388
 20
-60.8908994038
 10
54.4873118774
 20
-60.9882614869
 10
54.5579430177
 20
-61.0835364568
 10
54.6304225848
 20
-61.1761819507
 10
54.7047611209
 20
-61.2661829717
 10
54.7809480838
 20
-61.3535545168
 10
54.8585497712
 20
-61.4377992144
 10
54.937574252
 20
-61.5188992308
 10
55.0180134573
 20
-61.5968723998
 10
55.0994094787
 20
-61.6712748509
 10
55.1817677733
 20
-61.742086219
 10
55.265082884
 20
-61.8093268692
 10
55.3488805309
 20
-61.8726140274
 10
55.4331634661
 20
-61.9319251449
 10
55.5179289375
 20
-61.9872827703
 10
55.6026944089
 20
-62.0383717746
 10
55.6874598803
 20
-62.085167812
 10
55.7722253517
 20
-62.1276952282
 10
55.8565082869
 20
-62.1657119316
 10
55.9403059338
 20
-62.1991921957
 10
56.0236210445
 20
-62.2281617469
 10
56.1059793391
 20
-62.2524556731
 10
56.1873753605
 20
-62.2720473072
 10
56.2678145658
 20
-62.2869633162
 10
56.3468390466
 20
-62.2971187894
 10
56.424440734
 20
-62.3024865753
 10
56.5006276969
 20
-62.3030938252
 10
56.574966233
 20
-62.2989370824
 10
56.5926439026
 20
-62.2967546999
  0
LINE
  5
2C4
100
AcDbEntity
  8
ASSI
100
AcDbLine
 62
253
  6
CONTINUOUS
 10
40.8595180212
 20
63.2244435928
 11
40.8595180212
 21
61.5915030392
  0
LINE
  5
2C5
100
AcDbEntity
  8
ASSI
100
AcDbLine
 62
7
  6
CONTINUOUS
 10
51.0065003312
 20
0.4757105403
 11
51.0065003312
 21
49.4870293555
  0
LINE
  5
2C6
100
AcDbEntity
  8
ASSI
100
AcDbLine
 62
7
  6
CONTINUOUS
 10
52.4207138936
 20
-0.3408386463
 11
52.4207138936
 21
48.6704801689
  0
LWPOLYLINE
  5
2C7
100
AcDbEntity
  8
ASSI
100
AcDbPolyline
 62
7
  6
CONTINUOUS
 90
17
 70
0
 10
-42.853077911
 20
-83.9939359676
 10
-42.8851468065
 20
-84.0138482896
 10
-42.9259313171
 20
-84.0436797306
 10
-42.964464357
 20
-84.0772233031
 10
-43.0004597152
 20
-84.1142298559
 10
-43.0338984957
 20
-84.1547251749
 10
-43.0647995945
 20
-84.1986834743
 10
-43.0929334881
 20
-84.2457782459
 10
-43.1182795715
 20
-84.2960328443
 10
-43.1408584496
 20
-84.3494239149
 10
-43.1605024139
 20
-84.405554886
 10
-43.1771896105
 20
-84.4644461591
 10
-43.1909418933
 20
-84.5260773327
 10
-43.2016571145
 20
-84.5899906301
 10
-43.2093012251
 20
-84.656033459
 10
-43.2139082743
 20
-84.7243584118
 10
-43.2154782619
 20
-84.7949654883
  0
LWPOLYLINE
  5
2C8
100
AcDbEntity
  8
ASSI
100
AcDbPolyline
 62
7
  6
CONTINUOUS
 90
17
 70
0
 10
-41.1030048787
 20
-87.0249560858
 10
-41.0709359832
 20
-87.0050437637
 10
-41.0301514726
 20
-86.9752123227
 10
-40.9916184327
 20
-86.9416687503
 10
-40.9556230745
 20
-86.9046621974
 10
-40.922184294
 20
-86.8641668785
 10
-40.8912831952
 20
-86.8202085791
 10
-40.8631493016
 20
-86.7731138074
 10
-40.8378032182
 20
-86.722859209
 10
-40.81522434
 20
-86.6694681384
 10
-40.7955803758
 20
-86.6133371673
 10
-40.7788931792
 20
-86.5544458942
 10
-40.7651408964
 20
-86.4928147206
 10
-40.7544256752
 20
-86.4289014233
 10
-40.7467815646
 20
-86.3628585943
 10
-40.7421745154
 20
-86.2945336415
 10
-40.7406045278
 20
-86.223926565
  0
LWPOLYLINE
  5
2C9
100
AcDbEntity
  8
ASSI
100
AcDbPolyline
 62
7
  6
CONTINUOUS
 90
25
 70
0
 10
3.2843513509
 20
-54.9039550705
 10
3.3198292277
 20
-54.8831201628
 10
3.4598131765
 20
-54.7939059179
 10
3.5945975316
 20
-54.6965354166
 10
3.724164508
 20
-54.5909807607
 10
3.8485318908
 20
-54.4772698482
 10
3.9672747717
 20
-54.355791179
 10
4.0803739125
 20
-54.2265181837
 10
4.1878485516
 20
-54.0894774315
 10
4.2893314957
 20
-53.9451371299
 10
4.3848022507
 20
-53.7934723111
 10
4.4742813108
 20
-53.6345079427
 10
4.5574629659
 20
-53.4687871356
 10
4.6343256759
 20
-53.2962867795
 10
4.7048909808
 20
-53.1170299845
 10
4.7689177903
 20
-52.9316291915
 10
4.8263837399
 20
-52.7400633852
 10
4.8773111942
 20
-52.5423535809
 10
4.9215261566
 20
-52.3391752651
 10
4.9590056674
 20
-52.1305097331
 10
4.9897726863
 20
-51.9163756895
 10
5.0137220962
 20
-51.6975047354
 10
5.0308188579
 20
-51.4741407376
 10
5.0410980105
 20
-51.2460398293
 10
5.0445595541
 20
-51.0132020103
  0
LINE
  5
2CA
100
AcDbEntity
  8
RACCORDO
100
AcDbLine
 62
253
  6
CONTINUOUS
 10
-73.5621068705
 20
-68.5560035204
 11
-73.605166945
 21
-68.5707914704
  0
LWPOLYLINE
  5
2CB
100
AcDbEntity
  8
RACCORDO
100
AcDbPolyline
 62
253
  6
CONTINUOUS
 90
5
 70
0
 10
-73.605166945
 20
35.447521793
 10
-73.6738109202
 20
35.4413947777
 10
-73.747594993
 20
35.4505598953
 10
-73.8248709472
 20
35.4748124148
 10
-73.9039125654
 20
35.5136105772
  0
LINE
  5
2CC
100
AcDbEntity
  8
ASSI
100
AcDbLine
 62
7
  6
CONTINUOUS
 10
55.1613755794
 20
-11.6740379949
 11
52.7955857351
 21
-7.4392192589
  0
LINE
  5
2CD
100
AcDbEntity
  8
ASSI
100
AcDbLine
 62
7
  6
CONTINUOUS
 10
56.5755891418
 20
-12.4905871815
 11
54.2097992975
 21
-8.2557684455
  0
LWPOLYLINE
  5
2CE
100
AcDbEntity
  8
ASSI
100
AcDbPolyline
 62
7
  6
CONTINUOUS
 90
19
 70
0
 10
52.7955857351
 20
-7.4392192589
 10
52.6051111957
 20
-7.0833912074
 10
52.4250731005
 20
-6.7167498949
 10
52.2554714494
 20
-6.3392953216
 10
52.0962117614
 20
-5.9507739683
 10
51.9473885176
 20
-5.551439354
 10
51.8092851609
 20
-5.1420520359
 10
51.6819221208
 20
-4.7225928558
 10
51.5652789679
 20
-4.2930809717
 10
51.459577856
 20
-3.8543344154
 10
51.3648396381
 20
-3.4063355875
 10
51.2810434613
 20
-2.9491020873
 10
51.2083489205
 20
-2.4835047437
 10
51.1467771728
 20
-2.0095276172
 10
51.0963070611
 20
-1.5271866474
 10
51.0570347087
 20
-1.037400482
 10
51.0289921568
 20
-0.5404753368
 10
51.0121473643
 20
-0.0361049961
 10
51.0065003312
 20
0.4757105403
  0
LWPOLYLINE
  5
2CF
100
AcDbEntity
  8
ASSI
100
AcDbPolyline
 62
7
  6
CONTINUOUS
 90
19
 70
0
 10
55.1613755794
 20
-11.6740379949
 10
55.3137552109
 20
-11.9587004361
 10
55.4577856871
 20
-12.252013486
 10
55.593467008
 20
-12.5539771447
 10
55.7208747584
 20
-12.8647942274
 10
55.8399333534
 20
-13.1842619188
 10
55.9504160388
 20
-13.5117717733
 10
56.0523064708
 20
-13.8473391174
 10
56.1456209932
 20
-14.1909486246
 10
56.2301818827
 20
-14.5419458697
 10
56.305972457
 20
-14.900344932
 10
56.3730093984
 20
-15.2661317322
 10
56.4311650311
 20
-15.638609607
 10
56.4804224293
 20
-16.0177913082
 10
56.5207985186
 20
-16.4036640841
 10
56.5522164005
 20
-16.7954930164
 10
56.574650442
 20
-17.1930331325
 10
56.588126276
 20
-17.5965294051
 10
56.5926439026
 20
-18.0059818342
  0
LWPOLYLINE
  5
2D0
100
AcDbEntity
  8
ASSI
100
AcDbPolyline
 62
7
  6
CONTINUOUS
 90
19
 70
0
 10
54.2097992975
 20
-8.2557684455
 10
54.0193247581
 20
-7.899940394
 10
53.8392866628
 20
-7.5332990816
 10
53.6696850117
 20
-7.1558445082
 10
53.5104253238
 20
-6.7673231549
 10
53.36160208
 20
-6.3679885407
 10
53.2234987232
 20
-5.9586012225
 10
53.0961356832
 20
-5.5391420424
 10
52.9794925303
 20
-5.1096301584
 10
52.8737914184
 20
-4.670883602
 10
52.7790532005
 20
-4.2228847742
 10
52.6952570237
 20
-3.7656512739
 10
52.6225624829
 20
-3.3000539303
 10
52.5609907352
 20
-2.8260768039
 10
52.5105206235
 20
-2.343735834
 10
52.4712482711
 20
-1.8539496686
 10
52.4432057192
 20
-1.3570245235
 10
52.4263609267
 20
-0.8526541827
 10
52.4207138936
 20
-0.3408386463
  0
LWPOLYLINE
  5
2D1
100
AcDbEntity
  8
ASSI
100
AcDbPolyline
 62
7
  6
CONTINUOUS
 90
19
 70
0
 10
56.5755891418
 20
-12.4905871815
 10
56.7279687733
 20
-12.7752496227
 10
56.8719992495
 20
-13.0685626727
 10
57.0076805704
 20
-13.3705263314
 10
57.1350883208
 20
-13.681343414
 10
57.2541469158
 20
-14.0008111054
 10
57.3646296012
 20
-14.3283209599
 10
57.4665200332
 20
-14.663888304
 10
57.5598345556
 20
-15.0074978112
 10
57.6443954451
 20
-15.3584950563
 10
57.7201860194
 20
-15.7168941186
 10
57.7872229608
 20
-16.0826809188
 10
57.8453785935
 20
-16.4551587937
 10
57.8946359916
 20
-16.8343404949
 10
57.935012081
 20
-17.2202132707
 10
57.9664299629
 20
-17.6120422031
 10
57.9888640044
 20
-18.0095823192
 10
58.0023398384
 20
-18.4130785918
 10
58.0068574649
 20
-18.8225310209
  0
LWPOLYLINE
  5
2D2
100
AcDbEntity
  8
ASSI
100
AcDbPolyline
 62
7
  6
CONTINUOUS
 90
32
 70
0
 10
55.072364323
 20
-57.8537741951
 10
55.0742443768
 20
-57.9531067414
 10
55.079789657
 20
-58.0539983766
 10
55.0890001635
 20
-58.1564491007
 10
55.101907343
 20
-58.2606596152
 10
55.1184797489
 20
-58.3664292185
 10
55.1386230411
 20
-58.4731558064
 10
55.1623575857
 20
-58.5808448368
 10
55.1896630165
 20
-58.6894908517
 10
55.2203838946
 20
-58.7984753725
 10
55.2545396996
 20
-58.9078003297
 10
55.2921109519
 20
-59.0174637928
 10
55.3328837731
 20
-59.1268414911
 10
55.3768764233
 20
-59.2359317949
 10
55.4240706424
 20
-59.3447363338
 10
55.4741977726
 20
-59.452635727
 10
55.5272745414
 20
-59.5596248118
 10
55.5832842213
 20
-59.6657087509
 10
55.6419079713
 20
-59.7702836503
 10
55.7031607006
 20
-59.8733409034
 10
55.7670275
 20
-59.9748891169
 10
55.8331448012
 20
-60.0743502171
 10
55.9015254397
 20
-60.1717123003
 10
55.9721565801
 20
-60.2669872701
 10
56.0446361471
 20
-60.3596327641
 10
56.1189746833
 20
-60.4496337851
 10
56.1951616461
 20
-60.5370053302
 10
56.2727633336
 20
-60.6212500278
 10
56.3517878143
 20
-60.7023500442
 10
56.4322270197
 20
-60.7803232131
 10
56.5136230411
 20
-60.8547256643
 10
56.5926439026
 20
-60.9226675192
  0
LWPOLYLINE
  5
2D3
100
AcDbEntity
  8
0
100
AcDbPolyline
 62
7
  6
CONTINUOUS
 90
22
 70
0
 10
58.0068574649
 20
-163.4073625341
 10
58.0093586048
 20
-163.5589165214
 10
58.0167688365
 20
-163.7069973912
 10
58.02908816
 20
-163.8516051434
 10
58.0463475078
 20
-163.9929321306
 10
58.0685159474
 20
-164.1307860002
 10
58.0955006815
 20
-164.2645896945
 10
58.1273218993
 20
-164.3943262357
 10
58.1639594116
 20
-164.5200126014
 10
58.2052598533
 20
-164.6411226673
 10
58.2512427709
 20
-164.7576372501
 10
58.3018886178
 20
-164.869575533
 10
58.3569853902
 20
-164.9764689411
 10
58.4165517456
 20
-165.078296327
 10
58.4805690264
 20
-165.1750788381
 10
58.5487692555
 20
-165.2664113419
 10
58.6211699673
 20
-165.3522709925
 10
58.6977536274
 20
-165.4326806357
 10
58.7781996559
 20
-165.5073036758
 10
58.8625242431
 20
-165.5761158562
 10
58.9507111986
 20
-165.6391414335
 10
59.0422705702
 20
-165.6960468398
  0
LINE
  5
2D4
100
AcDbEntity
  8
0
100
AcDbLine
 62
7
  6
CONTINUOUS
 10
56.5926439026
 20
-162.5908133475
 11
56.5926439026
 21
-18.0059818342
  0
LINE
  5
2D5
100
AcDbEntity
  8
0
100
AcDbLine
 62
7
  6
CONTINUOUS
 10
58.0068574649
 20
-163.4073625341
 11
58.0068574649
 21
-18.8225310209
  0
LWPOLYLINE
  5
2D6
100
AcDbEntity
  8
RACCORDO
100
AcDbPolyline
 62
7
  6
CONTINUOUS
 90
20
 70
0
 10
-2.8587736268
 20
-109.405286427
 10
-2.8590508302
 20
-109.4057539084
 10
-2.8554690781
 20
-109.3973697663
 10
-2.8486799353
 20
-109.3740013515
 10
-2.8421856893
 20
-109.3357646545
 10
-2.8387504062
 20
-109.2830614691
 10
-2.8406326818
 20
-109.2171657378
 10
-2.8495441388
 20
-109.1395537263
 10
-2.8669519916
 20
-109.0511076122
 10
-2.8937617763
 20
-108.9542859311
 10
-2.9300780854
 20
-108.8524069148
 10
-2.9758787849
 20
-108.7476810443
 10
-3.0305556532
 20
-108.6429059525
 10
-3.0922270041
 20
-108.5421356163
 10
-3.1593708515
 20
-108.4476299476
 10
-3.2301673831
 20
-108.361473609
 10
-3.3013164479
 20
-108.2866622837
 10
-3.3700761084
 20
-108.2244773399
 10
-3.4347071744
 20
-108.1747425266
 10
-3.4932489428
 20
-108.1371813104
  0
LWPOLYLINE
  5
2D7
100
AcDbEntity
  8
RACCORDO
100
AcDbPolyline
 62
253
  6
CONTINUOUS
 90
6
 70
0
 10
-2.011675332
 20
-110.2993406144
 10
-1.9294464782
 20
-110.1823657195
 10
-1.8643081042
 20
-110.0456123563
 10
-1.8171410619
 20
-109.8909297493
 10
-1.7885832573
 20
-109.7204098027
 10
-1.7790208844
 20
-109.5363584981
  0
LWPOLYLINE
  5
2D8
100
AcDbEntity
  8
ASSI
100
AcDbPolyline
 62
7
  6
CONTINUOUS
 90
19
 70
0
 10
-17.9364108345
 20
82.889205669
 10
-18.0214979967
 20
82.9361631008
 10
-18.1061026227
 20
82.9786098198
 10
-18.1902247125
 20
83.016545826
 10
-18.2740223594
 20
83.05002609
 10
-18.3573374701
 20
83.0789956412
 10
-18.4396957647
 20
83.1032895674
 10
-18.5210917861
 20
83.1228812015
 10
-18.6015309914
 20
83.1377972106
 10
-18.6805554722
 20
83.1479526838
 10
-18.7581571596
 20
83.1533204696
 10
-18.8343441225
 20
83.1539277196
 10
-18.9086826586
 20
83.1497709767
 10
-18.9811622257
 20
83.1408230701
 10
-19.051793366
 20
83.1271111706
 10
-19.1201740046
 20
83.1087133349
 10
-19.1862913058
 20
83.0856028368
 10
-19.2501581052
 20
83.0578064024
 10
-19.3114772749
 20
83.0254439076
  0
LINE
  5
2D9
100
AcDbEntity
  8
ASSI
100
AcDbLine
 62
7
  6
CONTINUOUS
 10
-13.6937701474
 20
75.9489715866
 11
-17.9364108345
 21
78.3986191466
  0
LINE
  5
2DA
100
AcDbEntity
  8
ASSI
100
AcDbLine
 62
7
  6
CONTINUOUS
 10
-13.6937701474
 20
77.58206996
 11
-16.5221972721
 21
79.2151683333
  0
LINE
  5
2DB
100
AcDbEntity
  8
ASSI
100
AcDbLine
 62
7
  6
CONTINUOUS
 10
-17.9364108345
 20
82.889205669
 11
-13.6937701474
 21
80.439558109
  0
LWPOLYLINE
  5
2DC
100
AcDbEntity
  8
ASSI
100
AcDbPolyline
 62
7
  6
CONTINUOUS
 90
7
 70
0
 10
55.1308813577
 20
-57.3429848815
 10
55.1184797489
 20
-57.3943721097
 10
55.101907343
 20
-57.4810043141
 10
55.0890001635
 20
-57.5703099411
 10
55.079789657
 20
-57.6621246032
 10
55.0742443768
 20
-57.7566126878
 10
55.072364323
 20
-57.8537741951
  0
LWPOLYLINE
  5
2DD
100
AcDbEntity
  8
RACCORDO
100
AcDbPolyline
 62
253
  6
CONTINUOUS
 90
3
 70
0
 10
-3.6525138094
 20
-108.1484508815
 10
-3.6078632422
 20
-108.0986122284
 10
-3.5979723334
 20
-108.0915427569
  0
LWPOLYLINE
  5
2DE
100
AcDbEntity
  8
ASSI
100
AcDbPolyline
 62
7
  6
CONTINUOUS
 90
19
 70
0
 10
54.2276279685
 20
-57.4115470137
 10
54.1690706589
 20
-57.4483863179
 10
54.113060979
 20
-57.4897916826
 10
54.0599842102
 20
-57.5354890452
 10
54.00985708
 20
-57.5855028849
 10
53.9626628609
 20
-57.6398087226
 10
53.9186702107
 20
-57.6980974166
 10
53.8778973895
 20
-57.760391683
 10
53.8403261372
 20
-57.8266688057
 10
53.8061703322
 20
-57.8965514954
 10
53.7754494541
 20
-57.9700603163
 10
53.7481440233
 20
-58.0471747041
 10
53.7244094787
 20
-58.1274556773
 10
53.7042661866
 20
-58.2109212964
 10
53.6876937807
 20
-58.2975535008
 10
53.6747866011
 20
-58.3868591278
 10
53.6655760946
 20
-58.4786737898
 10
53.6600308144
 20
-58.5731618745
 10
53.6581507606
 20
-58.6703233818
  0
LINE
  5
2DF
100
AcDbEntity
  8
0
100
AcDbLine
 62
253
  6
CONTINUOUS
 10
-13.6938043175
 20
-94.5737851158
 11
-14.4008769286
 21
-94.9820399798
  0
LINE
  5
2E0
100
AcDbEntity
  8
ASSI
100
AcDbLine
 62
253
  6
CONTINUOUS
 10
55.072364323
 20
-57.8537741951
 11
53.6581507606
 21
-58.6703233818
  0
LWPOLYLINE
  5
2E1
100
AcDbEntity
  8
0
100
AcDbPolyline
 62
7
  6
CONTINUOUS
 90
16
 70
0
 10
-13.9008527684
 20
-95.0315811574
 10
-13.9277102666
 20
-95.0454928443
 10
-13.9559115668
 20
-95.0570212027
 10
-13.9852499908
 20
-95.0660858172
 10
-14.0157348719
 20
-95.0726664659
 10
-14.0473568769
 20
-95.0767833706
 10
-14.0798571676
 20
-95.0784028331
 10
-14.1132429529
 20
-95.0775043547
 10
-14.1475070239
 20
-95.074108434
 10
-14.1823689163
 20
-95.0682428678
 10
-14.2178335369
 20
-95.0598873859
 10
-14.2538959789
 20
-95.0490622585
 10
-14.2902610575
 20
-95.0358560934
 10
-14.3268303779
 20
-95.0202984266
 10
-14.3637023349
 20
-95.002359722
 10
-14.4008769286
 20
-94.9820399798
  0
LWPOLYLINE
  5
2E2
100
AcDbEntity
  8
ASSI
100
AcDbPolyline
 62
7
  6
CONTINUOUS
 90
55
 70
0
 10
40.8595180212
 20
61.5915030392
 10
41.1043719898
 20
61.4726760929
 10
41.3522866338
 20
61.3476513896
 10
41.6030765625
 20
61.216475945
 10
41.8566970378
 20
61.0791593849
 10
42.1128119672
 20
60.9358037354
 10
42.3707977881
 20
60.7866345811
 10
42.6304655676
 20
60.6317986525
 10
42.8916185723
 20
60.4713707732
 10
43.1536274147
 20
60.3055263536
 10
43.4160729319
 20
60.1345911699
 10
43.6789988701
 20
59.9585492037
 10
43.9424636993
 20
59.7770559945
 10
44.2064707383
 20
59.5901178459
 10
44.4706105227
 20
59.3979886643
 10
44.7343109619
 20
59.2006754272
 10
44.9974186042
 20
58.9983345643
 10
45.2596822742
 20
58.7911315421
 10
45.5203888184
 20
58.5791089227
 10
45.7793771038
 20
58.362457866
 10
46.0364141331
 20
58.1413672605
 10
46.2906910679
 20
57.9159016038
 10
46.542061331
 20
57.686266848
 10
46.7902989229
 20
57.4526908641
 10
47.034496232
 20
57.215297411
 10
47.2746024697
 20
56.9742222271
 10
47.5103303876
 20
56.7298101935
 10
47.7404648553
 20
56.482535387
 10
47.9648576333
 20
56.2326850125
 10
48.1834143466
 20
55.9805101279
 10
48.3950707027
 20
55.7264652442
 10
48.5995011266
 20
55.4711252797
 10
48.7969001834
 20
55.2144728077
 10
48.9869989941
 20
54.9560744953
 10
49.1698130554
 20
54.6960283334
 10
49.3451653488
 20
54.4347545684
 10
49.5124851396
 20
54.1722931639
 10
49.6717408728
 20
53.9087934394
 10
49.8228487212
 20
53.6446116532
 10
49.9651939745
 20
53.3800942309
 10
50.09867048
 20
53.1155782518
 10
50.2233593314
 20
52.8512069484
 10
50.3389573723
 20
52.5870280789
 10
50.4453809726
 20
52.3234210413
 10
50.5427271964
 20
52.0604516056
 10
50.6309375464
 20
51.7976963965
 10
50.7100558863
 20
51.5350583387
 10
50.7799945603
 20
51.2730730434
 10
50.8404991546
 20
51.0122593562
 10
50.8915487641
 20
50.7527627643
 10
50.9332214479
 20
50.4948263852
 10
50.9654801252
 20
50.2390831058
 10
50.9883784357
 20
49.9858431304
 10
51.0020239407
 20
49.7351098155
 10
51.0065003312
 20
49.4870293555
  0
LWPOLYLINE
  5
2E3
100
AcDbEntity
  8
ASSI
100
AcDbPolyline
 62
7
  6
CONTINUOUS
 90
28
 70
0
 10
40.8595180212
 20
61.5915030392
 10
35.6718087104
 20
64.1501691431
 10
30.5113115492
 20
66.7266763322
 10
25.3780265375
 20
69.3210246064
 10
20.2717686834
 20
71.9333097617
 10
15.1927229788
 20
74.5634360021
 10
10.1414444
 20
77.2111159396
 10
5.1179359811
 20
79.8763514921
 10
0.1221946879
 20
82.5591407417
 10
-4.8452336059
 20
85.2591905457
 10
-9.7843458064
 20
87.9765027904
 10
-14.6951450076
 20
90.7110755896
 10
-19.5770946171
 20
93.4626101425
 10
-24.4301914824
 20
96.2311083025
 10
-29.2544387562
 20
99.0165682164
 10
-34.0493093033
 20
101.8186855228
 10
-38.8147999138
 20
104.6374620422
 10
-43.5509137978
 20
107.4728959541
 10
-48.2571334505
 20
110.3246774371
 10
-52.9334556052
 20
113.1928082774
 10
-57.5798835286
 20
116.0772866888
 10
-62.1959095157
 20
118.9777974905
 10
-66.7815302444
 20
121.8943424346
 10
-71.3367490368
 20
124.826919769
 10
-75.8610681542
 20
127.7752090575
 10
-80.3543216836
 20
130.7391034881
 10
-84.8166755379
 20
133.7187098727
 10
-89.2481297172
 20
136.7140282115
  0
LWPOLYLINE
  5
2E4
100
AcDbEntity
  8
ASSI
100
AcDbPolyline
 62
7
  6
CONTINUOUS
 90
28
 70
0
 10
40.8595180212
 20
63.2244435928
 10
35.6718087104
 20
65.7831096967
 10
30.5113115492
 20
68.3596168858
 10
25.3780265375
 20
70.95396516
 10
20.2717686834
 20
73.5662503153
 10
15.1927229788
 20
76.1963765557
 10
10.1414444
 20
78.8440564932
 10
5.1179359811
 20
81.5092920457
 10
0.1221946879
 20
84.1920812953
 10
-4.8452336059
 20
86.8921310993
 10
-9.7843458064
 20
89.609443344
 10
-14.6951450076
 20
92.3440161431
 10
-19.5770946171
 20
95.095550696
 10
-24.4301914824
 20
97.8640488561
 10
-29.2544387562
 20
100.6495087699
 10
-34.0493093033
 20
103.4516260764
 10
-38.8147999138
 20
106.2704025957
 10
-43.5509137978
 20
109.1058365077
 10
-48.2571334505
 20
111.9576179907
 10
-52.9334556052
 20
114.825748831
 10
-57.5798835286
 20
117.7102272424
 10
-62.1959095157
 20
120.6107380441
 10
-66.7815302444
 20
123.5272829881
 10
-71.3367490368
 20
126.4598603226
 10
-75.8610681542
 20
129.4081496111
 10
-80.3543216836
 20
132.3720440416
 10
-84.8166755379
 20
135.3516504263
 10
-89.2481297172
 20
138.3469687651
  0
LWPOLYLINE
  5
2E5
100
AcDbEntity
  8
ASSI
100
AcDbPolyline
 62
7
  6
CONTINUOUS
 90
55
 70
0
 10
40.8595180212
 20
63.2244435928
 10
41.1447637456
 20
63.0816287839
 10
41.4331636862
 20
62.931222054
 10
41.7244987447
 20
62.7732789672
 10
42.0187080202
 20
62.6078062636
 10
42.3154023412
 20
62.4349291553
 10
42.6138688566
 20
62.2549281497
 10
42.9138786268
 20
62.0679733899
 10
43.2152048039
 20
61.8741565694
 10
43.5171446197
 20
61.673708695
 10
43.8192064921
 20
61.4670169645
 10
44.1214383288
 20
61.2540602572
 10
44.4239389063
 20
61.0344486181
 10
44.7267023152
 20
60.8081838202
 10
45.0292544746
 20
60.5755716111
 10
45.3309784474
 20
60.3366544011
 10
45.6316871203
 20
60.0916137351
 10
45.9310894108
 20
59.8406484908
 10
46.2284189543
 20
59.5838531121
 10
46.5234803474
 20
59.3214506435
 10
46.8160032032
 20
59.0536671886
 10
47.1051229956
 20
58.7806317299
 10
47.3906620073
 20
58.5025850731
 10
47.6723576378
 20
58.2197991126
 10
47.9492420977
 20
57.9324806437
 10
48.2212481904
 20
57.6407859423
 10
48.4880436141
 20
57.3451267374
 10
48.7483186706
 20
57.046136263
 10
49.0019000421
 20
56.7441550252
 10
49.24867432
 20
56.4394786466
 10
49.4875044457
 20
56.1327139914
 10
49.7180208582
 20
55.8245492899
 10
49.9404382889
 20
55.5149551655
 10
50.1545140851
 20
55.203462867
 10
50.360262539
 20
54.8901858797
 10
50.5574784692
 20
54.5756231807
 10
50.7455745522
 20
54.2598723369
 10
50.9245150846
 20
53.9431107345
 10
51.0941994091
 20
53.6257584884
 10
51.2539834637
 20
53.3082725954
 10
51.4037510614
 20
52.9910567724
 10
51.5435887739
 20
52.6742749436
 10
51.6731929413
 20
52.3580150852
 10
51.7924722437
 20
52.0427299159
 10
51.9015338774
 20
51.7284928247
 10
52.0003407769
 20
51.4148219742
 10
52.088943886
 20
51.1016021223
 10
52.1672405068
 20
50.7894667808
 10
52.2349647211
 20
50.4790491969
 10
52.2921009044
 20
50.1705265533
 10
52.3387322269
 20
49.8641809275
 10
52.3748223746
 20
49.5607646119
 10
52.4004372429
 20
49.260645657
 10
52.4157014467
 20
48.9638265842
 10
52.4207138936
 20
48.6704801689
  0
LINE
  5
2E6
100
AcDbEntity
  8
ASSI
100
AcDbLine
 62
253
  6
CONTINUOUS
 10
-96.0717101556
 20
134.4081447677
 11
-94.6574965932
 21
133.591595581
  0
LINE
  5
2E7
100
AcDbEntity
  8
ASSI
100
AcDbLine
 62
253
  6
CONTINUOUS
 10
52.4207138936
 20
48.6704801689
 11
51.0065003312
 21
49.4870293555
  0
LINE
  5
2E8
100
AcDbEntity
  8
0
100
AcDbLine
 62
7
  6
CONTINUOUS
 10
32.4023361116
 20
65.7825350552
 11
46.7286435687
 21
57.5107046803
  0
LWPOLYLINE
  5
2E9
100
AcDbEntity
  8
0
100
AcDbPolyline
 62
7
  6
CONTINUOUS
 90
7
 70
0
 10
-1.9103434141
 20
-110.2885223828
 10
-1.7895598483
 20
-110.1982738713
 10
-1.6856436218
 20
-110.0786986811
 10
-1.6038287694
 20
-109.9357918508
 10
-1.5458438628
 20
-109.7715424276
 10
-1.5099603303
 20
-109.5839613642
 10
-1.4961781719
 20
-109.3730486608
  0
LWPOLYLINE
  5
2EA
100
AcDbEntity
  8
RACCORDO
100
AcDbPolyline
 62
253
  6
CONTINUOUS
 90
3
 70
0
 10
-2.1931861265
 20
-110.4518322204
 10
-2.1098829024
 20
-110.3949553522
 10
-2.011675332
 20
-110.2993406144
  0
LWPOLYLINE
  5
2EB
100
AcDbEntity
  8
RACCORDO
100
AcDbPolyline
 62
7
  6
CONTINUOUS
 90
10
 70
0
 10
-4.193282767
 20
-106.9877864025
 10
-4.3029281106
 20
-107.0604545521
 10
-4.4052825598
 20
-107.1482945395
 10
-4.498504247
 20
-107.2510353136
 10
-4.5808527261
 20
-107.3681408592
 10
-4.6507797027
 20
-107.4988711085
 10
-4.707079805
 20
-107.6427194133
 10
-4.7486606732
 20
-107.799342487
 10
-4.774380619
 20
-107.9680705468
 10
-4.7831839404
 20
-108.1482250218
  0
LINE
  5
2EC
100
AcDbEntity
  8
0
100
AcDbLine
 62
253
  6
CONTINUOUS
 10
1.8625790387
 20
-101.9227869762
 11
0.4483654763
 21
-102.7393361629
  0
LINE
  5
2ED
100
AcDbEntity
  8
0
100
AcDbLine
 62
7
  6
CONTINUOUS
 10
-3.9104400546
 20
-106.8244765652
 11
-4.193282767
 21
-106.9877864025
  0
LINE
  5
2EE
100
AcDbEntity
  8
0
100
AcDbLine
 62
253
  6
CONTINUOUS
 10
2.5696858199
 20
-103.1475318463
 11
1.1554722575
 21
-103.964081033
  0
LINE
  5
2EF
100
AcDbEntity
  8
0
100
AcDbLine
 62
253
  6
CONTINUOUS
 10
95.2006741553
 20
73.3710930652
 11
95.2006741553
 21
-146.014470309
  0
LINE
  5
2F0
100
AcDbEntity
  8
0
100
AcDbLine
 62
7
  6
CONTINUOUS
 10
96.0793538118
 20
74.5959168452
 11
96.0793538118
 21
-144.7896465291
  0
LINE
  5
2F1
100
AcDbEntity
  8
0
100
AcDbLine
 62
7
  6
CONTINUOUS
 10
-1.910343414
 20
-110.288522383
 11
-2.1931861265
 21
-110.4518322204
  0
LINE
  5
2F2
100
AcDbEntity
  8
RACCORDO
100
AcDbLine
 62
253
  6
CONTINUOUS
 10
-2.8514287519
 20
-109.3834628532
 11
-2.8944888263
 21
-109.3982508031
  0
LWPOLYLINE
  5
2F3
100
AcDbEntity
  8
ASSI
100
AcDbPolyline
 62
7
  6
CONTINUOUS
 90
17
 70
0
 10
27.8576002077
 20
-124.8213953003
 10
27.8255313121
 20
-124.8413076224
 10
27.7847468015
 20
-124.8711390634
 10
27.7462137616
 20
-124.9046826358
 10
27.7102184035
 20
-124.9416891887
 10
27.6767796229
 20
-124.9821845076
 10
27.6458785241
 20
-125.026142807
 10
27.6177446306
 20
-125.0732375787
 10
27.5923985472
 20
-125.1234921771
 10
27.569819669
 20
-125.1768832477
 10
27.5501757048
 20
-125.2330142188
 10
27.5334885081
 20
-125.2919054919
 10
27.5197362254
 20
-125.3535366655
 10
27.5090210041
 20
-125.4174499628
 10
27.5013768935
 20
-125.4834927918
 10
27.4967698444
 20
-125.5518177446
 10
27.4951998567
 20
-125.6224248211
  0
LWPOLYLINE
  5
2F4
100
AcDbEntity
  8
ASSI
100
AcDbPolyline
 62
7
  6
CONTINUOUS
 90
17
 70
0
 10
29.6076732399
 20
-127.8524154185
 10
29.6397421355
 20
-127.8325030965
 10
29.6805266461
 20
-127.8026716555
 10
29.719059686
 20
-127.769128083
 10
29.7550550442
 20
-127.7321215302
 10
29.7884938247
 20
-127.6916262112
 10
29.8193949235
 20
-127.6476679118
 10
29.847528817
 20
-127.6005731402
 10
29.8728749004
 20
-127.5503185418
 10
29.8954537786
 20
-127.4969274712
 10
29.9150977429
 20
-127.4407965001
 10
29.9317849395
 20
-127.381905227
 10
29.9455372222
 20
-127.3202740534
 10
29.9562524435
 20
-127.256360756
 10
29.9638965541
 20
-127.1903179271
 10
29.9685036032
 20
-127.1219929743
 10
29.9700735909
 20
-127.0513858978
  0
LINE
  5
2F5
100
AcDbEntity
  8
0
100
AcDbLine
 62
253
  6
CONTINUOUS
 10
-44.0993617384
 20
164.4153015491
 11
86.0082859999
 21
89.2927763768
  0
LINE
  5
2F6
100
AcDbEntity
  8
0
100
AcDbLine
 62
7
  6
CONTINUOUS
 10
-42.599289258
 20
164.5639250821
 11
87.5083584803
 21
89.4413999098
  0
LWPOLYLINE
  5
2F7
100
AcDbEntity
  8
0
100
AcDbPolyline
 62
253
  6
CONTINUOUS
 90
55
 70
0
 10
86.0082859999
 20
89.2927763768
 10
86.275644024
 20
89.1339169045
 10
86.5427758365
 20
88.9662112435
 10
86.8094554172
 20
88.7898012895
 10
87.0754571287
 20
88.6048363028
 10
87.3405559068
 20
88.4114727823
 10
87.6045274515
 20
88.2098743329
 10
87.8671484166
 20
88.0002115269
 10
88.1281965986
 20
87.7826617601
 10
88.3874511245
 20
87.5574091012
 10
88.6446926392
 20
87.3246441365
 10
88.8997034907
 20
87.0845638085
 10
89.1522679143
 20
86.8373712489
 10
89.4021722154
 20
86.5832756075
 10
89.6492049499
 20
86.3224918744
 10
89.8931571034
 20
86.0552406988
 10
90.1338222682
 20
85.7817482018
 10
90.3709968173
 20
85.5022457854
 10
90.6044800776
 20
85.2169699366
 10
90.8340744989
 20
84.9261620272
 10
91.0595858212
 20
84.6300681096
 10
91.2808232397
 20
84.328938709
 10
91.4975995652
 20
84.0230286108
 10
91.7097313834
 20
83.7125966456
 10
91.9170392097
 20
83.3979054698
 10
92.1193476408
 20
83.0792213435
 10
92.3164855036
 20
82.7568139054
 10
92.5082859999
 20
82.4309559442
 10
92.6945868473
 20
82.1019231684
 10
92.8752304166
 20
81.7699939726
 10
93.0500638654
 20
81.4354492019
 10
93.2189392671
 20
81.0985719147
 10
93.3817137362
 20
80.7596471428
 10
93.5382495493
 20
80.4189616504
 10
93.6884142616
 20
80.0768036913
 10
93.8320808185
 20
79.7334627655
 10
93.969127664
 20
79.3892293736
 10
94.0994388426
 20
79.0443947713
 10
94.2229040981
 20
78.6992507234
 10
94.3394189666
 20
78.3540892559
 10
94.4488848649
 20
78.0092024101
 10
94.5512091739
 20
77.6648819945
 10
94.646305317
 20
77.3214193388
 10
94.7340928333
 20
76.9791050464
 10
94.814497446
 20
76.6382287496
 10
94.8874511245
 20
76.2990788637
 10
94.9528921429
 20
75.9619423433
 10
95.0107651316
 20
75.6271044397
 10
95.0610211241
 20
75.2948484591
 10
95.1036175989
 20
74.9654555232
 10
95.1385185151
 20
74.6392043313
 10
95.1656943432
 20
74.3163709246
 10
95.1851220895
 20
73.9972284523
 10
95.1967853163
 20
73.6820469408
 10
95.2006741553
 20
73.3710930652
  0
LWPOLYLINE
  5
2F8
100
AcDbEntity
  8
0
100
AcDbPolyline
 62
7
  6
CONTINUOUS
 90
49
 70
0
 10
87.5083584803
 20
89.4413999098
 10
87.8093133295
 20
89.261999149
 10
88.1078009054
 20
89.0728400677
 10
88.4036764536
 20
88.8741286363
 10
88.6969959578
 20
88.6659206086
 10
88.9874236107
 20
88.4485374116
 10
89.2742282727
 20
88.2226449231
 10
89.5571586748
 20
87.9885915665
 10
89.8361998149
 20
87.7465307368
 10
90.1109695882
 20
87.4969335867
 10
90.3813161008
 20
87.2400853706
 10
90.6471269318
 20
86.9762317065
 10
90.9080713049
 20
86.7058432215
 10
91.1639268241
 20
86.4293044117
 10
91.4146668175
 20
86.1467907921
 10
91.6602408596
 20
85.8584867482
 10
91.9004954205
 20
85.5646894621
 10
92.1353251005
 20
85.2656380596
 10
92.3647273774
 20
84.9614275484
 10
92.5886009509
 20
84.6522641427
 10
92.8067714284
 20
84.3384537121
 10
93.0191110431
 20
84.0202405231
 10
93.2254615342
 20
83.6979166278
 10
93.4257117483
 20
83.3717033926
 10
93.6197956894
 20
83.0417390671
 10
93.8075720564
 20
82.7082792998
 10
93.9889050209
 20
82.371572011
 10
94.163724187
 20
82.0317361742
 10
94.3319120669
 20
81.6889650164
 10
94.4932971299
 20
81.3435610421
 10
94.6477255565
 20
80.9957993566
 10
94.7950263612
 20
80.646004585
 10
94.9350949452
 20
80.2943491273
 10
95.0678708978
 20
79.9408663201
 10
95.1932197491
 20
79.5857503349
 10
95.3109704553
 20
79.2292952865
 10
95.4209948926
 20
78.8716643827
 10
95.5231830696
 20
78.5129251221
 10
95.6173198075
 20
78.153496229
 10
95.7031486859
 20
77.7940428204
 10
95.7805032584
 20
77.4349743528
 10
95.8492934145
 20
77.0763564849
 10
95.9094028453
 20
76.7183058024
 10
95.9606989908
 20
76.36095531
 10
96.0030146137
 20
76.0046395195
 10
96.0361851703
 20
75.6497389623
 10
96.0600636748
 20
75.2965195653
 10
96.0745049145
 20
74.9451648517
 10
96.0793538118
 20
74.5959168452
  0
LINE
  5
2F9
100
AcDbEntity
  8
0
100
AcDbLine
 62
253
  6
CONTINUOUS
 10
56.5926439026
 20
-135.6461894752
 11
56.3098011901
 21
-135.8094993126
  0
LWPOLYLINE
  5
2FA
100
AcDbEntity
  8
0
100
AcDbPolyline
 62
7
  6
CONTINUOUS
 90
18
 70
0
 10
95.2006741553
 20
-146.014470309
 10
95.2995408521
 20
-145.9545590883
 10
95.3929753119
 20
-145.8922999089
 10
95.4809775346
 20
-145.8276927709
 10
95.5637219982
 20
-145.7605809174
 10
95.6410342249
 20
-145.6911211053
 10
95.7123907805
 20
-145.6197836047
 10
95.7777512516
 20
-145.546555674
 10
95.8371560516
 20
-145.4714500548
 10
95.8902029868
 20
-145.3949752415
 10
95.9368489146
 20
-145.3171219432
 10
95.9771369775
 20
-145.2378994507
 10
96.0107944097
 20
-145.1578441314
 10
96.0377762176
 20
-145.076950334
 10
96.0581273947
 20
-144.9952237098
 10
96.0717101556
 20
-144.9132175799
 10
96.0784785718
 20
-144.8309300479
 10
96.0793246239
 20
-144.7896465291
  0
LINE
  5
2FB
100
AcDbEntity
  8
0
100
AcDbLine
 62
7
  6
CONTINUOUS
 10
95.2006741553
 20
-146.014470309
 11
61.5423913709
 21
-165.4483409514
  0
ENDSEC
  0
SECTION
  2
OBJECTS
  0
DICTIONARY
  5
C
100
AcDbDictionary
280
0
281
1
  3
ACAD_GROUP
350
D
  3
ACAD_MLINESTYLE
350
17
  3
ACAD_LAYOUT
350
1A
  3
ACAD_PLOTSETTINGS
350
19
  3
ACAD_PLOTSTYLENAME
350
E
  0
DICTIONARY
  5
D
102
{ACAD_REACTORS
330
C
102
}
100
AcDbDictionary
280
0
281
1
  0
ACDBDICTIONARYWDFLT
  5
E
102
{ACAD_REACTORS
330
C
102
}
100
AcDbDictionary
281
1
  3
Normal
350
F
100
AcDbDictionaryWithDefault
340
F
  0
DICTIONARY
  5
17
102
{ACAD_REACTORS
330
C
102
}
100
AcDbDictionary
280
0
281
1
  3
Standard
350
18
  0
DICTIONARY
  5
19
102
{ACAD_REACTORS
330
C
102
}
100
AcDbDictionary
281
1
  0
DICTIONARY
  5
1A
102
{ACAD_REACTORS
330
C
102
}
100
AcDbDictionary
281
1
  3
Model
350
2FC
  3
Layout1
350
2FD
  0
ACDBPLACEHOLDER
  5
F
102
{ACAD_REACTORS
330
E
102
}
  0
MLINESTYLE
  5
18
102
{ACAD_REACTORS
330
17
102
}
100
AcDbMlineStyle
  2
STANDARD
 70
0
  3

 62
256
 51
90.0
 52
90.0
 71
2
 49
0.5
 62
256
  6
BYLAYER
 49
-0.5
 62
256
  6
BYLAYER
  0
LAYOUT
  5
2FC
102
{ACAD_REACTORS
330
1A
102
}
100
AcDbPlotSettings
  1

  2
none_device
  4
ISO_A4_(297.00_x_210.00_MM)
  6

 40
0.0
 41
0.0
 42
0.0
 43
0.0
 44
297.0
 45
210.0
 46
0.0
 47
0.0
 48
0.0
 49
0.0
140
0.0
141
0.0
142
1.0
143
1.0
 70
1024
 72
1
 73
0
 74
0
  7

 75
0
147
1.0
148
0.0
149
0.0
100
AcDbLayout
  1
Model
 70
0
 71
0
 10
0.0
 20
0.0
 11
297.0
 21
210.0
 12
0.0
 22
0.0
 32
0.0
 14
0.0
 24
0.0
 34
0.0
 15
0.0
 25
0.0
 35
0.0
146
0.0
 13
0.0
 23
0.0
 33
0.0
 16
1.0
 26
0.0
 36
0.0
 17
0.0
 27
1.0
 37
0.0
 76
0
330
20F
345
0
346
0
  0
LAYOUT
  5
2FD
102
{ACAD_REACTORS
330
1A
102
}
100
AcDbPlotSettings
  1

  2
none_device
  4
ISO_A4_(297.00_x_210.00_MM)
  6

 40
0.0
 41
0.0
 42
0.0
 43
0.0
 44
297.0
 45
210.0
 46
0.0
 47
0.0
 48
0.0
 49
0.0
140
0.0
141
0.0
142
1.0
143
1.0
 70
0
 72
1
 73
0
 74
0
  7

 75
0
147
1.0
148
0.0
149
0.0
100
AcDbLayout
  1
Layout1
 70
0
 71
1
 10
0.0
 20
0.0
 11
297.0
 21
210.0
 12
0.0
 22
0.0
 32
0.0
 14
0.0
 24
0.0
 34
0.0
 15
0.0
 25
0.0
 35
0.0
146
0.0
 13
0.0
 23
0.0
 33
0.0
 16
1.0
 26
0.0
 36
0.0
 17
0.0
 27
1.0
 37
0.0
 76
0
330
210
345
0
346
0
  0
ENDSEC
  0
EOF
