  0
SECTION
  2
HEADER
  9
$ACADVER
  1
AC1021
  9
$DWGCODEPAGE
  3
ANSI_1252
  9
$EXTMAX
 10
297.0
 20
210.0
 30
0.0
  9
$EXTMIN
 10
0.0
 20
0.0
 30
0.0
  9
$LIMMIN
 10
0.0
 20
0.0
  9
$LIMMAX
 10
297.0
 20
210.0
  9
$VIEWCTR
 10
148.5
 20
105.0
  9
$VIEWSIZE
 40
210.0
  9
$CLAYER
  8
0
  9
$LTSCALE
 40
16.335
  9
$CELTYPE
  6
BYLAYER
  9
$DIMSCALE
 40
1.0
  9
$DIMASZ
 40
3.0
  9
$DIMEXO
 40
0.5
  9
$DIMDLI
 40
11.286
  9
$DIMEXE
 40
1.5
  9
$DIMCEN
 40
2.673
  9
$DIMLFAC
 40
1.0
  9
$DIMBLK
  1
_FILLED
  9
$DIMALT
 70
0
  9
$DIMALTF
 40
0.0393700787
  9
$DIMTXT
 40
3.0
  9
$DIMTOL
 70
1
  9
$DIMLIM
 70
0
  9
$DIMTFAC
 40
1.0
  9
$DIMTP
 40
0.01
  9
$DIMTM
 40
0.01
  9
$DIMGAP
 40
0.625
  9
$DIMDSEP
 70
44
  9
$AUNITS
 70
0
  9
$PDMODE
 70
3
  9
$PDSIZE
 40
3.0
  9
$HANDSEED
  5
423
  9
$TILEMODE
 70
1
  9
$MEASUREMENT
 70
1
  9
$INSUNITS
 70
4
  0
ENDSEC
  0
SECTION
  2
CLASSES
  0
CLASS
  1
ACDBDICTIONARYWDFLT
  2
AcDbDictionaryWithDefault
  3
AutoCAD 2000
 90
0
 91
1
280
0
281
0
  0
CLASS
  1
ACDBPLACEHOLDER
  2
AcDbPlaceHolder
  3
AutoCAD 2000
 90
0
 91
1
280
0
281
0
  0
CLASS
  1
LAYOUT
  2
AcDbLayout
  3
AutoCAD 2000
 90
0
 91
0
280
0
281
0
  0
ENDSEC
  0
SECTION
  2
TABLES
  0
TABLE
  2
VPORT
  5
8
100
AcDbSymbolTable
 70
2
  0
VPORT
  5
1F4
100
AcDbSymbolTableRecord
100
AcDbViewportTableRecord
  2
*ACTIVE
 70
0
 10
0.0
 20
0.0
 11
1.0
 21
1.0
 12
148.5
 22
105.0
 13
0.0
 23
0.0
 14
1.0
 24
1.0
 15
0.0
 25
0.0
 16
0.0
 26
0.0
 36
1.0
 17
0.0
 27
0.0
 37
0.0
 40
210.0
 41
1.4142857143
 42
50.0
 43
0.0
 44
0.0
 50
0.0
 51
0.0
 71
0
 72
100
 73
1
 74
1
 75
0
 76
0
 77
0
 78
0
  0
ENDTAB
  0
TABLE
  2
LTYPE
  5
5
100
AcDbSymbolTable
 70
6
  0
LTYPE
  5
14
100
AcDbSymbolTableRecord
100
AcDbLinetypeTableRecord
  2
BYBLOCK
 70
0
  3

 72
65
 73
0
 40
0.0
  0
LTYPE
  5
15
100
AcDbSymbolTableRecord
100
AcDbLinetypeTableRecord
  2
BYLAYER
 70
0
  3

 72
65
 73
0
 40
0.0
  0
LTYPE
  5
16
100
AcDbSymbolTableRecord
100
AcDbLinetypeTableRecord
  2
CONTINUOUS
 70
64
  3
Solid line
 72
65
 73
0
 40
0.0
  0
LTYPE
  5
1F5
100
AcDbSymbolTableRecord
100
AcDbLinetypeTableRecord
  2
CENTER
 70
64
  3
____ _ ____ _ ____ _ ____ _ ____ _ ____ _ ____
 72
65
 73
4
 40
0.6
 49
0.375
 74
0
 49
-0.075
 74
0
 49
0.075
 74
0
 49
-0.075
 74
0
  0
LTYPE
  5
1F6
100
AcDbSymbolTableRecord
100
AcDbLinetypeTableRecord
  2
HIDDEN
 70
64
  3
- - - - - - - - - - - - - - - - - - - -
 72
65
 73
2
 40
0.2
 49
0.1
 74
0
 49
-0.1
 74
0
  0
LTYPE
  5
1F7
100
AcDbSymbolTableRecord
100
AcDbLinetypeTableRecord
  2
PHANTOM
 70
64
  3
_____ _ _ _____ _ _ _____ _ _ _____
 72
65
 73
6
 40
0.8
 49
0.45
 74
0
 49
-0.05
 74
0
 49
0.1
 74
0
 49
-0.05
 74
0
 49
0.1
 74
0
 49
-0.05
 74
0
  0
LTYPE
  5
1F8
100
AcDbSymbolTableRecord
100
AcDbLinetypeTableRecord
  2
DOT
 70
64
  3
. . . . . . . . . . . . . . . . . . . .
 72
65
 73
2
 40
0.2
 49
0.1
 74
0
 49
-0.1
 74
0
  0
LTYPE
  5
1F9
100
AcDbSymbolTableRecord
100
AcDbLinetypeTableRecord
  2
DASHED
 70
64
  3
- - - - - - - - - - - - - - - - - - - -
 72
65
 73
2
 40
0.2
 49
0.1
 74
0
 49
-0.1
 74
0
  0
ENDTAB
  0
TABLE
  2
LAYER
  5
2
100
AcDbSymbolTable
 70
36
  0
LAYER
  5
10
100
AcDbSymbolTableRecord
100
AcDbLayerTableRecord
  2
0
 70
0
 62
7
  6
CONTINUOUS
370
-3
390
F
  0
LAYER
  5
1FA
100
AcDbSymbolTableRecord
100
AcDbLayerTableRecord
  2
DEFAULT_1
 70
0
 62
7
  6
CENTER
370
-3
390
F
  0
LAYER
  5
1FB
100
AcDbSymbolTableRecord
100
AcDbLayerTableRecord
  2
DEFAULT_2
 70
0
 62
7
  6
HIDDEN
370
-3
390
F
  0
LAYER
  5
1FC
100
AcDbSymbolTableRecord
100
AcDbLayerTableRecord
  2
DEFAULT_3
 70
0
 62
7
  6
PHANTOM
370
-3
390
F
  0
LAYER
  5
1FD
100
AcDbSymbolTableRecord
100
AcDbLayerTableRecord
  2
ASSI
 70
0
 62
7
  6
CONTINUOUS
370
-3
390
F
  0
LAYER
  5
1FE
100
AcDbSymbolTableRecord
100
AcDbLayerTableRecord
  2
COORDINATE
 70
0
 62
7
  6
CONTINUOUS
370
-3
390
F
  0
LAYER
  5
1FF
100
AcDbSymbolTableRecord
100
AcDbLayerTableRecord
  2
COPY_PUBLISH
 70
0
 62
7
  6
CONTINUOUS
370
-3
390
F
  0
LAYER
  5
200
100
AcDbSymbolTableRecord
100
AcDbLayerTableRecord
  2
COSMETICI
 70
0
 62
7
  6
CONTINUOUS
370
-3
390
F
  0
LAYER
  5
201
100
AcDbSymbolTableRecord
100
AcDbLayerTableRecord
  2
CURVE
 70
0
 62
7
  6
CONTINUOUS
370
-3
390
F
  0
LAYER
  5
202
100
AcDbSymbolTableRecord
100
AcDbLayerTableRecord
  2
DRAFT
 70
0
 62
7
  6
CONTINUOUS
370
-3
390
F
  0
LAYER
  5
203
100
AcDbSymbolTableRecord
100
AcDbLayerTableRecord
  2
IMPORT_IGES
 70
0
 62
7
  6
CONTINUOUS
370
-3
390
F
  0
LAYER
  5
204
100
AcDbSymbolTableRecord
100
AcDbLayerTableRecord
  2
NOTE
 70
0
 62
7
  6
CONTINUOUS
370
-3
390
F
  0
LAYER
  5
205
100
AcDbSymbolTableRecord
100
AcDbLayerTableRecord
  2
PIANI
 70
0
 62
7
  6
CONTINUOUS
370
-3
390
F
  0
LAYER
  5
206
100
AcDbSymbolTableRecord
100
AcDbLayerTableRecord
  2
PUNTI
 70
0
 62
7
  6
CONTINUOUS
370
-3
390
F
  0
LAYER
  5
207
100
AcDbSymbolTableRecord
100
AcDbLayerTableRecord
  2
RACCORDO
 70
0
 62
7
  6
CONTINUOUS
370
-3
390
F
  0
LAYER
  5
208
100
AcDbSymbolTableRecord
100
AcDbLayerTableRecord
  2
SIMBOLI
 70
0
 62
7
  6
CONTINUOUS
370
-3
390
F
  0
LAYER
  5
209
100
AcDbSymbolTableRecord
100
AcDbLayerTableRecord
  2
SMUSSO
 70
0
 62
7
  6
CONTINUOUS
370
-3
390
F
  0
LAYER
  5
20A
100
AcDbSymbolTableRecord
100
AcDbLayerTableRecord
  2
SNAPLINE
 70
0
 62
7
  6
CONTINUOUS
370
-3
390
F
  0
LAYER
  5
20B
100
AcDbSymbolTableRecord
100
AcDbLayerTableRecord
  2
SUPERFICI
 70
0
 62
7
  6
CONTINUOUS
370
-3
390
F
  0
LAYER
  5
20C
100
AcDbSymbolTableRecord
100
AcDbLayerTableRecord
  2
TRASH
 70
0
 62
7
  6
CONTINUOUS
370
-3
390
F
  0
ENDTAB
  0
TABLE
  2
STYLE
  5
3
100
AcDbSymbolTable
 70
1
  0
STYLE
  5
11
100
AcDbSymbolTableRecord
100
AcDbTextStyleTableRecord
  2
STANDARD
 70
0
 40
0.0
 41
0.8
 50
0.0
 71
0
 42
0.2
  3
txt
  4

  0
STYLE
  5
20D
100
AcDbSymbolTableRecord
100
AcDbTextStyleTableRecord
  2
TEXTSTYLE_1
 70
0
 40
0.0
 41
0.8
 50
0.0
 71
0
 42
0.2
  3
gdt
  4

  0
ENDTAB
  0
TABLE
  2
VIEW
  5
6
100
AcDbSymbolTable
 70
0
  0
ENDTAB
  0
TABLE
  2
UCS
  5
7
100
AcDbSymbolTable
 70
0
  0
ENDTAB
  0
TABLE
  2
APPID
  5
9
100
AcDbSymbolTable
 70
1
  0
APPID
  5
20E
100
AcDbSymbolTableRecord
100
AcDbRegAppTableRecord
  2
ACAD
 70
0
  0
ENDTAB
  0
TABLE
  2
BLOCK_RECORD
  5
1
100
AcDbSymbolTable
 70
0
  0
BLOCK_RECORD
  5
20F
100
AcDbSymbolTableRecord
100
AcDbBlockTableRecord
  2
*Model_Space
  0
BLOCK_RECORD
  5
210
100
AcDbSymbolTableRecord
100
AcDbBlockTableRecord
  2
*Paper_Space
  0
ENDTAB
  0
TABLE
  2
DIMSTYLE
  5
A
100
AcDbSymbolTable
 70
1
100
AcDbDimStyleTable
 71
0
  0
DIMSTYLE
105
211
100
AcDbSymbolTableRecord
100
AcDbDimStyleTableRecord
  2
STANDARD
 70
0
  3

  4

 40
1.0
 41
3.0
 42
0.5
 43
0.38
 44
1.5
 45
0.0
 46
0.0
 47
0.01
 48
0.01
140
3.0
141
0.09
142
0.0
143
25.4
144
1.0
145
0.0
146
1.0
147
0.625
 71
1.0
 72
0.0
 73
0
 74
0
 75
0
 76
0
 77
1
 78
8
170
0
171
2
172
0
173
0
174
0
175
0
176
0
177
0
178
0
270
2
271
2
272
2
273
2
274
2
275
0
280
0
281
0
282
0
283
1
284
8
285
0
286
0
287
3
288
0
340
11
278
44
  0
ENDTAB
  0
ENDSEC
  0
SECTION
  2
BLOCKS
  0
BLOCK
  5
20
100
AcDbEntity
  8
0
100
AcDbBlockBegin
  2
*Model_Space
 70
0
 10
0.0
 20
0.0
 30
0.0
  3
*Model_Space
  1

  0
ENDBLK
  5
21
100
AcDbEntity
  8
0
100
AcDbBlockEnd
  0
BLOCK
  5
1C
100
AcDbEntity
  8
0
100
AcDbBlockBegin
  2
*Paper_Space
 70
0
 10
0.0
 20
0.0
 30
0.0
  3
*Paper_Space
  1

  0
ENDBLK
  5
1D
100
AcDbEntity
  8
0
100
AcDbBlockEnd
  0
ENDSEC
  0
SECTION
  2
ENTITIES
  0
LINE
  5
212
100
AcDbEntity
  8
0
100
AcDbLine
 62
7
  6
CONTINUOUS
 10
-116.4261247018
 20
168.0096956082
 11
-99.4070740619
 21
177.8362821488
  0
LINE
  5
213
100
AcDbEntity
  8
ASSI
100
AcDbLine
 62
253
  6
CONTINUOUS
 10
-111.1854702738
 20
166.6383486015
 11
-92.9067599801
 21
177.192246839
  0
LINE
  5
214
100
AcDbEntity
  8
ASSI
100
AcDbLine
 62
253
  6
CONTINUOUS
 10
-116.5948371498
 20
161.8829754174
 11
-111.1858461446
 21
165.0060590333
  0
LWPOLYLINE
  5
215
100
AcDbEntity
  8
ASSI
100
AcDbPolyline
 62
7
  6
CONTINUOUS
 90
30
 70
0
 10
-116.4261562583
 20
168.0096773879
 10
-116.3908858944
 20
168.0295361057
 10
-116.2648333374
 20
168.0926939225
 10
-116.1335643749
 20
168.146655103
 10
-115.9972259524
 20
168.1913463952
 10
-115.8557278342
 20
168.2269393136
 10
-115.7092967368
 20
168.2534266885
 10
-115.5580901771
 20
168.2708111746
 10
-115.4019537322
 20
168.2793645125
 10
-115.24109397
 20
168.279136114
 10
-115.0757127814
 20
168.2701577775
 10
-114.9056619705
 20
168.2527146549
 10
-114.7311074466
 20
168.2268843915
 10
-114.5522962459
 20
168.1927255448
 10
-114.3692090683
 20
168.1505269957
 10
-114.1821075195
 20
168.1004252757
 10
-113.9911498886
 20
168.0424989142
 10
-113.7961592633
 20
167.9769550326
 10
-113.5973835234
 20
167.903926351
 10
-113.3949747998
 20
167.8234932106
 10
-113.1885959715
 20
167.7357315173
 10
-112.9782347037
 20
167.6406420679
 10
-112.7642771504
 20
167.5383673699
 10
-112.5469786212
 20
167.4291869013
 10
-112.3264914542
 20
167.3132337369
 10
-112.1030447768
 20
167.1906167546
 10
-111.8770136649
 20
167.0616381433
 10
-111.648648843
 20
166.9265182006
 10
-111.418073643
 20
166.7853658325
 10
-111.1854702738
 20
166.6383486015
  0
LWPOLYLINE
  5
216
100
AcDbEntity
  8
ASSI
100
AcDbPolyline
 62
7
  6
CONTINUOUS
 90
30
 70
0
 10
-115.4261080789
 20
166.2776543975
 10
-115.3990810978
 20
166.2928313277
 10
-115.3021881025
 20
166.3406332944
 10
-115.2008628001
 20
166.3806641305
 10
-115.0952319456
 20
166.4128604585
 10
-114.9851213778
 20
166.437423879
 10
-114.8707164345
 20
166.4543520778
 10
-114.7521568988
 20
166.4636435485
 10
-114.6292337958
 20
166.4655734403
 10
-114.5021168678
 20
166.4601864768
 10
-114.3709819916
 20
166.4475066506
 10
-114.2356405994
 20
166.4278117184
 10
-114.0962297915
 20
166.4011692766
 10
-113.952961883
 20
166.3676269774
 10
-113.8057672255
 20
166.3274600433
 10
-113.6548604937
 20
166.2807878602
 10
-113.5003823084
 20
166.227673017
 10
-113.3421497085
 20
166.1683099776
 10
-113.1803683246
 20
166.1028134189
 10
-113.0151709967
 20
166.0312489466
 10
-112.8462515443
 20
165.9536928702
 10
-112.6736013298
 20
165.870144825
 10
-112.4975452994
 20
165.7807264331
 10
-112.3182731614
 20
165.6856893745
 10
-112.1359090473
 20
165.585149005
 10
-111.9506516042
 20
165.479194698
 10
-111.7628061906
 20
165.368089088
 10
-111.5725809539
 20
165.2520208929
 10
-111.380084256
 20
165.1310799516
 10
-111.1854702738
 20
165.0054080479
  0
LWPOLYLINE
  5
217
100
AcDbEntity
  8
0
100
AcDbPolyline
 62
7
  6
CONTINUOUS
 90
31
 70
0
 10
-99.4070740619
 20
177.8362821488
 10
-99.1965815936
 20
177.9525469246
 10
-98.981094842
 20
178.0610975946
 10
-98.7608114447
 20
178.161748173
 10
-98.5360962406
 20
178.2542621346
 10
-98.3070094662
 20
178.3385504686
 10
-98.0732746267
 20
178.414614395
 10
-97.835074786
 20
178.4822673278
 10
-97.5926308947
 20
178.5413248346
 10
-97.3456773652
 20
178.5917080124
 10
-97.094368062
 20
178.6332166502
 10
-96.8389352634
 20
178.6656478964
 10
-96.5791867065
 20
178.688845981
 10
-96.3152309613
 20
178.7025985382
 10
-96.0473250409
 20
178.7066922613
 10
-95.7754583722
 20
178.7009232326
 10
-95.4997321968
 20
178.685076587
 10
-95.2203898586
 20
178.6589499768
 10
-94.9375966579
 20
178.6223462772
 10
-94.6512577755
 20
178.5750257824
 10
-94.3617902169
 20
178.516828205
 10
-94.070097803
 20
178.4477573209
 10
-93.7762553487
 20
178.3676852878
 10
-93.4804927357
 20
178.2765249544
 10
-93.1839241493
 20
178.1745209473
 10
-92.8866616911
 20
178.0616573846
 10
-92.5888753449
 20
177.9379377565
 10
-92.2917503638
 20
177.8038441396
 10
-91.9957663336
 20
177.6596498682
 10
-91.7007031297
 20
177.5052962276
 10
-91.4066874997
 20
177.340870372
  0
LWPOLYLINE
  5
218
100
AcDbEntity
  8
0
100
AcDbPolyline
 62
253
  6
CONTINUOUS
 90
19
 70
0
 10
-92.9067599801
 20
177.192246839
 10
-92.8142292863
 20
177.2433416056
 10
-92.72187473
 20
177.2896765176
 10
-92.6298721132
 20
177.3311633739
 10
-92.5383965682
 20
177.3677232021
 10
-92.4476222239
 20
177.3992864082
 10
-92.3577218744
 20
177.42579291
 10
-92.2688666502
 20
177.4471922509
 10
-92.1812256922
 20
177.463443696
 10
-92.0949658299
 20
177.4745163097
 10
-92.0102512639
 20
177.4803890147
 10
-91.9272432532
 20
177.4810506319
 10
-91.8460998083
 20
177.476499902
 10
-91.7669753903
 20
177.4667454875
 10
-91.6900206171
 20
177.4518059565
 10
-91.6153819764
 20
177.4317097472
 10
-91.5432015471
 20
177.406495114
 10
-91.4736167288
 20
177.3762100542
 10
-91.4067599801
 20
177.3409122173
  0
LWPOLYLINE
  5
219
100
AcDbEntity
  8
0
100
AcDbPolyline
 62
253
  6
CONTINUOUS
 90
28
 70
0
 10
-99.4070740619
 20
177.8362821488
 10
-99.2149594838
 20
177.9408350339
 10
-99.0178216209
 20
178.0355926095
 10
-98.8155131898
 20
178.1206560305
 10
-98.6082053636
 20
178.195953325
 10
-98.3960735454
 20
178.2614207838
 10
-98.1792972198
 20
178.3170030149
 10
-97.9580598014
 20
178.3626529902
 10
-97.732548479
 20
178.3983320853
 10
-97.5029540578
 20
178.4240101121
 10
-97.2694707975
 20
178.4396653445
 10
-97.0322962483
 20
178.4452845364
 10
-96.7916310836
 20
178.4408629336
 10
-96.54767893
 20
178.4264042772
 10
-96.3006461956
 20
178.4019208006
 10
-96.0507418945
 20
178.3674332193
 10
-95.7981774709
 20
178.3229707132
 10
-95.5431666194
 20
178.268570902
 10
-95.2859251047
 20
178.2042798135
 10
-95.0266705788
 20
178.1301518442
 10
-94.7656223968
 20
178.046249714
 10
-94.5030014317
 20
177.9526444122
 10
-94.2390298869
 20
177.8494151384
 10
-93.9739311088
 20
177.7366492349
 10
-93.7079293974
 20
177.6144421128
 10
-93.4412498167
 20
177.4828971716
 10
-93.1741180042
 20
177.3421257114
 10
-92.9067599801
 20
177.192246839
  0
LINE
  5
21A
100
AcDbEntity
  8
RACCORDO
100
AcDbLine
 62
253
  6
CONTINUOUS
 10
-87.1933371881
 20
174.9389577422
 11
-87.2200289992
 21
174.923546225
  0
LWPOLYLINE
  5
21B
100
AcDbEntity
  8
0
100
AcDbPolyline
 62
7
  6
CONTINUOUS
 90
13
 70
0
 10
-97.134733021
 20
155.3671716098
 10
-97.1523850984
 20
155.3552923922
 10
-97.2193284422
 20
155.2875544124
 10
-97.2648658215
 20
155.1994259599
 10
-97.2862717861
 20
155.0883108791
 10
-97.2862717861
 20
154.9568053256
 10
-97.2648658215
 20
154.8209711735
 10
-97.2193284422
 20
154.6802572969
 10
-97.1523850984
 20
154.5352148216
 10
-97.0722121409
 20
154.403558999
 10
-96.9815350201
 20
154.2911949132
 10
-96.8776282856
 20
154.1922174801
 10
-96.7604919376
 20
154.1066266998
  0
LWPOLYLINE
  5
21C
100
AcDbEntity
  8
0
100
AcDbPolyline
 62
7
  6
CONTINUOUS
 90
13
 70
0
 10
-96.3862508541
 20
154.070787205
 10
-96.3685987768
 20
154.0826664226
 10
-96.3016554329
 20
154.1504044025
 10
-96.2561180536
 20
154.2385328549
 10
-96.2347120891
 20
154.3496479357
 10
-96.2347120891
 20
154.4811534892
 10
-96.2561180536
 20
154.6169876413
 10
-96.3016554329
 20
154.7577015179
 10
-96.3685987768
 20
154.9027439932
 10
-96.4487717342
 20
155.0343998158
 10
-96.539448855
 20
155.1467639016
 10
-96.6433555895
 20
155.2457413347
 10
-96.7604919376
 20
155.331332115
  0
LWPOLYLINE
  5
21D
100
AcDbEntity
  8
ASSI
100
AcDbPolyline
 62
7
  6
CONTINUOUS
 90
17
 70
0
 10
-95.5551336821
 20
153.8560775925
 10
-95.5303948198
 20
153.8714385266
 10
-95.4989324831
 20
153.8944513526
 10
-95.4692069951
 20
153.9203278228
 10
-95.4414391474
 20
153.9488757349
 10
-95.4156435167
 20
153.980114981
 10
-95.3918055262
 20
154.0140256691
 10
-95.3701022369
 20
154.0503559215
 10
-95.350549544
 20
154.0891237546
 10
-95.3331315523
 20
154.1303111519
 10
-95.317977637
 20
154.1736121868
 10
-95.3051046567
 20
154.2190425975
 10
-95.2944957529
 20
154.2665866456
 10
-95.2862297251
 20
154.3158911893
 10
-95.2803328398
 20
154.3668385145
 10
-95.2767788304
 20
154.4195463352
 10
-95.2755676971
 20
154.4740146514
  0
LINE
  5
21E
100
AcDbEntity
  8
0
100
AcDbLine
 62
7
  6
CONTINUOUS
 10
-97.3605209297
 20
155.7581931528
 11
-96.9949423317
 21
155.9692736535
  0
LINE
  5
21F
100
AcDbEntity
  8
0
100
AcDbLine
 62
7
  6
CONTINUOUS
 10
-96.1604629454
 20
153.679765662
 11
-95.3212258716
 21
154.1643306304
  0
LINE
  5
220
100
AcDbEntity
  8
0
100
AcDbLine
 62
253
  6
CONTINUOUS
 10
-91.6513767667
 20
152.6063529725
 11
-92.1996531989
 21
152.289785032
  0
LWPOLYLINE
  5
221
100
AcDbEntity
  8
0
100
AcDbPolyline
 62
7
  6
CONTINUOUS
 90
4
 70
0
 10
-91.9925705779
 20
152.7475218932
 10
-91.9657130797
 20
152.76143358
 10
-91.9375117795
 20
152.7729619384
 10
-91.9231590189
 20
152.7773964725
  0
LWPOLYLINE
  5
222
100
AcDbEntity
  8
0
100
AcDbPolyline
 62
7
  6
CONTINUOUS
 90
6
 70
0
 10
-97.3594878089
 20
155.7564038391
 10
-97.3039971083
 20
155.7834564687
 10
-97.1847560063
 20
155.8124449648
 10
-97.0559658961
 20
155.8070993578
 10
-96.9145445399
 20
155.7691989494
 10
-96.7604919376
 20
155.6987437396
  0
LWPOLYLINE
  5
223
100
AcDbEntity
  8
0
100
AcDbPolyline
 62
7
  6
CONTINUOUS
 90
6
 70
0
 10
-96.1614960662
 20
153.6815549757
 10
-96.2169867668
 20
153.6545023461
 10
-96.3362278689
 20
153.62551385
 10
-96.465017979
 20
153.630859457
 10
-96.6064393353
 20
153.6687598654
 10
-96.7604919376
 20
153.7392150753
  0
LWPOLYLINE
  5
224
100
AcDbEntity
  8
ASSI
100
AcDbPolyline
 62
7
  6
CONTINUOUS
 90
5
 70
0
 10
-97.0774713
 20
156.0213579427
 10
-97.0902214665
 20
156.0000147833
 10
-97.1097741594
 20
155.9612469502
 10
-97.1271921511
 20
155.9200595529
 10
-97.1390978318
 20
155.8860400744
  0
LWPOLYLINE
  5
225
100
AcDbEntity
  8
0
100
AcDbPolyline
 62
7
  6
CONTINUOUS
 90
48
 70
0
 10
-90.8788821282
 20
136.4488753275
 10
-90.8267973661
 20
136.4815825761
 10
-90.7757578583
 20
136.5191874695
 10
-90.7273901033
 20
136.5607058583
 10
-90.681709376
 20
136.6061601029
 10
-90.6387004014
 20
136.6555278429
 10
-90.5986085194
 20
136.7085272247
 10
-90.5614504046
 20
136.7651789974
 10
-90.5272093824
 20
136.8254624121
 10
-90.4960807686
 20
136.8890333677
 10
-90.4680823522
 20
136.9559106472
 10
-90.4431963441
 20
137.0260754678
 10
-90.4215646934
 20
137.0991273801
 10
-90.4032059988
 20
137.1750828795
 10
-90.3881016616
 20
137.2539254706
 10
-90.3763378346
 20
137.3352052184
 10
-90.367933608
 20
137.4189360484
 10
-90.3628698916
 20
137.5051040351
 10
-90.3611755678
 20
137.5932174669
 10
-90.3628698916
 20
137.6832874613
 10
-90.367933608
 20
137.7753029008
 10
-90.3763378346
 20
137.8687387211
 10
-90.3881016616
 20
137.9636030414
 10
-90.4032059988
 20
138.0598877426
 10
-90.4215646934
 20
138.1570434023
 10
-90.4431963441
 20
138.2550750026
 10
-90.4680823522
 20
138.3539775615
 10
-90.4960807686
 20
138.4531867106
 10
-90.5272093824
 20
138.5527042091
 10
-90.5614504046
 20
138.6525282979
 10
-90.5986085194
 20
138.7520893302
 10
-90.6387004014
 20
138.8513858124
 10
-90.681709376
 20
138.9504192381
 10
-90.7273901033
 20
139.0486244416
 10
-90.7757578583
 20
139.1459967015
 10
-90.8267973661
 20
139.2425407391
 10
-90.880217462
 20
139.3377055527
 10
-90.9360317596
 20
139.4314832737
 10
-90.9942266454
 20
139.5238817707
 10
-91.0544701141
 20
139.614373648
 10
-91.1167738846
 20
139.7029480238
 10
-91.181126238
 20
139.78961578
 10
-91.2471600121
 20
139.8738821663
 10
-91.3148848304
 20
139.9557334735
 10
-91.3842910694
 20
140.0351834107
 10
-91.4549826967
 20
140.111778355
 10
-91.5268277014
 20
140.1853670989
 10
-91.5999580945
 20
140.2561008499
  0
LWPOLYLINE
  5
226
100
AcDbEntity
  8
0
100
AcDbPolyline
 62
7
  6
CONTINUOUS
 90
48
 70
0
 10
-89.4646685658
 20
137.2654245141
 10
-89.4125838037
 20
137.2981317628
 10
-89.3615442959
 20
137.3357366562
 10
-89.3131765409
 20
137.377255045
 10
-89.2674958136
 20
137.4227092896
 10
-89.224486839
 20
137.4720770295
 10
-89.184394957
 20
137.5250764113
 10
-89.1472368422
 20
137.5817281841
 10
-89.1129958201
 20
137.6420115987
 10
-89.0818672063
 20
137.7055825544
 10
-89.0538687898
 20
137.7724598339
 10
-89.0289827817
 20
137.8426246545
 10
-89.007351131
 20
137.9156765668
 10
-88.9889924364
 20
137.9916320661
 10
-88.9738880992
 20
138.0704746572
 10
-88.9621242722
 20
138.151754405
 10
-88.9537200456
 20
138.2354852351
 10
-88.9486563292
 20
138.3216532218
 10
-88.9469620055
 20
138.4097666536
 10
-88.9486563292
 20
138.499836648
 10
-88.9537200456
 20
138.5918520875
 10
-88.9621242722
 20
138.6852879077
 10
-88.9738880992
 20
138.7801522281
 10
-88.9889924364
 20
138.8764369292
 10
-89.007351131
 20
138.9735925889
 10
-89.0289827817
 20
139.0716241893
 10
-89.0538687898
 20
139.1705267482
 10
-89.0818672063
 20
139.2697358972
 10
-89.1129958201
 20
139.3692533958
 10
-89.1472368422
 20
139.4690774845
 10
-89.184394957
 20
139.5686385168
 10
-89.224486839
 20
139.667934999
 10
-89.2674958136
 20
139.7669684248
 10
-89.3131765409
 20
139.8651736283
 10
-89.3615442959
 20
139.9625458882
 10
-89.4125838037
 20
140.0590899258
 10
-89.4660038996
 20
140.1542547394
 10
-89.5218181972
 20
140.2480324604
 10
-89.580013083
 20
140.3404309573
 10
-89.6402565517
 20
140.4309228346
 10
-89.7025603222
 20
140.5194972105
 10
-89.7669126756
 20
140.6061649667
 10
-89.8329464497
 20
140.6904313529
 10
-89.900671268
 20
140.7722826601
 10
-89.970077507
 20
140.8517325973
 10
-90.0407691343
 20
140.9283275417
 10
-90.1126141391
 20
141.0019162856
 10
-90.1857445321
 20
141.0726500366
  0
LINE
  5
227
100
AcDbEntity
  8
0
100
AcDbLine
 62
253
  6
CONTINUOUS
 10
-92.1996531989
 20
141.4162844646
 11
-90.7854396365
 21
142.2328336512
  0
LINE
  5
228
100
AcDbEntity
  8
0
100
AcDbLine
 62
253
  6
CONTINUOUS
 10
-91.6743738757
 20
140.3239796081
 11
-90.2601603134
 21
141.1405287948
  0
LINE
  5
229
100
AcDbEntity
  8
0
100
AcDbLine
 62
253
  6
CONTINUOUS
 10
-92.1996531989
 20
135.8931783546
 11
-91.4324501053
 21
136.3361518055
  0
LINE
  5
22A
100
AcDbEntity
  8
ASSI
100
AcDbLine
 62
7
  6
CONTINUOUS
 10
-89.4646685581
 20
137.2654245007
 11
-90.8788821204
 21
136.4488753141
  0
LWPOLYLINE
  5
22B
100
AcDbEntity
  8
0
100
AcDbPolyline
 62
7
  6
CONTINUOUS
 90
11
 70
0
 10
-91.9925669447
 20
136.350908926
 10
-91.9753592763
 20
136.3601910214
 10
-91.9464625481
 20
136.3730114993
 10
-91.916128967
 20
136.3832271189
 10
-91.884628548
 20
136.3907469457
 10
-91.8519508734
 20
136.3955469116
 10
-91.818106361
 20
136.3976510847
 10
-91.7833962782
 20
136.3970407346
 10
-91.7479210477
 20
136.393709618
 10
-91.7115802469
 20
136.3876639782
 10
-91.6743738757
 20
136.3789038153
  0
LWPOLYLINE
  5
22C
100
AcDbEntity
  8
0
100
AcDbPolyline
 62
7
  6
CONTINUOUS
 90
9
 70
0
 10
105.3659814646
 20
-148.6855094036
 10
105.3365086568
 20
-148.6825883462
 10
105.3016467644
 20
-148.67672278
 10
105.2661821438
 20
-148.6683672981
 10
105.2301197018
 20
-148.6575421707
 10
105.1937546232
 20
-148.6443360056
 10
105.1571853028
 20
-148.6287783387
 10
105.1203133458
 20
-148.6108396342
 10
105.0831387521
 20
-148.590519892
  0
LWPOLYLINE
  5
22D
100
AcDbEntity
  8
ASSI
100
AcDbPolyline
 62
7
  6
CONTINUOUS
 90
12
 70
0
 10
77.797171506
 20
-148.9900402128
 10
77.8100344382
 20
-148.9928857635
 10
77.8547266922
 20
-148.9999176501
 10
77.8985468837
 20
-149.0038803813
 10
77.9415014583
 20
-149.0047966414
 10
77.9832713632
 20
-149.0026596249
 10
78.023847777
 20
-148.9974465966
 10
78.0632395211
 20
-148.9891802916
 10
78.1011540062
 20
-148.9779221093
 10
78.1375802323
 20
-148.963649772
 10
78.1725291994
 20
-148.9463855574
 10
78.1810024554
 20
-148.9416186327
  0
LINE
  5
22E
100
AcDbEntity
  8
ASSI
100
AcDbLine
 62
7
  6
CONTINUOUS
 10
-118.0090507122
 20
113.6882057889
 11
-118.0090507122
 21
162.6995246041
  0
LINE
  5
22F
100
AcDbEntity
  8
ASSI
100
AcDbLine
 62
7
  6
CONTINUOUS
 10
-116.5948371498
 20
112.8716566022
 11
-116.5948371498
 21
161.8829754174
  0
LINE
  5
230
100
AcDbEntity
  8
0
100
AcDbLine
 62
7
  6
CONTINUOUS
 10
-112.4229071408
 20
-49.6232591819
 11
-112.4229071408
 21
95.2065134143
  0
LWPOLYLINE
  5
231
100
AcDbEntity
  8
ASSI
100
AcDbPolyline
 62
7
  6
CONTINUOUS
 90
30
 70
0
 10
-116.5948371498
 20
161.8829754174
 10
-116.5936706894
 20
162.1134352297
 10
-116.5903080965
 20
162.3402657587
 10
-116.5846622844
 20
162.5632534376
 10
-116.5766419822
 20
162.7823115976
 10
-116.5661680766
 20
162.9970848909
 10
-116.553206143
 20
163.206972549
 10
-116.5377637791
 20
163.4117386711
 10
-116.5197511623
 20
163.6112101982
 10
-116.4990515455
 20
163.8049230862
 10
-116.4757210643
 20
163.9925047925
 10
-116.4497140728
 20
164.173975586
 10
-116.4207787927
 20
164.3494699922
 10
-116.3889247229
 20
164.5187956279
 10
-116.3541346095
 20
164.6817590778
 10
-116.3160924948
 20
164.8384649386
 10
-116.2747902739
 20
164.9887925776
 10
-116.2302242925
 20
165.1324464782
 10
-116.1820980909
 20
165.2692771377
 10
-116.1304739802
 20
165.3990807727
 10
-116.0753551906
 20
165.5217055314
 10
-116.0163985972
 20
165.6371238626
 10
-115.9537370273
 20
165.745084189
 10
-115.8873727248
 20
165.8455517708
 10
-115.8167646636
 20
165.9388150929
 10
-115.741905682
 20
166.0247671841
 10
-115.6629031761
 20
166.1031574948
 10
-115.5793863463
 20
166.1740519653
 10
-115.4914068847
 20
166.2373311923
 10
-115.4261080789
 20
166.2776543975
  0
LWPOLYLINE
  5
232
100
AcDbEntity
  8
ASSI
100
AcDbPolyline
 62
7
  6
CONTINUOUS
 90
30
 70
0
 10
-118.0090507122
 20
162.6995246041
 10
-118.0074090541
 20
162.9720381191
 10
-118.0026100232
 20
163.2405869403
 10
-117.9945506987
 20
163.5049186706
 10
-117.9831222563
 20
163.7649314368
 10
-117.9682321571
 20
164.0202047288
 10
-117.9498425944
 20
164.2700268865
 10
-117.9279533841
 20
164.5141244087
 10
-117.9024675353
 20
164.7522874804
 10
-117.8732774408
 20
164.9839501527
 10
-117.8404481332
 20
165.2086729039
 10
-117.8039269767
 20
165.4264789323
 10
-117.7634507115
 20
165.63750742
 10
-117.7190269116
 20
165.8415331141
 10
-117.6706388379
 20
166.0383253239
 10
-117.6179583377
 20
166.2279815361
 10
-117.5609655333
 20
166.4103651312
 10
-117.499666405
 20
166.5851209159
 10
-117.43378674
 20
166.7520282379
 10
-117.3633953963
 20
166.9108490235
 10
-117.2885009738
 20
167.0614010504
 10
-117.2087884572
 20
167.2035995066
 10
-117.1244211625
 20
167.3371434139
 10
-117.0353954032
 20
167.461995376
 10
-116.9411432651
 20
167.5784550577
 10
-116.8416448475
 20
167.6864026421
 10
-116.7370385099
 20
167.7855354213
 10
-116.6269918251
 20
167.875870243
 10
-116.5115597615
 20
167.957269529
 10
-116.4261562583
 20
168.0096773879
  0
LWPOLYLINE
  5
233
100
AcDbEntity
  8
0
100
AcDbPolyline
 62
7
  6
CONTINUOUS
 90
11
 70
0
 10
-35.8381969582
 20
108.2965864269
 10
-35.8554046266
 20
108.2873043316
 10
-35.8843013548
 20
108.2744838537
 10
-35.9146349359
 20
108.2642682341
 10
-35.9461353549
 20
108.2567484073
 10
-35.9788130295
 20
108.2519484414
 10
-36.0126575419
 20
108.2498442683
 10
-36.0473676247
 20
108.2504546183
 10
-36.0828428552
 20
108.253785735
 10
-36.119183656
 20
108.2598313748
 10
-36.1563900272
 20
108.2685915377
  0
LWPOLYLINE
  5
234
100
AcDbEntity
  8
0
100
AcDbPolyline
 62
7
  6
CONTINUOUS
 90
4
 70
0
 10
105.3659814646
 20
-128.5330647684
 10
105.3385133821
 20
-128.5304855212
 10
105.3021725813
 20
-128.5244398814
 10
105.2649662102
 20
-128.5156797185
  0
LWPOLYLINE
  5
235
100
AcDbEntity
  8
0
100
AcDbPolyline
 62
7
  6
CONTINUOUS
 90
24
 70
0
 10
-111.0086935785
 20
-50.4398083686
 10
-111.0065179979
 20
-50.5813123273
 10
-111.0000619897
 20
-50.7198253479
 10
-110.9893255538
 20
-50.8553474306
 10
-110.9742851985
 20
-50.9880362718
 10
-110.9549644156
 20
-51.1177341749
 10
-110.9314336799
 20
-51.2439680502
 10
-110.9036776167
 20
-51.3667252467
 10
-110.8717116007
 20
-51.4860184153
 10
-110.8356522324
 20
-51.6014124187
 10
-110.7954845623
 20
-51.7128930169
 10
-110.7512235398
 20
-51.82047445
 10
-110.7030306127
 20
-51.9237643007
 10
-110.6508914212
 20
-52.022746896
 10
-110.5948203252
 20
-52.1174379088
 10
-110.535021851
 20
-52.2074919416
 10
-110.4714823861
 20
-52.2928920598
 10
-110.4042155432
 20
-52.3736551979
 10
-110.3334666866
 20
-52.449486762
 10
-110.2592231
 20
-52.5203687415
 10
-110.1814974997
 20
-52.5863191471
 10
-110.1005734
 20
-52.6470974159
 10
-110.0164391198
 20
-52.702684659
 10
-109.973273433
 20
-52.728480481
  0
LINE
  5
236
100
AcDbEntity
  8
ASSI
100
AcDbLine
 62
253
  6
CONTINUOUS
 10
-111.1854702738
 20
166.6383486015
 11
-111.1854702738
 21
165.0054080479
  0
LINE
  5
237
100
AcDbEntity
  8
0
100
AcDbLine
 62
7
  6
CONTINUOUS
 10
-111.0086935785
 20
-50.4398083686
 11
-111.0086935785
 21
94.3899642277
  0
LINE
  5
238
100
AcDbEntity
  8
0
100
AcDbLine
 62
7
  6
CONTINUOUS
 10
-100.6849345732
 20
158.3095824466
 11
-100.6849345732
 21
-49.3778998766
  0
LWPOLYLINE
  5
239
100
AcDbEntity
  8
0
100
AcDbPolyline
 62
7
  6
CONTINUOUS
 90
13
 70
0
 10
-97.134733021
 20
61.4730897786
 10
-97.1523850984
 20
61.461210561
 10
-97.2193284422
 20
61.3934725812
 10
-97.2648658215
 20
61.3053441287
 10
-97.2862717861
 20
61.1942290479
 10
-97.2862717861
 20
61.0627234945
 10
-97.2648658215
 20
60.9268893423
 10
-97.2193284422
 20
60.7861754657
 10
-97.1523850984
 20
60.6411329904
 10
-97.0722121409
 20
60.5094771679
 10
-96.9815350201
 20
60.397113082
 10
-96.8776282856
 20
60.2981356489
 10
-96.7604919376
 20
60.2125448686
  0
LWPOLYLINE
  5
23A
100
AcDbEntity
  8
0
100
AcDbPolyline
 62
7
  6
CONTINUOUS
 90
13
 70
0
 10
-96.3862508541
 20
60.1767053738
 10
-96.3685987768
 20
60.1885845914
 10
-96.3016554329
 20
60.2563225713
 10
-96.2561180536
 20
60.3444510237
 10
-96.2347120891
 20
60.4555661046
 10
-96.2347120891
 20
60.587071658
 10
-96.2561180536
 20
60.7229058101
 10
-96.3016554329
 20
60.8636196868
 10
-96.3685987768
 20
61.0086621621
 10
-96.4487717342
 20
61.1403179846
 10
-96.539448855
 20
61.2526820705
 10
-96.6433555895
 20
61.3516595036
 10
-96.7604919376
 20
61.4372502838
  0
LWPOLYLINE
  5
23B
100
AcDbEntity
  8
0
100
AcDbPolyline
 62
7
  6
CONTINUOUS
 90
48
 70
0
 10
-36.9518817747
 20
108.1986200255
 10
-37.0039665368
 20
108.1659127768
 10
-37.0550060446
 20
108.1283078834
 10
-37.1033737996
 20
108.0867894947
 10
-37.1490545269
 20
108.0413352501
 10
-37.1920635015
 20
107.9919675101
 10
-37.2321553835
 20
107.9389681283
 10
-37.2693134983
 20
107.8823163555
 10
-37.3035545205
 20
107.8220329409
 10
-37.3346831343
 20
107.7584619853
 10
-37.3626815507
 20
107.6915847057
 10
-37.3875675588
 20
107.6214198852
 10
-37.4091992095
 20
107.5483679728
 10
-37.4275579041
 20
107.4724124735
 10
-37.4426622413
 20
107.3935698824
 10
-37.4544260683
 20
107.3122901346
 10
-37.4628302949
 20
107.2285593046
 10
-37.4678940113
 20
107.1423913178
 10
-37.4695883351
 20
107.054277886
 10
-37.4678940113
 20
106.9642078916
 10
-37.4628302949
 20
106.8721924521
 10
-37.4544260683
 20
106.7787566319
 10
-37.4426622413
 20
106.6838923115
 10
-37.4275579041
 20
106.5876076104
 10
-37.4091992095
 20
106.4904519507
 10
-37.3875675588
 20
106.3924203504
 10
-37.3626815507
 20
106.2935177915
 10
-37.3346831343
 20
106.1943086424
 10
-37.3035545205
 20
106.0947911438
 10
-37.2693134983
 20
105.9949670551
 10
-37.2321553835
 20
105.8954060228
 10
-37.1920635015
 20
105.7961095406
 10
-37.1490545269
 20
105.6970761148
 10
-37.1033737996
 20
105.5988709113
 10
-37.0550060446
 20
105.5014986515
 10
-37.0039665368
 20
105.4049546138
 10
-36.9505464409
 20
105.3097898002
 10
-36.8947321433
 20
105.2160120793
 10
-36.8365372575
 20
105.1236135823
 10
-36.7762937888
 20
105.033121705
 10
-36.7139900183
 20
104.9445473291
 10
-36.6496376649
 20
104.8578795729
 10
-36.5836038908
 20
104.7736131867
 10
-36.5158790725
 20
104.6917618795
 10
-36.4464728335
 20
104.6123119423
 10
-36.3757812062
 20
104.5357169979
 10
-36.3039362015
 20
104.4621282541
 10
-36.2308058084
 20
104.391394503
  0
LWPOLYLINE
  5
23C
100
AcDbEntity
  8
ASSI
100
AcDbPolyline
 62
7
  6
CONTINUOUS
 90
11
 70
0
 10
-96.9051900213
 20
62.3002112811
 10
-96.9299288835
 20
62.284850347
 10
-96.9613912203
 20
62.261837521
 10
-96.9911167082
 20
62.2359610509
 10
-97.0188845559
 20
62.2074131387
 10
-97.0446801866
 20
62.1761738926
 10
-97.0685181771
 20
62.1422632045
 10
-97.0902214665
 20
62.1059329521
 10
-97.1097741594
 20
62.067165119
 10
-97.1271921511
 20
62.0259777217
 10
-97.1390978318
 20
61.9919582433
  0
LWPOLYLINE
  5
23D
100
AcDbEntity
  8
ASSI
100
AcDbPolyline
 62
7
  6
CONTINUOUS
 90
17
 70
0
 10
-95.5551336821
 20
59.9619957614
 10
-95.5303948198
 20
59.9773566955
 10
-95.4989324831
 20
60.0003695214
 10
-95.4692069951
 20
60.0262459916
 10
-95.4414391474
 20
60.0547939038
 10
-95.4156435167
 20
60.0860331498
 10
-95.3918055262
 20
60.119943838
 10
-95.3701022369
 20
60.1562740904
 10
-95.350549544
 20
60.1950419234
 10
-95.3331315523
 20
60.2362293208
 10
-95.317977637
 20
60.2795303556
 10
-95.3051046567
 20
60.3249607663
 10
-95.2944957529
 20
60.3725048145
 10
-95.2862297251
 20
60.4218093581
 10
-95.2803328398
 20
60.4727566833
 10
-95.2767788304
 20
60.525464504
 10
-95.2755676971
 20
60.5799328202
  0
LINE
  5
23E
100
AcDbEntity
  8
ASSI
100
AcDbLine
 62
7
  6
CONTINUOUS
 10
-35.631110704
 20
108.9612167064
 11
-36.9518817825
 21
108.1986200389
  0
LINE
  5
23F
100
AcDbEntity
  8
0
100
AcDbLine
 62
253
  6
CONTINUOUS
 10
-36.1563900272
 20
108.2685915377
 11
-35.6551497327
 21
108.5580014017
  0
LINE
  5
240
100
AcDbEntity
  8
0
100
AcDbLine
 62
7
  6
CONTINUOUS
 10
-97.3605209297
 20
61.8641113216
 11
-96.5213590718
 21
62.3486328612
  0
LINE
  5
241
100
AcDbEntity
  8
0
100
AcDbLine
 62
7
  6
CONTINUOUS
 10
-96.1604629454
 20
59.7856838309
 11
-95.3212258716
 21
60.2702487992
  0
LWPOLYLINE
  5
242
100
AcDbEntity
  8
0
100
AcDbPolyline
 62
7
  6
CONTINUOUS
 90
6
 70
0
 10
-97.3594878089
 20
61.8623220079
 10
-97.3039971083
 20
61.8893746375
 10
-97.1847560063
 20
61.9183631336
 10
-97.0559658961
 20
61.9130175266
 10
-96.9145445399
 20
61.8751171182
 10
-96.7604919376
 20
61.8046619084
  0
LWPOLYLINE
  5
243
100
AcDbEntity
  8
ASSI
100
AcDbPolyline
 62
7
  6
CONTINUOUS
 90
12
 70
0
 10
26.5319298699
 20
-119.3901321966
 10
26.5447928022
 20
-119.3929777473
 10
26.5894850561
 20
-119.4000096338
 10
26.6333052477
 20
-119.403972365
 10
26.6762598223
 20
-119.4048886252
 10
26.7180297271
 20
-119.4027516086
 10
26.758606141
 20
-119.3975385803
 10
26.7979978851
 20
-119.3892722753
 10
26.8359123701
 20
-119.378014093
 10
26.8723385963
 20
-119.3637417557
 10
26.9072875634
 20
-119.3464775411
 10
26.9157608194
 20
-119.3417106165
  0
LWPOLYLINE
  5
244
100
AcDbEntity
  8
0
100
AcDbPolyline
 62
7
  6
CONTINUOUS
 90
13
 70
0
 10
105.2649662102
 20
-128.5156797185
 10
105.1905504289
 20
-128.4976249977
 10
105.1174200359
 20
-128.483909604
 10
105.0455750311
 20
-128.4745335372
 10
104.9748834038
 20
-128.4694955624
 10
104.9054771648
 20
-128.4687969145
 10
104.8377523465
 20
-128.4724412991
 10
104.7717185724
 20
-128.4804535382
 10
104.707366219
 20
-128.4928088097
 10
104.6450624485
 20
-128.5094363531
 10
104.5848189798
 20
-128.5303605828
 10
104.526624094
 20
-128.5555570844
 10
104.4694744626
 20
-128.5856512307
  0
LWPOLYLINE
  5
245
100
AcDbEntity
  8
0
100
AcDbPolyline
 62
7
  6
CONTINUOUS
 90
5
 70
0
 10
76.9756442
 20
-148.6910695254
 10
77.092780548
 20
-148.7407448638
 10
77.1966872825
 20
-148.7617563231
 10
77.2873644033
 20
-148.7541039035
 10
77.3498852834
 20
-148.7269090202
  0
LWPOLYLINE
  5
246
100
AcDbEntity
  8
0
100
AcDbPolyline
 62
7
  6
CONTINUOUS
 90
5
 70
0
 10
76.9756442
 20
-147.4663641102
 10
76.8585078519
 20
-147.4166887719
 10
76.7546011174
 20
-147.3956773125
 10
76.6639239966
 20
-147.4033297322
 10
76.6014031165
 20
-147.4305246155
  0
LWPOLYLINE
  5
247
100
AcDbEntity
  8
0
100
AcDbPolyline
 62
7
  6
CONTINUOUS
 90
5
 70
0
 10
25.7104025639
 20
-119.0911615092
 10
25.827538912
 20
-119.1408368475
 10
25.9314456465
 20
-119.1618483069
 10
26.0221227673
 20
-119.1541958872
 10
26.0846436474
 20
-119.127001004
  0
LWPOLYLINE
  5
248
100
AcDbEntity
  8
0
100
AcDbPolyline
 62
7
  6
CONTINUOUS
 90
5
 70
0
 10
25.7104025639
 20
-117.866456094
 10
25.5932662159
 20
-117.8167807556
 10
25.4893594814
 20
-117.7957692963
 10
25.3986823606
 20
-117.803421716
 10
25.3361614805
 20
-117.8306165992
  0
LWPOLYLINE
  5
249
100
AcDbEntity
  8
0
100
AcDbPolyline
 62
7
  6
CONTINUOUS
 90
24
 70
0
 10
107.8156151725
 20
-178.4770552259
 10
107.8597822652
 20
-178.5016745105
 10
107.9499949866
 20
-178.5467335846
 10
108.0430981676
 20
-178.5864170659
 10
108.1390812903
 20
-178.6207445149
 10
108.237594244
 20
-178.6495907177
 10
108.3386462678
 20
-178.6729356566
 10
108.4422281225
 20
-178.6907993494
 10
108.5479619799
 20
-178.7031166359
 10
108.6558556994
 20
-178.7098672603
 10
108.7659014216
 20
-178.7110714785
 10
108.8776977405
 20
-178.7067248979
 10
108.9912510495
 20
-178.6968072467
 10
109.1065549552
 20
-178.6813387966
 10
109.2231888718
 20
-178.660375971
 10
109.3411576565
 20
-178.6338987039
 10
109.460456452
 20
-178.6019270612
 10
109.5806501006
 20
-178.5645776635
 10
109.7017418703
 20
-178.5218308711
 10
109.8237284931
 20
-178.4737063237
 10
109.9461650069
 20
-178.420379562
 10
110.0689030912
 20
-178.3619090993
 10
110.1920910665
 20
-178.2982364223
 10
110.3157289329
 20
-178.2293615309
  0
LWPOLYLINE
  5
24A
100
AcDbEntity
  8
0
100
AcDbPolyline
 62
7
  6
CONTINUOUS
 90
24
 70
0
 10
-109.973273433
 20
-52.728480481
 10
-109.9291063402
 20
-52.7530997655
 10
-109.8388936188
 20
-52.7981588397
 10
-109.7457904379
 20
-52.837842321
 10
-109.6498073151
 20
-52.8721697699
 10
-109.5512943614
 20
-52.9010159728
 10
-109.4502423377
 20
-52.9243609117
 10
-109.346660483
 20
-52.9422246044
 10
-109.2409266255
 20
-52.954541891
 10
-109.1330329061
 20
-52.9612925154
 10
-109.0229871839
 20
-52.9624967336
 10
-108.9111908649
 20
-52.958150153
 10
-108.7976375559
 20
-52.9482325017
 10
-108.6823336502
 20
-52.9327640517
 10
-108.5656997337
 20
-52.911801226
 10
-108.447730949
 20
-52.8853239589
 10
-108.3284321535
 20
-52.8533523162
 10
-108.2082385049
 20
-52.8160029186
 10
-108.0871467352
 20
-52.7732561262
 10
-107.9651601124
 20
-52.7251315788
 10
-107.8427235986
 20
-52.671804817
 10
-107.7199855143
 20
-52.6133343544
 10
-107.596797539
 20
-52.5496616774
 10
-107.4731596725
 20
-52.4807867859
  0
LINE
  5
24B
100
AcDbEntity
  8
0
100
AcDbLine
 62
7
  6
CONTINUOUS
 10
-109.9732804732
 20
-52.7284926743
 11
-111.3874940356
 21
-51.9119434876
  0
LINE
  5
24C
100
AcDbEntity
  8
0
100
AcDbLine
 62
7
  6
CONTINUOUS
 10
106.4013945698
 20
-177.6605182326
 11
107.8156081322
 21
-178.4770674192
  0
LINE
  5
24D
100
AcDbEntity
  8
0
100
AcDbLine
 62
253
  6
CONTINUOUS
 10
-111.0086935785
 20
-50.4398083686
 11
-112.4229071408
 21
-49.6232591819
  0
LINE
  5
24E
100
AcDbEntity
  8
0
100
AcDbLine
 62
253
  6
CONTINUOUS
 10
105.3659814646
 20
-175.3718339269
 11
106.780195027
 21
-176.1883831135
  0
LWPOLYLINE
  5
24F
100
AcDbEntity
  8
0
100
AcDbPolyline
 62
7
  6
CONTINUOUS
 90
24
 70
0
 10
-111.3874869953
 20
-51.9119312943
 10
-111.4306526822
 20
-51.8861354724
 10
-111.5147869624
 20
-51.8305482292
 10
-111.5957110621
 20
-51.7697699604
 10
-111.6734366623
 20
-51.7038195549
 10
-111.747680249
 20
-51.6329375753
 10
-111.8184291055
 20
-51.5571060113
 10
-111.8856959485
 20
-51.4763428732
 10
-111.9492354134
 20
-51.390942755
 10
-112.0090338875
 20
-51.3008887222
 10
-112.0651049836
 20
-51.2061977093
 10
-112.117244175
 20
-51.1072151141
 10
-112.1654371022
 20
-51.0039252634
 10
-112.2096981247
 20
-50.8963438303
 10
-112.2498657947
 20
-50.7848632321
 10
-112.2859251631
 20
-50.6694692286
 10
-112.317891179
 20
-50.5501760601
 10
-112.3456472423
 20
-50.4274188636
 10
-112.3691779779
 20
-50.3011849883
 10
-112.3884987609
 20
-50.1714870851
 10
-112.4035391162
 20
-50.0387982439
 10
-112.4142755521
 20
-49.9032761613
 10
-112.4207315603
 20
-49.7647631406
 10
-112.4229071408
 20
-49.6232591819
  0
LWPOLYLINE
  5
250
100
AcDbEntity
  8
0
100
AcDbPolyline
 62
7
  6
CONTINUOUS
 90
25
 70
0
 10
-90.7854396365
 20
-12.8965189394
 10
-90.7843592788
 20
-12.9419303866
 10
-90.78120275
 20
-12.9881442626
 10
-90.7759700503
 20
-13.0351605673
 10
-90.7686332496
 20
-13.0831239975
 10
-90.759220278
 20
-13.1318898565
 10
-90.7478149252
 20
-13.1810240539
 10
-90.7343994031
 20
-13.2305298783
 10
-90.7189914998
 20
-13.2804040411
 10
-90.7017283691
 20
-13.3302025865
 10
-90.6825934474
 20
-13.3799248394
 10
-90.6616032983
 20
-13.4295714748
 10
-90.6389447659
 20
-13.4787005622
 10
-90.614602955
 20
-13.5273074809
 10
-90.588592761
 20
-13.5753968517
 10
-90.5611457139
 20
-13.6225406059
 10
-90.5322489857
 20
-13.6687303012
 10
-90.5019154046
 20
-13.7139743799
 10
-90.4704149856
 20
-13.757870101
 10
-90.4377373111
 20
-13.8004054264
 10
-90.4038927986
 20
-13.8415923941
 10
-90.3691827159
 20
-13.8810643776
 10
-90.3337074853
 20
-13.9186991679
 10
-90.2973666845
 20
-13.954618974
 10
-90.1857445321
 20
-14.056702554
  0
LWPOLYLINE
  5
251
100
AcDbEntity
  8
0
100
AcDbPolyline
 62
7
  6
CONTINUOUS
 90
25
 70
0
 10
-90.7854396365
 20
142.2328336512
 10
-90.7843592788
 20
142.187422204
 10
-90.78120275
 20
142.141208328
 10
-90.7759700503
 20
142.0941920233
 10
-90.7686332496
 20
142.0462285931
 10
-90.759220278
 20
141.9974627341
 10
-90.7478149252
 20
141.9483285367
 10
-90.7343994031
 20
141.8988227123
 10
-90.7189914998
 20
141.8489485495
 10
-90.7017283691
 20
141.7991500041
 10
-90.6825934474
 20
141.7494277513
 10
-90.6616032983
 20
141.6997811159
 10
-90.6389447659
 20
141.6506520285
 10
-90.614602955
 20
141.6020451097
 10
-90.588592761
 20
141.553955739
 10
-90.5611457139
 20
141.5068119847
 10
-90.5322489857
 20
141.4606222895
 10
-90.5019154046
 20
141.4153782107
 10
-90.4704149856
 20
141.3714824896
 10
-90.4377373111
 20
141.3289471643
 10
-90.4038927986
 20
141.2877601965
 10
-90.3691827159
 20
141.248288213
 10
-90.3337074853
 20
141.2106534227
 10
-90.2973666845
 20
141.1747336166
 10
-90.1857445321
 20
141.0726500366
  0
LWPOLYLINE
  5
252
100
AcDbEntity
  8
0
100
AcDbPolyline
 62
7
  6
CONTINUOUS
 90
31
 70
0
 10
-90.7854396365
 20
-33.0488888901
 10
-90.7844485232
 20
-33.0923852869
 10
-90.7815466373
 20
-33.1366354965
 10
-90.7767339787
 20
-33.1816395188
 10
-90.769986925
 20
-33.2275246061
 10
-90.7613290987
 20
-33.2741635062
 10
-90.7508313673
 20
-33.3211744619
 10
-90.7384786294
 20
-33.3685605271
 10
-90.7242859865
 20
-33.4163186479
 10
-90.7083696107
 20
-33.4640579061
 10
-90.690715354
 20
-33.5117781468
 10
-90.6713373644
 20
-33.559479525
 10
-90.6503942582
 20
-33.6067715867
 10
-90.6278731891
 20
-33.6536509723
 10
-90.6037870033
 20
-33.7001210416
 10
-90.5783328554
 20
-33.7458014192
 10
-90.5514995173
 20
-33.7906856238
 10
-90.5232982172
 20
-33.8347801367
 10
-90.4939597931
 20
-33.8777240279
 10
-90.463474912
 20
-33.9195078532
 10
-90.431852907
 20
-33.9601410567
 10
-90.3993526163
 20
-33.9992910402
 10
-90.365966831
 20
-34.0369456298
 10
-90.33170276
 20
-34.0731169995
 10
-90.2968408676
 20
-34.1075090728
 10
-90.261376247
 20
-34.1401072458
 10
-90.225313805
 20
-34.1709261224
 10
-90.1889487264
 20
-34.1997134386
 10
-90.152379406
 20
-34.2263851063
 10
-90.115507449
 20
-34.2510252135
 10
-90.0783328554
 20
-34.2736337602
  0
LWPOLYLINE
  5
253
100
AcDbEntity
  8
ASSI
100
AcDbPolyline
 62
7
  6
CONTINUOUS
 90
49
 70
0
 10
-95.2755676971
 20
-33.3141490109
 10
-95.2767788304
 20
-33.2582821083
 10
-95.2803328398
 20
-33.2014702067
 10
-95.2862297251
 20
-33.1437133062
 10
-95.2944957529
 20
-33.0848633608
 10
-95.3051046567
 20
-33.0250684164
 10
-95.317977637
 20
-32.9647726107
 10
-95.3331315523
 20
-32.9039722144
 10
-95.350549544
 20
-32.8426709568
 10
-95.3701022369
 20
-32.7813241641
 10
-95.3918055262
 20
-32.7199314972
 10
-95.4156435167
 20
-32.6584932952
 10
-95.4414391474
 20
-32.5974659013
 10
-95.4692069951
 20
-32.5368523746
 10
-95.4989324831
 20
-32.4766496561
 10
-95.5303948198
 20
-32.4173049123
 10
-95.5636069381
 20
-32.3588245318
 10
-95.5985559052
 20
-32.3012021261
 10
-95.6349821314
 20
-32.2448656958
 10
-95.6728966164
 20
-32.1898248166
 10
-95.7122883605
 20
-32.1360699129
 10
-95.7528647744
 20
-32.0840002589
 10
-95.7946346792
 20
-32.0336284033
 10
-95.8375892538
 20
-31.9849417973
 10
-95.8814094454
 20
-31.9383020697
 10
-95.9261016994
 20
-31.8937244616
 10
-95.9716595703
 20
-31.8511937319
 10
-96.0177446688
 20
-31.811025785
 10
-96.0643609209
 20
-31.7732382146
 10
-96.1115044005
 20
-31.7378134271
 10
-96.1588249412
 20
-31.7050145466
 10
-96.2063238612
 20
-31.6748611258
 10
-96.2539998422
 20
-31.6473336119
 10
-96.3014987622
 20
-31.6226364705
 10
-96.3488193028
 20
-31.6007907768
 10
-96.3959627825
 20
-31.5817754556
 10
-96.4425790345
 20
-31.5657317467
 10
-96.4886641331
 20
-31.5526817769
 10
-96.534222004
 20
-31.5426034193
 10
-96.578914258
 20
-31.5355715327
 10
-96.6227344495
 20
-31.5316088015
 10
-96.6656890241
 20
-31.5306925414
 10
-96.707458929
 20
-31.5328295579
 10
-96.7480353428
 20
-31.5380425862
 10
-96.7874270869
 20
-31.5463088912
 10
-96.825341572
 20
-31.5575670735
 10
-96.8617677981
 20
-31.5718394108
 10
-96.8967167652
 20
-31.5891036254
 10
-96.9051900213
 20
-31.5938705501
  0
LWPOLYLINE
  5
254
100
AcDbEntity
  8
ASSI
100
AcDbPolyline
 62
7
  6
CONTINUOUS
 90
49
 70
0
 10
-95.2755676971
 20
60.5799328202
 10
-95.2767788304
 20
60.6357997229
 10
-95.2803328398
 20
60.6926116244
 10
-95.2862297251
 20
60.750368525
 10
-95.2944957529
 20
60.8092184704
 10
-95.3051046567
 20
60.8690134148
 10
-95.317977637
 20
60.9293092204
 10
-95.3331315523
 20
60.9901096168
 10
-95.350549544
 20
61.0514108744
 10
-95.3701022369
 20
61.1127576671
 10
-95.3918055262
 20
61.174150334
 10
-95.4156435167
 20
61.235588536
 10
-95.4414391474
 20
61.2966159298
 10
-95.4692069951
 20
61.3572294565
 10
-95.4989324831
 20
61.4174321751
 10
-95.5303948198
 20
61.4767769189
 10
-95.5636069381
 20
61.5352572993
 10
-95.5985559052
 20
61.5928797051
 10
-95.6349821314
 20
61.6492161354
 10
-95.6728966164
 20
61.7042570146
 10
-95.7122883605
 20
61.7580119183
 10
-95.7528647744
 20
61.8100815723
 10
-95.7946346792
 20
61.8604534279
 10
-95.8375892538
 20
61.9091400338
 10
-95.8814094454
 20
61.9557797615
 10
-95.9261016994
 20
62.0003573695
 10
-95.9716595703
 20
62.0428880993
 10
-96.0177446688
 20
62.0830560462
 10
-96.0643609209
 20
62.1208436166
 10
-96.1115044005
 20
62.156268404
 10
-96.1588249412
 20
62.1890672846
 10
-96.2063238612
 20
62.2192207054
 10
-96.2539998422
 20
62.2467482193
 10
-96.3014987622
 20
62.2714453607
 10
-96.3488193028
 20
62.2932910544
 10
-96.3959627825
 20
62.3123063755
 10
-96.4425790345
 20
62.3283500845
 10
-96.4886641331
 20
62.3414000543
 10
-96.534222004
 20
62.3514784119
 10
-96.578914258
 20
62.3585102985
 10
-96.6227344495
 20
62.3624730296
 10
-96.6656890241
 20
62.3633892898
 10
-96.707458929
 20
62.3612522733
 10
-96.7480353428
 20
62.3560392449
 10
-96.7874270869
 20
62.3477729399
 10
-96.825341572
 20
62.3365147577
 10
-96.8617677981
 20
62.3222424203
 10
-96.8967167652
 20
62.3049782057
 10
-96.9051900213
 20
62.3002112811
  0
LWPOLYLINE
  5
255
100
AcDbEntity
  8
ASSI
100
AcDbPolyline
 62
7
  6
CONTINUOUS
 90
9
 70
0
 10
-95.2755676971
 20
154.4740146514
 10
-95.2767788304
 20
154.529881554
 10
-95.2803328398
 20
154.5866934556
 10
-95.2862297251
 20
154.6444503562
 10
-95.2944957529
 20
154.7033003016
 10
-95.3051046567
 20
154.763095246
 10
-95.317977637
 20
154.8233910516
 10
-95.3331315523
 20
154.884191448
 10
-95.3467082833
 20
154.9319736895
  0
LWPOLYLINE
  5
256
100
AcDbEntity
  8
ASSI
100
AcDbPolyline
 62
7
  6
CONTINUOUS
 90
55
 70
0
 10
-83.3608184341
 20
-46.9294556921
 10
-83.3592802082
 20
-47.0107277754
 10
-83.3547431608
 20
-47.0932754769
 10
-83.3472072919
 20
-47.1770987966
 10
-83.3366468722
 20
-47.2623619448
 10
-83.323087631
 20
-47.3489007112
 10
-83.3066067557
 20
-47.4362224649
 10
-83.2871875828
 20
-47.5243316716
 10
-83.2648467758
 20
-47.6132238656
 10
-83.2397115119
 20
-47.702393019
 10
-83.2117658532
 20
-47.7918407113
 10
-83.1810257378
 20
-47.8815653629
 10
-83.1476661567
 20
-47.971056207
 10
-83.1116721702
 20
-48.06031191
 10
-83.0730587182
 20
-48.1493338055
 10
-83.0320456117
 20
-48.2376151272
 10
-82.9886191645
 20
-48.3251516512
 10
-82.9427930628
 20
-48.4119476013
 10
-82.8948281764
 20
-48.4975088827
 10
-82.844712307
 20
-48.5818284534
 10
-82.7924576529
 20
-48.6649133553
 10
-82.7383616792
 20
-48.7462906191
 10
-82.682413884
 20
-48.8259505054
 10
-82.6246247692
 20
-48.9039027534
 10
-82.5653233052
 20
-48.9797036121
 10
-82.5045008666
 20
-49.0533408111
 10
-82.4421660788
 20
-49.1248266207
 10
-82.3786737891
 20
-49.1937541006
 10
-82.3140173957
 20
-49.2601086595
 10
-82.2482035005
 20
-49.3239048886
 10
-82.1816067557
 20
-49.3847796214
 10
-82.1142226964
 20
-49.4427161952
 10
-82.0460557877
 20
-49.4977312727
 10
-81.9774940766
 20
-49.5495116748
 10
-81.9085353114
 20
-49.5980389528
 10
-81.8391817439
 20
-49.6433315554
 10
-81.7698281764
 20
-49.6851316498
 10
-81.7004746089
 20
-49.7234193168
 10
-81.6311210414
 20
-49.7582144755
 10
-81.5621622762
 20
-49.789319051
 10
-81.4936005651
 20
-49.8167119943
 10
-81.4254336564
 20
-49.8404143544
 10
-81.3580495972
 20
-49.8602912031
 10
-81.2914528524
 20
-49.8763207219
 10
-81.2256389571
 20
-49.8885247293
 10
-81.1609825637
 20
-49.8968337528
 10
-81.097490274
 20
-49.9012255776
 10
-81.0351554862
 20
-49.9017224185
 10
-80.9743330476
 20
-49.8983214471
 10
-80.9150315836
 20
-49.8910004326
 10
-80.8572424688
 20
-49.8797816057
 10
-80.8012946736
 20
-49.864728831
 10
-80.7471986999
 20
-49.8458202417
 10
-80.6949440458
 20
-49.8230777045
 10
-80.6447738161
 20
-49.7965992996
  0
LINE
  5
257
100
AcDbEntity
  8
0
100
AcDbLine
 62
7
  6
CONTINUOUS
 10
-92.1996531989
 20
-33.8654380767
 11
-92.1996531989
 21
-19.236174236
  0
LINE
  5
258
100
AcDbEntity
  8
0
100
AcDbLine
 62
7
  6
CONTINUOUS
 10
-92.1996531989
 20
-13.7130681261
 11
-92.1996531989
 21
135.8931783546
  0
LINE
  5
259
100
AcDbEntity
  8
0
100
AcDbLine
 62
7
  6
CONTINUOUS
 10
-92.1996531989
 20
141.4162844646
 11
-92.1996531989
 21
152.289785032
  0
LINE
  5
25A
100
AcDbEntity
  8
0
100
AcDbLine
 62
7
  6
CONTINUOUS
 10
-90.7854396365
 20
-33.0488888901
 11
-90.7854396365
 21
-18.6265247575
  0
LINE
  5
25B
100
AcDbEntity
  8
0
100
AcDbLine
 62
7
  6
CONTINUOUS
 10
-90.7854396365
 20
-12.8965189394
 11
-90.7854396365
 21
136.5028278332
  0
LINE
  5
25C
100
AcDbEntity
  8
0
100
AcDbLine
 62
7
  6
CONTINUOUS
 10
-90.7854396365
 20
142.2328336512
 11
-90.7854396365
 21
152.0613839161
  0
LINE
  5
25D
100
AcDbEntity
  8
RACCORDO
100
AcDbLine
 62
7
  6
CONTINUOUS
 10
-90.0217643129
 20
151.5807723267
 11
-90.0217643129
 21
140.9077356654
  0
LINE
  5
25E
100
AcDbEntity
  8
RACCORDO
100
AcDbLine
 62
7
  6
CONTINUOUS
 10
-90.0217643129
 20
136.943764394
 11
-90.0217643129
 21
-14.2216169252
  0
LINE
  5
25F
100
AcDbEntity
  8
RACCORDO
100
AcDbLine
 62
7
  6
CONTINUOUS
 10
-90.0217643129
 20
-18.1855881967
 11
-90.0217643129
 21
-34.3062957277
  0
LWPOLYLINE
  5
260
100
AcDbEntity
  8
0
100
AcDbPolyline
 62
7
  6
CONTINUOUS
 90
16
 70
0
 10
-92.1996531989
 20
152.289785032
 10
-92.1986620856
 20
152.332136916
 10
-92.1957601996
 20
152.3730361005
 10
-92.1909475411
 20
152.4124825853
 10
-92.1842004874
 20
152.4505763441
 10
-92.175542661
 20
152.4872174034
 10
-92.1650449297
 20
152.5221058421
 10
-92.1526921918
 20
152.5552272751
 10
-92.1384995489
 20
152.5865960876
 10
-92.1225831731
 20
152.615955514
 10
-92.1049289164
 20
152.6432890617
 10
-92.0855509268
 20
152.6686132232
 10
-92.0646078205
 20
152.6917207107
 10
-92.0420867515
 20
152.7125933303
 10
-92.0180005657
 20
152.7312492759
 10
-91.9925705779
 20
152.7475218932
  0
LWPOLYLINE
  5
261
100
AcDbEntity
  8
0
100
AcDbPolyline
 62
7
  6
CONTINUOUS
 90
16
 70
0
 10
-92.1996531989
 20
135.8931783546
 10
-92.1985728411
 20
135.9373422318
 10
-92.1954163124
 20
135.9799110274
 10
-92.1901836126
 20
136.0208847417
 10
-92.182846812
 20
136.0603758184
 10
-92.1734338404
 20
136.0982718137
 10
-92.1620284875
 20
136.1342353955
 10
-92.1486129655
 20
136.1682493113
 10
-92.1332050622
 20
136.2003308136
 10
-92.1159419315
 20
136.2301943284
 10
-92.0968070098
 20
136.2578200533
 10
-92.0758168606
 20
136.2832277906
 10
-92.0531583283
 20
136.3061913728
 10
-92.0288165174
 20
136.3266889785
 10
-92.0028063233
 20
136.3447424291
 10
-91.9925669447
 20
136.350908926
  0
LWPOLYLINE
  5
262
100
AcDbEntity
  8
0
100
AcDbPolyline
 62
7
  6
CONTINUOUS
 90
16
 70
0
 10
-92.1996531989
 20
-19.236174236
 10
-92.1985728411
 20
-19.1920103589
 10
-92.1954163124
 20
-19.1494415632
 10
-92.1901836126
 20
-19.108467849
 10
-92.182846812
 20
-19.0689767722
 10
-92.1734338404
 20
-19.0310807769
 10
-92.1620284875
 20
-18.9951171951
 10
-92.1486129655
 20
-18.9611032793
 10
-92.1332050622
 20
-18.929021777
 10
-92.1159419315
 20
-18.8991582623
 10
-92.0968070098
 20
-18.8715325373
 10
-92.0758168606
 20
-18.8461248
 10
-92.0531583283
 20
-18.8231612178
 10
-92.0288165174
 20
-18.8026636121
 10
-92.0028063233
 20
-18.7846101615
 10
-91.9925669447
 20
-18.7784436646
  0
LWPOLYLINE
  5
263
100
AcDbEntity
  8
0
100
AcDbPolyline
 62
7
  6
CONTINUOUS
 90
48
 70
0
 10
-20.1682040095
 20
95.6214159947
 10
-20.1161192474
 20
95.6541232434
 10
-20.0650797396
 20
95.6917281368
 10
-20.0167119846
 20
95.7332465255
 10
-19.9710312573
 20
95.7787007701
 10
-19.9280222827
 20
95.8280685101
 10
-19.8879304007
 20
95.8810678919
 10
-19.850772286
 20
95.9377196647
 10
-19.8165312638
 20
95.9980030793
 10
-19.78540265
 20
96.0615740349
 10
-19.7574042335
 20
96.1284513145
 10
-19.7325182255
 20
96.198616135
 10
-19.7108865748
 20
96.2716680474
 10
-19.6925278802
 20
96.3476235467
 10
-19.6774235429
 20
96.4264661378
 10
-19.6656597159
 20
96.5077458856
 10
-19.6572554893
 20
96.5914767156
 10
-19.6521917729
 20
96.6776447024
 10
-19.6504974492
 20
96.7657581342
 10
-19.6521917729
 20
96.8558281286
 10
-19.6572554893
 20
96.947843568
 10
-19.6656597159
 20
97.0412793883
 10
-19.6774235429
 20
97.1361437087
 10
-19.6925278802
 20
97.2324284098
 10
-19.7108865748
 20
97.3295840695
 10
-19.7325182255
 20
97.4276156698
 10
-19.7574042335
 20
97.5265182287
 10
-19.78540265
 20
97.6257273778
 10
-19.8165312638
 20
97.7252448764
 10
-19.850772286
 20
97.8250689651
 10
-19.8879304007
 20
97.9246299974
 10
-19.9280222827
 20
98.0239264796
 10
-19.9710312573
 20
98.1229599054
 10
-20.0167119846
 20
98.2211651089
 10
-20.0650797396
 20
98.3185373687
 10
-20.1161192474
 20
98.4150814064
 10
-20.1695393433
 20
98.51024622
 10
-20.225353641
 20
98.6040239409
 10
-20.2835485267
 20
98.6964224379
 10
-20.3437919954
 20
98.7869143152
 10
-20.4060957659
 20
98.8754886911
 10
-20.4704481193
 20
98.9621564473
 10
-20.5364818935
 20
99.0464228335
 10
-20.6042067117
 20
99.1282741407
 10
-20.6736129508
 20
99.2077240779
 10
-20.7443045781
 20
99.2843190223
 10
-20.8161495828
 20
99.3579077661
 10
-20.8892799758
 20
99.4286415172
  0
LWPOLYLINE
  5
264
100
AcDbEntity
  8
0
100
AcDbPolyline
 62
7
  6
CONTINUOUS
 90
48
 70
0
 10
-18.7539904472
 20
96.4379651814
 10
-18.701905685
 20
96.47067243
 10
-18.6508661773
 20
96.5082773234
 10
-18.6024984223
 20
96.5497957122
 10
-18.5568176949
 20
96.5952499568
 10
-18.5138087203
 20
96.6446176967
 10
-18.4737168383
 20
96.6976170786
 10
-18.4365587236
 20
96.7542688513
 10
-18.4023177014
 20
96.8145522659
 10
-18.3711890876
 20
96.8781232216
 10
-18.3431906712
 20
96.9450005011
 10
-18.3183046631
 20
97.0151653217
 10
-18.2966730124
 20
97.088217234
 10
-18.2783143178
 20
97.1641727334
 10
-18.2632099805
 20
97.2430153245
 10
-18.2514461535
 20
97.3242950723
 10
-18.2430419269
 20
97.4080259023
 10
-18.2379782106
 20
97.494193889
 10
-18.2362838868
 20
97.5823073208
 10
-18.2379782106
 20
97.6723773152
 10
-18.2430419269
 20
97.7643927547
 10
-18.2514461535
 20
97.857828575
 10
-18.2632099805
 20
97.9526928953
 10
-18.2783143178
 20
98.0489775965
 10
-18.2966730124
 20
98.1461332562
 10
-18.3183046631
 20
98.2441648565
 10
-18.3431906712
 20
98.3430674154
 10
-18.3711890876
 20
98.4422765644
 10
-18.4023177014
 20
98.541794063
 10
-18.4365587236
 20
98.6416181518
 10
-18.4737168383
 20
98.7411791841
 10
-18.5138087203
 20
98.8404756663
 10
-18.5568176949
 20
98.939509092
 10
-18.6024984223
 20
99.0377142955
 10
-18.6508661773
 20
99.1350865554
 10
-18.701905685
 20
99.231630593
 10
-18.7553257809
 20
99.3267954066
 10
-18.8111400786
 20
99.4205731276
 10
-18.8693349644
 20
99.5129716245
 10
-18.929578433
 20
99.6034635018
 10
-18.9918822036
 20
99.6920378777
 10
-19.056234557
 20
99.7787056339
 10
-19.1222683311
 20
99.8629720202
 10
-19.1899931494
 20
99.9448233273
 10
-19.2593993884
 20
100.0242732646
 10
-19.3300910157
 20
100.1008682089
 10
-19.4019360204
 20
100.1744569528
 10
-19.4750664134
 20
100.2451907038
  0
LINE
  5
265
100
AcDbEntity
  8
0
100
AcDbLine
 62
253
  6
CONTINUOUS
 10
-21.4889750803
 20
100.5888251318
 11
-20.0747615179
 21
101.4053743184
  0
LINE
  5
266
100
AcDbEntity
  8
0
100
AcDbLine
 62
253
  6
CONTINUOUS
 10
-20.9636957571
 20
99.4965202753
 11
-19.5494821947
 21
100.313069462
  0
LINE
  5
267
100
AcDbEntity
  8
0
100
AcDbLine
 62
253
  6
CONTINUOUS
 10
-21.4889750803
 20
95.0657190218
 11
-20.7217719867
 21
95.5086924728
  0
LINE
  5
268
100
AcDbEntity
  8
ASSI
100
AcDbLine
 62
7
  6
CONTINUOUS
 10
-18.7539904394
 20
96.437965168
 11
-20.1682040018
 21
95.6214159813
  0
LWPOLYLINE
  5
269
100
AcDbEntity
  8
0
100
AcDbPolyline
 62
7
  6
CONTINUOUS
 90
11
 70
0
 10
-21.2818888261
 20
95.5234495933
 10
-21.2646811577
 20
95.5327316886
 10
-21.2357844295
 20
95.5455521665
 10
-21.2054508483
 20
95.5557677861
 10
-21.1739504293
 20
95.5632876129
 10
-21.1412727548
 20
95.5680875788
 10
-21.1074282423
 20
95.5701917519
 10
-21.0727181596
 20
95.5695814019
 10
-21.0372429291
 20
95.5662502852
 10
-21.0009021282
 20
95.5602046454
 10
-20.9636957571
 20
95.5514444825
  0
LWPOLYLINE
  5
26A
100
AcDbEntity
  8
0
100
AcDbPolyline
 62
7
  6
CONTINUOUS
 90
6
 70
0
 10
-96.1614960662
 20
59.7874731446
 10
-96.2169867668
 20
59.760420515
 10
-96.3362278689
 20
59.7314320189
 10
-96.465017979
 20
59.7367776258
 10
-96.6064393353
 20
59.7746780342
 10
-96.7604919376
 20
59.8451332441
  0
LWPOLYLINE
  5
26B
100
AcDbEntity
  8
ASSI
100
AcDbPolyline
 62
7
  6
CONTINUOUS
 90
12
 70
0
 10
-12.3589430953
 20
-96.9350295635
 10
-12.3460801631
 20
-96.9378751142
 10
-12.3013879091
 20
-96.9449070008
 10
-12.2575677176
 20
-96.948869732
 10
-12.214613143
 20
-96.9497859921
 10
-12.1728432381
 20
-96.9476489756
 10
-12.1322668243
 20
-96.9424359473
 10
-12.0928750802
 20
-96.9341696423
 10
-12.0549605951
 20
-96.92291146
 10
-12.018534369
 20
-96.9086391227
 10
-11.9835854019
 20
-96.8913749081
 10
-11.9751121458
 20
-96.8866079834
  0
LWPOLYLINE
  5
26C
100
AcDbEntity
  8
0
100
AcDbPolyline
 62
7
  6
CONTINUOUS
 90
13
 70
0
 10
49.7469823616
 20
-100.4053674409
 10
49.8213981428
 20
-100.4234221617
 10
49.8945285359
 20
-100.4371375554
 10
49.9663735406
 20
-100.4465136222
 10
50.0370651679
 20
-100.451551597
 10
50.1064714069
 20
-100.4522502449
 10
50.1741962252
 20
-100.4486058603
 10
50.2402299993
 20
-100.4405936212
 10
50.3045823527
 20
-100.4282383497
 10
50.3668861232
 20
-100.4116108063
 10
50.4271295919
 20
-100.3906865766
 10
50.4853244777
 20
-100.365490075
 10
50.5424741091
 20
-100.3353959287
  0
LWPOLYLINE
  5
26D
100
AcDbEntity
  8
0
100
AcDbPolyline
 62
7
  6
CONTINUOUS
 90
5
 70
0
 10
-13.1804704013
 20
-96.6360588762
 10
-13.0633340532
 20
-96.6857342145
 10
-12.9594273188
 20
-96.7067456739
 10
-12.868750198
 20
-96.6990932542
 10
-12.8062293178
 20
-96.6718983709
  0
LWPOLYLINE
  5
26E
100
AcDbEntity
  8
0
100
AcDbPolyline
 62
7
  6
CONTINUOUS
 90
5
 70
0
 10
-13.1804704013
 20
-95.411353461
 10
-13.2976067494
 20
-95.3616781226
 10
-13.4015134838
 20
-95.3406666633
 10
-13.4921906047
 20
-95.3483190829
 10
-13.5547114848
 20
-95.3755139662
  0
LWPOLYLINE
  5
26F
100
AcDbEntity
  8
0
100
AcDbPolyline
 62
7
  6
CONTINUOUS
 90
5
 70
0
 10
-64.4457120373
 20
-67.0361508599
 10
-64.3285756893
 20
-67.0858261983
 10
-64.2246689548
 20
-67.1068376576
 10
-64.133991834
 20
-67.0991852379
 10
-64.0714709539
 20
-67.0719903547
  0
LWPOLYLINE
  5
270
100
AcDbEntity
  8
0
100
AcDbPolyline
 62
7
  6
CONTINUOUS
 90
5
 70
0
 10
-64.4457120373
 20
-65.8114454447
 10
-64.5628483854
 20
-65.7617701063
 10
-64.6667551199
 20
-65.740758647
 10
-64.7574322407
 20
-65.7484110667
 10
-64.8199531208
 20
-65.7756059499
  0
LINE
  5
271
100
AcDbEntity
  8
0
100
AcDbLine
 62
7
  6
CONTINUOUS
 10
-100.6849345732
 20
-49.3778998766
 11
105.3659814646
 21
-168.3491163723
  0
LWPOLYLINE
  5
272
100
AcDbEntity
  8
0
100
AcDbPolyline
 62
7
  6
CONTINUOUS
 90
24
 70
0
 10
106.4014016101
 20
-177.6605060393
 10
106.3582359233
 20
-177.6347102173
 10
106.274101643
 20
-177.5791229742
 10
106.1931775434
 20
-177.5183447053
 10
106.1154519431
 20
-177.4523942998
 10
106.0412083565
 20
-177.3815123203
 10
105.9704594999
 20
-177.3056807562
 10
105.9031926569
 20
-177.2249176181
 10
105.8396531921
 20
-177.1395174999
 10
105.7798547179
 20
-177.0494634671
 10
105.7237836218
 20
-176.9547724542
 10
105.6716444304
 20
-176.855789859
 10
105.6234515033
 20
-176.7525000083
 10
105.5791904808
 20
-176.6449185752
 10
105.5390228107
 20
-176.533437977
 10
105.5029634423
 20
-176.4180439736
 10
105.4709974264
 20
-176.298750805
 10
105.4432413631
 20
-176.1759936085
 10
105.4197106275
 20
-176.0497597332
 10
105.4003898446
 20
-175.9200618301
 10
105.3853494893
 20
-175.7873729889
 10
105.3746130534
 20
-175.6518509062
 10
105.3681570451
 20
-175.5133378856
 10
105.3659814646
 20
-175.3718339269
  0
LWPOLYLINE
  5
273
100
AcDbEntity
  8
0
100
AcDbPolyline
 62
7
  6
CONTINUOUS
 90
15
 70
0
 10
-64.4457120373
 20
-67.4035624844
 10
-64.5997646396
 20
-67.2961216106
 10
-64.7411859959
 20
-67.1707121817
 10
-64.8699761061
 20
-67.0273341977
 10
-64.9892172081
 20
-66.8606490658
 10
-65.0958270641
 20
-66.6759953788
 10
-65.1805589602
 20
-66.4893889149
 10
-65.2414588357
 20
-66.3006552592
 10
-65.2804807513
 20
-66.1099688266
 10
-65.2942401748
 20
-65.9338686403
 10
-65.2804807513
 20
-65.7736574914
 10
-65.2414588357
 20
-65.6280325887
 10
-65.1805589602
 20
-65.5096245828
 10
-65.0958270641
 20
-65.4208643886
 10
-65.0447079087
 20
-65.3863737206
  0
LWPOLYLINE
  5
274
100
AcDbEntity
  8
0
100
AcDbPolyline
 62
7
  6
CONTINUOUS
 90
15
 70
0
 10
-64.4457120373
 20
-65.4440338201
 10
-64.291659435
 20
-65.551474694
 10
-64.1502380788
 20
-65.6768841229
 10
-64.0214479686
 20
-65.8202621069
 10
-63.9022068666
 20
-65.9869472388
 10
-63.7955970106
 20
-66.1716009258
 10
-63.7108651145
 20
-66.3582073897
 10
-63.649965239
 20
-66.5469410454
 10
-63.6109433234
 20
-66.737627478
 10
-63.5971838999
 20
-66.9137276643
 10
-63.6109433234
 20
-67.0739388132
 10
-63.649965239
 20
-67.2195637158
 10
-63.7108651145
 20
-67.3379717218
 10
-63.7955970106
 20
-67.426731916
 10
-63.846716166
 20
-67.461222584
  0
LWPOLYLINE
  5
275
100
AcDbEntity
  8
0
100
AcDbPolyline
 62
7
  6
CONTINUOUS
 90
15
 70
0
 10
-13.1804704013
 20
-97.0034705007
 10
-13.3345230036
 20
-96.8960296269
 10
-13.4759443599
 20
-96.770620198
 10
-13.60473447
 20
-96.6272422139
 10
-13.7239755721
 20
-96.460557082
 10
-13.8305854281
 20
-96.275903395
 10
-13.9153173242
 20
-96.0892969312
 10
-13.9762171997
 20
-95.9005632754
 10
-14.0152391153
 20
-95.7098768428
 10
-14.0289985387
 20
-95.5337766566
 10
-14.0152391153
 20
-95.3735655076
 10
-13.9762171997
 20
-95.227940605
 10
-13.9153173242
 20
-95.109532599
 10
-13.8305854281
 20
-95.0207724048
 10
-13.7794662726
 20
-94.9862817369
  0
LWPOLYLINE
  5
276
100
AcDbEntity
  8
0
100
AcDbPolyline
 62
7
  6
CONTINUOUS
 90
15
 70
0
 10
-13.1804704013
 20
-95.0439418364
 10
-13.026417799
 20
-95.1513827102
 10
-12.8849964428
 20
-95.2767921392
 10
-12.7562063326
 20
-95.4201701232
 10
-12.6369652305
 20
-95.5868552551
 10
-12.5303553745
 20
-95.7715089421
 10
-12.4456234785
 20
-95.9581154059
 10
-12.3847236029
 20
-96.1468490617
 10
-12.3457016874
 20
-96.3375354943
 10
-12.3319422639
 20
-96.5136356805
 10
-12.3457016874
 20
-96.6738468295
 10
-12.3847236029
 20
-96.8194717321
 10
-12.4456234785
 20
-96.9378797381
 10
-12.5303553745
 20
-97.0266399323
 10
-12.58147453
 20
-97.0611306002
  0
LWPOLYLINE
  5
277
100
AcDbEntity
  8
0
100
AcDbPolyline
 62
7
  6
CONTINUOUS
 90
18
 70
0
 10
-82.5602913279
 20
-38.3209861799
 10
-82.5362742115
 20
-38.3664225573
 10
-82.5109496257
 20
-38.4110654709
 10
-82.4842435682
 20
-38.4550289616
 10
-82.4562300412
 20
-38.4981989884
 10
-82.4271310517
 20
-38.5402334294
 10
-82.3969379748
 20
-38.5811232611
 10
-82.3656594354
 20
-38.6208775069
 10
-82.3335433158
 20
-38.6591811147
 10
-82.3005829606
 20
-38.6960225577
 10
-82.2667850252
 20
-38.7314133627
 10
-82.232417358
 20
-38.7650730577
 10
-82.1974754318
 20
-38.7969878875
 10
-82.1619637738
 20
-38.8271716074
 10
-82.1261638137
 20
-38.8553850115
 10
-82.0901693612
 20
-38.8815483647
 10
-82.0538866066
 20
-38.9057414023
 10
-82.0173155498
 20
-38.9279641241
  0
LWPOLYLINE
  5
278
100
AcDbEntity
  8
0
100
AcDbPolyline
 62
7
  6
CONTINUOUS
 90
37
 70
0
 10
-83.9745048902
 20
-39.1375353665
 10
-84.0390038052
 20
-39.005974635
 10
-84.0830488522
 20
-38.9219499663
 10
-84.1293496782
 20
-38.8392315195
 10
-84.1780209936
 20
-38.7576384566
 10
-84.228948088
 20
-38.6773516154
 10
-84.2817868298
 20
-38.5989135098
 10
-84.3365501648
 20
-38.5223366605
 10
-84.3932251473
 20
-38.4476085466
 10
-84.4514288078
 20
-38.3752341195
 10
-84.5111714987
 20
-38.3052293195
 10
-84.5724428677
 20
-38.2375782062
 10
-84.6348288884
 20
-38.1727379098
 10
-84.6983371093
 20
-38.1107274662
 10
-84.762959982
 20
-38.0515278395
 10
-84.8282608346
 20
-37.9955390517
 10
-84.8942442585
 20
-37.9427828477
 10
-84.9609056623
 20
-37.8932374825
 10
-85.0277946004
 20
-37.8472377434
 10
-85.0949126134
 20
-37.8048076425
 10
-85.1622581607
 20
-37.7659231675
 10
-85.2293761737
 20
-37.7308470694
 10
-85.2962651118
 20
-37.6996051395
 10
-85.3629265156
 20
-37.6721715864
 10
-85.4289099395
 20
-37.6487317865
 10
-85.4942107921
 20
-37.6293127865
 10
-85.5588336648
 20
-37.6138875396
 10
-85.6223418857
 20
-37.6025602815
 10
-85.6847279064
 20
-37.595358765
 10
-85.7459992754
 20
-37.5922552372
 10
-85.8057419663
 20
-37.5932706753
 10
-85.8639456268
 20
-37.5984329742
 10
-85.9206206093
 20
-37.6077142389
 10
-85.9753839443
 20
-37.6210517616
 10
-86.0282226861
 20
-37.6384730127
 10
-86.0791497805
 20
-37.6599505218
 10
-86.1286337056
 20
-37.6858076023
  0
LWPOLYLINE
  5
279
100
AcDbEntity
  8
0
100
AcDbPolyline
 62
7
  6
CONTINUOUS
 90
37
 70
0
 10
-82.5602913279
 20
-38.3209861799
 10
-82.6247902428
 20
-38.1894254483
 10
-82.6688352898
 20
-38.1054007797
 10
-82.7151361158
 20
-38.0226823328
 10
-82.7638074312
 20
-37.9410892699
 10
-82.8147345256
 20
-37.8608024288
 10
-82.8675732674
 20
-37.7823643232
 10
-82.9223366025
 20
-37.7057874738
 10
-82.9790115849
 20
-37.63105936
 10
-83.0372152454
 20
-37.5586849328
 10
-83.0969579363
 20
-37.4886801328
 10
-83.1582293053
 20
-37.4210290195
 10
-83.220615326
 20
-37.3561887231
 10
-83.2841235469
 20
-37.2941782796
 10
-83.3487464196
 20
-37.2349786529
 10
-83.4140472723
 20
-37.178989865
 10
-83.4800306961
 20
-37.126233661
 10
-83.5466921
 20
-37.0766882959
 10
-83.613581038
 20
-37.0306885568
 10
-83.680699051
 20
-36.9882584558
 10
-83.7480445983
 20
-36.9493739809
 10
-83.8151626114
 20
-36.9142978827
 10
-83.8820515494
 20
-36.8830559528
 10
-83.9487129532
 20
-36.8556223998
 10
-84.0146963771
 20
-36.8321825998
 10
-84.0799972297
 20
-36.8127635998
 10
-84.1446201024
 20
-36.797338353
 10
-84.2081283234
 20
-36.7860110949
 10
-84.2705143441
 20
-36.7788095783
 10
-84.331785713
 20
-36.7757060506
 10
-84.3915284039
 20
-36.7767214886
 10
-84.4497320644
 20
-36.7818837875
 10
-84.5064070469
 20
-36.7911650523
 10
-84.5611703819
 20
-36.804502575
 10
-84.6140091237
 20
-36.8219238261
 10
-84.6649362181
 20
-36.8434013351
 10
-84.7144201432
 20
-36.8692584156
  0
LWPOLYLINE
  5
27A
100
AcDbEntity
  8
ASSI
100
AcDbPolyline
 62
7
  6
CONTINUOUS
 90
40
 70
0
 10
-81.9466048717
 20
-46.1129065054
 10
-81.9450666459
 20
-46.1941785887
 10
-81.9405295985
 20
-46.2767262903
 10
-81.9329937295
 20
-46.36054961
 10
-81.9224333099
 20
-46.4458127582
 10
-81.9088740687
 20
-46.5323515245
 10
-81.8923931933
 20
-46.6196732782
 10
-81.8729740204
 20
-46.7077824849
 10
-81.8506332134
 20
-46.796674679
 10
-81.8254979495
 20
-46.8858438323
 10
-81.7975522909
 20
-46.9752915246
 10
-81.7668121754
 20
-47.0650161762
 10
-81.7334525944
 20
-47.1545070203
 10
-81.6974586079
 20
-47.2437627234
 10
-81.6588451558
 20
-47.3327846189
 10
-81.6178320493
 20
-47.4210659405
 10
-81.5744056021
 20
-47.5086024645
 10
-81.5285795004
 20
-47.5953984147
 10
-81.480614614
 20
-47.680959696
 10
-81.4304987446
 20
-47.7652792667
 10
-81.3782440906
 20
-47.8483641687
 10
-81.3241481168
 20
-47.9297414325
 10
-81.2682003217
 20
-48.0094013187
 10
-81.2104112068
 20
-48.0873535668
 10
-81.1511097429
 20
-48.1631544255
 10
-81.0902873042
 20
-48.2367916245
 10
-81.0279525164
 20
-48.3082774341
 10
-80.9644602267
 20
-48.3772049139
 10
-80.8998038334
 20
-48.4435594728
 10
-80.8339899381
 20
-48.507355702
 10
-80.7673931933
 20
-48.5682304347
 10
-80.7000091341
 20
-48.6261670086
 10
-80.6318422253
 20
-48.6811820861
 10
-80.5632805142
 20
-48.7329624882
 10
-80.4943217491
 20
-48.7814897662
 10
-80.4249681816
 20
-48.8267823688
 10
-80.355614614
 20
-48.8685824632
 10
-80.2862610465
 20
-48.9068701301
 10
-80.216907479
 20
-48.9416652889
 10
-80.1880420348
 20
-48.9546853507
  0
LWPOLYLINE
  5
27B
100
AcDbEntity
  8
ASSI
100
AcDbPolyline
 62
7
  6
CONTINUOUS
 90
55
 70
0
 10
-80.1788379187
 20
-46.72551567
 10
-80.1803761446
 20
-46.6442435867
 10
-80.184913192
 20
-46.5616958852
 10
-80.1924490609
 20
-46.4778725655
 10
-80.2030094806
 20
-46.3926094173
 10
-80.2165687218
 20
-46.3060706509
 10
-80.2330495972
 20
-46.2187488972
 10
-80.25246877
 20
-46.1306396905
 10
-80.2748095771
 20
-46.0417474965
 10
-80.2999448409
 20
-45.9525783431
 10
-80.3278904996
 20
-45.8631306508
 10
-80.3586306151
 20
-45.7734059992
 10
-80.3919901961
 20
-45.6839151551
 10
-80.4279841826
 20
-45.5946594521
 10
-80.4665976346
 20
-45.5056375566
 10
-80.5076107411
 20
-45.4173562349
 10
-80.5510371883
 20
-45.3298197109
 10
-80.5968632901
 20
-45.2430237608
 10
-80.6448281764
 20
-45.1574624794
 10
-80.6949440458
 20
-45.0731429087
 10
-80.7471986999
 20
-44.9900580068
 10
-80.8012946736
 20
-44.908680743
 10
-80.8572424688
 20
-44.8290208567
 10
-80.9150315836
 20
-44.7510686087
 10
-80.9743330476
 20
-44.67526775
 10
-81.0351554862
 20
-44.601630551
 10
-81.097490274
 20
-44.5301447414
 10
-81.1609825637
 20
-44.4612172615
 10
-81.2256389571
 20
-44.3948627026
 10
-81.2914528524
 20
-44.3310664735
 10
-81.3580495972
 20
-44.2701917407
 10
-81.4254336564
 20
-44.2122551669
 10
-81.4936005651
 20
-44.1572400894
 10
-81.5621622762
 20
-44.1054596873
 10
-81.6311210414
 20
-44.0569324093
 10
-81.7004746089
 20
-44.0116398067
 10
-81.7698281764
 20
-43.9698397123
 10
-81.8391817439
 20
-43.9315520453
 10
-81.9085353114
 20
-43.8967568866
 10
-81.9774940766
 20
-43.8656523111
 10
-82.0460557877
 20
-43.8382593678
 10
-82.1142226964
 20
-43.8145570077
 10
-82.1816067557
 20
-43.794680159
 10
-82.2482035005
 20
-43.7786506402
 10
-82.3140173957
 20
-43.7664466328
 10
-82.3786737891
 20
-43.7581376093
 10
-82.4421660788
 20
-43.7537457845
 10
-82.5045008666
 20
-43.7532489436
 10
-82.5653233052
 20
-43.756649915
 10
-82.6246247692
 20
-43.7639709296
 10
-82.682413884
 20
-43.7751897564
 10
-82.7383616792
 20
-43.7902425311
 10
-82.7924576529
 20
-43.8091511204
 10
-82.844712307
 20
-43.8318936576
 10
-82.8948825367
 20
-43.8583720625
  0
LINE
  5
27C
100
AcDbEntity
  8
ASSI
100
AcDbLine
 62
7
  6
CONTINUOUS
 10
-83.3608184341
 20
-46.9294556921
 11
-83.3608184341
 21
-44.8882800001
  0
LINE
  5
27D
100
AcDbEntity
  8
ASSI
100
AcDbLine
 62
7
  6
CONTINUOUS
 10
-81.9466048717
 20
-46.1129065054
 11
-81.9466048717
 21
-44.0717308134
  0
LINE
  5
27E
100
AcDbEntity
  8
ASSI
100
AcDbLine
 62
7
  6
CONTINUOUS
 10
-80.1788379187
 20
-46.72551567
 11
-80.1788379187
 21
-48.766691362
  0
LWPOLYLINE
  5
27F
100
AcDbEntity
  8
ASSI
100
AcDbPolyline
 62
7
  6
CONTINUOUS
 90
4
 70
0
 10
-81.9374007557
 20
-43.8837368247
 10
-81.9405295985
 20
-43.9149266018
 10
-81.9450666459
 20
-43.9922350347
 10
-81.9466048717
 20
-44.0717308134
  0
LWPOLYLINE
  5
280
100
AcDbEntity
  8
ASSI
100
AcDbPolyline
 62
7
  6
CONTINUOUS
 90
12
 70
0
 10
-63.6241847314
 20
-67.3351215473
 10
-63.6113217991
 20
-67.337967098
 10
-63.5666295452
 20
-67.3449989845
 10
-63.5228093536
 20
-67.3489617157
 10
-63.479854779
 20
-67.3498779759
 10
-63.4380848742
 20
-67.3477409593
 10
-63.3975084603
 20
-67.342527931
 10
-63.3581167162
 20
-67.334261626
 10
-63.3202022311
 20
-67.3230034438
 10
-63.283776005
 20
-67.3087311064
 10
-63.2488270379
 20
-67.2914668918
 10
-63.2403537819
 20
-67.2866999672
  0
LWPOLYLINE
  5
281
100
AcDbEntity
  8
0
100
AcDbPolyline
 62
7
  6
CONTINUOUS
 90
13
 70
0
 10
34.5542880915
 20
-87.6882203857
 10
34.4798723102
 20
-87.670165665
 10
34.4067419172
 20
-87.6564502712
 10
34.3348969125
 20
-87.6470742045
 10
34.2642052852
 20
-87.6420362296
 10
34.1947990462
 20
-87.6413375817
 10
34.1270742279
 20
-87.6449819663
 10
34.0610404537
 20
-87.6529942054
 10
33.9966881003
 20
-87.665349477
 10
33.9343843298
 20
-87.6819770203
 10
33.8741408612
 20
-87.7029012501
 10
33.8159459754
 20
-87.7280977516
 10
33.7587963439
 20
-87.7581918979
  0
LWPOLYLINE
  5
282
100
AcDbEntity
  8
0
100
AcDbPolyline
 62
7
  6
CONTINUOUS
 90
12
 70
0
 10
98.436335009
 20
-143.1196403414
 10
98.4729060658
 20
-143.1396489592
 10
98.5091888204
 20
-143.1573543373
 10
98.5451832728
 20
-143.1727564755
 10
98.580983233
 20
-143.1858839679
 10
98.616494891
 20
-143.1967082206
 10
98.6514368171
 20
-143.2051434513
 10
98.6858044844
 20
-143.2111706769
 10
98.7196024198
 20
-143.2148088806
 10
98.752562775
 20
-143.2160292296
 10
98.7846788946
 20
-143.2148125117
 10
98.8001919633
 20
-143.21300989
  0
LWPOLYLINE
  5
283
100
AcDbEntity
  8
0
100
AcDbPolyline
 62
7
  6
CONTINUOUS
 90
12
 70
0
 10
56.0099281378
 20
-118.6231647417
 10
56.0464991946
 20
-118.6431733596
 10
56.0827819492
 20
-118.6608787376
 10
56.1187764016
 20
-118.6762808758
 10
56.1545763618
 20
-118.6894083683
 10
56.1900880198
 20
-118.7002326209
 10
56.2250299459
 20
-118.7086678516
 10
56.2593976132
 20
-118.7146950772
 10
56.2931955486
 20
-118.7183332809
 10
56.3261559038
 20
-118.71955363
 10
56.3582720234
 20
-118.7183369121
 10
56.3737850921
 20
-118.7165342903
  0
LWPOLYLINE
  5
284
100
AcDbEntity
  8
0
100
AcDbPolyline
 62
7
  6
CONTINUOUS
 90
12
 70
0
 10
27.7256568903
 20
-102.2921810086
 10
27.7622279471
 20
-102.3121896264
 10
27.7985107017
 20
-102.3298950045
 10
27.8345051542
 20
-102.3452971427
 10
27.8703051143
 20
-102.3584246352
 10
27.9058167723
 20
-102.3692488878
 10
27.9407586984
 20
-102.3776841185
 10
27.9751263657
 20
-102.3837113441
 10
28.0089243011
 20
-102.3873495478
 10
28.0418846563
 20
-102.3885698968
 10
28.0740007759
 20
-102.3873531789
 10
28.0895138447
 20
-102.3855505572
  0
LWPOLYLINE
  5
285
100
AcDbEntity
  8
0
100
AcDbPolyline
 62
7
  6
CONTINUOUS
 90
12
 70
0
 10
-14.7007499809
 20
-77.7957054089
 10
-14.6641789241
 20
-77.8157140268
 10
-14.6278961695
 20
-77.8334194048
 10
-14.591901717
 20
-77.848821543
 10
-14.5561017569
 20
-77.8619490355
 10
-14.5205900989
 20
-77.8727732881
 10
-14.4856481727
 20
-77.8812085188
 10
-14.4512805055
 20
-77.8872357445
 10
-14.4174825701
 20
-77.8908739482
 10
-14.3845222149
 20
-77.8920942972
 10
-14.3524060953
 20
-77.8908775793
 10
-14.3368930265
 20
-77.8890749576
  0
LWPOLYLINE
  5
286
100
AcDbEntity
  8
0
100
AcDbPolyline
 62
7
  6
CONTINUOUS
 90
12
 70
0
 10
-42.9850212283
 20
-61.4647216758
 10
-42.9484501715
 20
-61.4847302937
 10
-42.9121674169
 20
-61.5024356717
 10
-42.8761729645
 20
-61.5178378099
 10
-42.8403730043
 20
-61.5309653024
 10
-42.8048613464
 20
-61.541789555
 10
-42.7699194202
 20
-61.5502247857
 10
-42.735551753
 20
-61.5562520114
 10
-42.7017538175
 20
-61.5598902151
 10
-42.6687934623
 20
-61.5611105641
 10
-42.6366773427
 20
-61.5598938462
 10
-42.621164274
 20
-61.5580912245
  0
LWPOLYLINE
  5
287
100
AcDbEntity
  8
0
100
AcDbPolyline
 62
7
  6
CONTINUOUS
 90
12
 70
0
 10
-85.4114280995
 20
-36.9682460762
 10
-85.3748570427
 20
-36.988254694
 10
-85.3385742881
 20
-37.005960072
 10
-85.3025798357
 20
-37.0213622103
 10
-85.2667798755
 20
-37.0344897027
 10
-85.2312682175
 20
-37.0453139554
 10
-85.1963262914
 20
-37.0537491861
 10
-85.1619586241
 20
-37.0597764117
 10
-85.1281606887
 20
-37.0634146154
 10
-85.0952003335
 20
-37.0646349644
 10
-85.0630842139
 20
-37.0634182465
 10
-85.0475711452
 20
-37.0616156248
  0
LINE
  5
288
100
AcDbEntity
  8
RACCORDO
100
AcDbLine
 62
7
  6
CONTINUOUS
 10
-63.8353198621
 20
-58.4070357853
 11
-61.9707016229
 21
-59.4836429875
  0
LINE
  5
289
100
AcDbEntity
  8
RACCORDO
100
AcDbLine
 62
7
  6
CONTINUOUS
 10
6.8753582566
 20
-99.2344951181
 11
8.7399764958
 21
-100.3111023202
  0
LINE
  5
28A
100
AcDbEntity
  8
RACCORDO
100
AcDbLine
 62
7
  6
CONTINUOUS
 10
77.5860363753
 20
-140.0619544509
 11
79.4506546144
 21
-141.138561653
  0
LINE
  5
28B
100
AcDbEntity
  8
0
100
AcDbLine
 62
7
  6
CONTINUOUS
 10
105.0831387521
 20
-148.590519892
 11
100.4162339963
 21
-145.895907576
  0
LINE
  5
28C
100
AcDbEntity
  8
0
100
AcDbLine
 62
7
  6
CONTINUOUS
 10
97.0221214466
 20
-143.936189528
 11
57.9898271251
 21
-121.3994319763
  0
LINE
  5
28D
100
AcDbEntity
  8
0
100
AcDbLine
 62
7
  6
CONTINUOUS
 10
54.5957145754
 20
-119.4397139284
 11
49.9288098196
 21
-116.7451016124
  0
LINE
  5
28E
100
AcDbEntity
  8
0
100
AcDbLine
 62
7
  6
CONTINUOUS
 10
34.3724606335
 20
-107.7630605592
 11
29.7055558776
 21
-105.0684482432
  0
LINE
  5
28F
100
AcDbEntity
  8
0
100
AcDbLine
 62
7
  6
CONTINUOUS
 10
26.311443328
 20
-103.1087301953
 11
-12.7208509935
 21
-80.5719726436
  0
LINE
  5
290
100
AcDbEntity
  8
0
100
AcDbLine
 62
7
  6
CONTINUOUS
 10
-16.1149635432
 20
-78.6122545956
 11
-20.7818682991
 21
-75.9176422796
  0
LINE
  5
291
100
AcDbEntity
  8
0
100
AcDbLine
 62
7
  6
CONTINUOUS
 10
-36.3382174852
 20
-66.9356012264
 11
-41.005122241
 21
-64.2409889105
  0
LINE
  5
292
100
AcDbEntity
  8
0
100
AcDbLine
 62
7
  6
CONTINUOUS
 10
-44.3992347907
 20
-62.2812708625
 11
-83.4315291122
 21
-39.7445133108
  0
LINE
  5
293
100
AcDbEntity
  8
0
100
AcDbLine
 62
7
  6
CONTINUOUS
 10
-86.8256416619
 20
-37.7847952628
 11
-91.4925464177
 21
-35.0901829469
  0
LINE
  5
294
100
AcDbEntity
  8
0
100
AcDbLine
 62
7
  6
CONTINUOUS
 10
105.3659814646
 20
-147.120731356
 11
101.8304475587
 21
-145.0793583893
  0
LINE
  5
295
100
AcDbEntity
  8
0
100
AcDbLine
 62
7
  6
CONTINUOUS
 10
98.436335009
 20
-143.1196403414
 11
59.4040406875
 21
-120.5828827897
  0
LINE
  5
296
100
AcDbEntity
  8
0
100
AcDbLine
 62
7
  6
CONTINUOUS
 10
56.0099281378
 20
-118.6231647417
 11
51.343023382
 21
-115.9285524257
  0
LINE
  5
297
100
AcDbEntity
  8
0
100
AcDbLine
 62
7
  6
CONTINUOUS
 10
35.0795674147
 20
-106.5382367792
 11
31.11976944
 21
-104.2518990566
  0
LINE
  5
298
100
AcDbEntity
  8
0
100
AcDbLine
 62
7
  6
CONTINUOUS
 10
27.7256568903
 20
-102.2921810086
 11
-11.3066374312
 21
-79.7554234569
  0
LINE
  5
299
100
AcDbEntity
  8
0
100
AcDbLine
 62
7
  6
CONTINUOUS
 10
-14.7007499809
 20
-77.7957054089
 11
-19.3676547367
 21
-75.101093093
  0
LINE
  5
29A
100
AcDbEntity
  8
0
100
AcDbLine
 62
7
  6
CONTINUOUS
 10
-35.631110704
 20
-65.7107774464
 11
-39.5909086786
 21
-63.4244397238
  0
LINE
  5
29B
100
AcDbEntity
  8
0
100
AcDbLine
 62
7
  6
CONTINUOUS
 10
-42.9850212283
 20
-61.4647216758
 11
-82.0173155498
 21
-38.9279641241
  0
LINE
  5
29C
100
AcDbEntity
  8
0
100
AcDbLine
 62
7
  6
CONTINUOUS
 10
-85.4114280995
 20
-36.9682460762
 11
-90.0783328554
 21
-34.2736337602
  0
LWPOLYLINE
  5
29D
100
AcDbEntity
  8
0
100
AcDbPolyline
 62
7
  6
CONTINUOUS
 90
18
 70
0
 10
-83.4315291122
 20
-39.7445133108
 10
-83.468100169
 20
-39.7222905889
 10
-83.5043829236
 20
-39.6980975514
 10
-83.5403773761
 20
-39.6719341982
 10
-83.5761773362
 20
-39.643720794
 10
-83.6116889942
 20
-39.6135370742
 10
-83.6466309203
 20
-39.5816222444
 10
-83.6809985876
 20
-39.5479625493
 10
-83.714796523
 20
-39.5125717444
 10
-83.7477568782
 20
-39.4757303014
 10
-83.7798729978
 20
-39.4374266936
 10
-83.8111515372
 20
-39.3976724478
 10
-83.8413446141
 20
-39.3567826161
 10
-83.8704436035
 20
-39.3147481751
 10
-83.8984571305
 20
-39.2715781482
 10
-83.9251631881
 20
-39.2276146576
 10
-83.9504877739
 20
-39.1829717439
 10
-83.9745048902
 20
-39.1375353665
  0
LWPOLYLINE
  5
29E
100
AcDbEntity
  8
0
100
AcDbPolyline
 62
7
  6
CONTINUOUS
 90
18
 70
0
 10
-41.005122241
 20
-64.2409889105
 10
-41.0416932978
 20
-64.2187661886
 10
-41.0779760524
 20
-64.1945731511
 10
-41.1139705049
 20
-64.1684097978
 10
-41.149770465
 20
-64.1401963937
 10
-41.185282123
 20
-64.1100126738
 10
-41.2202240491
 20
-64.0780978441
 10
-41.2545917164
 20
-64.044438149
 10
-41.2883896518
 20
-64.009047344
 10
-41.321350007
 20
-63.972205901
 10
-41.3534661266
 20
-63.9339022933
 10
-41.384744666
 20
-63.8941480474
 10
-41.4149377429
 20
-63.8532582157
 10
-41.4440367323
 20
-63.8112237748
 10
-41.4720502593
 20
-63.7680537479
 10
-41.4987563169
 20
-63.7240902573
 10
-41.5240809027
 20
-63.6794473436
 10
-41.548098019
 20
-63.6340109662
  0
LWPOLYLINE
  5
29F
100
AcDbEntity
  8
0
100
AcDbPolyline
 62
7
  6
CONTINUOUS
 90
18
 70
0
 10
-12.7208509935
 20
-80.5719726436
 10
-12.7574220503
 20
-80.5497499217
 10
-12.793704805
 20
-80.5255568842
 10
-12.8296992574
 20
-80.4993935309
 10
-12.8654992175
 20
-80.4711801268
 10
-12.9010108755
 20
-80.4409964069
 10
-12.9359528017
 20
-80.4090815772
 10
-12.9703204689
 20
-80.3754218821
 10
-13.0041184044
 20
-80.3400310771
 10
-13.0370787596
 20
-80.3031896341
 10
-13.0691948791
 20
-80.2648860264
 10
-13.1004734185
 20
-80.2251317806
 10
-13.1306664954
 20
-80.1842419488
 10
-13.1597654849
 20
-80.1422075079
 10
-13.1877790119
 20
-80.099037481
 10
-13.2144850694
 20
-80.0550739904
 10
-13.2398096552
 20
-80.0104310767
 10
-13.2638267716
 20
-79.9649946993
  0
LWPOLYLINE
  5
2A0
100
AcDbEntity
  8
0
100
AcDbPolyline
 62
7
  6
CONTINUOUS
 90
18
 70
0
 10
29.7055558776
 20
-105.0684482432
 10
29.6689848209
 20
-105.0462255214
 10
29.6327020662
 20
-105.0220324838
 10
29.5967076138
 20
-104.9958691306
 10
29.5609076536
 20
-104.9676557264
 10
29.5253959957
 20
-104.9374720066
 10
29.4904540695
 20
-104.9055571768
 10
29.4560864023
 20
-104.8718974818
 10
29.4222884668
 20
-104.8365066768
 10
29.3893281116
 20
-104.7996652338
 10
29.357211992
 20
-104.761361626
 10
29.3259334527
 20
-104.7216073802
 10
29.2957403758
 20
-104.6807175485
 10
29.2666413863
 20
-104.6386831075
 10
29.2386278593
 20
-104.5955130807
 10
29.2119218018
 20
-104.55154959
 10
29.186597216
 20
-104.5069066764
 10
29.1625800996
 20
-104.461470299
  0
LWPOLYLINE
  5
2A1
100
AcDbEntity
  8
0
100
AcDbPolyline
 62
7
  6
CONTINUOUS
 90
18
 70
0
 10
57.9898271251
 20
-121.3994319763
 10
57.9532560683
 20
-121.3772092545
 10
57.9169733137
 20
-121.3530162169
 10
57.8809788613
 20
-121.3268528637
 10
57.8451789011
 20
-121.2986394596
 10
57.8096672431
 20
-121.2684557397
 10
57.774725317
 20
-121.2365409099
 10
57.7403576497
 20
-121.2028812149
 10
57.7065597143
 20
-121.1674904099
 10
57.6735993591
 20
-121.1306489669
 10
57.6414832395
 20
-121.0923453591
 10
57.6102047001
 20
-121.0525911133
 10
57.5800116232
 20
-121.0117012816
 10
57.5509126338
 20
-120.9696668406
 10
57.5228991068
 20
-120.9264968138
 10
57.4961930492
 20
-120.8825333231
 10
57.4708684634
 20
-120.8378904095
 10
57.4468513471
 20
-120.7924540321
  0
LWPOLYLINE
  5
2A2
100
AcDbEntity
  8
0
100
AcDbPolyline
 62
7
  6
CONTINUOUS
 90
18
 70
0
 10
100.4162339963
 20
-145.895907576
 10
100.3796629395
 20
-145.8736848541
 10
100.3433801849
 20
-145.8494918166
 10
100.3073857324
 20
-145.8233284634
 10
100.2715857723
 20
-145.7951150592
 10
100.2360741143
 20
-145.7649313394
 10
100.2011321882
 20
-145.7330165096
 10
100.1667645209
 20
-145.6993568145
 10
100.1329665855
 20
-145.6639660096
 10
100.1000062303
 20
-145.6271245666
 10
100.0678901107
 20
-145.5888209588
 10
100.0366115713
 20
-145.549066713
 10
100.0064184944
 20
-145.5081768813
 10
99.977319505
 20
-145.4661424403
 10
99.949305978
 20
-145.4229724134
 10
99.9225999204
 20
-145.3790089228
 10
99.8972753346
 20
-145.3343660092
 10
99.8732582183
 20
-145.2889296318
  0
LWPOLYLINE
  5
2A3
100
AcDbEntity
  8
0
100
AcDbPolyline
 62
7
  6
CONTINUOUS
 90
31
 70
0
 10
-91.4925464177
 20
-35.0901829469
 10
-91.5297210114
 20
-35.0675744001
 10
-91.5665929684
 20
-35.042934293
 10
-91.6031622888
 20
-35.0162626253
 10
-91.6395273674
 20
-34.9874753091
 10
-91.6755898094
 20
-34.9566564324
 10
-91.71105443
 20
-34.9240582595
 10
-91.7459163224
 20
-34.8896661861
 10
-91.7801803934
 20
-34.8534948164
 10
-91.8135661787
 20
-34.8158402268
 10
-91.8460664694
 20
-34.7766902433
 10
-91.8776884744
 20
-34.7360570398
 10
-91.9081733555
 20
-34.6942732145
 10
-91.9375117795
 20
-34.6513293234
 10
-91.9657130797
 20
-34.6072348104
 10
-91.9925464177
 20
-34.5623506059
 10
-92.0180005657
 20
-34.5166702282
 10
-92.0420867515
 20
-34.470200159
 10
-92.0646078205
 20
-34.4233207733
 10
-92.0855509268
 20
-34.3760287116
 10
-92.1049289164
 20
-34.3283273335
 10
-92.1225831731
 20
-34.2806070927
 10
-92.1384995489
 20
-34.2328678345
 10
-92.1526921918
 20
-34.1851097137
 10
-92.1650449297
 20
-34.1377236486
 10
-92.175542661
 20
-34.0907126928
 10
-92.1842004874
 20
-34.0440737928
 10
-92.1909475411
 20
-33.9981887054
 10
-92.1957601996
 20
-33.9531846832
 10
-92.1986620856
 20
-33.9089344736
 10
-92.1996531989
 20
-33.8654380767
  0
LWPOLYLINE
  5
2A4
100
AcDbEntity
  8
0
100
AcDbPolyline
 62
7
  6
CONTINUOUS
 90
31
 70
0
 10
-20.7818682991
 20
-75.9176422796
 10
-20.8190428927
 20
-75.8950337329
 10
-20.8559148498
 20
-75.8703936257
 10
-20.8924841701
 20
-75.8437219581
 10
-20.9288492487
 20
-75.8149346419
 10
-20.9649116907
 20
-75.7841157652
 10
-21.0003763113
 20
-75.7515175922
 10
-21.0352382037
 20
-75.7171255189
 10
-21.0695022748
 20
-75.6809541492
 10
-21.10288806
 20
-75.6432995596
 10
-21.1353883508
 20
-75.6041495761
 10
-21.1670103557
 20
-75.5635163726
 10
-21.1974952369
 20
-75.5217325473
 10
-21.2268336609
 20
-75.4787886562
 10
-21.2550349611
 20
-75.4346941432
 10
-21.2818682991
 20
-75.3898099387
 10
-21.307322447
 20
-75.344129561
 10
-21.3314086328
 20
-75.2976594918
 10
-21.3539297019
 20
-75.2507801061
 10
-21.3748728082
 20
-75.2034880444
 10
-21.3942507977
 20
-75.1557866663
 10
-21.4119050544
 20
-75.1080664255
 10
-21.4278214302
 20
-75.0603271673
 10
-21.4420140731
 20
-75.0125690465
 10
-21.454366811
 20
-74.9651829813
 10
-21.4648645424
 20
-74.9181720256
 10
-21.4735223687
 20
-74.8715331256
 10
-21.4802694224
 20
-74.8256480382
 10
-21.485082081
 20
-74.7806440159
 10
-21.4879839669
 20
-74.7363938064
 10
-21.4889750803
 20
-74.6928974095
  0
LWPOLYLINE
  5
2A5
100
AcDbEntity
  8
0
100
AcDbPolyline
 62
7
  6
CONTINUOUS
 90
31
 70
0
 10
49.9288098196
 20
-116.7451016124
 10
49.8916352259
 20
-116.7224930657
 10
49.8547632689
 20
-116.6978529585
 10
49.8181939485
 20
-116.6711812908
 10
49.7818288699
 20
-116.6423939746
 10
49.7457664279
 20
-116.611575098
 10
49.7103018074
 20
-116.578976925
 10
49.6754399149
 20
-116.5445848517
 10
49.6411758439
 20
-116.508413482
 10
49.6077900586
 20
-116.4707588924
 10
49.5752897679
 20
-116.4316089089
 10
49.5436677629
 20
-116.3909757054
 10
49.5131828818
 20
-116.3491918801
 10
49.4838444578
 20
-116.3062479889
 10
49.4556431576
 20
-116.262153476
 10
49.4288098196
 20
-116.2172692714
 10
49.4033556716
 20
-116.1715888938
 10
49.3792694859
 20
-116.1251188245
 10
49.3567484168
 20
-116.0782394389
 10
49.3358053105
 20
-116.0309473772
 10
49.3164273209
 20
-115.983245999
 10
49.2987730642
 20
-115.9355257583
 10
49.2828566884
 20
-115.8877865001
 10
49.2686640455
 20
-115.8400283793
 10
49.2563113076
 20
-115.7926423141
 10
49.2458135763
 20
-115.7456313584
 10
49.23715575
 20
-115.6989924583
 10
49.2304086962
 20
-115.653107371
 10
49.2255960377
 20
-115.6081033487
 10
49.2226941517
 20
-115.5638531391
 10
49.2217030384
 20
-115.5203567423
  0
LWPOLYLINE
  5
2A6
100
AcDbEntity
  8
0
100
AcDbPolyline
 62
7
  6
CONTINUOUS
 90
15
 70
0
 10
-96.7604919376
 20
-34.0489485871
 10
-96.9145445399
 20
-33.9415077133
 10
-97.0559658961
 20
-33.8160982843
 10
-97.1847560063
 20
-33.6727203003
 10
-97.3039971083
 20
-33.5060351684
 10
-97.4106069643
 20
-33.3213814814
 10
-97.4953388604
 20
-33.1347750176
 10
-97.5562387359
 20
-32.9460413618
 10
-97.5952606515
 20
-32.7553549292
 10
-97.609020075
 20
-32.579254743
 10
-97.5952606515
 20
-32.419043594
 10
-97.5562387359
 20
-32.2734186914
 10
-97.4953388604
 20
-32.1550106854
 10
-97.4106069643
 20
-32.0662504912
 10
-97.3594878089
 20
-32.0317598233
  0
LWPOLYLINE
  5
2A7
100
AcDbEntity
  8
0
100
AcDbPolyline
 62
7
  6
CONTINUOUS
 90
15
 70
0
 10
25.7104025639
 20
-119.4585731337
 10
25.5563499616
 20
-119.3511322599
 10
25.4149286054
 20
-119.225722831
 10
25.2861384952
 20
-119.0823448469
 10
25.1668973932
 20
-118.9156597151
 10
25.0602875372
 20
-118.7310060281
 10
24.9755556411
 20
-118.5443995642
 10
24.9146557656
 20
-118.3556659085
 10
24.87563385
 20
-118.1649794759
 10
24.8618744265
 20
-117.9888792896
 10
24.87563385
 20
-117.8286681406
 10
24.9146557656
 20
-117.683043238
 10
24.9755556411
 20
-117.5646352321
 10
25.0602875372
 20
-117.4758750379
 10
25.1114066926
 20
-117.4413843699
  0
LWPOLYLINE
  5
2A8
100
AcDbEntity
  8
0
100
AcDbPolyline
 62
7
  6
CONTINUOUS
 90
15
 70
0
 10
-96.7604919376
 20
-32.0894199228
 10
-96.6064393353
 20
-32.1968607966
 10
-96.465017979
 20
-32.3222702255
 10
-96.3362278689
 20
-32.4656482096
 10
-96.2169867668
 20
-32.6323333415
 10
-96.1103769108
 20
-32.8169870285
 10
-96.0256450147
 20
-33.0035934923
 10
-95.9647451392
 20
-33.1923271481
 10
-95.9257232236
 20
-33.3830135807
 10
-95.9119638001
 20
-33.5591137669
 10
-95.9257232236
 20
-33.7193249159
 10
-95.9647451392
 20
-33.8649498185
 10
-96.0256450147
 20
-33.9833578245
 10
-96.1103769108
 20
-34.0721180187
 10
-96.1614960662
 20
-34.1066086866
  0
LWPOLYLINE
  5
2A9
100
AcDbEntity
  8
0
100
AcDbPolyline
 62
7
  6
CONTINUOUS
 90
15
 70
0
 10
25.7104025639
 20
-117.4990444694
 10
25.8644551662
 20
-117.6064853433
 10
26.0058765225
 20
-117.7318947722
 10
26.1346666327
 20
-117.8752727562
 10
26.2539077347
 20
-118.0419578881
 10
26.3605175907
 20
-118.2266115751
 10
26.4452494868
 20
-118.413218039
 10
26.5061493623
 20
-118.6019516947
 10
26.5451712779
 20
-118.7926381273
 10
26.5589307014
 20
-118.9687383136
 10
26.5451712779
 20
-119.1289494625
 10
26.5061493623
 20
-119.2745743651
 10
26.4452494868
 20
-119.3929823711
 10
26.3605175907
 20
-119.4817425653
 10
26.3093984353
 20
-119.5162332332
  0
LWPOLYLINE
  5
2AA
100
AcDbEntity
  8
0
100
AcDbPolyline
 62
7
  6
CONTINUOUS
 90
15
 70
0
 10
76.9756442
 20
-149.05848115
 10
76.8215915977
 20
-148.9510402762
 10
76.6801702414
 20
-148.8256308472
 10
76.5513801313
 20
-148.6822528632
 10
76.4321390292
 20
-148.5155677313
 10
76.3255291732
 20
-148.3309140443
 10
76.2407972771
 20
-148.1443075805
 10
76.1798974016
 20
-147.9555739247
 10
76.140875486
 20
-147.7648874921
 10
76.1271160625
 20
-147.5887873058
 10
76.140875486
 20
-147.4285761569
 10
76.1798974016
 20
-147.2829512543
 10
76.2407972771
 20
-147.1645432483
 10
76.3255291732
 20
-147.0757830541
 10
76.3766483286
 20
-147.0412923862
  0
LWPOLYLINE
  5
2AB
100
AcDbEntity
  8
0
100
AcDbPolyline
 62
7
  6
CONTINUOUS
 90
15
 70
0
 10
76.9756442
 20
-147.0989524857
 10
77.1296968023
 20
-147.2063933595
 10
77.2711181585
 20
-147.3318027884
 10
77.3999082687
 20
-147.4751807725
 10
77.5191493707
 20
-147.6418659044
 10
77.6257592267
 20
-147.8265195913
 10
77.7104911228
 20
-148.0131260552
 10
77.7713909983
 20
-148.201859711
 10
77.8104129139
 20
-148.3925461436
 10
77.8241723374
 20
-148.5686463298
 10
77.8104129139
 20
-148.7288574788
 10
77.7713909983
 20
-148.8744823814
 10
77.7104911228
 20
-148.9928903874
 10
77.6257592267
 20
-149.0816505816
 10
77.5746400713
 20
-149.1161412495
  0
LWPOLYLINE
  5
2AC
100
AcDbEntity
  8
0
100
AcDbPolyline
 62
7
  6
CONTINUOUS
 90
25
 70
0
 10
-91.5999580945
 20
-14.8732517407
 10
-91.7115802469
 20
-14.7711681607
 10
-91.7479210477
 20
-14.7352483546
 10
-91.7833962782
 20
-14.6976135643
 10
-91.818106361
 20
-14.6581415808
 10
-91.8519508734
 20
-14.616954613
 10
-91.884628548
 20
-14.5744192877
 10
-91.916128967
 20
-14.5305235665
 10
-91.9464625481
 20
-14.4852794878
 10
-91.9753592763
 20
-14.4390897926
 10
-92.0028063233
 20
-14.3919460383
 10
-92.0288165174
 20
-14.3438566676
 10
-92.0531583283
 20
-14.2952497488
 10
-92.0758168606
 20
-14.2461206614
 10
-92.0968070098
 20
-14.196474026
 10
-92.1159419315
 20
-14.1467517732
 10
-92.1332050622
 20
-14.0969532278
 10
-92.1486129655
 20
-14.047079065
 10
-92.1620284875
 20
-13.9975732406
 10
-92.1734338404
 20
-13.9484390432
 10
-92.182846812
 20
-13.8996731842
 10
-92.1901836126
 20
-13.851709754
 10
-92.1954163124
 20
-13.8046934493
 10
-92.1985728411
 20
-13.7584795733
 10
-92.1996531989
 20
-13.7130681261
  0
LWPOLYLINE
  5
2AD
100
AcDbEntity
  8
ASSI
100
AcDbPolyline
 62
7
  6
CONTINUOUS
 90
49
 70
0
 10
-62.9607877969
 20
-66.6687629083
 10
-62.9619989302
 20
-66.6128960057
 10
-62.9655529395
 20
-66.5560841041
 10
-62.9714498248
 20
-66.4983272035
 10
-62.9797158527
 20
-66.4394772581
 10
-62.9903247565
 20
-66.3796823137
 10
-63.0031977368
 20
-66.3193865081
 10
-63.018351652
 20
-66.2585861117
 10
-63.0357696438
 20
-66.1972848541
 10
-63.0553223367
 20
-66.1359380614
 10
-63.077025626
 20
-66.0745453945
 10
-63.1008636165
 20
-66.0131071925
 10
-63.1266592472
 20
-65.9520797987
 10
-63.1544270949
 20
-65.891466272
 10
-63.1841525828
 20
-65.8312635535
 10
-63.2156149196
 20
-65.7719188097
 10
-63.2488270379
 20
-65.7134384292
 10
-63.283776005
 20
-65.6558160234
 10
-63.3202022311
 20
-65.5994795931
 10
-63.3581167162
 20
-65.5444387139
 10
-63.3975084603
 20
-65.4906838102
 10
-63.4380848742
 20
-65.4386141563
 10
-63.479854779
 20
-65.3882423006
 10
-63.5228093536
 20
-65.3395556947
 10
-63.5666295452
 20
-65.2929159671
 10
-63.6113217991
 20
-65.248338359
 10
-63.6568796701
 20
-65.2058076292
 10
-63.7029647686
 20
-65.1656396823
 10
-63.7495810206
 20
-65.127852112
 10
-63.7967245003
 20
-65.0924273245
 10
-63.8440450409
 20
-65.059628444
 10
-63.891543961
 20
-65.0294750231
 10
-63.9392199419
 20
-65.0019475092
 10
-63.986718862
 20
-64.9772503678
 10
-64.0340394026
 20
-64.9554046742
 10
-64.0811828823
 20
-64.936389353
 10
-64.1277991343
 20
-64.920345644
 10
-64.1738842329
 20
-64.9072956742
 10
-64.2194421038
 20
-64.8972173166
 10
-64.2641343577
 20
-64.8901854301
 10
-64.3079545493
 20
-64.8862226989
 10
-64.3509091239
 20
-64.8853064387
 10
-64.3926790288
 20
-64.8874434553
 10
-64.4332554426
 20
-64.8926564836
 10
-64.4726471867
 20
-64.9009227886
 10
-64.5105616718
 20
-64.9121809708
 10
-64.5469878979
 20
-64.9264533082
 10
-64.581936865
 20
-64.9437175228
 10
-64.590410121
 20
-64.9484844474
  0
LWPOLYLINE
  5
2AE
100
AcDbEntity
  8
ASSI
100
AcDbPolyline
 62
7
  6
CONTINUOUS
 90
58
 70
0
 10
-65.8599255997
 20
-57.2383694461
 10
-65.8581950305
 20
-57.3336650546
 10
-65.853083928
 20
-57.4304194294
 10
-65.8445922922
 20
-57.5286325704
 10
-65.8326933961
 20
-57.6284816878
 10
-65.8174139666
 20
-57.7297895714
 10
-65.7988341852
 20
-57.832024591
 10
-65.7769367025
 20
-57.9351916202
 10
-65.7517388679
 20
-58.0392857853
 10
-65.7233729114
 20
-58.1437608344
 10
-65.6918221785
 20
-58.2486187697
 10
-65.6571033237
 20
-58.3538575891
 10
-65.6193985401
 20
-58.4589250339
 10
-65.5786921309
 20
-58.5638202031
 10
-65.534999793
 20
-58.6685439977
 10
-65.4885508092
 20
-58.7725468617
 10
-65.4393306882
 20
-58.8758250054
 10
-65.3873539214
 20
-58.9783822184
 10
-65.3328932657
 20
-59.0796803144
 10
-65.2759356636
 20
-59.1797126744
 10
-65.2164941726
 20
-59.2784859174
 10
-65.154880722
 20
-59.3754817139
 10
-65.0910838941
 20
-59.4706907202
 10
-65.0251151067
 20
-59.56412228
 10
-64.9573205422
 20
-59.6552860954
 10
-64.8876906027
 20
-59.7441702451
 10
-64.8162348861
 20
-59.8307866503
 10
-64.7433283684
 20
-59.9146807766
 10
-64.668963423
 20
-59.9958383136
 10
-64.5931476766
 20
-60.0742735717
 10
-64.5162789851
 20
-60.1495749486
 10
-64.4383518134
 20
-60.2217259699
 10
-64.3593716967
 20
-60.2907431101
 10
-64.2797530965
 20
-60.3562641898
 10
-64.1994926566
 20
-60.4182708309
 10
-64.1185937332
 20
-60.4767814115
 10
-64.0374808574
 20
-60.5314888876
 10
-63.9561529043
 20
-60.5823732665
 10
-63.8746109986
 20
-60.6294545409
 10
-63.7932830455
 20
-60.6724856436
 10
-63.7121701697
 20
-60.7114452835
 10
-63.6312712463
 20
-60.7463547517
 10
-63.5510108064
 20
-60.7770308549
 10
-63.4713922063
 20
-60.8034513389
 10
-63.3924120895
 20
-60.8256384578
 10
-63.3144849178
 20
-60.843475781
 10
-63.2376162263
 20
-60.8569404422
 10
-63.1618004799
 20
-60.8660553078
 10
-63.0874355345
 20
-60.8707725458
 10
-63.0145290168
 20
-60.8710690385
 10
-62.9430733002
 20
-60.8669679037
 10
-62.8734433607
 20
-60.8584906629
 10
-62.8056487962
 20
-60.8456143113
 10
-62.7396800088
 20
-60.8283618536
 10
-62.6758831809
 20
-60.806823825
 10
-62.6142697304
 20
-60.7809776968
 10
-62.5548282393
 20
-60.7508459977
 10
-62.5403200203
 20
-60.7426482664
  0
LWPOLYLINE
  5
2AF
100
AcDbEntity
  8
ASSI
100
AcDbPolyline
 62
7
  6
CONTINUOUS
 90
45
 70
0
 10
-64.4457120373
 20
-56.4218202595
 10
-64.4439814681
 20
-56.517115868
 10
-64.4388703656
 20
-56.6138702427
 10
-64.4303787299
 20
-56.7120833837
 10
-64.4184798337
 20
-56.8119325011
 10
-64.4032004042
 20
-56.9132403848
 10
-64.3846206229
 20
-57.0154754043
 10
-64.3627231401
 20
-57.1186424335
 10
-64.3375253056
 20
-57.2227365986
 10
-64.309159349
 20
-57.3272116477
 10
-64.2776086161
 20
-57.4320695831
 10
-64.2428897613
 20
-57.5373084025
 10
-64.2051849777
 20
-57.6423758472
 10
-64.1644785686
 20
-57.7472710164
 10
-64.1207862306
 20
-57.851994811
 10
-64.0743372468
 20
-57.9559976751
 10
-64.0251171259
 20
-58.0592758187
 10
-63.973140359
 20
-58.1618330317
 10
-63.9186797033
 20
-58.2631311278
 10
-63.8617221012
 20
-58.3631634878
 10
-63.8022806102
 20
-58.4619367307
 10
-63.7406671596
 20
-58.5589325272
 10
-63.6768703317
 20
-58.6541415335
 10
-63.6109015443
 20
-58.7475730934
 10
-63.5431069798
 20
-58.8387369087
 10
-63.4734770403
 20
-58.9276210584
 10
-63.4020213237
 20
-59.0142374636
 10
-63.3291148061
 20
-59.09813159
 10
-63.2547498607
 20
-59.1792891269
 10
-63.1789341142
 20
-59.257724385
 10
-63.1020654227
 20
-59.3330257619
 10
-63.024138251
 20
-59.4051767833
 10
-62.9451581343
 20
-59.4741939234
 10
-62.8655395342
 20
-59.5397150032
 10
-62.7852790942
 20
-59.6017216442
 10
-62.7043801709
 20
-59.6602322249
 10
-62.623267295
 20
-59.7149397009
 10
-62.5419393419
 20
-59.7658240799
 10
-62.4603974363
 20
-59.8129053542
 10
-62.3790694832
 20
-59.855936457
 10
-62.2979566073
 20
-59.8948960968
 10
-62.2170576839
 20
-59.929805565
 10
-62.136797244
 20
-59.9604816682
 10
-62.0571786439
 20
-59.9869021522
 10
-62.0291226402
 20
-59.9947836535
  0
LWPOLYLINE
  5
2B0
100
AcDbEntity
  8
ASSI
100
AcDbPolyline
 62
7
  6
CONTINUOUS
 90
58
 70
0
 10
-61.9708383032
 20
-57.4427040174
 10
-61.9725688724
 20
-57.3474084089
 10
-61.9776799749
 20
-57.2506540342
 10
-61.9861716107
 20
-57.1524408931
 10
-61.9980705069
 20
-57.0525917758
 10
-62.0133499363
 20
-56.9512838921
 10
-62.0319297177
 20
-56.8490488726
 10
-62.0538272004
 20
-56.7458818434
 10
-62.079025035
 20
-56.6417876783
 10
-62.1073909915
 20
-56.5373126292
 10
-62.1389417244
 20
-56.4324546938
 10
-62.1736605792
 20
-56.3272158744
 10
-62.2113653628
 20
-56.2221484297
 10
-62.252071772
 20
-56.1172532605
 10
-62.2957641099
 20
-56.0125294659
 10
-62.3422130937
 20
-55.9085266018
 10
-62.3914332147
 20
-55.8052484582
 10
-62.4434099815
 20
-55.7026912452
 10
-62.4978706372
 20
-55.6013931491
 10
-62.5548282393
 20
-55.5013607891
 10
-62.6142697304
 20
-55.4025875462
 10
-62.6758831809
 20
-55.3055917497
 10
-62.7396800088
 20
-55.2103827434
 10
-62.8056487962
 20
-55.1169511835
 10
-62.8734433607
 20
-55.0257873682
 10
-62.9430733002
 20
-54.9369032185
 10
-63.0145290168
 20
-54.8502868133
 10
-63.0874355345
 20
-54.7663926869
 10
-63.1618004799
 20
-54.68523515
 10
-63.2376162263
 20
-54.6067998919
 10
-63.3144849178
 20
-54.5314985149
 10
-63.3924120895
 20
-54.4593474936
 10
-63.4713922063
 20
-54.3903303535
 10
-63.5510108064
 20
-54.3248092737
 10
-63.6312712463
 20
-54.2628026327
 10
-63.7121701697
 20
-54.204292052
 10
-63.7932830455
 20
-54.149584576
 10
-63.8746109986
 20
-54.098700197
 10
-63.9561529043
 20
-54.0516189227
 10
-64.0374808574
 20
-54.0085878199
 10
-64.1185937332
 20
-53.9696281801
 10
-64.1994926566
 20
-53.9347187119
 10
-64.2797530965
 20
-53.9040426087
 10
-64.3593716967
 20
-53.8776221247
 10
-64.4383518134
 20
-53.8554350058
 10
-64.5162789851
 20
-53.8375976825
 10
-64.5931476766
 20
-53.8241330213
 10
-64.668963423
 20
-53.8150181558
 10
-64.7433283684
 20
-53.8103009178
 10
-64.8162348861
 20
-53.810004425
 10
-64.8876906027
 20
-53.8141055598
 10
-64.9573205422
 20
-53.8225828007
 10
-65.0251151067
 20
-53.8354591523
 10
-65.0910838941
 20
-53.85271161
 10
-65.154880722
 20
-53.8742496386
 10
-65.2164941726
 20
-53.9000957668
 10
-65.2759356636
 20
-53.9302274659
 10
-65.2904438826
 20
-53.9384251972
  0
LINE
  5
2B1
100
AcDbEntity
  8
ASSI
100
AcDbLine
 62
7
  6
CONTINUOUS
 10
-65.8599255997
 20
-57.2383694461
 11
-65.8599255997
 21
-55.1971937541
  0
LINE
  5
2B2
100
AcDbEntity
  8
ASSI
100
AcDbLine
 62
7
  6
CONTINUOUS
 10
-64.4457120373
 20
-56.4218202595
 11
-64.4457120373
 21
-54.3806445675
  0
LINE
  5
2B3
100
AcDbEntity
  8
ASSI
100
AcDbLine
 62
7
  6
CONTINUOUS
 10
-61.9708383032
 20
-57.4427040174
 11
-61.9708383032
 21
-59.4838797094
  0
LWPOLYLINE
  5
2B4
100
AcDbEntity
  8
0
100
AcDbPolyline
 62
7
  6
CONTINUOUS
 90
13
 70
0
 10
-20.9636957571
 20
-59.5779081081
 10
-20.8892799758
 20
-59.5959628289
 10
-20.8161495828
 20
-59.6096782226
 10
-20.7443045781
 20
-59.6190542894
 10
-20.6736129508
 20
-59.6240922643
 10
-20.6042067117
 20
-59.6247909121
 10
-20.5364818935
 20
-59.6211465275
 10
-20.4704481193
 20
-59.6131342885
 10
-20.4060957659
 20
-59.6007790169
 10
-20.3437919954
 20
-59.5841514735
 10
-20.2835485267
 20
-59.5632272438
 10
-20.225353641
 20
-59.5380307422
 10
-20.1682040095
 20
-59.5079365959
  0
LWPOLYLINE
  5
2B5
100
AcDbEntity
  8
0
100
AcDbPolyline
 62
7
  6
CONTINUOUS
 90
5
 70
0
 10
-96.7604919376
 20
-33.6815369625
 10
-96.6433555895
 20
-33.7312123009
 10
-96.539448855
 20
-33.7522237602
 10
-96.4487717342
 20
-33.7445713406
 10
-96.3862508541
 20
-33.7173764573
  0
LWPOLYLINE
  5
2B6
100
AcDbEntity
  8
0
100
AcDbPolyline
 62
7
  6
CONTINUOUS
 90
5
 70
0
 10
-96.7604919376
 20
-32.4568315474
 10
-96.8776282856
 20
-32.407156209
 10
-96.9815350201
 20
-32.3861447496
 10
-97.0722121409
 20
-32.3937971693
 10
-97.134733021
 20
-32.4209920526
  0
LWPOLYLINE
  5
2B7
100
AcDbEntity
  8
0
100
AcDbPolyline
 62
7
  6
CONTINUOUS
 90
25
 70
0
 10
-36.2308058084
 20
-50.7379580876
 10
-36.119183656
 20
-50.8400416676
 10
-36.0828428552
 20
-50.8759614737
 10
-36.0473676247
 20
-50.9135962641
 10
-36.0126575419
 20
-50.9530682475
 10
-35.9788130295
 20
-50.9942552153
 10
-35.9461353549
 20
-51.0367905406
 10
-35.9146349359
 20
-51.0806862618
 10
-35.8843013548
 20
-51.1259303405
 10
-35.8554046266
 20
-51.1721200357
 10
-35.8279575796
 20
-51.21926379
 10
-35.8019473855
 20
-51.2673531607
 10
-35.7776055746
 20
-51.3159600795
 10
-35.7549470423
 20
-51.3650891669
 10
-35.7339568931
 20
-51.4147358023
 10
-35.7148219715
 20
-51.4644580551
 10
-35.6975588407
 20
-51.5142566005
 10
-35.6821509374
 20
-51.5641307633
 10
-35.6687354154
 20
-51.6136365877
 10
-35.6573300625
 20
-51.6627707851
 10
-35.6479170909
 20
-51.7115366441
 10
-35.6405802903
 20
-51.7595000743
 10
-35.6353475905
 20
-51.806516379
 10
-35.6321910618
 20
-51.852730255
 10
-35.631110704
 20
-51.8981417022
  0
LWPOLYLINE
  5
2B8
100
AcDbEntity
  8
0
100
AcDbPolyline
 62
7
  6
CONTINUOUS
 90
18
 70
0
 10
-40.1338844567
 20
-62.8174617796
 10
-40.1098673403
 20
-62.8628981569
 10
-40.0845427545
 20
-62.9075410706
 10
-40.057836697
 20
-62.9515045612
 10
-40.02982317
 20
-62.9946745881
 10
-40.0007241805
 20
-63.0367090291
 10
-39.9705311036
 20
-63.0775988608
 10
-39.9392525642
 20
-63.1173531066
 10
-39.9071364447
 20
-63.1556567144
 10
-39.8741760894
 20
-63.1924981574
 10
-39.840378154
 20
-63.2278889623
 10
-39.8060104868
 20
-63.2615486574
 10
-39.7710685606
 20
-63.2934634872
 10
-39.7355569026
 20
-63.323647207
 10
-39.6997569425
 20
-63.3518606112
 10
-39.66376249
 20
-63.3780239644
 10
-39.6274797354
 20
-63.4022170019
 10
-39.5909086786
 20
-63.4244397238
  0
LWPOLYLINE
  5
2B9
100
AcDbEntity
  8
0
100
AcDbPolyline
 62
7
  6
CONTINUOUS
 90
37
 70
0
 10
-41.548098019
 20
-63.6340109662
 10
-41.612596934
 20
-63.5024502346
 10
-41.656641981
 20
-63.418425566
 10
-41.702942807
 20
-63.3357071192
 10
-41.7516141224
 20
-63.2541140562
 10
-41.8025412168
 20
-63.1738272151
 10
-41.8553799586
 20
-63.0953891095
 10
-41.9101432937
 20
-63.0188122601
 10
-41.9668182761
 20
-62.9440841463
 10
-42.0250219366
 20
-62.8717097191
 10
-42.0847646275
 20
-62.8017049191
 10
-42.1460359965
 20
-62.7340538059
 10
-42.2084220172
 20
-62.6692135094
 10
-42.2719302381
 20
-62.6072030659
 10
-42.3365531108
 20
-62.5480034392
 10
-42.4018539634
 20
-62.4920146513
 10
-42.4678373873
 20
-62.4392584473
 10
-42.5344987912
 20
-62.3897130822
 10
-42.6013877292
 20
-62.3437133431
 10
-42.6685057422
 20
-62.3012832421
 10
-42.7358512895
 20
-62.2623987672
 10
-42.8029693026
 20
-62.227322669
 10
-42.8698582406
 20
-62.1960807392
 10
-42.9365196444
 20
-62.1686471861
 10
-43.0025030683
 20
-62.1452073861
 10
-43.0678039209
 20
-62.1257883862
 10
-43.1324267936
 20
-62.1103631393
 10
-43.1959350145
 20
-62.0990358812
 10
-43.2583210352
 20
-62.0918343647
 10
-43.3195924042
 20
-62.0887308369
 10
-43.3793350951
 20
-62.0897462749
 10
-43.4375387556
 20
-62.0949085739
 10
-43.4942137381
 20
-62.1041898386
 10
-43.5489770731
 20
-62.1175273613
 10
-43.6018158149
 20
-62.1349486124
 10
-43.6527429093
 20
-62.1564261214
 10
-43.7022268344
 20
-62.182283202
  0
LWPOLYLINE
  5
2BA
100
AcDbEntity
  8
0
100
AcDbPolyline
 62
7
  6
CONTINUOUS
 90
37
 70
0
 10
-40.1338844567
 20
-62.8174617796
 10
-40.1983833716
 20
-62.685901048
 10
-40.2424284186
 20
-62.6018763793
 10
-40.2887292446
 20
-62.5191579325
 10
-40.33740056
 20
-62.4375648696
 10
-40.3883276544
 20
-62.3572780285
 10
-40.4411663962
 20
-62.2788399228
 10
-40.4959297313
 20
-62.2022630735
 10
-40.5526047137
 20
-62.1275349596
 10
-40.6108083742
 20
-62.0551605325
 10
-40.6705510651
 20
-61.9851557325
 10
-40.7318224341
 20
-61.9175046192
 10
-40.7942084548
 20
-61.8526643228
 10
-40.8577166757
 20
-61.7906538792
 10
-40.9223395484
 20
-61.7314542525
 10
-40.9876404011
 20
-61.6754654647
 10
-41.053623825
 20
-61.6227092607
 10
-41.1202852288
 20
-61.5731638956
 10
-41.1871741668
 20
-61.5271641564
 10
-41.2542921799
 20
-61.4847340555
 10
-41.3216377271
 20
-61.4458495805
 10
-41.3887557402
 20
-61.4107734824
 10
-41.4556446782
 20
-61.3795315525
 10
-41.522306082
 20
-61.3520979994
 10
-41.5882895059
 20
-61.3286581995
 10
-41.6535903585
 20
-61.3092391995
 10
-41.7182132312
 20
-61.2938139526
 10
-41.7817214522
 20
-61.2824866945
 10
-41.8441074729
 20
-61.275285178
 10
-41.9053788418
 20
-61.2721816502
 10
-41.9651215327
 20
-61.2731970883
 10
-42.0233251932
 20
-61.2783593872
 10
-42.0800001757
 20
-61.2876406519
 10
-42.1347635107
 20
-61.3009781746
 10
-42.1876022525
 20
-61.3183994257
 10
-42.2385293469
 20
-61.3398769348
 10
-42.288013272
 20
-61.3657340153
  0
LWPOLYLINE
  5
2BB
100
AcDbEntity
  8
ASSI
100
AcDbPolyline
 62
7
  6
CONTINUOUS
 90
55
 70
0
 10
-47.6519259842
 20
-67.5473226551
 10
-47.6503877583
 20
-67.6285947384
 10
-47.6458507109
 20
-67.71114244
 10
-47.638314842
 20
-67.7949657597
 10
-47.6277544223
 20
-67.8802289079
 10
-47.6141951811
 20
-67.9667676742
 10
-47.5977143057
 20
-68.0540894279
 10
-47.5782951329
 20
-68.1421986346
 10
-47.5559543258
 20
-68.2310908287
 10
-47.530819062
 20
-68.320259982
 10
-47.5028734033
 20
-68.4097076743
 10
-47.4721332878
 20
-68.4994323259
 10
-47.4387737068
 20
-68.58892317
 10
-47.4027797203
 20
-68.6781788731
 10
-47.3641662683
 20
-68.7672007686
 10
-47.3231531618
 20
-68.8554820903
 10
-47.2797267146
 20
-68.9430186142
 10
-47.2339006129
 20
-69.0298145644
 10
-47.1859357265
 20
-69.1153758457
 10
-47.1358198571
 20
-69.1996954164
 10
-47.083565203
 20
-69.2827803184
 10
-47.0294692293
 20
-69.3641575822
 10
-46.9735214341
 20
-69.4438174684
 10
-46.9157323193
 20
-69.5217697165
 10
-46.8564308553
 20
-69.5975705752
 10
-46.7956084167
 20
-69.6712077742
 10
-46.7332736289
 20
-69.7426935838
 10
-46.6697813392
 20
-69.8116210636
 10
-46.6051249458
 20
-69.8779756225
 10
-46.5393110505
 20
-69.9417718517
 10
-46.4727143057
 20
-70.0026465844
 10
-46.4053302465
 20
-70.0605831583
 10
-46.3371633378
 20
-70.1155982358
 10
-46.2686016267
 20
-70.1673786379
 10
-46.1996428615
 20
-70.2159059159
 10
-46.130289294
 20
-70.2611985185
 10
-46.0609357265
 20
-70.3029986129
 10
-45.991582159
 20
-70.3412862798
 10
-45.9222285915
 20
-70.3760814386
 10
-45.8532698263
 20
-70.4071860141
 10
-45.7847081152
 20
-70.4345789574
 10
-45.7165412065
 20
-70.4582813175
 10
-45.6491571472
 20
-70.4781581662
 10
-45.5825604024
 20
-70.494187685
 10
-45.5167465072
 20
-70.5063916924
 10
-45.4520901138
 20
-70.5147007159
 10
-45.3885978241
 20
-70.5190925407
 10
-45.3262630363
 20
-70.5195893816
 10
-45.2654405977
 20
-70.5161884101
 10
-45.2061391337
 20
-70.5088673956
 10
-45.1483500189
 20
-70.4976485688
 10
-45.0924022237
 20
-70.4825957941
 10
-45.03830625
 20
-70.4636872047
 10
-44.9860515959
 20
-70.4409446675
 10
-44.9358813662
 20
-70.4144662626
  0
LWPOLYLINE
  5
2BC
100
AcDbEntity
  8
ASSI
100
AcDbPolyline
 62
7
  6
CONTINUOUS
 90
40
 70
0
 10
-46.2377124218
 20
-66.7307734685
 10
-46.2361741959
 20
-66.8120455518
 10
-46.2316371485
 20
-66.8945932533
 10
-46.2241012796
 20
-66.978416573
 10
-46.2135408599
 20
-67.0636797212
 10
-46.1999816187
 20
-67.1502184876
 10
-46.1835007434
 20
-67.2375402413
 10
-46.1640815705
 20
-67.325649448
 10
-46.1417407635
 20
-67.414541642
 10
-46.1166054996
 20
-67.5037107954
 10
-46.0886598409
 20
-67.5931584877
 10
-46.0579197255
 20
-67.6828831393
 10
-46.0245601444
 20
-67.7723739834
 10
-45.9885661579
 20
-67.8616296864
 10
-45.9499527059
 20
-67.9506515819
 10
-45.9089395994
 20
-68.0389329036
 10
-45.8655131522
 20
-68.1264694276
 10
-45.8196870505
 20
-68.2132653777
 10
-45.7717221641
 20
-68.2988266591
 10
-45.7216062947
 20
-68.3831462298
 10
-45.6693516406
 20
-68.4662311317
 10
-45.6152556669
 20
-68.5476083955
 10
-45.5593078717
 20
-68.6272682818
 10
-45.5015187569
 20
-68.7052205298
 10
-45.442217293
 20
-68.7810213885
 10
-45.3813948543
 20
-68.8546585875
 10
-45.3190600665
 20
-68.9261443971
 10
-45.2555677768
 20
-68.995071877
 10
-45.1909113834
 20
-69.0614264359
 10
-45.1250974882
 20
-69.125222665
 10
-45.0585007434
 20
-69.1860973978
 10
-44.9911166841
 20
-69.2440339716
 10
-44.9229497754
 20
-69.2990490491
 10
-44.8543880643
 20
-69.3508294512
 10
-44.7854292991
 20
-69.3993567292
 10
-44.7160757316
 20
-69.4446493318
 10
-44.6467221641
 20
-69.4864494262
 10
-44.5773685966
 20
-69.5247370932
 10
-44.5080150291
 20
-69.5595322519
 10
-44.4791495849
 20
-69.5725523138
  0
LWPOLYLINE
  5
2BD
100
AcDbEntity
  8
ASSI
100
AcDbPolyline
 62
7
  6
CONTINUOUS
 90
55
 70
0
 10
-44.4699454688
 20
-67.3433826331
 10
-44.4714836947
 20
-67.2621105498
 10
-44.4760207421
 20
-67.1795628482
 10
-44.483556611
 20
-67.0957395285
 10
-44.4941170307
 20
-67.0104763803
 10
-44.5076762719
 20
-66.923937614
 10
-44.5241571472
 20
-66.8366158603
 10
-44.5435763201
 20
-66.7485066536
 10
-44.5659171271
 20
-66.6596144595
 10
-44.591052391
 20
-66.5704453062
 10
-44.6189980497
 20
-66.4809976139
 10
-44.6497381652
 20
-66.3912729623
 10
-44.6830977462
 20
-66.3017821182
 10
-44.7190917327
 20
-66.2125264151
 10
-44.7577051847
 20
-66.1235045196
 10
-44.7987182912
 20
-66.035223198
 10
-44.8421447384
 20
-65.947686674
 10
-44.8879708401
 20
-65.8608907238
 10
-44.9359357265
 20
-65.7753294425
 10
-44.9860515959
 20
-65.6910098718
 10
-45.03830625
 20
-65.6079249698
 10
-45.0924022237
 20
-65.526547706
 10
-45.1483500189
 20
-65.4468878198
 10
-45.2061391337
 20
-65.3689355717
 10
-45.2654405977
 20
-65.293134713
 10
-45.3262630363
 20
-65.219497514
 10
-45.3885978241
 20
-65.1480117044
 10
-45.4520901138
 20
-65.0790842246
 10
-45.5167465072
 20
-65.0127296657
 10
-45.5825604024
 20
-64.9489334366
 10
-45.6491571472
 20
-64.8880587038
 10
-45.7165412065
 20
-64.8301221299
 10
-45.7847081152
 20
-64.7751070524
 10
-45.8532698263
 20
-64.7233266503
 10
-45.9222285915
 20
-64.6747993723
 10
-45.991582159
 20
-64.6295067697
 10
-46.0609357265
 20
-64.5877066753
 10
-46.130289294
 20
-64.5494190084
 10
-46.1996428615
 20
-64.5146238496
 10
-46.2686016267
 20
-64.4835192741
 10
-46.3371633378
 20
-64.4561263308
 10
-46.4053302465
 20
-64.4324239708
 10
-46.4727143057
 20
-64.4125471221
 10
-46.5393110505
 20
-64.3965176032
 10
-46.6051249458
 20
-64.3843135958
 10
-46.6697813392
 20
-64.3760045723
 10
-46.7332736289
 20
-64.3716127475
 10
-46.7956084167
 20
-64.3711159067
 10
-46.8564308553
 20
-64.3745168781
 10
-46.9157323193
 20
-64.3818378926
 10
-46.9735214341
 20
-64.3930567194
 10
-47.0294692293
 20
-64.4081094942
 10
-47.083565203
 20
-64.4270180835
 10
-47.1358198571
 20
-64.4497606207
 10
-47.1859900868
 20
-64.4762390256
  0
LINE
  5
2BE
100
AcDbEntity
  8
ASSI
100
AcDbLine
 62
7
  6
CONTINUOUS
 10
-47.6519259842
 20
-67.5473226551
 11
-47.6519259842
 21
-65.5061469631
  0
LINE
  5
2BF
100
AcDbEntity
  8
ASSI
100
AcDbLine
 62
7
  6
CONTINUOUS
 10
-46.2377124218
 20
-66.7307734685
 11
-46.2377124218
 21
-64.6895977765
  0
LINE
  5
2C0
100
AcDbEntity
  8
ASSI
100
AcDbLine
 62
7
  6
CONTINUOUS
 10
-44.4699454688
 20
-67.3433826331
 11
-44.4699454688
 21
-69.3845583251
  0
LWPOLYLINE
  5
2C1
100
AcDbEntity
  8
ASSI
100
AcDbPolyline
 62
7
  6
CONTINUOUS
 90
7
 70
0
 10
-64.3874277003
 20
-53.8697406234
 10
-64.4032004042
 20
-53.9383158105
 10
-64.4184798337
 20
-54.021979392
 10
-64.4303787299
 20
-54.1080879623
 10
-64.4388703656
 20
-54.1964951752
 10
-64.4439814681
 20
-54.2873473769
 10
-64.4457120373
 20
-54.3806445675
  0
LINE
  5
2C2
100
AcDbEntity
  8
ASSI
100
AcDbLine
 62
7
  6
CONTINUOUS
 10
35.0795674147
 20
68.1337573737
 11
33.7587963362
 21
67.3711607061
  0
LINE
  5
2C3
100
AcDbEntity
  8
0
100
AcDbLine
 62
253
  6
CONTINUOUS
 10
34.5542880915
 20
67.4411322049
 11
35.055528386
 21
67.7305420689
  0
LWPOLYLINE
  5
2C4
100
AcDbEntity
  8
0
100
AcDbPolyline
 62
7
  6
CONTINUOUS
 90
11
 70
0
 10
34.8724811605
 20
67.4691270942
 10
34.8552734921
 20
67.4598449988
 10
34.8263767639
 20
67.4470245209
 10
34.7960431828
 20
67.4368089013
 10
34.7645427637
 20
67.4292890745
 10
34.7318650892
 20
67.4244891086
 10
34.6980205767
 20
67.4223849355
 10
34.663310494
 20
67.4229952856
 10
34.6278352635
 20
67.4263264022
 10
34.5914944626
 20
67.432372042
 10
34.5542880915
 20
67.4411322049
  0
LWPOLYLINE
  5
2C5
100
AcDbEntity
  8
ASSI
100
AcDbPolyline
 62
7
  6
CONTINUOUS
 90
12
 70
0
 10
-95.9389646316
 20
-33.9805076499
 10
-95.9261016994
 20
-33.9833532006
 10
-95.8814094454
 20
-33.9903850872
 10
-95.8375892538
 20
-33.9943478184
 10
-95.7946346792
 20
-33.9952640785
 10
-95.7528647744
 20
-33.993127062
 10
-95.7122883605
 20
-33.9879140337
 10
-95.6728966164
 20
-33.9796477287
 10
-95.6349821314
 20
-33.9683895464
 10
-95.5985559052
 20
-33.9541172091
 10
-95.5636069381
 20
-33.9368529945
 10
-95.5551336821
 20
-33.9320860698
  0
LWPOLYLINE
  5
2C6
100
AcDbEntity
  8
0
100
AcDbPolyline
 62
7
  6
CONTINUOUS
 90
13
 70
0
 10
-36.1563900272
 20
-46.860761053
 10
-36.2308058084
 20
-46.8427063322
 10
-36.3039362015
 20
-46.8289909384
 10
-36.3757812062
 20
-46.8196148717
 10
-36.4464728335
 20
-46.8145768968
 10
-36.5158790725
 20
-46.8138782489
 10
-36.5836038908
 20
-46.8175226335
 10
-36.6496376649
 20
-46.8255348726
 10
-36.7139900183
 20
-46.8378901442
 10
-36.7762937888
 20
-46.8545176876
 10
-36.8365372575
 20
-46.8754419173
 10
-36.8947321433
 20
-46.9006384188
 10
-36.9518817747
 20
-46.9307325652
  0
LWPOLYLINE
  5
2C7
100
AcDbEntity
  8
0
100
AcDbPolyline
 62
7
  6
CONTINUOUS
 90
25
 70
0
 10
-20.9636957571
 20
-55.6328323153
 10
-21.0009021282
 20
-55.5986274935
 10
-21.0372429291
 20
-55.5627076874
 10
-21.0727181596
 20
-55.525072897
 10
-21.1074282423
 20
-55.4856009135
 10
-21.1412727548
 20
-55.4444139458
 10
-21.1739504293
 20
-55.4018786204
 10
-21.2054508483
 20
-55.3579828993
 10
-21.2357844295
 20
-55.3127388206
 10
-21.2646811577
 20
-55.2665491253
 10
-21.2921282047
 20
-55.2194053711
 10
-21.3181383988
 20
-55.1713160004
 10
-21.3424802097
 20
-55.1227090816
 10
-21.365138742
 20
-55.0735799942
 10
-21.3861288911
 20
-55.0239333588
 10
-21.4052638128
 20
-54.974211106
 10
-21.4225269435
 20
-54.9244125606
 10
-21.4379348468
 20
-54.8745383977
 10
-21.4513503689
 20
-54.8250325734
 10
-21.4627557217
 20
-54.7758983759
 10
-21.4721686933
 20
-54.727132517
 10
-21.479505494
 20
-54.6791690868
 10
-21.4847381937
 20
-54.632152782
 10
-21.4878947225
 20
-54.5859389061
 10
-21.4889750803
 20
-54.5405274588
  0
LWPOLYLINE
  5
2C8
100
AcDbEntity
  8
0
100
AcDbPolyline
 62
7
  6
CONTINUOUS
 90
25
 70
0
 10
34.4798723102
 20
-91.5654174204
 10
34.5914944626
 20
-91.6675010004
 10
34.6278352635
 20
-91.7034208065
 10
34.663310494
 20
-91.7410555968
 10
34.6980205767
 20
-91.7805275803
 10
34.7318650892
 20
-91.8217145481
 10
34.7645427637
 20
-91.8642498734
 10
34.7960431828
 20
-91.9081455945
 10
34.8263767639
 20
-91.9533896733
 10
34.8552734921
 20
-91.9995793685
 10
34.8827205391
 20
-92.0467231227
 10
34.9087307332
 20
-92.0948124935
 10
34.9330725441
 20
-92.1434194122
 10
34.9557310764
 20
-92.1925484996
 10
34.9767212255
 20
-92.242195135
 10
34.9958561472
 20
-92.2919173879
 10
35.0131192779
 20
-92.3417159333
 10
35.0285271812
 20
-92.3915900961
 10
35.0419427033
 20
-92.4410959205
 10
35.0533480561
 20
-92.4902301179
 10
35.0627610277
 20
-92.5389959769
 10
35.0700978284
 20
-92.5869594071
 10
35.0753305281
 20
-92.6339757118
 10
35.0784870569
 20
-92.6801895878
 10
35.0795674147
 20
-92.725601035
  0
LINE
  5
2C9
100
AcDbEntity
  8
ASSI
100
AcDbLine
 62
7
  6
CONTINUOUS
 10
-113.854175464
 20
101.5384572537
 11
-116.2199653083
 21
105.7732759897
  0
LINE
  5
2CA
100
AcDbEntity
  8
ASSI
100
AcDbLine
 62
7
  6
CONTINUOUS
 10
-112.4399619016
 20
100.721908067
 11
-114.8057517459
 21
104.9567268031
  0
LWPOLYLINE
  5
2CB
100
AcDbEntity
  8
ASSI
100
AcDbPolyline
 62
7
  6
CONTINUOUS
 90
22
 70
0
 10
-116.2199653083
 20
105.7732759897
 10
-116.3838136776
 20
106.0774812653
 10
-116.5400268484
 20
106.3897081808
 10
-116.6886048207
 20
106.7099567361
 10
-116.8296098195
 20
107.038383905
 10
-116.9629796198
 20
107.3748327137
 10
-117.0885275462
 20
107.7188322409
 10
-117.2062426456
 20
108.0703930602
 10
-117.3161358711
 20
108.4295045981
 10
-117.4180534072
 20
108.7956642126
 10
-117.5119840853
 20
109.1688817734
 10
-117.5979390741
 20
109.5491474109
 10
-117.6757980638
 20
109.9359288741
 10
-117.7455497173
 20
110.3292352874
 10
-117.8072053719
 20
110.7290575264
 10
-117.8606787291
 20
111.1348359673
 10
-117.905958331
 20
111.5465789506
 10
-117.9430556356
 20
111.9642781357
 10
-117.9719187185
 20
112.3873488767
 10
-117.9925302715
 20
112.8155962916
 10
-118.0049076027
 20
113.2492152623
 10
-118.0090507122
 20
113.6882057889
  0
LWPOLYLINE
  5
2CC
100
AcDbEntity
  8
ASSI
100
AcDbPolyline
 62
7
  6
CONTINUOUS
 90
22
 70
0
 10
-114.8057517459
 20
104.9567268031
 10
-114.9696001153
 20
105.2609320787
 10
-115.1258132861
 20
105.5731589942
 10
-115.2743912583
 20
105.8934075494
 10
-115.4153962572
 20
106.2218347183
 10
-115.5487660574
 20
106.558283527
 10
-115.6743139839
 20
106.9022830543
 10
-115.7920290832
 20
107.2538438736
 10
-115.9019223087
 20
107.6129554115
 10
-116.0038398449
 20
107.979115026
 10
-116.097770523
 20
108.3523325868
 10
-116.1837255117
 20
108.7325982243
 10
-116.2615845014
 20
109.1193796875
 10
-116.331336155
 20
109.5126861007
 10
-116.3929918095
 20
109.9125083398
 10
-116.4464651667
 20
110.3182867806
 10
-116.4917447687
 20
110.7300297639
 10
-116.5288420733
 20
111.1477289491
 10
-116.5577051561
 20
111.5707996901
 10
-116.5783167091
 20
111.999047105
 10
-116.5906940404
 20
112.4326660757
 10
-116.5948371498
 20
112.8716566022
  0
LWPOLYLINE
  5
2CD
100
AcDbEntity
  8
ASSI
100
AcDbPolyline
 62
7
  6
CONTINUOUS
 90
19
 70
0
 10
-113.854175464
 20
101.5384572537
 10
-113.7017958325
 20
101.2537948125
 10
-113.5577653563
 20
100.9604817626
 10
-113.4220840354
 20
100.6585181039
 10
-113.294676285
 20
100.3477010212
 10
-113.17561769
 20
100.0282333298
 10
-113.0651350046
 20
99.7007234753
 10
-112.9632445726
 20
99.3651561312
 10
-112.8699300502
 20
99.021546624
 10
-112.7853691607
 20
98.6705493789
 10
-112.7095785864
 20
98.3121503166
 10
-112.642541645
 20
97.9463635164
 10
-112.5843860123
 20
97.5738856416
 10
-112.5351286142
 20
97.1947039404
 10
-112.4947525248
 20
96.8088311645
 10
-112.4633346429
 20
96.4170022322
 10
-112.4409006014
 20
96.0194621161
 10
-112.4274247674
 20
95.6159658434
 10
-112.4229071408
 20
95.2065134143
  0
LWPOLYLINE
  5
2CE
100
AcDbEntity
  8
ASSI
100
AcDbPolyline
 62
7
  6
CONTINUOUS
 90
19
 70
0
 10
-112.4399619016
 20
100.721908067
 10
-112.2875822701
 20
100.4372456258
 10
-112.1435517939
 20
100.1439325759
 10
-112.007870473
 20
99.8419689172
 10
-111.8804627227
 20
99.5311518346
 10
-111.7614041276
 20
99.2116841432
 10
-111.6509214422
 20
98.8841742887
 10
-111.5490310102
 20
98.5486069445
 10
-111.4557164878
 20
98.2049974373
 10
-111.3711555983
 20
97.8540001923
 10
-111.295365024
 20
97.4956011299
 10
-111.2283280826
 20
97.1298143298
 10
-111.1701724499
 20
96.7573364549
 10
-111.1209150518
 20
96.3781547537
 10
-111.0805389624
 20
95.9922819779
 10
-111.0491210805
 20
95.6004530455
 10
-111.026687039
 20
95.2029129294
 10
-111.013211205
 20
94.7994166568
 10
-111.0086935785
 20
94.3899642277
  0
LWPOLYLINE
  5
2CF
100
AcDbEntity
  8
0
100
AcDbPolyline
 62
7
  6
CONTINUOUS
 90
18
 70
0
 10
-11.8496132092
 20
-79.1484455127
 10
-11.8255960929
 20
-79.1938818901
 10
-11.8002715071
 20
-79.2385248037
 10
-11.7735654495
 20
-79.2824882943
 10
-11.7455519225
 20
-79.3256583212
 10
-11.7164529331
 20
-79.3676927622
 10
-11.6862598561
 20
-79.4085825939
 10
-11.6549813168
 20
-79.4483368397
 10
-11.6228651972
 20
-79.4866404475
 10
-11.589904842
 20
-79.5234818905
 10
-11.5561069065
 20
-79.5588726955
 10
-11.5217392393
 20
-79.5925323905
 10
-11.4867973131
 20
-79.6244472203
 10
-11.4512856552
 20
-79.6546309401
 10
-11.415485695
 20
-79.6828443443
 10
-11.3794912426
 20
-79.7090076975
 10
-11.343208488
 20
-79.7332007351
 10
-11.3066374312
 20
-79.7554234569
  0
LWPOLYLINE
  5
2D0
100
AcDbEntity
  8
0
100
AcDbPolyline
 62
7
  6
CONTINUOUS
 90
37
 70
0
 10
-13.2638267716
 20
-79.9649946993
 10
-13.3283256865
 20
-79.8334339677
 10
-13.3723707336
 20
-79.7494092991
 10
-13.4186715595
 20
-79.6666908523
 10
-13.467342875
 20
-79.5850977893
 10
-13.5182699694
 20
-79.5048109482
 10
-13.5711087111
 20
-79.4263728426
 10
-13.6258720462
 20
-79.3497959932
 10
-13.6825470286
 20
-79.2750678794
 10
-13.7407506891
 20
-79.2026934523
 10
-13.80049338
 20
-79.1326886522
 10
-13.861764749
 20
-79.065037539
 10
-13.9241507697
 20
-79.0001972425
 10
-13.9876589907
 20
-78.938186799
 10
-14.0522818633
 20
-78.8789871723
 10
-14.117582716
 20
-78.8229983845
 10
-14.1835661399
 20
-78.7702421805
 10
-14.2502275437
 20
-78.7206968153
 10
-14.3171164817
 20
-78.6746970762
 10
-14.3842344948
 20
-78.6322669752
 10
-14.451580042
 20
-78.5933825003
 10
-14.5186980551
 20
-78.5583064021
 10
-14.5855869931
 20
-78.5270644723
 10
-14.6522483969
 20
-78.4996309192
 10
-14.7182318208
 20
-78.4761911192
 10
-14.7835326734
 20
-78.4567721193
 10
-14.8481555461
 20
-78.4413468724
 10
-14.9116637671
 20
-78.4300196143
 10
-14.9740497878
 20
-78.4228180978
 10
-15.0353211567
 20
-78.41971457
 10
-15.0950638477
 20
-78.4207300081
 10
-15.1532675082
 20
-78.425892307
 10
-15.2099424906
 20
-78.4351735717
 10
-15.2647058257
 20
-78.4485110944
 10
-15.3175445674
 20
-78.4659323455
 10
-15.3684716618
 20
-78.4874098545
 10
-15.4179555869
 20
-78.5132669351
  0
LWPOLYLINE
  5
2D1
100
AcDbEntity
  8
0
100
AcDbPolyline
 62
7
  6
CONTINUOUS
 90
37
 70
0
 10
-11.8496132092
 20
-79.1484455127
 10
-11.9141121242
 20
-79.0168847811
 10
-11.9581571712
 20
-78.9328601124
 10
-12.0044579971
 20
-78.8501416656
 10
-12.0531293126
 20
-78.7685486027
 10
-12.104056407
 20
-78.6882617616
 10
-12.1568951488
 20
-78.6098236559
 10
-12.2116584838
 20
-78.5332468066
 10
-12.2683334663
 20
-78.4585186927
 10
-12.3265371268
 20
-78.3861442656
 10
-12.3862798177
 20
-78.3161394656
 10
-12.4475511866
 20
-78.2484883523
 10
-12.5099372073
 20
-78.1836480559
 10
-12.5734454283
 20
-78.1216376123
 10
-12.638068301
 20
-78.0624379856
 10
-12.7033691536
 20
-78.0064491978
 10
-12.7693525775
 20
-77.9536929938
 10
-12.8360139813
 20
-77.9041476287
 10
-12.9029029193
 20
-77.8581478895
 10
-12.9700209324
 20
-77.8157177886
 10
-13.0373664796
 20
-77.7768333136
 10
-13.1044844927
 20
-77.7417572155
 10
-13.1713734307
 20
-77.7105152856
 10
-13.2380348346
 20
-77.6830817325
 10
-13.3040182584
 20
-77.6596419326
 10
-13.3693191111
 20
-77.6402229326
 10
-13.4339419838
 20
-77.6247976858
 10
-13.4974502047
 20
-77.6134704276
 10
-13.5598362254
 20
-77.6062689111
 10
-13.6211075944
 20
-77.6031653833
 10
-13.6808502853
 20
-77.6041808214
 10
-13.7390539458
 20
-77.6093431203
 10
-13.7957289282
 20
-77.618624385
 10
-13.8504922633
 20
-77.6319619078
 10
-13.9033310051
 20
-77.6493831588
 10
-13.9542580995
 20
-77.6708606679
 10
-14.0037420246
 20
-77.6967177484
  0
LINE
  5
2D2
100
AcDbEntity
  8
0
100
AcDbLine
 62
7
  6
CONTINUOUS
 10
-35.631110704
 20
118.474859372
 11
-35.631110704
 21
108.7543169983
  0
LINE
  5
2D3
100
AcDbEntity
  8
0
100
AcDbLine
 62
7
  6
CONTINUOUS
 10
-35.631110704
 20
103.2312108884
 11
-35.631110704
 21
-46.3750355923
  0
LINE
  5
2D4
100
AcDbEntity
  8
0
100
AcDbLine
 62
7
  6
CONTINUOUS
 10
-35.631110704
 20
-51.8981417022
 11
-35.631110704
 21
-66.5274055429
  0
LWPOLYLINE
  5
2D5
100
AcDbEntity
  8
0
100
AcDbPolyline
 62
7
  6
CONTINUOUS
 90
16
 70
0
 10
-35.631110704
 20
-66.5274055429
 10
-35.6321018173
 20
-66.569757427
 10
-35.6350037033
 20
-66.6106566114
 10
-35.6398163618
 20
-66.6501030962
 10
-35.6465634155
 20
-66.688196855
 10
-35.6552212419
 20
-66.7248379143
 10
-35.6657189732
 20
-66.759726353
 10
-35.6780717111
 20
-66.792847786
 10
-35.692264354
 20
-66.8242165985
 10
-35.7081807298
 20
-66.8535760249
 10
-35.7258349865
 20
-66.8809095726
 10
-35.7452129761
 20
-66.9062337341
 10
-35.7661560824
 20
-66.9293412216
 10
-35.7886771514
 20
-66.9502138412
 10
-35.8127633372
 20
-66.9688697868
 10
-35.838193325
 20
-66.9851424041
  0
LWPOLYLINE
  5
2D6
100
AcDbEntity
  8
0
100
AcDbPolyline
 62
7
  6
CONTINUOUS
 90
16
 70
0
 10
-35.631110704
 20
108.7543169983
 10
-35.6321910618
 20
108.7101531212
 10
-35.6353475905
 20
108.6675843255
 10
-35.6405802903
 20
108.6266106113
 10
-35.6479170909
 20
108.5871195346
 10
-35.6573300625
 20
108.5492235393
 10
-35.6687354154
 20
108.5132599574
 10
-35.6821509374
 20
108.4792460417
 10
-35.6975588407
 20
108.4471645393
 10
-35.7148219715
 20
108.4173010246
 10
-35.7339568931
 20
108.3896752997
 10
-35.7549470423
 20
108.3642675624
 10
-35.7776055746
 20
108.3413039801
 10
-35.8019473855
 20
108.3208063745
 10
-35.8279575796
 20
108.3027529239
 10
-35.8381969582
 20
108.2965864269
  0
LWPOLYLINE
  5
2D7
100
AcDbEntity
  8
0
100
AcDbPolyline
 62
7
  6
CONTINUOUS
 90
16
 70
0
 10
-35.631110704
 20
-46.3750355923
 10
-35.6321910618
 20
-46.4191994694
 10
-35.6353475905
 20
-46.4617682651
 10
-35.6405802903
 20
-46.5027419793
 10
-35.6479170909
 20
-46.5422330561
 10
-35.6573300625
 20
-46.5801290514
 10
-35.6687354154
 20
-46.6160926332
 10
-35.6821509374
 20
-46.650106549
 10
-35.6975588407
 20
-46.6821880513
 10
-35.7148219715
 20
-46.712051566
 10
-35.7339568931
 20
-46.739677291
 10
-35.7549470423
 20
-46.7650850283
 10
-35.7776055746
 20
-46.7880486105
 10
-35.8019473855
 20
-46.8085462162
 10
-35.8279575796
 20
-46.8265996668
 10
-35.8381969582
 20
-46.8327661637
  0
LWPOLYLINE
  5
2D8
100
AcDbEntity
  8
ASSI
100
AcDbPolyline
 62
7
  6
CONTINUOUS
 90
4
 70
0
 10
-46.2285083057
 20
-64.5016037878
 10
-46.2316371485
 20
-64.5327935649
 10
-46.2361741959
 20
-64.6101019978
 10
-46.2377124218
 20
-64.6895977765
  0
LWPOLYLINE
  5
2D9
100
AcDbEntity
  8
0
100
AcDbPolyline
 62
7
  6
CONTINUOUS
 90
4
 70
0
 10
-86.2181669689
 20
-37.7477531356
 10
-86.2826658839
 20
-37.8048321369
 10
-86.3066830002
 20
-37.8225341503
 10
-86.3256177419
 20
-37.8343360246
  0
LWPOLYLINE
  5
2DA
100
AcDbEntity
  8
0
100
AcDbPolyline
 62
7
  6
CONTINUOUS
 90
13
 70
0
 10
-97.134733021
 20
-32.4209920526
 10
-97.1523850984
 20
-32.4328712702
 10
-97.2193284422
 20
-32.50060925
 10
-97.2648658215
 20
-32.5887377024
 10
-97.2862717861
 20
-32.6998527833
 10
-97.2862717861
 20
-32.8313583367
 10
-97.2648658215
 20
-32.9671924888
 10
-97.2193284422
 20
-33.1079063655
 10
-97.1523850984
 20
-33.2529488408
 10
-97.0722121409
 20
-33.3846046633
 10
-96.9815350201
 20
-33.4969687492
 10
-96.8776282856
 20
-33.5959461823
 10
-96.7604919376
 20
-33.6815369625
  0
LWPOLYLINE
  5
2DB
100
AcDbEntity
  8
0
100
AcDbPolyline
 62
7
  6
CONTINUOUS
 90
48
 70
0
 10
33.7587963439
 20
67.3711606927
 10
33.7067115818
 20
67.3384534441
 10
33.6556720741
 20
67.3008485507
 10
33.607304319
 20
67.2593301619
 10
33.5616235917
 20
67.2138759173
 10
33.5186146171
 20
67.1645081773
 10
33.4785227351
 20
67.1115087955
 10
33.4413646204
 20
67.0548570228
 10
33.4071235982
 20
66.9945736081
 10
33.3759949844
 20
66.9310026525
 10
33.3479965679
 20
66.864125373
 10
33.3231105599
 20
66.7939605524
 10
33.3014789092
 20
66.7209086401
 10
33.2831202146
 20
66.6449531407
 10
33.2680158773
 20
66.5661105496
 10
33.2562520503
 20
66.4848308018
 10
33.2478478237
 20
66.4010999718
 10
33.2427841073
 20
66.314931985
 10
33.2410897836
 20
66.2268185533
 10
33.2427841073
 20
66.1367485588
 10
33.2478478237
 20
66.0447331194
 10
33.2562520503
 20
65.9512972991
 10
33.2680158773
 20
65.8564329788
 10
33.2831202146
 20
65.7601482776
 10
33.3014789092
 20
65.6629926179
 10
33.3231105599
 20
65.5649610176
 10
33.3479965679
 20
65.4660584587
 10
33.3759949844
 20
65.3668493096
 10
33.4071235982
 20
65.267331811
 10
33.4413646204
 20
65.1675077223
 10
33.4785227351
 20
65.06794669
 10
33.5186146171
 20
64.9686502078
 10
33.5616235917
 20
64.869616782
 10
33.607304319
 20
64.7714115786
 10
33.6556720741
 20
64.6740393187
 10
33.7067115818
 20
64.5774952811
 10
33.7601316777
 20
64.4823304674
 10
33.8159459754
 20
64.3885527465
 10
33.8741408612
 20
64.2961542495
 10
33.9343843298
 20
64.2056623722
 10
33.9966881003
 20
64.1170879964
 10
34.0610404537
 20
64.0304202402
 10
34.1270742279
 20
63.9461538539
 10
34.1947990462
 20
63.8643025467
 10
34.2642052852
 20
63.7848526095
 10
34.3348969125
 20
63.7082576652
 10
34.4067419172
 20
63.6346689213
 10
34.4798723102
 20
63.5639351703
  0
LWPOLYLINE
  5
2DC
100
AcDbEntity
  8
0
100
AcDbPolyline
 62
7
  6
CONTINUOUS
 90
48
 70
0
 10
-90.8788821282
 20
-18.6804772632
 10
-90.8267973661
 20
-18.6477700145
 10
-90.7757578583
 20
-18.6101651211
 10
-90.7273901033
 20
-18.5686467323
 10
-90.681709376
 20
-18.5231924877
 10
-90.6387004014
 20
-18.4738247478
 10
-90.5986085194
 20
-18.420825366
 10
-90.5614504046
 20
-18.3641735932
 10
-90.5272093824
 20
-18.3038901786
 10
-90.4960807686
 20
-18.2403192229
 10
-90.4680823522
 20
-18.1734419434
 10
-90.4431963441
 20
-18.1032771228
 10
-90.4215646934
 20
-18.0302252105
 10
-90.4032059988
 20
-17.9542697112
 10
-90.3881016616
 20
-17.8754271201
 10
-90.3763378346
 20
-17.7941473723
 10
-90.367933608
 20
-17.7104165422
 10
-90.3628698916
 20
-17.6242485555
 10
-90.3611755678
 20
-17.5361351237
 10
-90.3628698916
 20
-17.4460651293
 10
-90.367933608
 20
-17.3540496898
 10
-90.3763378346
 20
-17.2606138696
 10
-90.3881016616
 20
-17.1657495492
 10
-90.4032059988
 20
-17.0694648481
 10
-90.4215646934
 20
-16.9723091884
 10
-90.4431963441
 20
-16.874277588
 10
-90.4680823522
 20
-16.7753750291
 10
-90.4960807686
 20
-16.6761658801
 10
-90.5272093824
 20
-16.5766483815
 10
-90.5614504046
 20
-16.4768242927
 10
-90.5986085194
 20
-16.3772632605
 10
-90.6387004014
 20
-16.2779667782
 10
-90.681709376
 20
-16.1789333525
 10
-90.7273901033
 20
-16.080728149
 10
-90.7757578583
 20
-15.9833558891
 10
-90.8267973661
 20
-15.8868118515
 10
-90.880217462
 20
-15.7916470379
 10
-90.9360317596
 20
-15.6978693169
 10
-90.9942266454
 20
-15.60547082
 10
-91.0544701141
 20
-15.5149789427
 10
-91.1167738846
 20
-15.4264045668
 10
-91.181126238
 20
-15.3397368106
 10
-91.2471600121
 20
-15.2554704243
 10
-91.3148848304
 20
-15.1736191172
 10
-91.3842910694
 20
-15.09416918
 10
-91.4549826967
 20
-15.0175742356
 10
-91.5268277014
 20
-14.9439854917
 10
-91.5999580945
 20
-14.8732517407
  0
LWPOLYLINE
  5
2DD
100
AcDbEntity
  8
0
100
AcDbPolyline
 62
7
  6
CONTINUOUS
 90
48
 70
0
 10
-89.4646685658
 20
-17.8639280765
 10
-89.4125838037
 20
-17.8312208279
 10
-89.3615442959
 20
-17.7936159344
 10
-89.3131765409
 20
-17.7520975457
 10
-89.2674958136
 20
-17.7066433011
 10
-89.224486839
 20
-17.6572755611
 10
-89.184394957
 20
-17.6042761793
 10
-89.1472368422
 20
-17.5476244065
 10
-89.1129958201
 20
-17.4873409919
 10
-89.0818672063
 20
-17.4237700363
 10
-89.0538687898
 20
-17.3568927567
 10
-89.0289827817
 20
-17.2867279362
 10
-89.007351131
 20
-17.2136760239
 10
-88.9889924364
 20
-17.1377205245
 10
-88.9738880992
 20
-17.0588779334
 10
-88.9621242722
 20
-16.9775981856
 10
-88.9537200456
 20
-16.8938673556
 10
-88.9486563292
 20
-16.8076993688
 10
-88.9469620055
 20
-16.719585937
 10
-88.9486563292
 20
-16.6295159426
 10
-88.9537200456
 20
-16.5375005032
 10
-88.9621242722
 20
-16.4440646829
 10
-88.9738880992
 20
-16.3492003625
 10
-88.9889924364
 20
-16.2529156614
 10
-89.007351131
 20
-16.1557600017
 10
-89.0289827817
 20
-16.0577284014
 10
-89.0538687898
 20
-15.9588258425
 10
-89.0818672063
 20
-15.8596166934
 10
-89.1129958201
 20
-15.7600991948
 10
-89.1472368422
 20
-15.6602751061
 10
-89.184394957
 20
-15.5607140738
 10
-89.224486839
 20
-15.4614175916
 10
-89.2674958136
 20
-15.3623841658
 10
-89.3131765409
 20
-15.2641789623
 10
-89.3615442959
 20
-15.1668067025
 10
-89.4125838037
 20
-15.0702626649
 10
-89.4660038996
 20
-14.9750978512
 10
-89.5218181972
 20
-14.8813201303
 10
-89.580013083
 20
-14.7889216333
 10
-89.6402565517
 20
-14.698429756
 10
-89.7025603222
 20
-14.6098553802
 10
-89.7669126756
 20
-14.5231876239
 10
-89.8329464497
 20
-14.4389212377
 10
-89.900671268
 20
-14.3570699305
 10
-89.970077507
 20
-14.2776199933
 10
-90.0407691343
 20
-14.2010250489
 10
-90.1126141391
 20
-14.1274363051
 10
-90.1857445321
 20
-14.056702554
  0
LINE
  5
2DE
100
AcDbEntity
  8
0
100
AcDbLine
 62
253
  6
CONTINUOUS
 10
-92.1996531989
 20
-13.7130681261
 11
-90.7854396365
 21
-12.8965189394
  0
LINE
  5
2DF
100
AcDbEntity
  8
0
100
AcDbLine
 62
253
  6
CONTINUOUS
 10
-91.6743738757
 20
-14.8053729825
 11
-90.2601603134
 21
-13.9888237959
  0
LINE
  5
2E0
100
AcDbEntity
  8
0
100
AcDbLine
 62
253
  6
CONTINUOUS
 10
-92.1996531989
 20
-19.236174236
 11
-91.4324501053
 21
-18.7932007851
  0
LINE
  5
2E1
100
AcDbEntity
  8
ASSI
100
AcDbLine
 62
7
  6
CONTINUOUS
 10
-89.4646685581
 20
-17.8639280899
 11
-90.8788821204
 21
-18.6804772766
  0
LINE
  5
2E2
100
AcDbEntity
  8
0
100
AcDbLine
 62
253
  6
CONTINUOUS
 10
49.2217030384
 20
59.761365799
 11
50.6359166008
 21
60.5779149857
  0
LWPOLYLINE
  5
2E3
100
AcDbEntity
  8
0
100
AcDbPolyline
 62
7
  6
CONTINUOUS
 90
11
 70
0
 10
-91.9925669447
 20
-18.7784436646
 10
-91.9753592763
 20
-18.7691615692
 10
-91.9464625481
 20
-18.7563410914
 10
-91.916128967
 20
-18.7461254718
 10
-91.884628548
 20
-18.738605645
 10
-91.8519508734
 20
-18.7338056791
 10
-91.818106361
 20
-18.731701506
 10
-91.7833962782
 20
-18.732311856
 10
-91.7479210477
 20
-18.7356429726
 10
-91.7115802469
 20
-18.7416886124
 10
-91.6743738757
 20
-18.7504487754
  0
LWPOLYLINE
  5
2E4
100
AcDbEntity
  8
0
100
AcDbPolyline
 62
7
  6
CONTINUOUS
 90
13
 70
0
 10
-91.6743738757
 20
-18.7504487754
 10
-91.5999580945
 20
-18.7685034961
 10
-91.5268277014
 20
-18.7822188899
 10
-91.4549826967
 20
-18.7915949566
 10
-91.3842910694
 20
-18.7966329315
 10
-91.3148848304
 20
-18.7973315794
 10
-91.2471600121
 20
-18.7936871948
 10
-91.181126238
 20
-18.7856749557
 10
-91.1167738846
 20
-18.7733196841
 10
-91.0544701141
 20
-18.7566921407
 10
-90.9942266454
 20
-18.735767911
 10
-90.9360317596
 20
-18.7105714095
 10
-90.8788821282
 20
-18.6804772632
  0
LWPOLYLINE
  5
2E5
100
AcDbEntity
  8
0
100
AcDbPolyline
 62
7
  6
CONTINUOUS
 90
25
 70
0
 10
49.8213981428
 20
-96.5281704063
 10
49.7097759904
 20
-96.4260868262
 10
49.6734351896
 20
-96.3901670201
 10
49.6379599591
 20
-96.3525322298
 10
49.6032498763
 20
-96.3130602463
 10
49.5694053639
 20
-96.2718732786
 10
49.5367276894
 20
-96.2293379532
 10
49.5052272703
 20
-96.1854422321
 10
49.4748936892
 20
-96.1401981534
 10
49.445996961
 20
-96.0940084581
 10
49.418549914
 20
-96.0468647039
 10
49.3925397199
 20
-95.9987753331
 10
49.368197909
 20
-95.9501684144
 10
49.3455393767
 20
-95.901039327
 10
49.3245492275
 20
-95.8513926916
 10
49.3054143059
 20
-95.8016704387
 10
49.2881511751
 20
-95.7518718934
 10
49.2727432718
 20
-95.7019977305
 10
49.2593277498
 20
-95.6524919061
 10
49.2479223969
 20
-95.6033577087
 10
49.2385094253
 20
-95.5545918497
 10
49.2311726247
 20
-95.5066284195
 10
49.2259399249
 20
-95.4596121148
 10
49.2227833962
 20
-95.4133982388
 10
49.2217030384
 20
-95.3679867916
  0
LWPOLYLINE
  5
2E6
100
AcDbEntity
  8
0
100
AcDbPolyline
 62
7
  6
CONTINUOUS
 90
25
 70
0
 10
-20.0747615179
 20
-53.7239782722
 10
-20.0736811601
 20
-53.7693897194
 10
-20.0705246313
 20
-53.8156035954
 10
-20.0652919316
 20
-53.8626199001
 10
-20.057955131
 20
-53.9105833303
 10
-20.0485421593
 20
-53.9593491893
 10
-20.0371368065
 20
-54.0084833867
 10
-20.0237212844
 20
-54.0579892111
 10
-20.0083133812
 20
-54.1078633739
 10
-19.9910502504
 20
-54.1576619193
 10
-19.9719153287
 20
-54.2073841722
 10
-19.9509251796
 20
-54.2570308075
 10
-19.9282666473
 20
-54.306159895
 10
-19.9039248364
 20
-54.3547668137
 10
-19.8779146423
 20
-54.4028561844
 10
-19.8504675953
 20
-54.4499999387
 10
-19.8215708671
 20
-54.4961896339
 10
-19.791237286
 20
-54.5414337127
 10
-19.7597368669
 20
-54.5853294338
 10
-19.7270591924
 20
-54.6278647591
 10
-19.69321468
 20
-54.6690517269
 10
-19.6585045972
 20
-54.7085237104
 10
-19.6230293667
 20
-54.7461585007
 10
-19.5866885659
 20
-54.7820783068
 10
-19.4750664134
 20
-54.8841618868
  0
LWPOLYLINE
  5
2E7
100
AcDbEntity
  8
0
100
AcDbPolyline
 62
7
  6
CONTINUOUS
 90
25
 70
0
 10
-20.0747615179
 20
101.4053743184
 10
-20.0736811601
 20
101.3599628712
 10
-20.0705246313
 20
101.3137489953
 10
-20.0652919316
 20
101.2667326905
 10
-20.057955131
 20
101.2187692603
 10
-20.0485421593
 20
101.1700034014
 10
-20.0371368065
 20
101.1208692039
 10
-20.0237212844
 20
101.0713633795
 10
-20.0083133812
 20
101.0214892167
 10
-19.9910502504
 20
100.9716906713
 10
-19.9719153287
 20
100.9219684185
 10
-19.9509251796
 20
100.8723217831
 10
-19.9282666473
 20
100.8231926957
 10
-19.9039248364
 20
100.7745857769
 10
-19.8779146423
 20
100.7264964062
 10
-19.8504675953
 20
100.679352652
 10
-19.8215708671
 20
100.6331629567
 10
-19.791237286
 20
100.587918878
 10
-19.7597368669
 20
100.5440231569
 10
-19.7270591924
 20
100.5014878315
 10
-19.69321468
 20
100.4603008638
 10
-19.6585045972
 20
100.4208288803
 10
-19.6230293667
 20
100.3831940899
 10
-19.5866885659
 20
100.3472742838
 10
-19.4750664134
 20
100.2451907038
  0
LWPOLYLINE
  5
2E8
100
AcDbEntity
  8
0
100
AcDbPolyline
 62
7
  6
CONTINUOUS
 90
31
 70
0
 10
-20.0747615179
 20
-73.8763482228
 10
-20.0737704045
 20
-73.9198446197
 10
-20.0708685186
 20
-73.9640948293
 10
-20.06605586
 20
-74.0090988516
 10
-20.0593088063
 20
-74.0549839389
 10
-20.05065098
 20
-74.101622839
 10
-20.0401532487
 20
-74.1486337947
 10
-20.0278005108
 20
-74.1960198598
 10
-20.0136078678
 20
-74.2437779806
 10
-19.997691492
 20
-74.2915172388
 10
-19.9800372353
 20
-74.3392374796
 10
-19.9606592458
 20
-74.3869388577
 10
-19.9397161395
 20
-74.4342309194
 10
-19.9171950704
 20
-74.4811103051
 10
-19.8931088846
 20
-74.5275803743
 10
-19.8676547367
 20
-74.573260752
 10
-19.8408213987
 20
-74.6181449565
 10
-19.8126200985
 20
-74.6622394695
 10
-19.7832816745
 20
-74.7051833607
 10
-19.7527967934
 20
-74.746967186
 10
-19.7211747884
 20
-74.7876003894
 10
-19.6886744977
 20
-74.8267503729
 10
-19.6552887124
 20
-74.8644049626
 10
-19.6210246413
 20
-74.9005763322
 10
-19.5861627489
 20
-74.9349684056
 10
-19.5506981283
 20
-74.9675665785
 10
-19.5146356864
 20
-74.9983854552
 10
-19.4782706077
 20
-75.0271727714
 10
-19.4417012874
 20
-75.0538444391
 10
-19.4048293304
 20
-75.0784845463
 10
-19.3676547367
 20
-75.101093093
  0
LWPOLYLINE
  5
2E9
100
AcDbEntity
  8
ASSI
100
AcDbPolyline
 62
7
  6
CONTINUOUS
 90
49
 70
0
 10
-11.6955461608
 20
-96.2686709246
 10
-11.6967572942
 20
-96.2128040219
 10
-11.7003113035
 20
-96.1559921203
 10
-11.7062081888
 20
-96.0982352198
 10
-11.7144742166
 20
-96.0393852744
 10
-11.7250831205
 20
-95.97959033
 10
-11.7379561007
 20
-95.9192945243
 10
-11.753110016
 20
-95.858494128
 10
-11.7705280077
 20
-95.7971928704
 10
-11.7900807006
 20
-95.7358460777
 10
-11.81178399
 20
-95.6744534108
 10
-11.8356219805
 20
-95.6130152088
 10
-11.8614176112
 20
-95.551987815
 10
-11.8891854589
 20
-95.4913742882
 10
-11.9189109468
 20
-95.4311715697
 10
-11.9503732836
 20
-95.3718268259
 10
-11.9835854019
 20
-95.3133464454
 10
-12.018534369
 20
-95.2557240397
 10
-12.0549605951
 20
-95.1993876094
 10
-12.0928750802
 20
-95.1443467302
 10
-12.1322668243
 20
-95.0905918265
 10
-12.1728432381
 20
-95.0385221725
 10
-12.214613143
 20
-94.9881503169
 10
-12.2575677176
 20
-94.939463711
 10
-12.3013879091
 20
-94.8928239833
 10
-12.3460801631
 20
-94.8482463753
 10
-12.391638034
 20
-94.8057156455
 10
-12.4377231326
 20
-94.7655476986
 10
-12.4843393846
 20
-94.7277601282
 10
-12.5314828643
 20
-94.6923353408
 10
-12.5788034049
 20
-94.6595364602
 10
-12.6263023249
 20
-94.6293830394
 10
-12.6739783059
 20
-94.6018555255
 10
-12.7214772259
 20
-94.5771583841
 10
-12.7687977666
 20
-94.5553126904
 10
-12.8159412462
 20
-94.5362973693
 10
-12.8625574983
 20
-94.5202536603
 10
-12.9086425968
 20
-94.5072036905
 10
-12.9542004677
 20
-94.4971253329
 10
-12.9988927217
 20
-94.4900934463
 10
-13.0427129133
 20
-94.4861307151
 10
-13.0856674879
 20
-94.485214455
 10
-13.1274373927
 20
-94.4873514715
 10
-13.1680138066
 20
-94.4925644998
 10
-13.2074055507
 20
-94.5008308048
 10
-13.2453200357
 20
-94.5120889871
 10
-13.2817462619
 20
-94.5263613245
 10
-13.316695229
 20
-94.543625539
 10
-13.325168485
 20
-94.5483924637
  0
LWPOLYLINE
  5
2EA
100
AcDbEntity
  8
ASSI
100
AcDbPolyline
 62
7
  6
CONTINUOUS
 90
55
 70
0
 10
-12.6501403154
 20
-87.7569150248
 10
-12.6486020896
 20
-87.8381871082
 10
-12.6440650422
 20
-87.9207348097
 10
-12.6365291732
 20
-88.0045581294
 10
-12.6259687536
 20
-88.0898212776
 10
-12.6124095124
 20
-88.176360044
 10
-12.595928637
 20
-88.2636817977
 10
-12.5765094641
 20
-88.3517910044
 10
-12.5541686571
 20
-88.4406831984
 10
-12.5290333932
 20
-88.5298523518
 10
-12.5010877346
 20
-88.619300044
 10
-12.4703476191
 20
-88.7090246957
 10
-12.4369880381
 20
-88.7985155397
 10
-12.4009940516
 20
-88.8877712428
 10
-12.3623805996
 20
-88.9767931383
 10
-12.3213674931
 20
-89.06507446
 10
-12.2779410458
 20
-89.152610984
 10
-12.2321149441
 20
-89.2394069341
 10
-12.1841500578
 20
-89.3249682154
 10
-12.1340341883
 20
-89.4092877862
 10
-12.0817795343
 20
-89.4923726881
 10
-12.0276835606
 20
-89.5737499519
 10
-11.9717357654
 20
-89.6534098381
 10
-11.9139466505
 20
-89.7313620862
 10
-11.8546451866
 20
-89.8071629449
 10
-11.7938227479
 20
-89.8808001439
 10
-11.7314879601
 20
-89.9522859535
 10
-11.6679956704
 20
-90.0212134334
 10
-11.6033392771
 20
-90.0875679922
 10
-11.5375253818
 20
-90.1513642214
 10
-11.470928637
 20
-90.2122389541
 10
-11.4035445778
 20
-90.270175528
 10
-11.335377669
 20
-90.3251906055
 10
-11.266815958
 20
-90.3769710076
 10
-11.1978571928
 20
-90.4254982856
 10
-11.1285036253
 20
-90.4707908882
 10
-11.0591500578
 20
-90.5125909826
 10
-10.9897964902
 20
-90.5508786495
 10
-10.9204429227
 20
-90.5856738083
 10
-10.8514841576
 20
-90.6167783838
 10
-10.7829224465
 20
-90.6441713271
 10
-10.7147555377
 20
-90.6678736872
 10
-10.6473714785
 20
-90.6877505359
 10
-10.5807747337
 20
-90.7037800547
 10
-10.5149608384
 20
-90.7159840621
 10
-10.4503044451
 20
-90.7242930856
 10
-10.3868121554
 20
-90.7286849104
 10
-10.3244773676
 20
-90.7291817513
 10
-10.2636549289
 20
-90.7257807799
 10
-10.204353465
 20
-90.7184597653
 10
-10.1465643501
 20
-90.7072409385
 10
-10.090616555
 20
-90.6921881638
 10
-10.0365205812
 20
-90.6732795745
 10
-9.9842659272
 20
-90.6505370372
 10
-9.9340956975
 20
-90.6240586324
  0
LWPOLYLINE
  5
2EB
100
AcDbEntity
  8
ASSI
100
AcDbPolyline
 62
7
  6
CONTINUOUS
 90
40
 70
0
 10
-11.2359267531
 20
-86.9403658382
 10
-11.2343885272
 20
-87.0216379215
 10
-11.2298514798
 20
-87.104185623
 10
-11.2223156108
 20
-87.1880089428
 10
-11.2117551912
 20
-87.2732720909
 10
-11.19819595
 20
-87.3598108573
 10
-11.1817150746
 20
-87.447132611
 10
-11.1622959018
 20
-87.5352418177
 10
-11.1399550947
 20
-87.6241340117
 10
-11.1148198309
 20
-87.7133031651
 10
-11.0868741722
 20
-87.8027508574
 10
-11.0561340567
 20
-87.892475509
 10
-11.0227744757
 20
-87.9819663531
 10
-10.9867804892
 20
-88.0712220561
 10
-10.9481670372
 20
-88.1602439517
 10
-10.9071539307
 20
-88.2485252733
 10
-10.8637274834
 20
-88.3360617973
 10
-10.8179013817
 20
-88.4228577474
 10
-10.7699364954
 20
-88.5084190288
 10
-10.719820626
 20
-88.5927385995
 10
-10.6675659719
 20
-88.6758235015
 10
-10.6134699982
 20
-88.7572007652
 10
-10.557522203
 20
-88.8368606515
 10
-10.4997330882
 20
-88.9148128995
 10
-10.4404316242
 20
-88.9906137582
 10
-10.3796091856
 20
-89.0642509572
 10
-10.3172743978
 20
-89.1357367668
 10
-10.253782108
 20
-89.2046642467
 10
-10.1891257147
 20
-89.2710188056
 10
-10.1233118194
 20
-89.3348150347
 10
-10.0567150746
 20
-89.3956897675
 10
-9.9893310154
 20
-89.4536263413
 10
-9.9211641067
 20
-89.5086414188
 10
-9.8526023956
 20
-89.5604218209
 10
-9.7836436304
 20
-89.6089490989
 10
-9.7142900629
 20
-89.6542417015
 10
-9.6449364954
 20
-89.6960417959
 10
-9.5755829279
 20
-89.7343294629
 10
-9.5062293604
 20
-89.7691246216
 10
-9.4773639161
 20
-89.7821446835
  0
LINE
  5
2EC
100
AcDbEntity
  8
0
100
AcDbLine
 62
7
  6
CONTINUOUS
 10
-21.4889750803
 20
-74.6928974095
 11
-21.4889750803
 21
-60.0636335688
  0
LINE
  5
2ED
100
AcDbEntity
  8
0
100
AcDbLine
 62
7
  6
CONTINUOUS
 10
-21.4889750803
 20
-54.5405274588
 11
-21.4889750803
 21
95.0657190218
  0
LINE
  5
2EE
100
AcDbEntity
  8
0
100
AcDbLine
 62
7
  6
CONTINUOUS
 10
-21.4889750803
 20
100.5888251318
 11
-21.4889750803
 21
110.1776167144
  0
LINE
  5
2EF
100
AcDbEntity
  8
0
100
AcDbLine
 62
7
  6
CONTINUOUS
 10
-20.0747615179
 20
-73.8763482228
 11
-20.0747615179
 21
-59.4539840902
  0
LINE
  5
2F0
100
AcDbEntity
  8
0
100
AcDbLine
 62
7
  6
CONTINUOUS
 10
-20.0747615179
 20
-53.7239782722
 11
-20.0747615179
 21
95.6753685004
  0
LINE
  5
2F1
100
AcDbEntity
  8
0
100
AcDbLine
 62
7
  6
CONTINUOUS
 10
-20.0747615179
 20
101.4053743184
 11
-20.0747615179
 21
109.3546547535
  0
LINE
  5
2F2
100
AcDbEntity
  8
ASSI
100
AcDbLine
 62
7
  6
CONTINUOUS
 10
-12.6501403154
 20
-87.7569150248
 11
-12.6501403154
 21
-85.7157393328
  0
LWPOLYLINE
  5
2F3
100
AcDbEntity
  8
0
100
AcDbPolyline
 62
7
  6
CONTINUOUS
 90
16
 70
0
 10
-21.4889750803
 20
95.0657190218
 10
-21.4878947225
 20
95.109882899
 10
-21.4847381937
 20
95.1524516947
 10
-21.479505494
 20
95.1934254089
 10
-21.4721686933
 20
95.2329164856
 10
-21.4627557217
 20
95.2708124809
 10
-21.4513503689
 20
95.3067760628
 10
-21.4379348468
 20
95.3407899785
 10
-21.4225269435
 20
95.3728714809
 10
-21.4052638128
 20
95.4027349956
 10
-21.3861288911
 20
95.4303607205
 10
-21.365138742
 20
95.4557684578
 10
-21.3424802097
 20
95.4787320401
 10
-21.3181383988
 20
95.4992296457
 10
-21.2921282047
 20
95.5172830963
 10
-21.2818888261
 20
95.5234495933
  0
LWPOLYLINE
  5
2F4
100
AcDbEntity
  8
0
100
AcDbPolyline
 62
7
  6
CONTINUOUS
 90
16
 70
0
 10
-21.4889750803
 20
-60.0636335688
 10
-21.4878947225
 20
-60.0194696916
 10
-21.4847381937
 20
-59.976900896
 10
-21.479505494
 20
-59.9359271818
 10
-21.4721686933
 20
-59.896436105
 10
-21.4627557217
 20
-59.8585401097
 10
-21.4513503689
 20
-59.8225765279
 10
-21.4379348468
 20
-59.7885626121
 10
-21.4225269435
 20
-59.7564811098
 10
-21.4052638128
 20
-59.726617595
 10
-21.3861288911
 20
-59.6989918701
 10
-21.365138742
 20
-59.6735841328
 10
-21.3424802097
 20
-59.6506205506
 10
-21.3181383988
 20
-59.6301229449
 10
-21.2921282047
 20
-59.6120694943
 10
-21.2818888261
 20
-59.6059029974
  0
LWPOLYLINE
  5
2F5
100
AcDbEntity
  8
0
100
AcDbPolyline
 62
7
  6
CONTINUOUS
 90
13
 70
0
 10
-96.3862508541
 20
-33.7173764573
 10
-96.3685987768
 20
-33.7054972397
 10
-96.3016554329
 20
-33.6377592599
 10
-96.2561180536
 20
-33.5496308075
 10
-96.2347120891
 20
-33.4385157266
 10
-96.2347120891
 20
-33.3070101732
 10
-96.2561180536
 20
-33.1711760211
 10
-96.3016554329
 20
-33.0304621444
 10
-96.3685987768
 20
-32.8854196691
 10
-96.4487717342
 20
-32.7537638466
 10
-96.539448855
 20
-32.6413997607
 10
-96.6433555895
 20
-32.5424223276
 10
-96.7604919376
 20
-32.4568315474
  0
LWPOLYLINE
  5
2F6
100
AcDbEntity
  8
0
100
AcDbPolyline
 62
7
  6
CONTINUOUS
 90
3
 70
0
 10
-86.1286337056
 20
-37.6858076023
 10
-86.1741219219
 20
-37.7145905832
 10
-86.2181669689
 20
-37.7477531356
  0
LWPOLYLINE
  5
2F7
100
AcDbEntity
  8
0
100
AcDbPolyline
 62
7
  6
CONTINUOUS
 90
48
 70
0
 10
50.5424741091
 20
54.7939566619
 10
50.5945588713
 20
54.8266639106
 10
50.645598379
 20
54.864268804
 10
50.693966134
 20
54.9057871928
 10
50.7396468614
 20
54.9512414374
 10
50.7826558359
 20
55.0006091773
 10
50.8227477179
 20
55.0536085591
 10
50.8599058327
 20
55.1102603319
 10
50.8941468549
 20
55.1705437465
 10
50.9252754687
 20
55.2341147022
 10
50.9532738851
 20
55.3009919817
 10
50.9781598932
 20
55.3711568023
 10
50.9997915439
 20
55.4442087146
 10
51.0181502385
 20
55.5201642139
 10
51.0332545757
 20
55.599006805
 10
51.0450184027
 20
55.6802865528
 10
51.0534226293
 20
55.7640173829
 10
51.0584863457
 20
55.8501853696
 10
51.0601806695
 20
55.9382988014
 10
51.0584863457
 20
56.0283687958
 10
51.0534226293
 20
56.1203842353
 10
51.0450184027
 20
56.2138200555
 10
51.0332545757
 20
56.3086843759
 10
51.0181502385
 20
56.404969077
 10
50.9997915439
 20
56.5021247367
 10
50.9781598932
 20
56.6001563371
 10
50.9532738851
 20
56.699058896
 10
50.9252754687
 20
56.798268045
 10
50.8941468549
 20
56.8977855436
 10
50.8599058327
 20
56.9976096323
 10
50.8227477179
 20
57.0971706646
 10
50.7826558359
 20
57.1964671468
 10
50.7396468614
 20
57.2955005726
 10
50.693966134
 20
57.3937057761
 10
50.645598379
 20
57.491078036
 10
50.5945588713
 20
57.5876220736
 10
50.5411387753
 20
57.6827868872
 10
50.4853244777
 20
57.7765646082
 10
50.4271295919
 20
57.8689631051
 10
50.3668861232
 20
57.9594549824
 10
50.3045823527
 20
58.0480293583
 10
50.2402299993
 20
58.1346971145
 10
50.1741962252
 20
58.2189635007
 10
50.1064714069
 20
58.3008148079
 10
50.0370651679
 20
58.3802647451
 10
49.9663735406
 20
58.4568596895
 10
49.8945285359
 20
58.5304484334
 10
49.8213981428
 20
58.6011821844
  0
LWPOLYLINE
  5
2F8
100
AcDbEntity
  8
0
100
AcDbPolyline
 62
7
  6
CONTINUOUS
 90
48
 70
0
 10
51.9566876715
 20
55.6105058486
 10
52.0087724336
 20
55.6432130972
 10
52.0598119414
 20
55.6808179906
 10
52.1081796964
 20
55.7223363794
 10
52.1538604237
 20
55.767790624
 10
52.1968693983
 20
55.817158364
 10
52.2369612803
 20
55.8701577458
 10
52.2741193951
 20
55.9268095185
 10
52.3083604173
 20
55.9870929332
 10
52.339489031
 20
56.0506638888
 10
52.3674874475
 20
56.1175411683
 10
52.3923734556
 20
56.1877059889
 10
52.4140051063
 20
56.2607579012
 10
52.4323638009
 20
56.3367134006
 10
52.4474681381
 20
56.4155559917
 10
52.4592319651
 20
56.4968357395
 10
52.4676361917
 20
56.5805665695
 10
52.4726999081
 20
56.6667345563
 10
52.4743942319
 20
56.7548479881
 10
52.4726999081
 20
56.8449179825
 10
52.4676361917
 20
56.9369334219
 10
52.4592319651
 20
57.0303692422
 10
52.4474681381
 20
57.1252335625
 10
52.4323638009
 20
57.2215182637
 10
52.4140051063
 20
57.3186739234
 10
52.3923734556
 20
57.4167055237
 10
52.3674874475
 20
57.5156080826
 10
52.339489031
 20
57.6148172317
 10
52.3083604173
 20
57.7143347303
 10
52.2741193951
 20
57.814158819
 10
52.2369612803
 20
57.9137198513
 10
52.1968693983
 20
58.0130163335
 10
52.1538604237
 20
58.1120497593
 10
52.1081796964
 20
58.2102549627
 10
52.0598119414
 20
58.3076272226
 10
52.0087724336
 20
58.4041712602
 10
51.9553523377
 20
58.4993360739
 10
51.8995380401
 20
58.5931137948
 10
51.8413431543
 20
58.6855122918
 10
51.7810996856
 20
58.7760041691
 10
51.7187959151
 20
58.8645785449
 10
51.6544435617
 20
58.9512463011
 10
51.5884097876
 20
59.0355126874
 10
51.5206849693
 20
59.1173639946
 10
51.4512787303
 20
59.1968139318
 10
51.380587103
 20
59.2734088761
 10
51.3087420982
 20
59.34699762
 10
51.2356117052
 20
59.417731371
  0
LWPOLYLINE
  5
2F9
100
AcDbEntity
  8
ASSI
100
AcDbPolyline
 62
7
  6
CONTINUOUS
 90
11
 70
0
 10
-96.9051900213
 20
-31.5938705501
 10
-96.9299288835
 20
-31.6092314842
 10
-96.9613912203
 20
-31.6322443102
 10
-96.9911167082
 20
-31.6581207803
 10
-97.0188845559
 20
-31.6866686925
 10
-97.0446801866
 20
-31.7179079386
 10
-97.0685181771
 20
-31.7518186267
 10
-97.0902214665
 20
-31.7881488791
 10
-97.1097741594
 20
-31.8269167121
 10
-97.1271921511
 20
-31.8681041095
 10
-97.1390978318
 20
-31.9021235879
  0
LWPOLYLINE
  5
2FA
100
AcDbEntity
  8
ASSI
100
AcDbPolyline
 62
7
  6
CONTINUOUS
 90
17
 70
0
 10
-95.5551336821
 20
-33.9320860698
 10
-95.5303948198
 20
-33.9167251357
 10
-95.4989324831
 20
-33.8937123097
 10
-95.4692069951
 20
-33.8678358396
 10
-95.4414391474
 20
-33.8392879274
 10
-95.4156435167
 20
-33.8080486813
 10
-95.3918055262
 20
-33.7741379932
 10
-95.3701022369
 20
-33.7378077408
 10
-95.350549544
 20
-33.6990399078
 10
-95.3331315523
 20
-33.6578525104
 10
-95.317977637
 20
-33.6145514756
 10
-95.3051046567
 20
-33.5691210649
 10
-95.2944957529
 20
-33.5215770167
 10
-95.2862297251
 20
-33.472272473
 10
-95.2803328398
 20
-33.4213251478
 10
-95.2767788304
 20
-33.3686173271
 10
-95.2755676971
 20
-33.3141490109
  0
LINE
  5
2FB
100
AcDbEntity
  8
0
100
AcDbLine
 62
253
  6
CONTINUOUS
 10
49.7469823616
 20
58.6690609426
 11
51.1611959239
 21
59.4856101292
  0
LINE
  5
2FC
100
AcDbEntity
  8
0
100
AcDbLine
 62
253
  6
CONTINUOUS
 10
49.2217030384
 20
54.2382596891
 11
49.988906132
 21
54.68123314
  0
LINE
  5
2FD
100
AcDbEntity
  8
ASSI
100
AcDbLine
 62
7
  6
CONTINUOUS
 10
51.9566876792
 20
55.6105058352
 11
50.5424741169
 21
54.7939566485
  0
LINE
  5
2FE
100
AcDbEntity
  8
0
100
AcDbLine
 62
7
  6
CONTINUOUS
 10
-97.3605209297
 20
-32.0299705096
 11
-96.5213590718
 21
-31.54544897
  0
LINE
  5
2FF
100
AcDbEntity
  8
0
100
AcDbLine
 62
7
  6
CONTINUOUS
 10
-96.1604629454
 20
-34.1083980003
 11
-95.3212258716
 21
-33.623833032
  0
LINE
  5
300
100
AcDbEntity
  8
0
100
AcDbLine
 62
253
  6
CONTINUOUS
 10
-90.7854396365
 20
-33.0488888901
 11
-92.1996531989
 21
-33.8654380767
  0
LINE
  5
301
100
AcDbEntity
  8
0
100
AcDbLine
 62
253
  6
CONTINUOUS
 10
-90.0783328554
 20
-34.2736337602
 11
-91.4925464177
 21
-35.0901829469
  0
LWPOLYLINE
  5
302
100
AcDbEntity
  8
0
100
AcDbPolyline
 62
7
  6
CONTINUOUS
 90
11
 70
0
 10
49.4287892926
 20
54.6959902605
 10
49.445996961
 20
54.7052723559
 10
49.4748936892
 20
54.7180928337
 10
49.5052272703
 20
54.7283084533
 10
49.5367276894
 20
54.7358282801
 10
49.5694053639
 20
54.740628246
 10
49.6032498763
 20
54.7427324191
 10
49.6379599591
 20
54.7421220691
 10
49.6734351896
 20
54.7387909525
 10
49.7097759904
 20
54.7327453127
 10
49.7469823616
 20
54.7239851497
  0
LWPOLYLINE
  5
303
100
AcDbEntity
  8
0
100
AcDbPolyline
 62
7
  6
CONTINUOUS
 90
6
 70
0
 10
-97.3594878089
 20
-32.0317598233
 10
-97.3039971083
 20
-32.0047071937
 10
-97.1847560063
 20
-31.9757186976
 10
-97.0559658961
 20
-31.9810643045
 10
-96.9145445399
 20
-32.0189647129
 10
-96.7604919376
 20
-32.0894199228
  0
LWPOLYLINE
  5
304
100
AcDbEntity
  8
0
100
AcDbPolyline
 62
7
  6
CONTINUOUS
 90
4
 70
0
 10
105.2649662102
 20
-132.4607555113
 10
105.3021725813
 20
-132.4949603332
 10
105.3385133821
 20
-132.5308801393
 10
105.3659814646
 20
-132.5600203453
  0
LWPOLYLINE
  5
305
100
AcDbEntity
  8
0
100
AcDbPolyline
 62
7
  6
CONTINUOUS
 90
18
 70
0
 10
30.576793662
 20
-103.6449211123
 10
30.6008107783
 20
-103.6903574897
 10
30.6261353641
 20
-103.7350004034
 10
30.6528414217
 20
-103.778963894
 10
30.6808549487
 20
-103.8221339209
 10
30.7099539381
 20
-103.8641683618
 10
30.7401470151
 20
-103.9050581936
 10
30.7714255544
 20
-103.9448124394
 10
30.803541674
 20
-103.9831160471
 10
30.8365020292
 20
-104.0199574901
 10
30.8702999646
 20
-104.0553482951
 10
30.9046676319
 20
-104.0890079902
 10
30.939609558
 20
-104.1209228199
 10
30.975121216
 20
-104.1511065398
 10
31.0109211762
 20
-104.179319944
 10
31.0469156286
 20
-104.2054832972
 10
31.0831983832
 20
-104.2296763347
 10
31.11976944
 20
-104.2518990566
  0
LWPOLYLINE
  5
306
100
AcDbEntity
  8
0
100
AcDbPolyline
 62
7
  6
CONTINUOUS
 90
37
 70
0
 10
29.1625800996
 20
-104.461470299
 10
29.0980811846
 20
-104.3299095674
 10
29.0540361376
 20
-104.2458848988
 10
29.0077353117
 20
-104.1631664519
 10
28.9590639962
 20
-104.081573389
 10
28.9081369018
 20
-104.0012865479
 10
28.8552981601
 20
-103.9228484422
 10
28.800534825
 20
-103.8462715929
 10
28.7438598426
 20
-103.771543479
 10
28.6856561821
 20
-103.6991690519
 10
28.6259134912
 20
-103.6291642519
 10
28.5646421222
 20
-103.5615131386
 10
28.5022561015
 20
-103.4966728422
 10
28.4387478805
 20
-103.4346623986
 10
28.3741250078
 20
-103.375462772
 10
28.3088241552
 20
-103.3194739841
 10
28.2428407313
 20
-103.2667177801
 10
28.1761793275
 20
-103.217172415
 10
28.1092903895
 20
-103.1711726759
 10
28.0421723764
 20
-103.1287425749
 10
27.9748268292
 20
-103.0898581
 10
27.9077088161
 20
-103.0547820018
 10
27.8408198781
 20
-103.0235400719
 10
27.7741584743
 20
-102.9961065189
 10
27.7081750504
 20
-102.9726667189
 10
27.6428741978
 20
-102.9532477189
 10
27.5782513251
 20
-102.9378224721
 10
27.5147431041
 20
-102.926495214
 10
27.4523570834
 20
-102.9192936974
 10
27.3910857144
 20
-102.9161901697
 10
27.3313430235
 20
-102.9172056077
 10
27.273139363
 20
-102.9223679066
 10
27.2164643806
 20
-102.9316491714
 10
27.1617010455
 20
-102.9449866941
 10
27.1088623038
 20
-102.9624079452
 10
27.0579352094
 20
-102.9838854542
 10
27.0084512843
 20
-103.0097425347
  0
LWPOLYLINE
  5
307
100
AcDbEntity
  8
0
100
AcDbPolyline
 62
7
  6
CONTINUOUS
 90
37
 70
0
 10
30.576793662
 20
-103.6449211123
 10
30.512294747
 20
-103.5133603807
 10
30.4682497
 20
-103.4293357121
 10
30.421948874
 20
-103.3466172653
 10
30.3732775586
 20
-103.2650242023
 10
30.3223504642
 20
-103.1847373612
 10
30.2695117224
 20
-103.1062992556
 10
30.2147483874
 20
-103.0297224062
 10
30.1580734049
 20
-102.9549942924
 10
30.0998697444
 20
-102.8826198653
 10
30.0401270535
 20
-102.8126150652
 10
29.9788556846
 20
-102.744963952
 10
29.9164696639
 20
-102.6801236555
 10
29.8529614429
 20
-102.618113212
 10
29.7883385702
 20
-102.5589135853
 10
29.7230377176
 20
-102.5029247975
 10
29.6570542937
 20
-102.4501685935
 10
29.5903928899
 20
-102.4006232283
 10
29.5235039519
 20
-102.3546234892
 10
29.4563859388
 20
-102.3121933882
 10
29.3890403915
 20
-102.2733089133
 10
29.3219223785
 20
-102.2382328151
 10
29.2550334405
 20
-102.2069908853
 10
29.1883720366
 20
-102.1795573322
 10
29.1223886128
 20
-102.1561175322
 10
29.0570877601
 20
-102.1366985323
 10
28.9924648874
 20
-102.1212732854
 10
28.9289566665
 20
-102.1099460273
 10
28.8665706458
 20
-102.1027445108
 10
28.8052992768
 20
-102.099640983
 10
28.7455565859
 20
-102.1006564211
 10
28.6873529254
 20
-102.10581872
 10
28.630677943
 20
-102.1150999847
 10
28.5759146079
 20
-102.1284375074
 10
28.5230758661
 20
-102.1458587585
 10
28.4721487717
 20
-102.1673362675
 10
28.4226648466
 20
-102.1931933481
  0
LWPOLYLINE
  5
308
100
AcDbEntity
  8
ASSI
100
AcDbPolyline
 62
7
  6
CONTINUOUS
 90
55
 70
0
 10
-9.4681598001
 20
-87.5529750028
 10
-9.4696980259
 20
-87.4717029195
 10
-9.4742350733
 20
-87.389155218
 10
-9.4817709423
 20
-87.3053318982
 10
-9.4923313619
 20
-87.2200687501
 10
-9.5058906031
 20
-87.1335299837
 10
-9.5223714785
 20
-87.04620823
 10
-9.5417906514
 20
-86.9580990233
 10
-9.5641314584
 20
-86.8692068293
 10
-9.5892667223
 20
-86.7800376759
 10
-9.6172123809
 20
-86.6905899836
 10
-9.6479524964
 20
-86.600865332
 10
-9.6813120774
 20
-86.5113744879
 10
-9.7173060639
 20
-86.4221187849
 10
-9.755919516
 20
-86.3330968893
 10
-9.7969326225
 20
-86.2448155677
 10
-9.8403590697
 20
-86.1572790437
 10
-9.8861851714
 20
-86.0704830936
 10
-9.9341500578
 20
-85.9849218122
 10
-9.9842659272
 20
-85.9006022415
 10
-10.0365205812
 20
-85.8175173395
 10
-10.090616555
 20
-85.7361400758
 10
-10.1465643501
 20
-85.6564801895
 10
-10.204353465
 20
-85.5785279415
 10
-10.2636549289
 20
-85.5027270828
 10
-10.3244773676
 20
-85.4290898838
 10
-10.3868121554
 20
-85.3576040742
 10
-10.4503044451
 20
-85.2886765943
 10
-10.5149608384
 20
-85.2223220354
 10
-10.5807747337
 20
-85.1585258063
 10
-10.6473714785
 20
-85.0976510735
 10
-10.7147555377
 20
-85.0397144997
 10
-10.7829224465
 20
-84.9846994222
 10
-10.8514841576
 20
-84.9329190201
 10
-10.9204429227
 20
-84.8843917421
 10
-10.9897964902
 20
-84.8390991395
 10
-11.0591500578
 20
-84.7972990451
 10
-11.1285036253
 20
-84.7590113781
 10
-11.1978571928
 20
-84.7242162194
 10
-11.266815958
 20
-84.6931116439
 10
-11.335377669
 20
-84.6657187005
 10
-11.4035445778
 20
-84.6420163405
 10
-11.470928637
 20
-84.6221394918
 10
-11.5375253818
 20
-84.606109973
 10
-11.6033392771
 20
-84.5939059655
 10
-11.6679956704
 20
-84.585596942
 10
-11.7314879601
 20
-84.5812051172
 10
-11.7938227479
 20
-84.5807082764
 10
-11.8546451866
 20
-84.5841092478
 10
-11.9139466505
 20
-84.5914302623
 10
-11.9717357654
 20
-84.6026490891
 10
-12.0276835606
 20
-84.6177018639
 10
-12.0817795343
 20
-84.6366104532
 10
-12.1340341883
 20
-84.6593529904
 10
-12.1842044181
 20
-84.6858313953
  0
LINE
  5
309
100
AcDbEntity
  8
ASSI
100
AcDbLine
 62
7
  6
CONTINUOUS
 10
-11.2359267531
 20
-86.9403658382
 11
-11.2359267531
 21
-84.8991901462
  0
LINE
  5
30A
100
AcDbEntity
  8
ASSI
100
AcDbLine
 62
7
  6
CONTINUOUS
 10
-9.4681598001
 20
-87.5529750028
 11
-9.4681598001
 21
-89.5941506948
  0
LWPOLYLINE
  5
30B
100
AcDbEntity
  8
ASSI
100
AcDbPolyline
 62
7
  6
CONTINUOUS
 90
4
 70
0
 10
-11.226722637
 20
-84.7111961575
 10
-11.2298514798
 20
-84.7423859346
 10
-11.2343885272
 20
-84.8196943675
 10
-11.2359267531
 20
-84.8991901462
  0
LWPOLYLINE
  5
30C
100
AcDbEntity
  8
ASSI
100
AcDbPolyline
 62
7
  6
CONTINUOUS
 90
19
 70
0
 10
-82.8948825367
 20
-43.8583720625
 10
-82.9427930628
 20
-43.8885133114
 10
-82.9886191645
 20
-43.922390428
 10
-83.0320456117
 20
-43.9597791792
 10
-83.0730587182
 20
-44.0006995935
 10
-83.1116721702
 20
-44.0451316425
 10
-83.1476661567
 20
-44.0928223922
 10
-83.1810257378
 20
-44.1437904283
 10
-83.2117658532
 20
-44.1980171651
 10
-83.2397115119
 20
-44.2551939112
 10
-83.2648467758
 20
-44.3153374919
 10
-83.2871875828
 20
-44.378431082
 10
-83.3066067557
 20
-44.4441155146
 10
-83.323087631
 20
-44.5124055665
 10
-83.3366468722
 20
-44.5832864611
 10
-83.3472072919
 20
-44.6563547013
 10
-83.3547431608
 20
-44.7314757885
 10
-83.3592802082
 20
-44.8087842214
 10
-83.3608184341
 20
-44.8882800001
  0
LWPOLYLINE
  5
30D
100
AcDbEntity
  8
ASSI
100
AcDbPolyline
 62
7
  6
CONTINUOUS
 90
19
 70
0
 10
-80.6447738161
 20
-49.7965992996
 10
-80.5968632901
 20
-49.7664580507
 10
-80.5510371883
 20
-49.7325809341
 10
-80.5076107411
 20
-49.6951921829
 10
-80.4665976346
 20
-49.6542717686
 10
-80.4279841826
 20
-49.6098397196
 10
-80.3919901961
 20
-49.5621489699
 10
-80.3586306151
 20
-49.5111809338
 10
-80.3278904996
 20
-49.456954197
 10
-80.2999448409
 20
-49.3997774509
 10
-80.2748095771
 20
-49.3396338702
 10
-80.25246877
 20
-49.2765402801
 10
-80.2330495972
 20
-49.2108558475
 10
-80.2165687218
 20
-49.1425657956
 10
-80.2030094806
 20
-49.0716849011
 10
-80.1924490609
 20
-48.9986166608
 10
-80.184913192
 20
-48.9234955736
 10
-80.1803761446
 20
-48.8461871407
 10
-80.1788379187
 20
-48.766691362
  0
LINE
  5
30E
100
AcDbEntity
  8
0
100
AcDbLine
 62
253
  6
CONTINUOUS
 10
-86.8256416619
 20
-37.7847952628
 11
-85.4114280995
 21
-36.9682460762
  0
LINE
  5
30F
100
AcDbEntity
  8
ASSI
100
AcDbLine
 62
7
  6
CONTINUOUS
 10
-84.714420145
 20
-36.8692584126
 11
-86.1286337073
 21
-37.6858075993
  0
LINE
  5
310
100
AcDbEntity
  8
0
100
AcDbLine
 62
7
  6
CONTINUOUS
 10
-107.4731596725
 20
-52.4807867859
 11
-100.6849345732
 21
-48.56135069
  0
LINE
  5
311
100
AcDbEntity
  8
0
100
AcDbLine
 62
253
  6
CONTINUOUS
 10
-83.9972145371
 20
-39.0913055254
 11
-82.5830009748
 21
-38.2747563388
  0
LINE
  5
312
100
AcDbEntity
  8
0
100
AcDbLine
 62
253
  6
CONTINUOUS
 10
-83.4315291122
 20
-39.7445133108
 11
-82.0173155498
 21
-38.9279641241
  0
LINE
  5
313
100
AcDbEntity
  8
ASSI
100
AcDbLine
 62
253
  6
CONTINUOUS
 10
-81.9466048717
 20
-44.0717308134
 11
-83.3608184341
 21
-44.8882800001
  0
LINE
  5
314
100
AcDbEntity
  8
ASSI
100
AcDbLine
 62
253
  6
CONTINUOUS
 10
-81.9466048717
 20
-46.1129065054
 11
-83.3608184341
 21
-46.9294556921
  0
LINE
  5
315
100
AcDbEntity
  8
ASSI
100
AcDbLine
 62
253
  6
CONTINUOUS
 10
107.9115658769
 20
61.2422623339
 11
89.6328555832
 21
50.6883640964
  0
LWPOLYLINE
  5
316
100
AcDbEntity
  8
0
100
AcDbPolyline
 62
7
  6
CONTINUOUS
 90
17
 70
0
 10
-86.3256177419
 20
-37.8343360246
 10
-86.332007586
 20
-37.8379328671
 10
-86.3587136436
 20
-37.8510568718
 10
-86.3867271706
 20
-37.8618775799
 10
-86.41582616
 20
-37.8703092373
 10
-86.4460192369
 20
-37.8763328606
 10
-86.4772977763
 20
-37.8799674332
 10
-86.5094138959
 20
-37.8811841511
 10
-86.5423742511
 20
-37.879963802
 10
-86.5761721865
 20
-37.8763255984
 10
-86.6105398538
 20
-37.8702983727
 10
-86.6454817799
 20
-37.861863142
 10
-86.6809934379
 20
-37.8510388894
 10
-86.716793398
 20
-37.8379113969
 10
-86.7527878505
 20
-37.8225092587
 10
-86.7890706051
 20
-37.8048038807
 10
-86.8256416619
 20
-37.7847952628
  0
LWPOLYLINE
  5
317
100
AcDbEntity
  8
0
100
AcDbPolyline
 62
253
  6
CONTINUOUS
 90
19
 70
0
 10
107.9115658769
 20
61.2422623339
 10
108.0040965707
 20
61.2933571005
 10
108.096451127
 20
61.3396920125
 10
108.1884537438
 20
61.3811788689
 10
108.2799292888
 20
61.417738697
 10
108.3707036331
 20
61.4493019031
 10
108.4606039826
 20
61.475808405
 10
108.5494592068
 20
61.4972077458
 10
108.6371001648
 20
61.5134591909
 10
108.7233600271
 20
61.5245318046
 10
108.8080745931
 20
61.5304045096
 10
108.8910826037
 20
61.5310661269
 10
108.9722260487
 20
61.526515397
 10
109.0513504667
 20
61.5167609825
 10
109.1283052399
 20
61.5018214514
 10
109.2029438806
 20
61.4817252422
 10
109.2751243099
 20
61.4565106089
 10
109.3447091282
 20
61.4262255491
 10
109.4115658769
 20
61.3909277122
  0
LWPOLYLINE
  5
318
100
AcDbEntity
  8
0
100
AcDbPolyline
 62
7
  6
CONTINUOUS
 90
6
 70
0
 10
-96.1614960662
 20
-34.1066086866
 10
-96.2169867668
 20
-34.1336613162
 10
-96.3362278689
 20
-34.1626498123
 10
-96.465017979
 20
-34.1573042054
 10
-96.6064393353
 20
-34.119403797
 10
-96.7604919376
 20
-34.0489485871
  0
LWPOLYLINE
  5
319
100
AcDbEntity
  8
0
100
AcDbPolyline
 62
7
  6
CONTINUOUS
 90
15
 70
0
 10
-96.7604919376
 20
59.8451332441
 10
-96.9145445399
 20
59.9525741179
 10
-97.0559658961
 20
60.0779835468
 10
-97.1847560063
 20
60.2213615309
 10
-97.3039971083
 20
60.3880466627
 10
-97.4106069643
 20
60.5727003497
 10
-97.4953388604
 20
60.7593068136
 10
-97.5562387359
 20
60.9480404693
 10
-97.5952606515
 20
61.138726902
 10
-97.609020075
 20
61.3148270882
 10
-97.5952606515
 20
61.4750382372
 10
-97.5562387359
 20
61.6206631398
 10
-97.4953388604
 20
61.7390711458
 10
-97.4106069643
 20
61.8278313399
 10
-97.3594878089
 20
61.8623220079
  0
LWPOLYLINE
  5
31A
100
AcDbEntity
  8
0
100
AcDbPolyline
 62
7
  6
CONTINUOUS
 90
15
 70
0
 10
-96.7604919376
 20
61.8046619084
 10
-96.6064393353
 20
61.6972210346
 10
-96.465017979
 20
61.5718116056
 10
-96.3362278689
 20
61.4284336216
 10
-96.2169867668
 20
61.2617484897
 10
-96.1103769108
 20
61.0770948027
 10
-96.0256450147
 20
60.8904883389
 10
-95.9647451392
 20
60.7017546831
 10
-95.9257232236
 20
60.5110682505
 10
-95.9119638001
 20
60.3349680642
 10
-95.9257232236
 20
60.1747569153
 10
-95.9647451392
 20
60.0291320127
 10
-96.0256450147
 20
59.9107240067
 10
-96.1103769108
 20
59.8219638125
 10
-96.1614960662
 20
59.7874731446
  0
LWPOLYLINE
  5
31B
100
AcDbEntity
  8
0
100
AcDbPolyline
 62
7
  6
CONTINUOUS
 90
35
 70
0
 10
-86.1715343638
 20
149.1761822696
 10
-86.1278210959
 20
149.0980866082
 10
-86.0791497805
 20
149.0164935453
 10
-86.0282226861
 20
148.9362067042
 10
-85.9753839443
 20
148.8577685986
 10
-85.9206206093
 20
148.7811917492
 10
-85.8639456268
 20
148.7064636354
 10
-85.8057419663
 20
148.6340892082
 10
-85.7459992754
 20
148.5640844082
 10
-85.6847279064
 20
148.4964332949
 10
-85.6223418857
 20
148.4315929985
 10
-85.5588336648
 20
148.369582555
 10
-85.4942107921
 20
148.3103829283
 10
-85.4289099395
 20
148.2543941404
 10
-85.3629265156
 20
148.2016379364
 10
-85.2962651118
 20
148.1520925713
 10
-85.2293761737
 20
148.1060928322
 10
-85.1622581607
 20
148.0636627312
 10
-85.0949126134
 20
148.0247782563
 10
-85.0277946004
 20
147.9897021581
 10
-84.9609056623
 20
147.9584602282
 10
-84.8942442585
 20
147.9310266752
 10
-84.8282608346
 20
147.9075868752
 10
-84.762959982
 20
147.8881678752
 10
-84.6983371093
 20
147.8727426284
 10
-84.6348288884
 20
147.8614153703
 10
-84.5724428677
 20
147.8542138538
 10
-84.5111714987
 20
147.851110326
 10
-84.4514288078
 20
147.852125764
 10
-84.3932251473
 20
147.8572880629
 10
-84.3365501648
 20
147.8665693277
 10
-84.2817868298
 20
147.8799068504
 10
-84.228948088
 20
147.8973281015
 10
-84.1780209936
 20
147.9188056105
 10
-84.1670457815
 20
147.9245405425
  0
LWPOLYLINE
  5
31C
100
AcDbEntity
  8
0
100
AcDbPolyline
 62
7
  6
CONTINUOUS
 90
18
 70
0
 10
58.8610649094
 20
-119.9759048454
 10
58.8850820258
 20
-120.0213412228
 10
58.9104066116
 20
-120.0659841365
 10
58.9371126691
 20
-120.1099476271
 10
58.9651261962
 20
-120.153117654
 10
58.9942251856
 20
-120.195152095
 10
59.0244182625
 20
-120.2360419267
 10
59.0556968019
 20
-120.2757961725
 10
59.0878129215
 20
-120.3140997803
 10
59.1207732767
 20
-120.3509412233
 10
59.1545712121
 20
-120.3863320282
 10
59.1889388794
 20
-120.4199917233
 10
59.2238808055
 20
-120.451906553
 10
59.2593924635
 20
-120.4820902729
 10
59.2951924236
 20
-120.5103036771
 10
59.3311868761
 20
-120.5364670303
 10
59.3674696307
 20
-120.5606600678
 10
59.4040406875
 20
-120.5828827897
  0
LWPOLYLINE
  5
31D
100
AcDbEntity
  8
0
100
AcDbPolyline
 62
7
  6
CONTINUOUS
 90
37
 70
0
 10
57.4468513471
 20
-120.7924540321
 10
57.3823524321
 20
-120.6608933005
 10
57.3383073851
 20
-120.5768686319
 10
57.2920065591
 20
-120.494150185
 10
57.2433352437
 20
-120.4125571221
 10
57.1924081493
 20
-120.332270281
 10
57.1395694075
 20
-120.2538321754
 10
57.0848060725
 20
-120.177255326
 10
57.02813109
 20
-120.1025272122
 10
56.9699274295
 20
-120.030152785
 10
56.9101847386
 20
-119.960147985
 10
56.8489133696
 20
-119.8924968717
 10
56.7865273489
 20
-119.8276565753
 10
56.723019128
 20
-119.7656461318
 10
56.6583962553
 20
-119.7064465051
 10
56.5930954027
 20
-119.6504577172
 10
56.5271119788
 20
-119.5977015132
 10
56.460450575
 20
-119.5481561481
 10
56.393561637
 20
-119.502156409
 10
56.3264436239
 20
-119.459726308
 10
56.2590980766
 20
-119.4208418331
 10
56.1919800636
 20
-119.3857657349
 10
56.1250911256
 20
-119.354523805
 10
56.0584297217
 20
-119.327090252
 10
55.9924462978
 20
-119.303650452
 10
55.9271454452
 20
-119.284231452
 10
55.8625225725
 20
-119.2688062052
 10
55.7990143516
 20
-119.2574789471
 10
55.7366283309
 20
-119.2502774306
 10
55.6753569619
 20
-119.2471739028
 10
55.615614271
 20
-119.2481893408
 10
55.5574106105
 20
-119.2533516397
 10
55.5007356281
 20
-119.2626329045
 10
55.445972293
 20
-119.2759704272
 10
55.3931335512
 20
-119.2933916783
 10
55.3422064568
 20
-119.3148691873
 10
55.2927225317
 20
-119.3407262678
  0
LWPOLYLINE
  5
31E
100
AcDbEntity
  8
0
100
AcDbPolyline
 62
7
  6
CONTINUOUS
 90
37
 70
0
 10
58.8610649094
 20
-119.9759048454
 10
58.7965659945
 20
-119.8443441139
 10
58.7525209475
 20
-119.7603194452
 10
58.7062201215
 20
-119.6776009984
 10
58.6575488061
 20
-119.5960079355
 10
58.6066217117
 20
-119.5157210943
 10
58.5537829699
 20
-119.4372829887
 10
58.4990196348
 20
-119.3607061394
 10
58.4423446524
 20
-119.2859780255
 10
58.3841409919
 20
-119.2136035984
 10
58.324398301
 20
-119.1435987984
 10
58.263126932
 20
-119.0759476851
 10
58.2007409113
 20
-119.0111073887
 10
58.1372326904
 20
-118.9490969451
 10
58.0726098177
 20
-118.8898973184
 10
58.007308965
 20
-118.8339085306
 10
57.9413255412
 20
-118.7811523266
 10
57.8746641373
 20
-118.7316069614
 10
57.8077751993
 20
-118.6856072223
 10
57.7406571863
 20
-118.6431771214
 10
57.673311639
 20
-118.6042926464
 10
57.6061936259
 20
-118.5692165483
 10
57.5393046879
 20
-118.5379746184
 10
57.4726432841
 20
-118.5105410653
 10
57.4066598602
 20
-118.4871012653
 10
57.3413590076
 20
-118.4676822654
 10
57.2767361349
 20
-118.4522570185
 10
57.213227914
 20
-118.4409297604
 10
57.1508418932
 20
-118.4337282439
 10
57.0895705243
 20
-118.4306247161
 10
57.0298278334
 20
-118.4316401542
 10
56.9716241729
 20
-118.4368024531
 10
56.9149491904
 20
-118.4460837178
 10
56.8601858554
 20
-118.4594212405
 10
56.8073471136
 20
-118.4768424916
 10
56.7564200192
 20
-118.4983200007
 10
56.7069360941
 20
-118.5241770812
  0
LWPOLYLINE
  5
31F
100
AcDbEntity
  8
ASSI
100
AcDbPolyline
 62
7
  6
CONTINUOUS
 90
58
 70
0
 10
4.8507525189
 20
-98.0658287789
 10
4.8524830881
 20
-98.1611243874
 10
4.8575941906
 20
-98.2578787622
 10
4.8660858264
 20
-98.3560919032
 10
4.8779847226
 20
-98.4559410206
 10
4.8932641521
 20
-98.5572489042
 10
4.9118439334
 20
-98.6594839237
 10
4.9337414161
 20
-98.7626509529
 10
4.9589392507
 20
-98.866745118
 10
4.9873052073
 20
-98.9712201671
 10
5.0188559401
 20
-99.0760781025
 10
5.0535747949
 20
-99.1813169219
 10
5.0912795786
 20
-99.2863843666
 10
5.1319859877
 20
-99.3912795359
 10
5.1756783257
 20
-99.4960033305
 10
5.2221273095
 20
-99.6000061945
 10
5.2713474304
 20
-99.7032843381
 10
5.3233241972
 20
-99.8058415512
 10
5.377784853
 20
-99.9071396472
 10
5.4347424551
 20
-100.0071720072
 10
5.4941839461
 20
-100.1059452501
 10
5.5557973967
 20
-100.2029410467
 10
5.6195942245
 20
-100.2981500529
 10
5.6855630119
 20
-100.3915816128
 10
5.7533575765
 20
-100.4827454282
 10
5.822987516
 20
-100.5716295778
 10
5.8944432326
 20
-100.658245983
 10
5.9673497502
 20
-100.7421401094
 10
6.0417146956
 20
-100.8232976463
 10
6.1175304421
 20
-100.9017329045
 10
6.1943991336
 20
-100.9770342814
 10
6.2723263053
 20
-101.0491853027
 10
6.351306422
 20
-101.1182024429
 10
6.4309250221
 20
-101.1837235226
 10
6.5111854621
 20
-101.2457301637
 10
6.5920843854
 20
-101.3042407443
 10
6.6731972613
 20
-101.3589482203
 10
6.7545252144
 20
-101.4098325993
 10
6.83606712
 20
-101.4569138737
 10
6.9173950731
 20
-101.4999449764
 10
6.998507949
 20
-101.5389046162
 10
7.0794068723
 20
-101.5738140845
 10
7.1596673123
 20
-101.6044901877
 10
7.2392859124
 20
-101.6309106716
 10
7.3182660291
 20
-101.6530977906
 10
7.3961932008
 20
-101.6709351138
 10
7.4730618923
 20
-101.684399775
 10
7.5488776388
 20
-101.6935146405
 10
7.6232425842
 20
-101.6982318785
 10
7.6961491018
 20
-101.6985283713
 10
7.7676048185
 20
-101.6944272365
 10
7.8372347579
 20
-101.6859499956
 10
7.9050293225
 20
-101.673073644
 10
7.9709981099
 20
-101.6558211863
 10
8.0347949377
 20
-101.6342831577
 10
8.0964083883
 20
-101.6084370295
 10
8.1558498793
 20
-101.5783053305
 10
8.1703580983
 20
-101.5701075992
  0
LWPOLYLINE
  5
320
100
AcDbEntity
  8
ASSI
100
AcDbPolyline
 62
7
  6
CONTINUOUS
 90
45
 70
0
 10
6.2649660813
 20
-97.2492795922
 10
6.2666966505
 20
-97.3445752007
 10
6.271807753
 20
-97.4413295755
 10
6.2802993888
 20
-97.5395427165
 10
6.292198285
 20
-97.6393918339
 10
6.3074777144
 20
-97.7406997176
 10
6.3260574958
 20
-97.8429347371
 10
6.3479549785
 20
-97.9461017663
 10
6.3731528131
 20
-98.0501959314
 10
6.4015187696
 20
-98.1546709805
 10
6.4330695025
 20
-98.2595289158
 10
6.4677883573
 20
-98.3647677352
 10
6.505493141
 20
-98.46983518
 10
6.5461995501
 20
-98.5747303492
 10
6.589891888
 20
-98.6794541438
 10
6.6363408718
 20
-98.7834570079
 10
6.6855609928
 20
-98.8867351515
 10
6.7375377596
 20
-98.9892923645
 10
6.7919984153
 20
-99.0905904605
 10
6.8489560175
 20
-99.1906228205
 10
6.9083975085
 20
-99.2893960635
 10
6.9700109591
 20
-99.38639186
 10
7.0338077869
 20
-99.4816008663
 10
7.0997765743
 20
-99.5750324261
 10
7.1675711388
 20
-99.6661962415
 10
7.2372010783
 20
-99.7550803912
 10
7.3086567949
 20
-99.8416967964
 10
7.3815633126
 20
-99.9255909228
 10
7.455928258
 20
-100.0067484597
 10
7.5317440045
 20
-100.0851837178
 10
7.608612696
 20
-100.1604850947
 10
7.6865398677
 20
-100.2326361161
 10
7.7655199844
 20
-100.3016532562
 10
7.8451385845
 20
-100.367174336
 10
7.9253990244
 20
-100.429180977
 10
8.0062979478
 20
-100.4876915577
 10
8.0874108237
 20
-100.5423990337
 10
8.1687387768
 20
-100.5932834127
 10
8.2502806824
 20
-100.640364687
 10
8.3316086355
 20
-100.6833957897
 10
8.4127215114
 20
-100.7223554296
 10
8.4936204347
 20
-100.7572648978
 10
8.5738808747
 20
-100.787941001
 10
8.6534994748
 20
-100.814361485
 10
8.6815554784
 20
-100.8222429862
  0
LWPOLYLINE
  5
321
100
AcDbEntity
  8
ASSI
100
AcDbPolyline
 62
7
  6
CONTINUOUS
 90
58
 70
0
 10
8.7398398155
 20
-98.2701633502
 10
8.7381092463
 20
-98.1748677417
 10
8.7329981438
 20
-98.0781133669
 10
8.724506508
 20
-97.9799002259
 10
8.7126076118
 20
-97.8800511085
 10
8.6973281823
 20
-97.7787432249
 10
8.678748401
 20
-97.6765082054
 10
8.6568509183
 20
-97.5733411762
 10
8.6316530837
 20
-97.4692470111
 10
8.6032871271
 20
-97.364771962
 10
8.5717363943
 20
-97.2599140266
 10
8.5370175395
 20
-97.1546752072
 10
8.4993127558
 20
-97.0496077625
 10
8.4586063467
 20
-96.9447125932
 10
8.4149140088
 20
-96.8399887986
 10
8.368465025
 20
-96.7359859346
 10
8.319244904
 20
-96.632707791
 10
8.2672681372
 20
-96.5301505779
 10
8.2128074814
 20
-96.4288524819
 10
8.1558498793
 20
-96.3288201219
 10
8.0964083883
 20
-96.230046879
 10
8.0347949377
 20
-96.1330510824
 10
7.9709981099
 20
-96.0378420762
 10
7.9050293225
 20
-95.9444105163
 10
7.8372347579
 20
-95.8532467009
 10
7.7676048185
 20
-95.7643625513
 10
7.6961491018
 20
-95.6777461461
 10
7.6232425842
 20
-95.5938520197
 10
7.5488776388
 20
-95.5126944828
 10
7.4730618923
 20
-95.4342592246
 10
7.3961932008
 20
-95.3589578477
 10
7.3182660291
 20
-95.2868068264
 10
7.2392859124
 20
-95.2177896862
 10
7.1596673123
 20
-95.1522686065
 10
7.0794068723
 20
-95.0902619654
 10
6.998507949
 20
-95.0317513848
 10
6.9173950731
 20
-94.9770439088
 10
6.83606712
 20
-94.9261595298
 10
6.7545252144
 20
-94.8790782554
 10
6.6731972613
 20
-94.8360471527
 10
6.5920843854
 20
-94.7970875129
 10
6.5111854621
 20
-94.7621780446
 10
6.4309250221
 20
-94.7315019414
 10
6.351306422
 20
-94.7050814575
 10
6.2723263053
 20
-94.6828943385
 10
6.1943991336
 20
-94.6650570153
 10
6.1175304421
 20
-94.6515923541
 10
6.0417146956
 20
-94.6424774886
 10
5.9673497502
 20
-94.6377602506
 10
5.8944432326
 20
-94.6374637578
 10
5.822987516
 20
-94.6415648926
 10
5.7533575765
 20
-94.6500421335
 10
5.6855630119
 20
-94.6629184851
 10
5.6195942245
 20
-94.6801709428
 10
5.5557973967
 20
-94.7017089714
 10
5.4941839461
 20
-94.7275550996
 10
5.4347424551
 20
-94.7576867986
 10
5.4202342361
 20
-94.7658845299
  0
LINE
  5
322
100
AcDbEntity
  8
ASSI
100
AcDbLine
 62
7
  6
CONTINUOUS
 10
4.8507525189
 20
-98.0658287789
 11
4.8507525189
 21
-96.0246530869
  0
LINE
  5
323
100
AcDbEntity
  8
ASSI
100
AcDbLine
 62
7
  6
CONTINUOUS
 10
6.2649660813
 20
-97.2492795922
 11
6.2649660813
 21
-95.2081039003
  0
LINE
  5
324
100
AcDbEntity
  8
ASSI
100
AcDbLine
 62
7
  6
CONTINUOUS
 10
8.7398398155
 20
-98.2701633502
 11
8.7398398155
 21
-100.3113390422
  0
LWPOLYLINE
  5
325
100
AcDbEntity
  8
ASSI
100
AcDbPolyline
 62
7
  6
CONTINUOUS
 90
20
 70
0
 10
-65.2904438826
 20
-53.9384251972
 10
-65.3328932657
 20
-53.9644866146
 10
-65.3873539214
 20
-54.0028949105
 10
-65.4393306882
 20
-54.0454306561
 10
-65.4885508092
 20
-54.0918706378
 10
-65.534999793
 20
-54.1422353796
 10
-65.5786921309
 20
-54.1965043575
 10
-65.6193985401
 20
-54.2543927859
 10
-65.6571033237
 20
-54.3159196916
 10
-65.6918221785
 20
-54.3810660477
 10
-65.7233729114
 20
-54.4494899875
 10
-65.7517388679
 20
-54.5212087411
 10
-65.7769367025
 20
-54.5962050784
 10
-65.7988341852
 20
-54.6740854434
 10
-65.8174139666
 20
-54.7548649972
 10
-65.8326933961
 20
-54.8385285786
 10
-65.8445922922
 20
-54.924637149
 10
-65.853083928
 20
-55.0130443618
 10
-65.8581950305
 20
-55.1038965636
 10
-65.8599255997
 20
-55.1971937541
  0
LINE
  5
326
100
AcDbEntity
  8
RACCORDO
100
AcDbLine
 62
253
  6
CONTINUOUS
 10
110.9379829004
 20
60.5404166917
 11
110.8047761103
 21
60.4635047606
  0
LINE
  5
327
100
AcDbEntity
  8
ASSI
100
AcDbLine
 62
253
  6
CONTINUOUS
 10
-64.4457120373
 20
-54.3806445675
 11
-65.8599255997
 21
-55.1971937541
  0
LWPOLYLINE
  5
328
100
AcDbEntity
  8
ASSI
100
AcDbPolyline
 62
7
  6
CONTINUOUS
 90
49
 70
0
 10
27.1953268044
 20
-118.7237735576
 10
27.1941156711
 20
-118.667906655
 10
27.1905616618
 20
-118.6110947534
 10
27.1846647764
 20
-118.5533378528
 10
27.1763987486
 20
-118.4944879074
 10
27.1657898448
 20
-118.434692963
 10
27.1529168645
 20
-118.3743971574
 10
27.1377629492
 20
-118.313596761
 10
27.1203449575
 20
-118.2522955034
 10
27.1007922646
 20
-118.1909487107
 10
27.0790889753
 20
-118.1295560438
 10
27.0552509848
 20
-118.0681178418
 10
27.0294553541
 20
-118.007090448
 10
27.0016875064
 20
-117.9464769213
 10
26.9719620184
 20
-117.8862742028
 10
26.9404996817
 20
-117.826929459
 10
26.9072875634
 20
-117.7684490785
 10
26.8723385963
 20
-117.7108266727
 10
26.8359123701
 20
-117.6544902424
 10
26.7979978851
 20
-117.5994493632
 10
26.758606141
 20
-117.5456944595
 10
26.7180297271
 20
-117.4936248055
 10
26.6762598223
 20
-117.4432529499
 10
26.6333052477
 20
-117.394566344
 10
26.5894850561
 20
-117.3479266163
 10
26.5447928022
 20
-117.3033490083
 10
26.4992349312
 20
-117.2608182785
 10
26.4531498327
 20
-117.2206503316
 10
26.4065335806
 20
-117.1828627612
 10
26.359390101
 20
-117.1474379738
 10
26.3120695603
 20
-117.1146390932
 10
26.2645706403
 20
-117.0844856724
 10
26.2168946593
 20
-117.0569581585
 10
26.1693957393
 20
-117.0322610171
 10
26.1220751987
 20
-117.0104153235
 10
26.074931719
 20
-116.9914000023
 10
26.028315467
 20
-116.9753562933
 10
25.9822303684
 20
-116.9623063235
 10
25.9366724975
 20
-116.9522279659
 10
25.8919802435
 20
-116.9451960793
 10
25.848160052
 20
-116.9412333482
 10
25.8052054774
 20
-116.940317088
 10
25.7634355725
 20
-116.9424541046
 10
25.7228591587
 20
-116.9476671329
 10
25.6834674146
 20
-116.9559334379
 10
25.6455529295
 20
-116.9671916201
 10
25.6091267034
 20
-116.9814639575
 10
25.5741777363
 20
-116.9987281721
 10
25.5657044803
 20
-117.0034950967
  0
LWPOLYLINE
  5
329
100
AcDbEntity
  8
ASSI
100
AcDbPolyline
 62
7
  6
CONTINUOUS
 90
55
 70
0
 10
23.0587521345
 20
-108.3747819879
 10
23.0602903603
 20
-108.4560540712
 10
23.0648274077
 20
-108.5386017727
 10
23.0723632767
 20
-108.6224250925
 10
23.0829236963
 20
-108.7076882406
 10
23.0964829375
 20
-108.794227007
 10
23.1129638129
 20
-108.8815487607
 10
23.1323829858
 20
-108.9696579674
 10
23.1547237928
 20
-109.0585501615
 10
23.1798590567
 20
-109.1477193148
 10
23.2078047153
 20
-109.2371670071
 10
23.2385448308
 20
-109.3268916587
 10
23.2719044118
 20
-109.4163825028
 10
23.3078983983
 20
-109.5056382058
 10
23.3465118504
 20
-109.5946601014
 10
23.3875249569
 20
-109.682941423
 10
23.4309514041
 20
-109.770477947
 10
23.4767775058
 20
-109.8572738971
 10
23.5247423922
 20
-109.9428351785
 10
23.5748582616
 20
-110.0271547492
 10
23.6271129157
 20
-110.1102396512
 10
23.6812088894
 20
-110.1916169149
 10
23.7371566845
 20
-110.2712768012
 10
23.7949457994
 20
-110.3492290493
 10
23.8542472633
 20
-110.4250299079
 10
23.915069702
 20
-110.4986671069
 10
23.9774044898
 20
-110.5701529165
 10
24.0408967795
 20
-110.6390803964
 10
24.1055531729
 20
-110.7054349553
 10
24.1713670681
 20
-110.7692311844
 10
24.2379638129
 20
-110.8301059172
 10
24.3053478721
 20
-110.888042491
 10
24.3735147809
 20
-110.9430575685
 10
24.442076492
 20
-110.9948379706
 10
24.5110352571
 20
-111.0433652486
 10
24.5803888246
 20
-111.0886578512
 10
24.6497423922
 20
-111.1304579457
 10
24.7190959597
 20
-111.1687456126
 10
24.7884495272
 20
-111.2035407713
 10
24.8574082924
 20
-111.2346453469
 10
24.9259700034
 20
-111.2620382902
 10
24.9941369122
 20
-111.2857406502
 10
25.0615209714
 20
-111.3056174989
 10
25.1281177162
 20
-111.3216470177
 10
25.1939316115
 20
-111.3338510252
 10
25.2585880048
 20
-111.3421600487
 10
25.3220802945
 20
-111.3465518735
 10
25.3844150823
 20
-111.3470487143
 10
25.445237521
 20
-111.3436477429
 10
25.504538985
 20
-111.3363267284
 10
25.5623280998
 20
-111.3251079016
 10
25.618275895
 20
-111.3100551268
 10
25.6723718687
 20
-111.2911465375
 10
25.7246265227
 20
-111.2684040003
 10
25.7747967525
 20
-111.2419255954
  0
LWPOLYLINE
  5
32A
100
AcDbEntity
  8
ASSI
100
AcDbPolyline
 62
7
  6
CONTINUOUS
 90
40
 70
0
 10
24.4729656969
 20
-107.5582328012
 10
24.4745039227
 20
-107.6395048846
 10
24.4790409701
 20
-107.7220525861
 10
24.4865768391
 20
-107.8058759058
 10
24.4971372587
 20
-107.891139054
 10
24.5106964999
 20
-107.9776778204
 10
24.5271773753
 20
-108.064999574
 10
24.5465965481
 20
-108.1531087808
 10
24.5689373552
 20
-108.2420009748
 10
24.5940726191
 20
-108.3311701281
 10
24.6220182777
 20
-108.4206178204
 10
24.6527583932
 20
-108.5103424721
 10
24.6861179742
 20
-108.5998333161
 10
24.7221119607
 20
-108.6890890192
 10
24.7607254127
 20
-108.7781109147
 10
24.8017385192
 20
-108.8663922364
 10
24.8451649665
 20
-108.9539287604
 10
24.8909910682
 20
-109.0407247105
 10
24.9389559545
 20
-109.1262859918
 10
24.989071824
 20
-109.2106055626
 10
25.041326478
 20
-109.2936904645
 10
25.0954224517
 20
-109.3750677283
 10
25.1513702469
 20
-109.4547276145
 10
25.2091593617
 20
-109.5326798626
 10
25.2684608257
 20
-109.6084807213
 10
25.3292832644
 20
-109.6821179203
 10
25.3916180522
 20
-109.7536037299
 10
25.4551103419
 20
-109.8225312098
 10
25.5197667352
 20
-109.8888857686
 10
25.5855806305
 20
-109.9526819978
 10
25.6521773753
 20
-110.0135567305
 10
25.7195614345
 20
-110.0714933044
 10
25.7877283433
 20
-110.1265083819
 10
25.8562900543
 20
-110.178288784
 10
25.9252488195
 20
-110.226816062
 10
25.994602387
 20
-110.2721086646
 10
26.0639559545
 20
-110.313908759
 10
26.133309522
 20
-110.3521964259
 10
26.2026630896
 20
-110.3869915847
 10
26.2315285338
 20
-110.4000116466
  0
LWPOLYLINE
  5
32B
100
AcDbEntity
  8
ASSI
100
AcDbPolyline
 62
7
  6
CONTINUOUS
 90
55
 70
0
 10
26.2407326498
 20
-108.1708419659
 10
26.239194424
 20
-108.0895698825
 10
26.2346573766
 20
-108.007022181
 10
26.2271215076
 20
-107.9231988613
 10
26.216561088
 20
-107.8379357131
 10
26.2030018468
 20
-107.7513969467
 10
26.1865209714
 20
-107.6640751931
 10
26.1671017986
 20
-107.5759659863
 10
26.1447609915
 20
-107.4870737923
 10
26.1196257276
 20
-107.3979046389
 10
26.091680069
 20
-107.3084569467
 10
26.0609399535
 20
-107.218732295
 10
26.0275803725
 20
-107.129241451
 10
25.991586386
 20
-107.0399857479
 10
25.952972934
 20
-106.9509638524
 10
25.9119598275
 20
-106.8626825307
 10
25.8685333802
 20
-106.7751460067
 10
25.8227072785
 20
-106.6883500566
 10
25.7747423922
 20
-106.6027887753
 10
25.7246265227
 20
-106.5184692045
 10
25.6723718687
 20
-106.4353843026
 10
25.618275895
 20
-106.3540070388
 10
25.5623280998
 20
-106.2743471526
 10
25.504538985
 20
-106.1963949045
 10
25.445237521
 20
-106.1205940458
 10
25.3844150823
 20
-106.0469568468
 10
25.3220802945
 20
-105.9754710372
 10
25.2585880048
 20
-105.9065435573
 10
25.1939316115
 20
-105.8401889985
 10
25.1281177162
 20
-105.7763927693
 10
25.0615209714
 20
-105.7155180366
 10
24.9941369122
 20
-105.6575814627
 10
24.9259700034
 20
-105.6025663852
 10
24.8574082924
 20
-105.5507859831
 10
24.7884495272
 20
-105.5022587051
 10
24.7190959597
 20
-105.4569661025
 10
24.6497423922
 20
-105.4151660081
 10
24.5803888246
 20
-105.3768783412
 10
24.5110352571
 20
-105.3420831824
 10
24.442076492
 20
-105.3109786069
 10
24.3735147809
 20
-105.2835856636
 10
24.3053478721
 20
-105.2598833035
 10
24.2379638129
 20
-105.2400064548
 10
24.1713670681
 20
-105.223976936
 10
24.1055531729
 20
-105.2117729286
 10
24.0408967795
 20
-105.2034639051
 10
23.9774044898
 20
-105.1990720803
 10
23.915069702
 20
-105.1985752394
 10
23.8542472633
 20
-105.2019762108
 10
23.7949457994
 20
-105.2092972254
 10
23.7371566845
 20
-105.2205160522
 10
23.6812088894
 20
-105.2355688269
 10
23.6271129157
 20
-105.2544774162
 10
23.5748582616
 20
-105.2772199535
 10
23.5246880319
 20
-105.3036983584
  0
LINE
  5
32C
100
AcDbEntity
  8
ASSI
100
AcDbLine
 62
7
  6
CONTINUOUS
 10
23.0587521345
 20
-108.3747819879
 11
23.0587521345
 21
-106.3336062959
  0
LINE
  5
32D
100
AcDbEntity
  8
ASSI
100
AcDbLine
 62
7
  6
CONTINUOUS
 10
24.4729656969
 20
-107.5582328012
 11
24.4729656969
 21
-105.5170571092
  0
LINE
  5
32E
100
AcDbEntity
  8
ASSI
100
AcDbLine
 62
7
  6
CONTINUOUS
 10
26.2407326498
 20
-108.1708419659
 11
26.2407326498
 21
-110.2120176579
  0
LWPOLYLINE
  5
32F
100
AcDbEntity
  8
ASSI
100
AcDbPolyline
 62
7
  6
CONTINUOUS
 90
7
 70
0
 10
6.3232504183
 20
-94.6971999562
 10
6.3074777144
 20
-94.7657751433
 10
6.292198285
 20
-94.8494387248
 10
6.2802993888
 20
-94.9355472951
 10
6.271807753
 20
-95.023954508
 10
6.2666966505
 20
-95.1148067097
 10
6.2649660813
 20
-95.2081039003
  0
LWPOLYLINE
  5
330
100
AcDbEntity
  8
0
100
AcDbPolyline
 62
7
  6
CONTINUOUS
 90
4
 70
0
 10
-43.7917600977
 20
-62.2442287352
 10
-43.8562590127
 20
-62.3013077365
 10
-43.880276129
 20
-62.31900975
 10
-43.8992108707
 20
-62.3308116243
  0
LWPOLYLINE
  5
331
100
AcDbEntity
  8
0
100
AcDbPolyline
 62
7
  6
CONTINUOUS
 90
13
 70
0
 10
-64.8199531208
 20
-65.7756059499
 10
-64.8376051981
 20
-65.7874851675
 10
-64.904548542
 20
-65.8552231473
 10
-64.9500859213
 20
-65.9433515998
 10
-64.9714918858
 20
-66.0544666806
 10
-64.9714918858
 20
-66.1859722341
 10
-64.9500859213
 20
-66.3218063862
 10
-64.904548542
 20
-66.4625202628
 10
-64.8376051981
 20
-66.6075627381
 10
-64.7574322407
 20
-66.7392185607
 10
-64.6667551199
 20
-66.8515826465
 10
-64.5628483854
 20
-66.9505600796
 10
-64.4457120373
 20
-67.0361508599
  0
LWPOLYLINE
  5
332
100
AcDbEntity
  8
0
100
AcDbPolyline
 62
7
  6
CONTINUOUS
 90
13
 70
0
 10
-64.0714709539
 20
-67.0719903547
 10
-64.0538188765
 20
-67.0601111371
 10
-63.9868755327
 20
-66.9923731572
 10
-63.9413381534
 20
-66.9042447048
 10
-63.9199321889
 20
-66.793129624
 10
-63.9199321889
 20
-66.6616240705
 10
-63.9413381534
 20
-66.5257899184
 10
-63.9868755327
 20
-66.3850760418
 10
-64.0538188765
 20
-66.2400335664
 10
-64.133991834
 20
-66.1083777439
 10
-64.2246689548
 20
-65.996013658
 10
-64.3285756893
 20
-65.897036225
 10
-64.4457120373
 20
-65.8114454447
  0
LWPOLYLINE
  5
333
100
AcDbEntity
  8
0
100
AcDbPolyline
 62
7
  6
CONTINUOUS
 90
3
 70
0
 10
-43.7022268344
 20
-62.182283202
 10
-43.7477150507
 20
-62.2110661829
 10
-43.7917600977
 20
-62.2442287352
  0
LWPOLYLINE
  5
334
100
AcDbEntity
  8
ASSI
100
AcDbPolyline
 62
7
  6
CONTINUOUS
 90
19
 70
0
 10
-47.1859900868
 20
-64.4762390256
 10
-47.2339006129
 20
-64.5063802745
 10
-47.2797267146
 20
-64.540257391
 10
-47.3231531618
 20
-64.5776461423
 10
-47.3641662683
 20
-64.6185665566
 10
-47.4027797203
 20
-64.6629986056
 10
-47.4387737068
 20
-64.7106893553
 10
-47.4721332878
 20
-64.7616573914
 10
-47.5028734033
 20
-64.8158841281
 10
-47.530819062
 20
-64.8730608743
 10
-47.5559543258
 20
-64.933204455
 10
-47.5782951329
 20
-64.996298045
 10
-47.5977143057
 20
-65.0619824777
 10
-47.6141951811
 20
-65.1302725296
 10
-47.6277544223
 20
-65.2011534241
 10
-47.638314842
 20
-65.2742216644
 10
-47.6458507109
 20
-65.3493427515
 10
-47.6503877583
 20
-65.4266511844
 10
-47.6519259842
 20
-65.5061469631
  0
LWPOLYLINE
  5
335
100
AcDbEntity
  8
0
100
AcDbPolyline
 62
7
  6
CONTINUOUS
 90
48
 70
0
 10
-36.9518817747
 20
-46.9307325652
 10
-37.0039665368
 20
-46.9634398138
 10
-37.0550060446
 20
-47.0010447072
 10
-37.1033737996
 20
-47.042563096
 10
-37.1490545269
 20
-47.0880173406
 10
-37.1920635015
 20
-47.1373850805
 10
-37.2321553835
 20
-47.1903844623
 10
-37.2693134983
 20
-47.2470362351
 10
-37.3035545205
 20
-47.3073196497
 10
-37.3346831343
 20
-47.3708906054
 10
-37.3626815507
 20
-47.4377678849
 10
-37.3875675588
 20
-47.5079327055
 10
-37.4091992095
 20
-47.5809846178
 10
-37.4275579041
 20
-47.6569401171
 10
-37.4426622413
 20
-47.7357827082
 10
-37.4544260683
 20
-47.8170624561
 10
-37.4628302949
 20
-47.9007932861
 10
-37.4678940113
 20
-47.9869612728
 10
-37.4695883351
 20
-48.0750747046
 10
-37.4678940113
 20
-48.165144699
 10
-37.4628302949
 20
-48.2571601385
 10
-37.4544260683
 20
-48.3505959587
 10
-37.4426622413
 20
-48.4454602791
 10
-37.4275579041
 20
-48.5417449802
 10
-37.4091992095
 20
-48.63890064
 10
-37.3875675588
 20
-48.7369322403
 10
-37.3626815507
 20
-48.8358347992
 10
-37.3346831343
 20
-48.9350439482
 10
-37.3035545205
 20
-49.0345614468
 10
-37.2693134983
 20
-49.1343855356
 10
-37.2321553835
 20
-49.2339465678
 10
-37.1920635015
 20
-49.3332430501
 10
-37.1490545269
 20
-49.4322764758
 10
-37.1033737996
 20
-49.5304816793
 10
-37.0550060446
 20
-49.6278539392
 10
-37.0039665368
 20
-49.7243979768
 10
-36.9505464409
 20
-49.8195627904
 10
-36.8947321433
 20
-49.9133405114
 10
-36.8365372575
 20
-50.0057390083
 10
-36.7762937888
 20
-50.0962308856
 10
-36.7139900183
 20
-50.1848052615
 10
-36.6496376649
 20
-50.2714730177
 10
-36.5836038908
 20
-50.355739404
 10
-36.5158790725
 20
-50.4375907111
 10
-36.4464728335
 20
-50.5170406483
 10
-36.3757812062
 20
-50.5936355927
 10
-36.3039362015
 20
-50.6672243366
 10
-36.2308058084
 20
-50.7379580876
  0
LWPOLYLINE
  5
336
100
AcDbEntity
  8
ASSI
100
AcDbPolyline
 62
7
  6
CONTINUOUS
 90
11
 70
0
 10
-64.590410121
 20
-64.9484844474
 10
-64.6151489833
 20
-64.9638453815
 10
-64.6466113201
 20
-64.9868582075
 10
-64.676336808
 20
-65.0127346777
 10
-64.7041046557
 20
-65.0412825898
 10
-64.7299002864
 20
-65.0725218359
 10
-64.7537382769
 20
-65.106432524
 10
-64.7754415662
 20
-65.1427627764
 10
-64.7949942591
 20
-65.1815306095
 10
-64.8124122509
 20
-65.2227180068
 10
-64.8243179316
 20
-65.2567374853
  0
LWPOLYLINE
  5
337
100
AcDbEntity
  8
ASSI
100
AcDbPolyline
 62
7
  6
CONTINUOUS
 90
17
 70
0
 10
-63.2403537819
 20
-67.2866999672
 10
-63.2156149196
 20
-67.2713390331
 10
-63.1841525828
 20
-67.2483262071
 10
-63.1544270949
 20
-67.2224497369
 10
-63.1266592472
 20
-67.1939018248
 10
-63.1008636165
 20
-67.1626625787
 10
-63.077025626
 20
-67.1287518906
 10
-63.0553223367
 20
-67.0924216382
 10
-63.0357696438
 20
-67.0536538051
 10
-63.018351652
 20
-67.0124664078
 10
-63.0031977368
 20
-66.9691653729
 10
-62.9903247565
 20
-66.9237349622
 10
-62.9797158527
 20
-66.8761909141
 10
-62.9714498248
 20
-66.8268863704
 10
-62.9655529395
 20
-66.7759390452
 10
-62.9619989302
 20
-66.7232312245
 10
-62.9607877969
 20
-66.6687629083
  0
LWPOLYLINE
  5
338
100
AcDbEntity
  8
ASSI
100
AcDbPolyline
 62
7
  6
CONTINUOUS
 90
20
 70
0
 10
-62.5403200203
 20
-60.7426482664
 10
-62.4978706372
 20
-60.7165868489
 10
-62.4434099815
 20
-60.678178553
 10
-62.3914332147
 20
-60.6356428075
 10
-62.3422130937
 20
-60.5892028258
 10
-62.2957641099
 20
-60.538838084
 10
-62.252071772
 20
-60.484569106
 10
-62.2113653628
 20
-60.4266806777
 10
-62.1736605792
 20
-60.365153772
 10
-62.1389417244
 20
-60.3000074159
 10
-62.1073909915
 20
-60.231583476
 10
-62.079025035
 20
-60.1598647225
 10
-62.0538272004
 20
-60.0848683852
 10
-62.0319297177
 20
-60.0069880201
 10
-62.0133499363
 20
-59.9262084664
 10
-61.9980705069
 20
-59.8425448849
 10
-61.9861716107
 20
-59.7564363146
 10
-61.9776799749
 20
-59.6680291017
 10
-61.9725688724
 20
-59.5771769
 10
-61.9708383032
 20
-59.4838797094
  0
LWPOLYLINE
  5
339
100
AcDbEntity
  8
0
100
AcDbPolyline
 62
253
  6
CONTINUOUS
 90
19
 70
0
 10
117.1039540323
 20
45.3205790224
 10
117.1944656992
 20
45.3751708461
 10
117.2807670181
 20
45.4319902729
 10
117.3626937096
 20
45.4909291437
 10
117.4400898216
 20
45.5518752651
 10
117.5128080262
 20
45.6147126226
 10
117.5807099001
 20
45.6793216018
 10
117.6436661883
 20
45.7455792157
 10
117.7015570499
 20
45.8133593393
 10
117.7542722863
 20
45.8825329493
 10
117.8017115511
 20
45.9529683696
 10
117.843784541
 20
46.0245315226
 10
117.8804111676
 20
46.0970861837
 10
117.9115217101
 20
46.170494241
 10
117.9370569478
 20
46.244615958
 10
117.9569682729
 20
46.3193102398
 10
117.971217783
 20
46.3944349017
 10
117.9797783535
 20
46.4698469396
 10
117.9826336887
 20
46.5454028023
  0
LINE
  5
33A
100
AcDbEntity
  8
ASSI
100
AcDbLine
 62
253
  6
CONTINUOUS
 10
-64.4457120373
 20
-56.4218202595
 11
-65.8599255997
 21
-57.2383694461
  0
LINE
  5
33B
100
AcDbEntity
  8
RACCORDO
100
AcDbLine
 62
253
  6
CONTINUOUS
 10
118.0090507122
 20
48.2929679905
 11
117.8759269922
 21
48.216104023
  0
LINE
  5
33C
100
AcDbEntity
  8
ASSI
100
AcDbLine
 62
253
  6
CONTINUOUS
 10
117.1039540323
 20
45.3205790224
 11
101.1940514556
 21
36.1344006725
  0
LINE
  5
33D
100
AcDbEntity
  8
ASSI
100
AcDbLine
 62
7
  6
CONTINUOUS
 10
-35.631110704
 20
-46.1681358842
 11
-36.9518817825
 21
-46.9307325517
  0
LINE
  5
33E
100
AcDbEntity
  8
0
100
AcDbLine
 62
253
  6
CONTINUOUS
 10
-36.1563900272
 20
-46.860761053
 11
-35.6551497327
 21
-46.5713511889
  0
LINE
  5
33F
100
AcDbEntity
  8
0
100
AcDbLine
 62
7
  6
CONTINUOUS
 10
-65.0457410295
 20
-65.3845844069
 11
-64.2065791716
 21
-64.9000628673
  0
LINE
  5
340
100
AcDbEntity
  8
0
100
AcDbLine
 62
7
  6
CONTINUOUS
 10
-63.8456830452
 20
-67.4630118977
 11
-63.0064459713
 21
-66.9784469293
  0
LWPOLYLINE
  5
341
100
AcDbEntity
  8
0
100
AcDbPolyline
 62
7
  6
CONTINUOUS
 90
11
 70
0
 10
-35.8381969582
 20
-46.8327661637
 10
-35.8554046266
 20
-46.8420482591
 10
-35.8843013548
 20
-46.8548687369
 10
-35.9146349359
 20
-46.8650843565
 10
-35.9461353549
 20
-46.8726041833
 10
-35.9788130295
 20
-46.8774041492
 10
-36.0126575419
 20
-46.8795083224
 10
-36.0473676247
 20
-46.8788979723
 10
-36.0828428552
 20
-46.8755668557
 10
-36.119183656
 20
-46.8695212159
 10
-36.1563900272
 20
-46.860761053
  0
LWPOLYLINE
  5
342
100
AcDbEntity
  8
0
100
AcDbPolyline
 62
7
  6
CONTINUOUS
 90
6
 70
0
 10
-65.0447079087
 20
-65.3863737206
 10
-64.9892172081
 20
-65.359321091
 10
-64.8699761061
 20
-65.3303325949
 10
-64.7411859959
 20
-65.3356782019
 10
-64.5997646396
 20
-65.3735786103
 10
-64.4457120373
 20
-65.4440338201
  0
LWPOLYLINE
  5
343
100
AcDbEntity
  8
0
100
AcDbPolyline
 62
7
  6
CONTINUOUS
 90
5
 70
0
 10
-96.7604919376
 20
60.2125448686
 10
-96.6433555895
 20
60.1628695303
 10
-96.539448855
 20
60.1418580709
 10
-96.4487717342
 20
60.1495104906
 10
-96.3862508541
 20
60.1767053738
  0
LWPOLYLINE
  5
344
100
AcDbEntity
  8
0
100
AcDbPolyline
 62
7
  6
CONTINUOUS
 90
5
 70
0
 10
-96.7604919376
 20
61.4372502838
 10
-96.8776282856
 20
61.4869256222
 10
-96.9815350201
 20
61.5079370815
 10
-97.0722121409
 20
61.5002846619
 10
-97.134733021
 20
61.4730897786
  0
LINE
  5
345
100
AcDbEntity
  8
ASSI
100
AcDbLine
 62
253
  6
CONTINUOUS
 10
-112.4229071408
 20
95.2065134143
 11
-111.0086935785
 21
94.3899642277
  0
LINE
  5
346
100
AcDbEntity
  8
ASSI
100
AcDbLine
 62
253
  6
CONTINUOUS
 10
106.780195027
 20
-31.3586105173
 11
105.3659814646
 21
-30.5420613306
  0
LWPOLYLINE
  5
347
100
AcDbEntity
  8
0
100
AcDbPolyline
 62
7
  6
CONTINUOUS
 90
18
 70
0
 10
101.2874717806
 20
-144.4723804451
 10
101.311488897
 20
-144.5178168225
 10
101.3368134828
 20
-144.5624597361
 10
101.3635195403
 20
-144.6064232268
 10
101.3915330673
 20
-144.6495932537
 10
101.4206320568
 20
-144.6916276946
 10
101.4508251337
 20
-144.7325175263
 10
101.4821036731
 20
-144.7722717721
 10
101.5142197927
 20
-144.8105753799
 10
101.5471801479
 20
-144.8474168229
 10
101.5809780833
 20
-144.8828076279
 10
101.6153457506
 20
-144.9164673229
 10
101.6502876767
 20
-144.9483821527
 10
101.6857993347
 20
-144.9785658726
 10
101.7215992948
 20
-145.0067792767
 10
101.7575937473
 20
-145.03294263
 10
101.7938765019
 20
-145.0571356675
 10
101.8304475587
 20
-145.0793583893
  0
LWPOLYLINE
  5
348
100
AcDbEntity
  8
0
100
AcDbPolyline
 62
7
  6
CONTINUOUS
 90
37
 70
0
 10
99.8732582183
 20
-145.2889296318
 10
99.8087593033
 20
-145.1573689002
 10
99.7647142563
 20
-145.0733442315
 10
99.7184134303
 20
-144.9906257847
 10
99.6697421149
 20
-144.9090327218
 10
99.6188150205
 20
-144.8287458807
 10
99.5659762787
 20
-144.750307775
 10
99.5112129437
 20
-144.6737309257
 10
99.4545379612
 20
-144.5990028118
 10
99.3963343007
 20
-144.5266283847
 10
99.3365916098
 20
-144.4566235847
 10
99.2753202408
 20
-144.3889724714
 10
99.2129342201
 20
-144.324132175
 10
99.1494259992
 20
-144.2621217314
 10
99.0848031265
 20
-144.2029221047
 10
99.0195022739
 20
-144.1469333169
 10
98.95351885
 20
-144.0941771129
 10
98.8868574462
 20
-144.0446317478
 10
98.8199685081
 20
-143.9986320086
 10
98.7528504951
 20
-143.9562019077
 10
98.6855049478
 20
-143.9173174327
 10
98.6183869348
 20
-143.8822413346
 10
98.5514979967
 20
-143.8509994047
 10
98.4848365929
 20
-143.8235658516
 10
98.418853169
 20
-143.8001260517
 10
98.3535523164
 20
-143.7807070517
 10
98.2889294437
 20
-143.7652818049
 10
98.2254212228
 20
-143.7539545467
 10
98.1630352021
 20
-143.7467530302
 10
98.1017638331
 20
-143.7436495024
 10
98.0420211422
 20
-143.7446649405
 10
97.9838174817
 20
-143.7498272394
 10
97.9271424993
 20
-143.7591085041
 10
97.8723791642
 20
-143.7724460268
 10
97.8195404224
 20
-143.7898672779
 10
97.768613328
 20
-143.811344787
 10
97.7191294029
 20
-143.8372018675
  0
LWPOLYLINE
  5
349
100
AcDbEntity
  8
0
100
AcDbPolyline
 62
7
  6
CONTINUOUS
 90
37
 70
0
 10
101.2874717806
 20
-144.4723804451
 10
101.2229728657
 20
-144.3408197135
 10
101.1789278187
 20
-144.2567950449
 10
101.1326269927
 20
-144.174076598
 10
101.0839556773
 20
-144.0924835351
 10
101.0330285829
 20
-144.012196694
 10
100.9801898411
 20
-143.9337585884
 10
100.925426506
 20
-143.857181739
 10
100.8687515236
 20
-143.7824536252
 10
100.8105478631
 20
-143.710079198
 10
100.7508051722
 20
-143.640074398
 10
100.6895338032
 20
-143.5724232847
 10
100.6271477825
 20
-143.5075829883
 10
100.5636395616
 20
-143.4455725448
 10
100.4990166889
 20
-143.3863729181
 10
100.4337158362
 20
-143.3303841302
 10
100.3677324124
 20
-143.2776279262
 10
100.3010710085
 20
-143.2280825611
 10
100.2341820705
 20
-143.182082822
 10
100.1670640575
 20
-143.139652721
 10
100.0997185102
 20
-143.1007682461
 10
100.0326004971
 20
-143.0656921479
 10
99.9657115591
 20
-143.0344502181
 10
99.8990501553
 20
-143.007016665
 10
99.8330667314
 20
-142.983576865
 10
99.7677658788
 20
-142.964157865
 10
99.7031430061
 20
-142.9487326182
 10
99.6396347851
 20
-142.9374053601
 10
99.5772487644
 20
-142.9302038436
 10
99.5159773955
 20
-142.9271003158
 10
99.4562347046
 20
-142.9281157538
 10
99.3980310441
 20
-142.9332780527
 10
99.3413560616
 20
-142.9425593175
 10
99.2865927266
 20
-142.9558968402
 10
99.2337539848
 20
-142.9733180913
 10
99.1828268904
 20
-142.9947956003
 10
99.1333429653
 20
-143.0206526809
  0
LINE
  5
34A
100
AcDbEntity
  8
0
100
AcDbLine
 62
7
  6
CONTINUOUS
 10
35.0795674147
 20
78.1892964714
 11
35.0795674147
 21
67.9268576656
  0
LINE
  5
34B
100
AcDbEntity
  8
0
100
AcDbLine
 62
7
  6
CONTINUOUS
 10
35.0795674147
 20
62.4037515556
 11
35.0795674147
 21
-87.2024949251
  0
LINE
  5
34C
100
AcDbEntity
  8
0
100
AcDbLine
 62
7
  6
CONTINUOUS
 10
35.0795674147
 20
-92.725601035
 11
35.0795674147
 21
-107.3548648757
  0
LWPOLYLINE
  5
34D
100
AcDbEntity
  8
0
100
AcDbPolyline
 62
7
  6
CONTINUOUS
 90
16
 70
0
 10
35.0795674147
 20
-107.3548648757
 10
35.0785763013
 20
-107.3972167597
 10
35.0756744154
 20
-107.4381159441
 10
35.0708617568
 20
-107.477562429
 10
35.0641147031
 20
-107.5156561878
 10
35.0554568768
 20
-107.552297247
 10
35.0449591454
 20
-107.5871856857
 10
35.0326064075
 20
-107.6203071188
 10
35.0184137646
 20
-107.6516759313
 10
35.0024973888
 20
-107.6810353577
 10
34.9848431321
 20
-107.7083689053
 10
34.9654651426
 20
-107.7336930669
 10
34.9445220363
 20
-107.7568005544
 10
34.9220009672
 20
-107.777673174
 10
34.8979147814
 20
-107.7963291196
 10
34.8724847936
 20
-107.8126017368
  0
LWPOLYLINE
  5
34E
100
AcDbEntity
  8
0
100
AcDbPolyline
 62
7
  6
CONTINUOUS
 90
16
 70
0
 10
35.0795674147
 20
67.9268576656
 10
35.0784870569
 20
67.8826937884
 10
35.0753305281
 20
67.8401249928
 10
35.0700978284
 20
67.7991512785
 10
35.0627610277
 20
67.7596602018
 10
35.0533480561
 20
67.7217642065
 10
35.0419427033
 20
67.6858006247
 10
35.0285271812
 20
67.6517867089
 10
35.0131192779
 20
67.6197052065
 10
34.9958561472
 20
67.5898416918
 10
34.9767212255
 20
67.5622159669
 10
34.9557310764
 20
67.5368082296
 10
34.9330725441
 20
67.5138446474
 10
34.9087307332
 20
67.4933470417
 10
34.8827205391
 20
67.4752935911
 10
34.8724811605
 20
67.4691270942
  0
LWPOLYLINE
  5
34F
100
AcDbEntity
  8
0
100
AcDbPolyline
 62
7
  6
CONTINUOUS
 90
16
 70
0
 10
35.0795674147
 20
-87.2024949251
 10
35.0784870569
 20
-87.2466588022
 10
35.0753305281
 20
-87.2892275979
 10
35.0700978284
 20
-87.3302013121
 10
35.0627610277
 20
-87.3696923888
 10
35.0533480561
 20
-87.4075883841
 10
35.0419427033
 20
-87.443551966
 10
35.0285271812
 20
-87.4775658818
 10
35.0131192779
 20
-87.5096473841
 10
34.9958561472
 20
-87.5395108988
 10
34.9767212255
 20
-87.5671366237
 10
34.9557310764
 20
-87.5925443611
 10
34.9330725441
 20
-87.6155079433
 10
34.9087307332
 20
-87.636005549
 10
34.8827205391
 20
-87.6540589995
 10
34.8724811605
 20
-87.6602254965
  0
LWPOLYLINE
  5
350
100
AcDbEntity
  8
ASSI
100
AcDbPolyline
 62
7
  6
CONTINUOUS
 90
4
 70
0
 10
24.4821698129
 20
-105.3290631205
 10
24.4790409701
 20
-105.3602528976
 10
24.4745039227
 20
-105.4375613306
 10
24.4729656969
 20
-105.5170571092
  0
LWPOLYLINE
  5
351
100
AcDbEntity
  8
ASSI
100
AcDbPolyline
 62
7
  6
CONTINUOUS
 90
19
 70
0
 10
-44.9358813662
 20
-70.4144662626
 10
-44.8879708401
 20
-70.3843250137
 10
-44.8421447384
 20
-70.3504478972
 10
-44.7987182912
 20
-70.3130591459
 10
-44.7577051847
 20
-70.2721387316
 10
-44.7190917327
 20
-70.2277066826
 10
-44.6830977462
 20
-70.180015933
 10
-44.6497381652
 20
-70.1290478968
 10
-44.6189980497
 20
-70.0748211601
 10
-44.591052391
 20
-70.0176444139
 10
-44.5659171271
 20
-69.9575008332
 10
-44.5435763201
 20
-69.8944072432
 10
-44.5241571472
 20
-69.8287228105
 10
-44.5076762719
 20
-69.7604327586
 10
-44.4941170307
 20
-69.6895518641
 10
-44.483556611
 20
-69.6164836238
 10
-44.4760207421
 20
-69.5413625367
 10
-44.4714836947
 20
-69.4640541038
 10
-44.4699454688
 20
-69.3845583251
  0
LWPOLYLINE
  5
352
100
AcDbEntity
  8
0
100
AcDbPolyline
 62
7
  6
CONTINUOUS
 90
49
 70
0
 10
-20.1682040095
 20
-59.5079365959
 10
-20.1161192474
 20
-59.4752293473
 10
-20.0650797396
 20
-59.4376244539
 10
-20.0167119846
 20
-59.3961060651
 10
-19.9710312573
 20
-59.3506518205
 10
-19.9280222827
 20
-59.3012840806
 10
-19.8879304007
 20
-59.2482846987
 10
-19.850772286
 20
-59.191632926
 10
-19.8165312638
 20
-59.1313495114
 10
-19.78540265
 20
-59.0677785557
 10
-19.7574042335
 20
-59.0009012762
 10
-19.7325182255
 20
-58.9307364556
 10
-19.7108865748
 20
-58.8576845433
 10
-19.6925278802
 20
-58.7817290439
 10
-19.6774235429
 20
-58.7028864528
 10
-19.6656597159
 20
-58.621606705
 10
-19.6572554893
 20
-58.537875875
 10
-19.6521917729
 20
-58.4517078883
 10
-19.6504974492
 20
-58.3635944565
 10
-19.6521917729
 20
-58.2735244621
 10
-19.6572554893
 20
-58.1815090226
 10
-19.6656597159
 20
-58.0880732023
 10
-19.6774235429
 20
-57.993208882
 10
-19.6925278802
 20
-57.8969241808
 10
-19.7108865748
 20
-57.7997685211
 10
-19.7325182255
 20
-57.7017369208
 10
-19.7574042335
 20
-57.6028343619
 10
-19.78540265
 20
-57.5036252129
 10
-19.8165312638
 20
-57.4041077143
 10
-19.850772286
 20
-57.3042836255
 10
-19.8879304007
 20
-57.2047225932
 10
-19.9280222827
 20
-57.105426111
 10
-19.9710312573
 20
-57.0063926853
 10
-20.0167119846
 20
-56.9081874818
 10
-20.0650797396
 20
-56.8108152219
 10
-20.1161192474
 20
-56.7142711843
 10
-20.1695393433
 20
-56.6191063707
 10
-20.225353641
 20
-56.5253286497
 10
-20.2835485267
 20
-56.4329301528
 10
-20.3437919954
 20
-56.3424382754
 10
-20.4060957659
 20
-56.2538638996
 10
-20.4704481193
 20
-56.1671961434
 10
-20.5364818935
 20
-56.0829297571
 10
-20.6042067117
 20
-56.0010784499
 10
-20.6736129508
 20
-55.9216285127
 10
-20.7443045781
 20
-55.8450335684
 10
-20.8161495828
 20
-55.7714448245
 10
-20.8892799758
 20
-55.7007110735
 10
-20.9636957571
 20
-55.6328323153
  0
LWPOLYLINE
  5
353
100
AcDbEntity
  8
0
100
AcDbPolyline
 62
7
  6
CONTINUOUS
 90
48
 70
0
 10
-18.7539904472
 20
-58.6913874093
 10
-18.701905685
 20
-58.6586801606
 10
-18.6508661773
 20
-58.6210752672
 10
-18.6024984223
 20
-58.5795568784
 10
-18.5568176949
 20
-58.5341026339
 10
-18.5138087203
 20
-58.4847348939
 10
-18.4737168383
 20
-58.4317355121
 10
-18.4365587236
 20
-58.3750837393
 10
-18.4023177014
 20
-58.3148003247
 10
-18.3711890876
 20
-58.251229369
 10
-18.3431906712
 20
-58.1843520895
 10
-18.3183046631
 20
-58.114187269
 10
-18.2966730124
 20
-58.0411353566
 10
-18.2783143178
 20
-57.9651798573
 10
-18.2632099805
 20
-57.8863372662
 10
-18.2514461535
 20
-57.8050575184
 10
-18.2430419269
 20
-57.7213266883
 10
-18.2379782106
 20
-57.6351587016
 10
-18.2362838868
 20
-57.5470452698
 10
-18.2379782106
 20
-57.4569752754
 10
-18.2430419269
 20
-57.3649598359
 10
-18.2514461535
 20
-57.2715240157
 10
-18.2632099805
 20
-57.1766596953
 10
-18.2783143178
 20
-57.0803749942
 10
-18.2966730124
 20
-56.9832193345
 10
-18.3183046631
 20
-56.8851877341
 10
-18.3431906712
 20
-56.7862851752
 10
-18.3711890876
 20
-56.6870760262
 10
-18.4023177014
 20
-56.5875585276
 10
-18.4365587236
 20
-56.4877344389
 10
-18.4737168383
 20
-56.3881734066
 10
-18.5138087203
 20
-56.2888769244
 10
-18.5568176949
 20
-56.1898434986
 10
-18.6024984223
 20
-56.0916382951
 10
-18.6508661773
 20
-55.9942660352
 10
-18.701905685
 20
-55.8977219976
 10
-18.7553257809
 20
-55.802557184
 10
-18.8111400786
 20
-55.7087794631
 10
-18.8693349644
 20
-55.6163809661
 10
-18.929578433
 20
-55.5258890888
 10
-18.9918822036
 20
-55.4373147129
 10
-19.056234557
 20
-55.3506469567
 10
-19.1222683311
 20
-55.2663805705
 10
-19.1899931494
 20
-55.1845292633
 10
-19.2593993884
 20
-55.1050793261
 10
-19.3300910157
 20
-55.0284843817
 10
-19.4019360204
 20
-54.9548956378
 10
-19.4750664134
 20
-54.8841618868
  0
LINE
  5
354
100
AcDbEntity
  8
0
100
AcDbLine
 62
253
  6
CONTINUOUS
 10
-44.3992347907
 20
-62.2812708625
 11
-42.9850212283
 21
-61.4647216758
  0
LINE
  5
355
100
AcDbEntity
  8
ASSI
100
AcDbLine
 62
7
  6
CONTINUOUS
 10
-42.2880132738
 20
-61.3657340123
 11
-43.7022268361
 21
-62.182283199
  0
LINE
  5
356
100
AcDbEntity
  8
ASSI
100
AcDbLine
 62
253
  6
CONTINUOUS
 10
-46.2377124218
 20
-64.6895977765
 11
-47.6519259842
 21
-65.5061469631
  0
LINE
  5
357
100
AcDbEntity
  8
0
100
AcDbLine
 62
253
  6
CONTINUOUS
 10
-41.570807666
 20
-63.5877811251
 11
-40.1565941036
 21
-62.7712319384
  0
LINE
  5
358
100
AcDbEntity
  8
ASSI
100
AcDbLine
 62
253
  6
CONTINUOUS
 10
-46.2377124218
 20
-66.7307734685
 11
-47.6519259842
 21
-67.5473226551
  0
LINE
  5
359
100
AcDbEntity
  8
0
100
AcDbLine
 62
253
  6
CONTINUOUS
 10
-41.005122241
 20
-64.2409889105
 11
-39.5909086786
 21
-63.4244397238
  0
LINE
  5
35A
100
AcDbEntity
  8
0
100
AcDbLine
 62
253
  6
CONTINUOUS
 10
-21.4889750803
 20
-54.5405274588
 11
-20.0747615179
 21
-53.7239782722
  0
LINE
  5
35B
100
AcDbEntity
  8
0
100
AcDbLine
 62
253
  6
CONTINUOUS
 10
-20.9636957571
 20
-55.6328323153
 11
-19.5494821947
 21
-54.8162831287
  0
LINE
  5
35C
100
AcDbEntity
  8
0
100
AcDbLine
 62
253
  6
CONTINUOUS
 10
-35.6311448741
 20
-66.5273463625
 11
-36.3382174852
 21
-66.9356012264
  0
LINE
  5
35D
100
AcDbEntity
  8
0
100
AcDbLine
 62
253
  6
CONTINUOUS
 10
-21.4889750803
 20
-60.0636335688
 11
-20.7217719867
 21
-59.6206601179
  0
LINE
  5
35E
100
AcDbEntity
  8
ASSI
100
AcDbLine
 62
7
  6
CONTINUOUS
 10
-18.7539904394
 20
-58.6913874227
 11
-20.1682040018
 21
-59.5079366093
  0
LWPOLYLINE
  5
35F
100
AcDbEntity
  8
0
100
AcDbPolyline
 62
7
  6
CONTINUOUS
 90
17
 70
0
 10
-43.8992108707
 20
-62.3308116243
 10
-43.9056007148
 20
-62.3344084667
 10
-43.9323067724
 20
-62.3475324715
 10
-43.9603202994
 20
-62.3583531796
 10
-43.9894192888
 20
-62.366784837
 10
-44.0196123657
 20
-62.3728084603
 10
-44.0508909051
 20
-62.3764430328
 10
-44.0830070247
 20
-62.3776597507
 10
-44.1159673799
 20
-62.3764394017
 10
-44.1497653153
 20
-62.372801198
 10
-44.1841329826
 20
-62.3667739724
 10
-44.2190749087
 20
-62.3583387417
 10
-44.2545865667
 20
-62.347514489
 10
-44.2903865268
 20
-62.3343869966
 10
-44.3263809793
 20
-62.3189848584
 10
-44.3626637339
 20
-62.3012794803
 10
-44.3992347907
 20
-62.2812708625
  0
LWPOLYLINE
  5
360
100
AcDbEntity
  8
0
100
AcDbPolyline
 62
7
  6
CONTINUOUS
 90
11
 70
0
 10
-21.2818888261
 20
-59.6059029974
 10
-21.2646811577
 20
-59.596620902
 10
-21.2357844295
 20
-59.5838004241
 10
-21.2054508483
 20
-59.5735848045
 10
-21.1739504293
 20
-59.5660649777
 10
-21.1412727548
 20
-59.5612650118
 10
-21.1074282423
 20
-59.5591608387
 10
-21.0727181596
 20
-59.5597711888
 10
-21.0372429291
 20
-59.5631023054
 10
-21.0009021282
 20
-59.5691479452
 10
-20.9636957571
 20
-59.5779081081
  0
LWPOLYLINE
  5
361
100
AcDbEntity
  8
0
100
AcDbPolyline
 62
7
  6
CONTINUOUS
 90
16
 70
0
 10
-35.838193325
 20
-66.9851424041
 10
-35.8650508232
 20
-66.9990540909
 10
-35.8932521234
 20
-67.0105824493
 10
-35.9225905474
 20
-67.0196470638
 10
-35.9530754285
 20
-67.0262277125
 10
-35.9846974335
 20
-67.0303446173
 10
-36.0171977242
 20
-67.0319640797
 10
-36.0505835095
 20
-67.0310656013
 10
-36.0848475805
 20
-67.0276696806
 10
-36.119709473
 20
-67.0218041144
 10
-36.1551740935
 20
-67.0134486325
 10
-36.1912365355
 20
-67.0026235051
 10
-36.2276016141
 20
-66.98941734
 10
-36.2641709345
 20
-66.9738596732
 10
-36.3010428915
 20
-66.9559209687
 10
-36.3382174852
 20
-66.9356012264
  0
LWPOLYLINE
  5
362
100
AcDbEntity
  8
0
100
AcDbPolyline
 62
7
  6
CONTINUOUS
 90
6
 70
0
 10
-63.846716166
 20
-67.461222584
 10
-63.9022068666
 20
-67.4882752136
 10
-64.0214479686
 20
-67.5172637097
 10
-64.1502380788
 20
-67.5119181027
 10
-64.291659435
 20
-67.4740176943
 10
-64.4457120373
 20
-67.4035624844
  0
LWPOLYLINE
  5
363
100
AcDbEntity
  8
ASSI
100
AcDbPolyline
 62
7
  6
CONTINUOUS
 90
12
 70
0
 10
-95.9389646316
 20
59.9135741812
 10
-95.9261016994
 20
59.9107286306
 10
-95.8814094454
 20
59.903696744
 10
-95.8375892538
 20
59.8997340128
 10
-95.7946346792
 20
59.8988177526
 10
-95.7528647744
 20
59.9009547692
 10
-95.7122883605
 20
59.9061677975
 10
-95.6728966164
 20
59.9144341025
 10
-95.6349821314
 20
59.9256922848
 10
-95.5985559052
 20
59.9399646221
 10
-95.5636069381
 20
59.9572288367
 10
-95.5551336821
 20
59.9619957614
  0
LINE
  5
364
100
AcDbEntity
  8
ASSI
100
AcDbLine
 62
253
  6
CONTINUOUS
 10
-113.854175464
 20
101.5384572537
 11
-112.4399619016
 21
100.721908067
  0
LINE
  5
365
100
AcDbEntity
  8
ASSI
100
AcDbLine
 62
253
  6
CONTINUOUS
 10
105.3489267038
 20
-25.0266666779
 11
103.9347131414
 21
-24.2101174912
  0
LINE
  5
366
100
AcDbEntity
  8
ASSI
100
AcDbLine
 62
253
  6
CONTINUOUS
 10
-116.2199653083
 20
105.7732759897
 11
-114.8057517459
 21
104.9567268031
  0
LINE
  5
367
100
AcDbEntity
  8
ASSI
100
AcDbLine
 62
253
  6
CONTINUOUS
 10
102.9831368596
 20
-20.7918479419
 11
101.5689232972
 21
-19.9752987552
  0
LINE
  5
368
100
AcDbEntity
  8
ASSI
100
AcDbLine
 62
253
  6
CONTINUOUS
 10
-118.0090507122
 20
113.6882057889
 11
-116.5948371498
 21
112.8716566022
  0
LINE
  5
369
100
AcDbEntity
  8
ASSI
100
AcDbLine
 62
253
  6
CONTINUOUS
 10
101.1940514556
 20
-12.8769181427
 11
99.7798378932
 21
-12.060368956
  0
LWPOLYLINE
  5
36A
100
AcDbEntity
  8
0
100
AcDbPolyline
 62
7
  6
CONTINUOUS
 90
25
 70
0
 10
-91.5999580945
 20
140.2561008499
 10
-91.7115802469
 20
140.3581844299
 10
-91.7479210477
 20
140.394104236
 10
-91.7833962782
 20
140.4317390264
 10
-91.818106361
 20
140.4712110099
 10
-91.8519508734
 20
140.5123979776
 10
-91.884628548
 20
140.554933303
 10
-91.916128967
 20
140.5988290241
 10
-91.9464625481
 20
140.6440731028
 10
-91.9753592763
 20
140.6902627981
 10
-92.0028063233
 20
140.7374065523
 10
-92.0288165174
 20
140.7854959231
 10
-92.0531583283
 20
140.8341028418
 10
-92.0758168606
 20
140.8832319292
 10
-92.0968070098
 20
140.9328785646
 10
-92.1159419315
 20
140.9826008174
 10
-92.1332050622
 20
141.0323993628
 10
-92.1486129655
 20
141.0822735257
 10
-92.1620284875
 20
141.1317793501
 10
-92.1734338404
 20
141.1809135475
 10
-92.182846812
 20
141.2296794064
 10
-92.1901836126
 20
141.2776428367
 10
-92.1954163124
 20
141.3246591414
 10
-92.1985728411
 20
141.3708730173
 10
-92.1996531989
 20
141.4162844646
  0
LWPOLYLINE
  5
36B
100
AcDbEntity
  8
0
100
AcDbPolyline
 62
7
  6
CONTINUOUS
 90
25
 70
0
 10
50.6359166008
 20
-94.551437605
 10
50.6369969585
 20
-94.5968490522
 10
50.6401534873
 20
-94.6430629282
 10
50.645386187
 20
-94.6900792329
 10
50.6527229877
 20
-94.7380426631
 10
50.6621359593
 20
-94.7868085221
 10
50.6735413121
 20
-94.8359427195
 10
50.6869568342
 20
-94.8854485439
 10
50.7023647375
 20
-94.9353227067
 10
50.7196278682
 20
-94.9851212521
 10
50.7387627899
 20
-95.0348435049
 10
50.759752939
 20
-95.0844901403
 10
50.7824114714
 20
-95.1336192277
 10
50.8067532823
 20
-95.1822261465
 10
50.8327634764
 20
-95.2303155172
 10
50.8602105234
 20
-95.2774592715
 10
50.8891072516
 20
-95.3236489667
 10
50.9194408327
 20
-95.3688930454
 10
50.9509412517
 20
-95.4127887666
 10
50.9836189262
 20
-95.4553240919
 10
51.0174634387
 20
-95.4965110597
 10
51.0521735215
 20
-95.5359830431
 10
51.087648752
 20
-95.5736178335
 10
51.1239895528
 20
-95.6095376396
 10
51.2356117052
 20
-95.7116212196
  0
LWPOLYLINE
  5
36C
100
AcDbEntity
  8
0
100
AcDbPolyline
 62
7
  6
CONTINUOUS
 90
25
 70
0
 10
50.6359166008
 20
60.5779149857
 10
50.6369969585
 20
60.5325035384
 10
50.6401534873
 20
60.4862896625
 10
50.645386187
 20
60.4392733578
 10
50.6527229877
 20
60.3913099275
 10
50.6621359593
 20
60.3425440686
 10
50.6735413121
 20
60.2934098712
 10
50.6869568342
 20
60.2439040468
 10
50.7023647375
 20
60.1940298839
 10
50.7196278682
 20
60.1442313385
 10
50.7387627899
 20
60.0945090857
 10
50.759752939
 20
60.0448624503
 10
50.7824114714
 20
59.9957333629
 10
50.8067532823
 20
59.9471264442
 10
50.8327634764
 20
59.8990370734
 10
50.8602105234
 20
59.8518933192
 10
50.8891072516
 20
59.8057036239
 10
50.9194408327
 20
59.7604595452
 10
50.9509412517
 20
59.7165638241
 10
50.9836189262
 20
59.6740284987
 10
51.0174634387
 20
59.632841531
 10
51.0521735215
 20
59.5933695475
 10
51.087648752
 20
59.5557347571
 10
51.1239895528
 20
59.519814951
 10
51.2356117052
 20
59.417731371
  0
LWPOLYLINE
  5
36D
100
AcDbEntity
  8
0
100
AcDbPolyline
 62
7
  6
CONTINUOUS
 90
31
 70
0
 10
50.6359166008
 20
-114.7038075556
 10
50.6369077141
 20
-114.7473039525
 10
50.6398096001
 20
-114.791554162
 10
50.6446222586
 20
-114.8365581843
 10
50.6513693123
 20
-114.8824432717
 10
50.6600271386
 20
-114.9290821717
 10
50.67052487
 20
-114.9760931275
 10
50.6828776079
 20
-115.0234791926
 10
50.6970702508
 20
-115.0712373134
 10
50.7129866266
 20
-115.1189765716
 10
50.7306408833
 20
-115.1666968124
 10
50.7500188729
 20
-115.2143981905
 10
50.7709619791
 20
-115.2616902522
 10
50.7934830482
 20
-115.3085696379
 10
50.817569234
 20
-115.3550397071
 10
50.843023382
 20
-115.4007200848
 10
50.86985672
 20
-115.4456042893
 10
50.8980580202
 20
-115.4896988023
 10
50.9273964442
 20
-115.5326426934
 10
50.9578813253
 20
-115.5744265187
 10
50.9895033303
 20
-115.6150597222
 10
51.022003621
 20
-115.6542097057
 10
51.0553894063
 20
-115.6918642953
 10
51.0896534773
 20
-115.728035665
 10
51.1245153697
 20
-115.7624277383
 10
51.1599799903
 20
-115.7950259113
 10
51.1960424323
 20
-115.825844788
 10
51.2324075109
 20
-115.8546321042
 10
51.2689768313
 20
-115.8813037718
 10
51.3058487883
 20
-115.905943879
 10
51.343023382
 20
-115.9285524257
  0
LWPOLYLINE
  5
36E
100
AcDbEntity
  8
ASSI
100
AcDbPolyline
 62
7
  6
CONTINUOUS
 90
55
 70
0
 10
58.0605378032
 20
-128.5843743576
 10
58.0620760291
 20
-128.6656464409
 10
58.0666130765
 20
-128.7481941425
 10
58.0741489454
 20
-128.8320174622
 10
58.0847093651
 20
-128.9172806104
 10
58.0982686063
 20
-129.0038193767
 10
58.1147494816
 20
-129.0911411304
 10
58.1341686545
 20
-129.1792503371
 10
58.1565094615
 20
-129.2681425312
 10
58.1816447254
 20
-129.3573116845
 10
58.2095903841
 20
-129.4467593768
 10
58.2403304996
 20
-129.5364840284
 10
58.2736900806
 20
-129.6259748725
 10
58.3096840671
 20
-129.7152305756
 10
58.3482975191
 20
-129.8042524711
 10
58.3893106256
 20
-129.8925337928
 10
58.4327370728
 20
-129.9800703167
 10
58.4785631745
 20
-130.0668662669
 10
58.5265280609
 20
-130.1524275482
 10
58.5766439303
 20
-130.2367471189
 10
58.6288985844
 20
-130.3198320209
 10
58.6829945581
 20
-130.4012092847
 10
58.7389423533
 20
-130.4808691709
 10
58.7967314681
 20
-130.558821419
 10
58.8560329321
 20
-130.6346222777
 10
58.9168553707
 20
-130.7082594767
 10
58.9791901585
 20
-130.7797452863
 10
59.0426824482
 20
-130.8486727661
 10
59.1073388416
 20
-130.915027325
 10
59.1731527369
 20
-130.9788235542
 10
59.2397494816
 20
-131.0396982869
 10
59.3071335409
 20
-131.0976348608
 10
59.3753004496
 20
-131.1526499383
 10
59.4438621607
 20
-131.2044303404
 10
59.5128209259
 20
-131.2529576184
 10
59.5821744934
 20
-131.298250221
 10
59.6515280609
 20
-131.3400503154
 10
59.7208816284
 20
-131.3783379823
 10
59.7902351959
 20
-131.4131331411
 10
59.8591939611
 20
-131.4442377166
 10
59.9277556722
 20
-131.4716306599
 10
59.9959225809
 20
-131.4953330199
 10
60.0633066402
 20
-131.5152098686
 10
60.1299033849
 20
-131.5312393875
 10
60.1957172802
 20
-131.5434433949
 10
60.2603736736
 20
-131.5517524184
 10
60.3238659633
 20
-131.5561442432
 10
60.3862007511
 20
-131.556641084
 10
60.4470231897
 20
-131.5532401126
 10
60.5063246537
 20
-131.5459190981
 10
60.5641137685
 20
-131.5347002713
 10
60.6200615637
 20
-131.5196474966
 10
60.6741575374
 20
-131.5007389072
 10
60.7264121915
 20
-131.47799637
 10
60.7765824212
 20
-131.4515179651
  0
LWPOLYLINE
  5
36F
100
AcDbEntity
  8
ASSI
100
AcDbPolyline
 62
7
  6
CONTINUOUS
 90
40
 70
0
 10
59.4747513656
 20
-127.7678251709
 10
59.4762895914
 20
-127.8490972543
 10
59.4808266389
 20
-127.9316449558
 10
59.4883625078
 20
-128.0154682755
 10
59.4989229274
 20
-128.1007314237
 10
59.5124821686
 20
-128.1872701901
 10
59.528963044
 20
-128.2745919438
 10
59.5483822169
 20
-128.3627011505
 10
59.5707230239
 20
-128.4515933445
 10
59.5958582878
 20
-128.5407624979
 10
59.6238039464
 20
-128.6302101902
 10
59.6545440619
 20
-128.7199348418
 10
59.687903643
 20
-128.8094256859
 10
59.7238976294
 20
-128.8986813889
 10
59.7625110815
 20
-128.9877032844
 10
59.803524188
 20
-129.0759846061
 10
59.8469506352
 20
-129.1635211301
 10
59.8927767369
 20
-129.2503170802
 10
59.9407416233
 20
-129.3358783616
 10
59.9908574927
 20
-129.4201979323
 10
60.0431121468
 20
-129.5032828342
 10
60.0972081205
 20
-129.584660098
 10
60.1531559157
 20
-129.6643199842
 10
60.2109450305
 20
-129.7422722323
 10
60.2702464944
 20
-129.818073091
 10
60.3310689331
 20
-129.89171029
 10
60.3934037209
 20
-129.9631960996
 10
60.4568960106
 20
-130.0321235795
 10
60.521552404
 20
-130.0984781384
 10
60.5873662992
 20
-130.1622743675
 10
60.653963044
 20
-130.2231491003
 10
60.7213471032
 20
-130.2810856741
 10
60.789514012
 20
-130.3361007516
 10
60.8580757231
 20
-130.3878811537
 10
60.9270344882
 20
-130.4364084317
 10
60.9963880558
 20
-130.4817010343
 10
61.0657416233
 20
-130.5235011287
 10
61.1350951908
 20
-130.5617887957
 10
61.2044487583
 20
-130.5965839544
 10
61.2333142025
 20
-130.6096040163
  0
LWPOLYLINE
  5
370
100
AcDbEntity
  8
ASSI
100
AcDbPolyline
 62
7
  6
CONTINUOUS
 90
55
 70
0
 10
61.2425183186
 20
-128.3804343356
 10
61.2409800927
 20
-128.2991622523
 10
61.2364430453
 20
-128.2166145507
 10
61.2289071764
 20
-128.132791231
 10
61.2183467567
 20
-128.0475280828
 10
61.2047875155
 20
-127.9609893165
 10
61.1883066402
 20
-127.8736675628
 10
61.1688874673
 20
-127.7855583561
 10
61.1465466602
 20
-127.696666162
 10
61.1214113964
 20
-127.6074970087
 10
61.0934657377
 20
-127.5180493164
 10
61.0627256222
 20
-127.4283246648
 10
61.0293660412
 20
-127.3388338207
 10
60.9933720547
 20
-127.2495781176
 10
60.9547586027
 20
-127.1605562221
 10
60.9137454962
 20
-127.0722749004
 10
60.870319049
 20
-126.9847383765
 10
60.8244929473
 20
-126.8979424263
 10
60.7765280609
 20
-126.812381145
 10
60.7264121915
 20
-126.7280615743
 10
60.6741575374
 20
-126.6449766723
 10
60.6200615637
 20
-126.5635994085
 10
60.5641137685
 20
-126.4839395223
 10
60.5063246537
 20
-126.4059872742
 10
60.4470231897
 20
-126.3301864155
 10
60.3862007511
 20
-126.2565492165
 10
60.3238659633
 20
-126.1850634069
 10
60.2603736736
 20
-126.1161359271
 10
60.1957172802
 20
-126.0497813682
 10
60.1299033849
 20
-125.985985139
 10
60.0633066402
 20
-125.9251104063
 10
59.9959225809
 20
-125.8671738324
 10
59.9277556722
 20
-125.8121587549
 10
59.8591939611
 20
-125.7603783528
 10
59.7902351959
 20
-125.7118510748
 10
59.7208816284
 20
-125.6665584722
 10
59.6515280609
 20
-125.6247583778
 10
59.5821744934
 20
-125.5864707109
 10
59.5128209259
 20
-125.5516755521
 10
59.4438621607
 20
-125.5205709766
 10
59.3753004496
 20
-125.4931780333
 10
59.3071335409
 20
-125.4694756733
 10
59.2397494816
 20
-125.4495988246
 10
59.1731527369
 20
-125.4335693057
 10
59.1073388416
 20
-125.4213652983
 10
59.0426824482
 20
-125.4130562748
 10
58.9791901585
 20
-125.40866445
 10
58.9168553707
 20
-125.4081676092
 10
58.8560329321
 20
-125.4115685806
 10
58.7967314681
 20
-125.4188895951
 10
58.7389423533
 20
-125.4301084219
 10
58.6829945581
 20
-125.4451611966
 10
58.6288985844
 20
-125.464069786
 10
58.5766439303
 20
-125.4868123232
 10
58.5264737006
 20
-125.5132907281
  0
LINE
  5
371
100
AcDbEntity
  8
0
100
AcDbLine
 62
7
  6
CONTINUOUS
 10
49.2217030384
 20
-115.5203567423
 11
49.2217030384
 21
-100.8910929016
  0
LINE
  5
372
100
AcDbEntity
  8
0
100
AcDbLine
 62
7
  6
CONTINUOUS
 10
49.2217030384
 20
-95.3679867916
 11
49.2217030384
 21
54.2382596891
  0
LINE
  5
373
100
AcDbEntity
  8
0
100
AcDbLine
 62
7
  6
CONTINUOUS
 10
49.2217030384
 20
59.761365799
 11
49.2217030384
 21
70.4828492048
  0
LINE
  5
374
100
AcDbEntity
  8
0
100
AcDbLine
 62
7
  6
CONTINUOUS
 10
50.6359166008
 20
-114.7038075556
 11
50.6359166008
 21
-100.281443423
  0
LINE
  5
375
100
AcDbEntity
  8
0
100
AcDbLine
 62
7
  6
CONTINUOUS
 10
50.6359166008
 20
-94.551437605
 11
50.6359166008
 21
54.8479091676
  0
LINE
  5
376
100
AcDbEntity
  8
0
100
AcDbLine
 62
7
  6
CONTINUOUS
 10
50.6359166008
 20
60.5779149857
 11
50.6359166008
 21
69.7158675865
  0
LINE
  5
377
100
AcDbEntity
  8
ASSI
100
AcDbLine
 62
7
  6
CONTINUOUS
 10
58.0605378032
 20
-128.5843743576
 11
58.0605378032
 21
-126.5431986656
  0
LWPOLYLINE
  5
378
100
AcDbEntity
  8
0
100
AcDbPolyline
 62
7
  6
CONTINUOUS
 90
16
 70
0
 10
49.2217030384
 20
54.2382596891
 10
49.2227833962
 20
54.2824235662
 10
49.2259399249
 20
54.3249923619
 10
49.2311726247
 20
54.3659660761
 10
49.2385094253
 20
54.4054571529
 10
49.2479223969
 20
54.4433531481
 10
49.2593277498
 20
54.47931673
 10
49.2727432718
 20
54.5133306458
 10
49.2881511751
 20
54.5454121481
 10
49.3054143059
 20
54.5752756628
 10
49.3245492275
 20
54.6029013878
 10
49.3455393767
 20
54.6283091251
 10
49.368197909
 20
54.6512727073
 10
49.3925397199
 20
54.671770313
 10
49.418549914
 20
54.6898237635
 10
49.4287892926
 20
54.6959902605
  0
LWPOLYLINE
  5
379
100
AcDbEntity
  8
0
100
AcDbPolyline
 62
7
  6
CONTINUOUS
 90
16
 70
0
 10
49.2217030384
 20
-100.8910929016
 10
49.2227833962
 20
-100.8469290244
 10
49.2259399249
 20
-100.8043602287
 10
49.2311726247
 20
-100.7633865145
 10
49.2385094253
 20
-100.7238954378
 10
49.2479223969
 20
-100.6859994425
 10
49.2593277498
 20
-100.6500358607
 10
49.2727432718
 20
-100.6160219449
 10
49.2881511751
 20
-100.5839404425
 10
49.3054143059
 20
-100.5540769278
 10
49.3245492275
 20
-100.5264512029
 10
49.3455393767
 20
-100.5010434656
 10
49.368197909
 20
-100.4780798833
 10
49.3925397199
 20
-100.4575822777
 10
49.418549914
 20
-100.4395288271
 10
49.4287892926
 20
-100.4333623301
  0
LWPOLYLINE
  5
37A
100
AcDbEntity
  8
0
100
AcDbPolyline
 62
7
  6
CONTINUOUS
 90
4
 70
0
 10
-15.5074888502
 20
-78.5752124684
 10
-15.5719877652
 20
-78.6322914697
 10
-15.5960048816
 20
-78.6499934831
 10
-15.6149396232
 20
-78.6617953574
  0
LWPOLYLINE
  5
37B
100
AcDbEntity
  8
0
100
AcDbPolyline
 62
7
  6
CONTINUOUS
 90
3
 70
0
 10
-15.4179555869
 20
-78.5132669351
 10
-15.4634438032
 20
-78.542049916
 10
-15.5074888502
 20
-78.5752124684
  0
LINE
  5
37C
100
AcDbEntity
  8
0
100
AcDbLine
 62
253
  6
CONTINUOUS
 10
-20.0747615179
 20
-73.8763482228
 11
-21.4889750803
 21
-74.6928974095
  0
LINE
  5
37D
100
AcDbEntity
  8
0
100
AcDbLine
 62
253
  6
CONTINUOUS
 10
-19.3676547367
 20
-75.101093093
 11
-20.7818682991
 21
-75.9176422796
  0
LWPOLYLINE
  5
37E
100
AcDbEntity
  8
0
100
AcDbPolyline
 62
7
  6
CONTINUOUS
 90
25
 70
0
 10
-36.2308058084
 20
104.391394503
 10
-36.119183656
 20
104.289310923
 10
-36.0828428552
 20
104.2533911169
 10
-36.0473676247
 20
104.2157563266
 10
-36.0126575419
 20
104.1762843431
 10
-35.9788130295
 20
104.1350973754
 10
-35.9461353549
 20
104.09256205
 10
-35.9146349359
 20
104.0486663289
 10
-35.8843013548
 20
104.0034222501
 10
-35.8554046266
 20
103.9572325549
 10
-35.8279575796
 20
103.9100888007
 10
-35.8019473855
 20
103.8619994299
 10
-35.7776055746
 20
103.8133925112
 10
-35.7549470423
 20
103.7642634238
 10
-35.7339568931
 20
103.7146167884
 10
-35.7148219715
 20
103.6648945355
 10
-35.6975588407
 20
103.6150959901
 10
-35.6821509374
 20
103.5652218273
 10
-35.6687354154
 20
103.5157160029
 10
-35.6573300625
 20
103.4665818055
 10
-35.6479170909
 20
103.4178159465
 10
-35.6405802903
 20
103.3698525163
 10
-35.6353475905
 20
103.3228362116
 10
-35.6321910618
 20
103.2766223356
 10
-35.631110704
 20
103.2312108884
  0
LWPOLYLINE
  5
37F
100
AcDbEntity
  8
ASSI
100
AcDbPolyline
 62
7
  6
CONTINUOUS
 90
58
 70
0
 10
75.5614306376
 20
-138.8932881117
 10
75.5631612068
 20
-138.9885837202
 10
75.5682723093
 20
-139.0853380949
 10
75.5767639451
 20
-139.183551236
 10
75.5886628413
 20
-139.2834003533
 10
75.6039422707
 20
-139.384708237
 10
75.6225220521
 20
-139.4869432565
 10
75.6444195348
 20
-139.5901102857
 10
75.6696173694
 20
-139.6942044508
 10
75.6979833259
 20
-139.7986794999
 10
75.7295340588
 20
-139.9035374353
 10
75.7642529136
 20
-140.0087762547
 10
75.8019576972
 20
-140.1138436994
 10
75.8426641064
 20
-140.2187388686
 10
75.8863564443
 20
-140.3234626632
 10
75.9328054281
 20
-140.4274655273
 10
75.9820255491
 20
-140.5307436709
 10
76.0340023159
 20
-140.6333008839
 10
76.0884629716
 20
-140.73459898
 10
76.1454205737
 20
-140.83463134
 10
76.2048620648
 20
-140.9334045829
 10
76.2664755153
 20
-141.0304003794
 10
76.3302723432
 20
-141.1256093857
 10
76.3962411306
 20
-141.2190409456
 10
76.4640356951
 20
-141.3102047609
 10
76.5336656346
 20
-141.3990889106
 10
76.6051213512
 20
-141.4857053158
 10
76.6780278689
 20
-141.5695994422
 10
76.7523928143
 20
-141.6507569791
 10
76.8282085608
 20
-141.7291922372
 10
76.9050772522
 20
-141.8044936142
 10
76.9830044239
 20
-141.8766446355
 10
77.0619845407
 20
-141.9456617756
 10
77.1416031408
 20
-142.0111828554
 10
77.2218635807
 20
-142.0731894964
 10
77.3027625041
 20
-142.1317000771
 10
77.3838753799
 20
-142.1864075531
 10
77.465203333
 20
-142.2372919321
 10
77.5467452387
 20
-142.2843732064
 10
77.6280731918
 20
-142.3274043092
 10
77.7091860676
 20
-142.366363949
 10
77.790084991
 20
-142.4012734172
 10
77.8703454309
 20
-142.4319495204
 10
77.9499640311
 20
-142.4583700044
 10
78.0289441478
 20
-142.4805571233
 10
78.1068713195
 20
-142.4983944466
 10
78.183740011
 20
-142.5118591078
 10
78.2595557574
 20
-142.5209739733
 10
78.3339207028
 20
-142.5256912113
 10
78.4068272205
 20
-142.5259877041
 10
78.4782829371
 20
-142.5218865693
 10
78.5479128766
 20
-142.5134093284
 10
78.6157074411
 20
-142.5005329768
 10
78.6816762285
 20
-142.4832805191
 10
78.7454730564
 20
-142.4617424905
 10
78.807086507
 20
-142.4358963623
 10
78.866527998
 20
-142.4057646632
 10
78.881036217
 20
-142.3975669319
  0
LINE
  5
380
100
AcDbEntity
  8
ASSI
100
AcDbLine
 62
7
  6
CONTINUOUS
 10
59.4747513656
 20
-127.7678251709
 11
59.4747513656
 21
-125.726649479
  0
LINE
  5
381
100
AcDbEntity
  8
ASSI
100
AcDbLine
 62
7
  6
CONTINUOUS
 10
61.2425183186
 20
-128.3804343356
 11
61.2425183186
 21
-130.4216100276
  0
LWPOLYLINE
  5
382
100
AcDbEntity
  8
ASSI
100
AcDbPolyline
 62
7
  6
CONTINUOUS
 90
4
 70
0
 10
59.4839554817
 20
-125.5386554903
 10
59.4808266389
 20
-125.5698452674
 10
59.4762895914
 20
-125.6471537003
 10
59.4747513656
 20
-125.726649479
  0
LWPOLYLINE
  5
383
100
AcDbEntity
  8
0
100
AcDbPolyline
 62
7
  6
CONTINUOUS
 90
13
 70
0
 10
-13.5547114848
 20
-95.3755139662
 10
-13.5723635621
 20
-95.3873931838
 10
-13.639306906
 20
-95.4551311636
 10
-13.6848442853
 20
-95.543259616
 10
-13.7062502498
 20
-95.6543746969
 10
-13.7062502498
 20
-95.7858802503
 10
-13.6848442853
 20
-95.9217144024
 10
-13.639306906
 20
-96.0624282791
 10
-13.5723635621
 20
-96.2074707544
 10
-13.4921906047
 20
-96.3391265769
 10
-13.4015134838
 20
-96.4514906628
 10
-13.2976067494
 20
-96.5504680959
 10
-13.1804704013
 20
-96.6360588762
  0
LWPOLYLINE
  5
384
100
AcDbEntity
  8
0
100
AcDbPolyline
 62
7
  6
CONTINUOUS
 90
13
 70
0
 10
-12.8062293178
 20
-96.6718983709
 10
-12.7885772405
 20
-96.6600191534
 10
-12.7216338967
 20
-96.5922811735
 10
-12.6760965173
 20
-96.5041527211
 10
-12.6546905528
 20
-96.3930376402
 10
-12.6546905528
 20
-96.2615320868
 10
-12.6760965173
 20
-96.1256979347
 10
-12.7216338967
 20
-95.984984058
 10
-12.7885772405
 20
-95.8399415827
 10
-12.868750198
 20
-95.7082857602
 10
-12.9594273188
 20
-95.5959216743
 10
-13.0633340532
 20
-95.4969442412
 10
-13.1804704013
 20
-95.411353461
  0
LWPOLYLINE
  5
385
100
AcDbEntity
  8
ASSI
100
AcDbPolyline
 62
7
  6
CONTINUOUS
 90
19
 70
0
 10
-12.1842044181
 20
-84.6858313953
 10
-12.2321149441
 20
-84.7159726442
 10
-12.2779410458
 20
-84.7498497607
 10
-12.3213674931
 20
-84.787238512
 10
-12.3623805996
 20
-84.8281589263
 10
-12.4009940516
 20
-84.8725909753
 10
-12.4369880381
 20
-84.920281725
 10
-12.4703476191
 20
-84.9712497611
 10
-12.5010877346
 20
-85.0254764979
 10
-12.5290333932
 20
-85.082653244
 10
-12.5541686571
 20
-85.1427968247
 10
-12.5765094641
 20
-85.2058904147
 10
-12.595928637
 20
-85.2715748474
 10
-12.6124095124
 20
-85.3398648993
 10
-12.6259687536
 20
-85.4107457938
 10
-12.6365291732
 20
-85.4838140341
 10
-12.6440650422
 20
-85.5589351212
 10
-12.6486020896
 20
-85.6362435542
 10
-12.6501403154
 20
-85.7157393328
  0
LWPOLYLINE
  5
386
100
AcDbEntity
  8
ASSI
100
AcDbPolyline
 62
7
  6
CONTINUOUS
 90
19
 70
0
 10
-9.9340956975
 20
-90.6240586324
 10
-9.8861851714
 20
-90.5939173835
 10
-9.8403590697
 20
-90.5600402669
 10
-9.7969326225
 20
-90.5226515157
 10
-9.755919516
 20
-90.4817311014
 10
-9.7173060639
 20
-90.4372990524
 10
-9.6813120774
 20
-90.3896083027
 10
-9.6479524964
 20
-90.3386402666
 10
-9.6172123809
 20
-90.2844135298
 10
-9.5892667223
 20
-90.2272367836
 10
-9.5641314584
 20
-90.167093203
 10
-9.5417906514
 20
-90.1039996129
 10
-9.5223714785
 20
-90.0383151803
 10
-9.5058906031
 20
-89.9700251283
 10
-9.4923313619
 20
-89.8991442338
 10
-9.4817709423
 20
-89.8260759935
 10
-9.4742350733
 20
-89.7509549064
 10
-9.4696980259
 20
-89.6736464735
 10
-9.4681598001
 20
-89.5941506948
  0
LWPOLYLINE
  5
387
100
AcDbEntity
  8
ASSI
100
AcDbPolyline
 62
7
  6
CONTINUOUS
 90
11
 70
0
 10
-13.325168485
 20
-94.5483924637
 10
-13.3499073473
 20
-94.5637533978
 10
-13.381369684
 20
-94.5867662238
 10
-13.411095172
 20
-94.6126426939
 10
-13.4388630197
 20
-94.6411906061
 10
-13.4646586504
 20
-94.6724298522
 10
-13.4884966409
 20
-94.7063405403
 10
-13.5101999302
 20
-94.7426707927
 10
-13.5297526231
 20
-94.7814386257
 10
-13.5471706148
 20
-94.8226260231
 10
-13.5590762955
 20
-94.8566455015
  0
LINE
  5
388
100
AcDbEntity
  8
0
100
AcDbLine
 62
253
  6
CONTINUOUS
 10
-16.1149635432
 20
-78.6122545956
 11
-14.7007499809
 21
-77.7957054089
  0
LINE
  5
389
100
AcDbEntity
  8
ASSI
100
AcDbLine
 62
7
  6
CONTINUOUS
 10
-14.0037420263
 20
-77.6967177454
 11
-15.4179555887
 21
-78.5132669321
  0
LINE
  5
38A
100
AcDbEntity
  8
0
100
AcDbLine
 62
253
  6
CONTINUOUS
 10
-13.2865364185
 20
-79.9187648582
 11
-11.8723228561
 21
-79.1022156715
  0
LINE
  5
38B
100
AcDbEntity
  8
0
100
AcDbLine
 62
253
  6
CONTINUOUS
 10
-12.7208509935
 20
-80.5719726436
 11
-11.3066374312
 21
-79.7554234569
  0
LINE
  5
38C
100
AcDbEntity
  8
ASSI
100
AcDbLine
 62
253
  6
CONTINUOUS
 10
-11.2359267531
 20
-84.8991901462
 11
-12.6501403154
 21
-85.7157393328
  0
LINE
  5
38D
100
AcDbEntity
  8
ASSI
100
AcDbLine
 62
253
  6
CONTINUOUS
 10
-11.2359267531
 20
-86.9403658382
 11
-12.6501403154
 21
-87.7569150248
  0
LWPOLYLINE
  5
38E
100
AcDbEntity
  8
0
100
AcDbPolyline
 62
7
  6
CONTINUOUS
 90
17
 70
0
 10
-15.6149396232
 20
-78.6617953574
 10
-15.6213294673
 20
-78.6653921999
 10
-15.6480355249
 20
-78.6785162046
 10
-15.6760490519
 20
-78.6893369127
 10
-15.7051480413
 20
-78.6977685701
 10
-15.7353411183
 20
-78.7037921934
 10
-15.7666196576
 20
-78.7074267659
 10
-15.7987357772
 20
-78.7086434838
 10
-15.8316961324
 20
-78.7074231348
 10
-15.8654940679
 20
-78.7037849311
 10
-15.8998617351
 20
-78.6977577055
 10
-15.9348036613
 20
-78.6893224748
 10
-15.9703153192
 20
-78.6784982221
 10
-16.0061152794
 20
-78.6653707297
 10
-16.0421097318
 20
-78.6499685915
 10
-16.0783924864
 20
-78.6322632134
 10
-16.1149635432
 20
-78.6122545956
  0
LWPOLYLINE
  5
38F
100
AcDbEntity
  8
0
100
AcDbPolyline
 62
7
  6
CONTINUOUS
 90
13
 70
0
 10
49.7469823616
 20
54.7239851497
 10
49.8213981428
 20
54.705930429
 10
49.8945285359
 20
54.6922150352
 10
49.9663735406
 20
54.6828389685
 10
50.0370651679
 20
54.6778009936
 10
50.1064714069
 20
54.6771023457
 10
50.1741962252
 20
54.6807467303
 10
50.2402299993
 20
54.6887589694
 10
50.3045823527
 20
54.701114241
 10
50.3668861232
 20
54.7177417843
 10
50.4271295919
 20
54.7386660141
 10
50.4853244777
 20
54.7638625156
 10
50.5424741091
 20
54.7939566619
  0
LWPOLYLINE
  5
390
100
AcDbEntity
  8
0
100
AcDbPolyline
 62
7
  6
CONTINUOUS
 90
15
 70
0
 10
-96.7604919376
 20
153.7392150753
 10
-96.9145445399
 20
153.8466559491
 10
-97.0559658961
 20
153.972065378
 10
-97.1847560063
 20
154.115443362
 10
-97.3039971083
 20
154.2821284939
 10
-97.4106069643
 20
154.4667821809
 10
-97.4953388604
 20
154.6533886448
 10
-97.5562387359
 20
154.8421223005
 10
-97.5952606515
 20
155.0328087331
 10
-97.609020075
 20
155.2089089194
 10
-97.5952606515
 20
155.3691200683
 10
-97.5562387359
 20
155.514744971
 10
-97.4953388604
 20
155.6331529769
 10
-97.4106069643
 20
155.7219131711
 10
-97.3594878089
 20
155.7564038391
  0
LWPOLYLINE
  5
391
100
AcDbEntity
  8
0
100
AcDbPolyline
 62
7
  6
CONTINUOUS
 90
15
 70
0
 10
-96.7604919376
 20
155.6987437396
 10
-96.6064393353
 20
155.5913028657
 10
-96.465017979
 20
155.4658934368
 10
-96.3362278689
 20
155.3225154528
 10
-96.2169867668
 20
155.1558303209
 10
-96.1103769108
 20
154.9711766339
 10
-96.0256450147
 20
154.78457017
 10
-95.9647451392
 20
154.5958365143
 10
-95.9257232236
 20
154.4051500817
 10
-95.9119638001
 20
154.2290498954
 10
-95.9257232236
 20
154.0688387465
 10
-95.9647451392
 20
153.9232138439
 10
-96.0256450147
 20
153.8048058379
 10
-96.1103769108
 20
153.7160456437
 10
-96.1614960662
 20
153.6815549757
  0
LWPOLYLINE
  5
392
100
AcDbEntity
  8
0
100
AcDbPolyline
 62
7
  6
CONTINUOUS
 90
25
 70
0
 10
-20.8892799758
 20
99.4286415172
 10
-21.0009021282
 20
99.5307250972
 10
-21.0372429291
 20
99.5666449033
 10
-21.0727181596
 20
99.6042796936
 10
-21.1074282423
 20
99.6437516771
 10
-21.1412727548
 20
99.6849386448
 10
-21.1739504293
 20
99.7274739702
 10
-21.2054508483
 20
99.7713696913
 10
-21.2357844295
 20
99.81661377
 10
-21.2646811577
 20
99.8628034653
 10
-21.2921282047
 20
99.9099472195
 10
-21.3181383988
 20
99.9580365903
 10
-21.3424802097
 20
100.006643509
 10
-21.365138742
 20
100.0557725964
 10
-21.3861288911
 20
100.1054192318
 10
-21.4052638128
 20
100.1551414847
 10
-21.4225269435
 20
100.2049400301
 10
-21.4379348468
 20
100.2548141929
 10
-21.4513503689
 20
100.3043200173
 10
-21.4627557217
 20
100.3534542147
 10
-21.4721686933
 20
100.4022200737
 10
-21.479505494
 20
100.4501835039
 10
-21.4847381937
 20
100.4971998086
 10
-21.4878947225
 20
100.5434136846
 10
-21.4889750803
 20
100.5888251318
  0
LWPOLYLINE
  5
393
100
AcDbEntity
  8
0
100
AcDbPolyline
 62
7
  6
CONTINUOUS
 90
25
 70
0
 10
34.4798723102
 20
63.5639351703
 10
34.5914944626
 20
63.4618515903
 10
34.6278352635
 20
63.4259317842
 10
34.663310494
 20
63.3882969938
 10
34.6980205767
 20
63.3488250103
 10
34.7318650892
 20
63.3076380426
 10
34.7645427637
 20
63.2651027172
 10
34.7960431828
 20
63.2212069961
 10
34.8263767639
 20
63.1759629174
 10
34.8552734921
 20
63.1297732221
 10
34.8827205391
 20
63.0826294679
 10
34.9087307332
 20
63.0345400971
 10
34.9330725441
 20
62.9859331784
 10
34.9557310764
 20
62.936804091
 10
34.9767212255
 20
62.8871574556
 10
34.9958561472
 20
62.8374352028
 10
35.0131192779
 20
62.7876366574
 10
35.0285271812
 20
62.7377624945
 10
35.0419427033
 20
62.6882566701
 10
35.0533480561
 20
62.6391224727
 10
35.0627610277
 20
62.5903566138
 10
35.0700978284
 20
62.5423931835
 10
35.0753305281
 20
62.4953768788
 10
35.0784870569
 20
62.4491630029
 10
35.0795674147
 20
62.4037515556
  0
LWPOLYLINE
  5
394
100
AcDbEntity
  8
ASSI
100
AcDbPolyline
 62
7
  6
CONTINUOUS
 90
49
 70
0
 10
78.4605684405
 20
-148.3236815738
 10
78.4593573071
 20
-148.2678146712
 10
78.4558032978
 20
-148.2110027696
 10
78.4499064125
 20
-148.1532458691
 10
78.4416403846
 20
-148.0943959236
 10
78.4310314808
 20
-148.0346009793
 10
78.4181585006
 20
-147.9743051736
 10
78.4030045853
 20
-147.9135047773
 10
78.3855865935
 20
-147.8522035197
 10
78.3660339006
 20
-147.790856727
 10
78.3443306113
 20
-147.7294640601
 10
78.3204926208
 20
-147.6680258581
 10
78.2946969901
 20
-147.6069984642
 10
78.2669291424
 20
-147.5463849375
 10
78.2372036545
 20
-147.486182219
 10
78.2057413177
 20
-147.4268374752
 10
78.1725291994
 20
-147.3683570947
 10
78.1375802323
 20
-147.3107346889
 10
78.1011540062
 20
-147.2543982587
 10
78.0632395211
 20
-147.1993573795
 10
78.023847777
 20
-147.1456024758
 10
77.9832713632
 20
-147.0935328218
 10
77.9415014583
 20
-147.0431609662
 10
77.8985468837
 20
-146.9944743602
 10
77.8547266922
 20
-146.9478346326
 10
77.8100344382
 20
-146.9032570245
 10
77.7644765673
 20
-146.8607262947
 10
77.7183914687
 20
-146.8205583479
 10
77.6717752167
 20
-146.7827707775
 10
77.624631737
 20
-146.74734599
 10
77.5773111964
 20
-146.7145471095
 10
77.5298122763
 20
-146.6843936887
 10
77.4821362954
 20
-146.6568661748
 10
77.4346373753
 20
-146.6321690334
 10
77.3873168347
 20
-146.6103233397
 10
77.340173355
 20
-146.5913080185
 10
77.293557103
 20
-146.5752643096
 10
77.2474720045
 20
-146.5622143398
 10
77.2019141335
 20
-146.5521359822
 10
77.1572218796
 20
-146.5451040956
 10
77.113401688
 20
-146.5411413644
 10
77.0704471134
 20
-146.5402251043
 10
77.0286772086
 20
-146.5423621208
 10
76.9881007947
 20
-146.5475751491
 10
76.9487090506
 20
-146.5558414541
 10
76.9107945655
 20
-146.5670996364
 10
76.8743683394
 20
-146.5813719737
 10
76.8394193723
 20
-146.5986361883
 10
76.8309461163
 20
-146.603403113
  0
LWPOLYLINE
  5
395
100
AcDbEntity
  8
ASSI
100
AcDbPolyline
 62
7
  6
CONTINUOUS
 90
45
 70
0
 10
76.9756442
 20
-138.076738925
 10
76.9773747692
 20
-138.1720345335
 10
76.9824858717
 20
-138.2687889083
 10
76.9909775074
 20
-138.3670020493
 10
77.0028764036
 20
-138.4668511667
 10
77.0181558331
 20
-138.5681590503
 10
77.0367356144
 20
-138.6703940698
 10
77.0586330972
 20
-138.7735610991
 10
77.0838309318
 20
-138.8776552642
 10
77.1121968883
 20
-138.9821303133
 10
77.1437476212
 20
-139.0869882486
 10
77.178466476
 20
-139.192227068
 10
77.2161712596
 20
-139.2972945127
 10
77.2568776687
 20
-139.402189682
 10
77.3005700067
 20
-139.5069134766
 10
77.3470189905
 20
-139.6109163406
 10
77.3962391114
 20
-139.7141944842
 10
77.4482158783
 20
-139.8167516973
 10
77.502676534
 20
-139.9180497933
 10
77.5596341361
 20
-140.0180821533
 10
77.6190756271
 20
-140.1168553963
 10
77.6806890777
 20
-140.2138511928
 10
77.7444859056
 20
-140.3090601991
 10
77.810454693
 20
-140.4024917589
 10
77.8782492575
 20
-140.4936555743
 10
77.947879197
 20
-140.5825397239
 10
78.0193349136
 20
-140.6691561291
 10
78.0922414313
 20
-140.7530502555
 10
78.1666063767
 20
-140.8342077925
 10
78.2424221231
 20
-140.9126430506
 10
78.3192908146
 20
-140.9879444275
 10
78.3972179863
 20
-141.0600954488
 10
78.476198103
 20
-141.129112589
 10
78.5558167031
 20
-141.1946336687
 10
78.6360771431
 20
-141.2566403098
 10
78.7169760664
 20
-141.3151508904
 10
78.7980889423
 20
-141.3698583665
 10
78.8794168954
 20
-141.4207427454
 10
78.960958801
 20
-141.4678240198
 10
79.0422867542
 20
-141.5108551225
 10
79.12339963
 20
-141.5498147624
 10
79.2042985534
 20
-141.5847242306
 10
79.2845589933
 20
-141.6154003338
 10
79.3641775934
 20
-141.6418208177
 10
79.3922335971
 20
-141.649702319
  0
LWPOLYLINE
  5
396
100
AcDbEntity
  8
ASSI
100
AcDbPolyline
 62
7
  6
CONTINUOUS
 90
58
 70
0
 10
79.4505179341
 20
-139.097622683
 10
79.4487873649
 20
-139.0023270745
 10
79.4436762624
 20
-138.9055726997
 10
79.4351846266
 20
-138.8073595587
 10
79.4232857305
 20
-138.7075104413
 10
79.408006301
 20
-138.6062025577
 10
79.3894265196
 20
-138.5039675381
 10
79.3675290369
 20
-138.4008005089
 10
79.3423312023
 20
-138.2967063438
 10
79.3139652458
 20
-138.1922312947
 10
79.2824145129
 20
-138.0873733594
 10
79.2476956581
 20
-137.98213454
 10
79.2099908745
 20
-137.8770670952
 10
79.1692844654
 20
-137.772171926
 10
79.1255921274
 20
-137.6674481314
 10
79.0791431436
 20
-137.5634452674
 10
79.0299230226
 20
-137.4601671237
 10
78.9779462558
 20
-137.3576099107
 10
78.9234856001
 20
-137.2563118147
 10
78.866527998
 20
-137.1562794547
 10
78.807086507
 20
-137.0575062117
 10
78.7454730564
 20
-136.9605104152
 10
78.6816762285
 20
-136.8653014089
 10
78.6157074411
 20
-136.7718698491
 10
78.5479128766
 20
-136.6807060337
 10
78.4782829371
 20
-136.591821884
 10
78.4068272205
 20
-136.5052054788
 10
78.3339207028
 20
-136.4213113525
 10
78.2595557574
 20
-136.3401538155
 10
78.183740011
 20
-136.2617185574
 10
78.1068713195
 20
-136.1864171805
 10
78.0289441478
 20
-136.1142661592
 10
77.9499640311
 20
-136.045249019
 10
77.8703454309
 20
-135.9797279393
 10
77.790084991
 20
-135.9177212982
 10
77.7091860676
 20
-135.8592107176
 10
77.6280731918
 20
-135.8045032415
 10
77.5467452387
 20
-135.7536188626
 10
77.465203333
 20
-135.7065375882
 10
77.3838753799
 20
-135.6635064855
 10
77.3027625041
 20
-135.6245468456
 10
77.2218635807
 20
-135.5896373774
 10
77.1416031408
 20
-135.5589612742
 10
77.0619845407
 20
-135.5325407902
 10
76.9830044239
 20
-135.5103536713
 10
76.9050772522
 20
-135.4925163481
 10
76.8282085608
 20
-135.4790516869
 10
76.7523928143
 20
-135.4699368213
 10
76.6780278689
 20
-135.4652195833
 10
76.6051213512
 20
-135.4649230906
 10
76.5336656346
 20
-135.4690242254
 10
76.4640356951
 20
-135.4775014662
 10
76.3962411306
 20
-135.4903778178
 10
76.3302723432
 20
-135.5076302755
 10
76.2664755153
 20
-135.5291683041
 10
76.2048620648
 20
-135.5550144323
 10
76.1454205737
 20
-135.5851461314
 10
76.1309123547
 20
-135.5933438627
  0
LINE
  5
397
100
AcDbEntity
  8
ASSI
100
AcDbLine
 62
7
  6
CONTINUOUS
 10
75.5614306376
 20
-138.8932881117
 11
75.5614306376
 21
-136.8521124197
  0
LINE
  5
398
100
AcDbEntity
  8
ASSI
100
AcDbLine
 62
7
  6
CONTINUOUS
 10
76.9756442
 20
-138.076738925
 11
76.9756442
 21
-136.035563233
  0
LINE
  5
399
100
AcDbEntity
  8
ASSI
100
AcDbLine
 62
7
  6
CONTINUOUS
 10
79.4505179341
 20
-139.097622683
 11
79.4505179341
 21
-141.138798375
  0
LWPOLYLINE
  5
39A
100
AcDbEntity
  8
ASSI
100
AcDbPolyline
 62
7
  6
CONTINUOUS
 90
17
 70
0
 10
-11.9751121458
 20
-96.8866079834
 10
-11.9503732836
 20
-96.8712470493
 10
-11.9189109468
 20
-96.8482342233
 10
-11.8891854589
 20
-96.8223577532
 10
-11.8614176112
 20
-96.793809841
 10
-11.8356219805
 20
-96.7625705949
 10
-11.81178399
 20
-96.7286599068
 10
-11.7900807006
 20
-96.6923296544
 10
-11.7705280077
 20
-96.6535618214
 10
-11.753110016
 20
-96.612374424
 10
-11.7379561007
 20
-96.5690733892
 10
-11.7250831205
 20
-96.5236429785
 10
-11.7144742166
 20
-96.4760989303
 10
-11.7062081888
 20
-96.4267943866
 10
-11.7003113035
 20
-96.3758470615
 10
-11.6967572942
 20
-96.3231392408
 10
-11.6955461608
 20
-96.2686709246
  0
LWPOLYLINE
  5
39B
100
AcDbEntity
  8
ASSI
100
AcDbPolyline
 62
7
  6
CONTINUOUS
 90
20
 70
0
 10
5.4202342361
 20
-94.7658845299
 10
5.377784853
 20
-94.7919459474
 10
5.3233241972
 20
-94.8303542433
 10
5.2713474304
 20
-94.8728899889
 10
5.2221273095
 20
-94.9193299705
 10
5.1756783257
 20
-94.9696947124
 10
5.1319859877
 20
-95.0239636903
 10
5.0912795786
 20
-95.0818521186
 10
5.0535747949
 20
-95.1433790243
 10
5.0188559401
 20
-95.2085253804
 10
4.9873052073
 20
-95.2769493203
 10
4.9589392507
 20
-95.3486680738
 10
4.9337414161
 20
-95.4236644111
 10
4.9118439334
 20
-95.5015447762
 10
4.8932641521
 20
-95.5823243299
 10
4.8779847226
 20
-95.6659879114
 10
4.8660858264
 20
-95.7520964817
 10
4.8575941906
 20
-95.8405036946
 10
4.8524830881
 20
-95.9313558963
 10
4.8507525189
 20
-96.0246530869
  0
LINE
  5
39C
100
AcDbEntity
  8
0
100
AcDbLine
 62
7
  6
CONTINUOUS
 10
-13.7804993935
 20
-94.9844924232
 11
-12.9413375355
 21
-94.4999708836
  0
LINE
  5
39D
100
AcDbEntity
  8
0
100
AcDbLine
 62
7
  6
CONTINUOUS
 10
-12.5804414091
 20
-97.0629199139
 11
-11.7412043353
 21
-96.5783549456
  0
LINE
  5
39E
100
AcDbEntity
  8
ASSI
100
AcDbLine
 62
253
  6
CONTINUOUS
 10
6.2649660813
 20
-95.2081039003
 11
4.8507525189
 21
-96.0246530869
  0
LINE
  5
39F
100
AcDbEntity
  8
ASSI
100
AcDbLine
 62
253
  6
CONTINUOUS
 10
6.2649660813
 20
-97.2492795922
 11
4.8507525189
 21
-98.0658287789
  0
LWPOLYLINE
  5
3A0
100
AcDbEntity
  8
0
100
AcDbPolyline
 62
7
  6
CONTINUOUS
 90
6
 70
0
 10
-13.7794662726
 20
-94.9862817369
 10
-13.7239755721
 20
-94.9592291073
 10
-13.60473447
 20
-94.9302406112
 10
-13.4759443599
 20
-94.9355862181
 10
-13.3345230036
 20
-94.9734866266
 10
-13.1804704013
 20
-95.0439418364
  0
LWPOLYLINE
  5
3A1
100
AcDbEntity
  8
0
100
AcDbPolyline
 62
7
  6
CONTINUOUS
 90
6
 70
0
 10
-12.58147453
 20
-97.0611306002
 10
-12.6369652305
 20
-97.0881832298
 10
-12.7562063326
 20
-97.1171717259
 10
-12.8849964428
 20
-97.111826119
 10
-13.026417799
 20
-97.0739257106
 10
-13.1804704013
 20
-97.0034705007
  0
LWPOLYLINE
  5
3A2
100
AcDbEntity
  8
0
100
AcDbPolyline
 62
7
  6
CONTINUOUS
 90
13
 70
0
 10
34.5542880915
 20
67.4411322049
 10
34.4798723102
 20
67.4591869257
 10
34.4067419172
 20
67.4729023194
 10
34.3348969125
 20
67.4822783862
 10
34.2642052852
 20
67.4873163611
 10
34.1947990462
 20
67.4880150089
 10
34.1270742279
 20
67.4843706243
 10
34.0610404537
 20
67.4763583852
 10
33.9966881003
 20
67.4640031137
 10
33.9343843298
 20
67.4473755703
 10
33.8741408612
 20
67.4264513406
 10
33.8159459754
 20
67.401254839
 10
33.7587963439
 20
67.3711606927
  0
LWPOLYLINE
  5
3A3
100
AcDbEntity
  8
ASSI
100
AcDbPolyline
 62
7
  6
CONTINUOUS
 90
28
 70
0
 10
89.8561158723
 20
48.9398194923
 10
81.8228949316
 20
53.1280375317
 10
74.0408201757
 20
57.218132482
 10
66.2866313157
 20
61.3257083939
 10
58.5602105711
 20
65.4508286451
 10
50.8616757223
 20
69.5934298578
 10
43.1913801104
 20
73.7533218983
 10
35.5493250316
 20
77.9305055601
 10
27.9355091896
 20
82.1249800497
 10
20.3502820373
 20
86.3365528524
 10
12.7936448868
 20
90.565224753
 10
5.2655964259
 20
94.8109949668
 10
-2.2335178291
 20
99.0736686249
 10
-9.7036965502
 20
103.353246503
 10
-17.1449410655
 20
107.6497278254
 10
-24.5569098426
 20
111.9629153957
 10
-31.939601538
 20
116.2928099806
 10
-39.2930174954
 20
120.6394108133
 10
-46.6168202135
 20
125.0025183971
 10
-53.9110083333
 20
129.3821334896
 10
-61.1755832139
 20
133.7782553332
 10
-68.4102114318
 20
138.1906821583
 10
-75.6148916124
 20
142.6194147132
 10
-82.7896251304
 20
147.0644522496
 10
-89.9340826855
 20
151.5255907527
 10
-97.048154511
 20
156.0027622177
 10
-104.1319503738
 20
160.4960346494
 10
-111.1854702738
 20
165.0054080479
  0
LWPOLYLINE
  5
3A4
100
AcDbEntity
  8
ASSI
100
AcDbPolyline
 62
7
  6
CONTINUOUS
 90
5
 70
0
 10
89.6328555832
 20
50.6883640964
 10
81.8228949316
 20
54.7609780853
 10
74.0408201757
 20
58.8510730356
 10
66.2866313157
 20
62.9586489475
 10
58.5602105711
 20
67.0837691987
  0
LWPOLYLINE
  5
3A5
100
AcDbEntity
  8
ASSI
100
AcDbPolyline
 62
7
  6
CONTINUOUS
 90
58
 70
0
 10
89.6328555832
 20
50.6883640964
 10
89.8941037583
 20
50.5502370945
 10
90.1585408838
 20
50.4055755904
 10
90.4259847602
 20
50.254422225
 10
90.6963645287
 20
50.0967799537
 10
90.9693769799
 20
49.9327481426
 10
91.2444896086
 20
49.7625486818
 10
91.5215352876
 20
49.5863014623
 10
91.800299652
 20
49.4040849965
 10
92.0801839488
 20
49.216113031
 10
92.3607774387
 20
49.0227033381
 10
92.6421170605
 20
48.823826618
 10
92.924270248
 20
48.619173075
 10
93.2071386439
 20
48.4088067155
 10
93.490420479
 20
48.1929121159
 10
93.7738613925
 20
47.9713266186
 10
94.0573930379
 20
47.7441016691
 10
94.3406635654
 20
47.5114551733
 10
94.6229909426
 20
47.2734828856
 10
94.9041659557
 20
47.03039164
 10
95.1839853236
 20
46.7823160599
 10
95.4617831317
 20
46.5292676887
 10
95.7374265856
 20
46.2714063909
 10
96.0106397045
 20
46.0089624328
 10
96.2805549238
 20
45.7420773188
 10
96.5470982663
 20
45.4708826895
 10
96.8099596645
 20
45.1956953458
 10
97.0679572639
 20
44.9169744855
 10
97.3209749626
 20
44.634945766
 10
97.5688199366
 20
44.3499019425
 10
97.8102648672
 20
44.0624480051
 10
98.0450989099
 20
43.7729857994
 10
98.2733344928
 20
43.4816775166
 10
98.4941416559
 20
43.1887927407
 10
98.7072565349
 20
42.8948661298
 10
98.9128244579
 20
42.5999222751
 10
99.1106272347
 20
42.3034593415
 10
99.3007383596
 20
42.0054699846
 10
99.4829245897
 20
41.706484215
 10
99.6565052312
 20
41.406798106
 10
99.8214190388
 20
41.1066341685
 10
99.9776497148
 20
40.8062796209
 10
100.1246336083
 20
40.5061224087
 10
100.2622514139
 20
40.2065900543
 10
100.3906362866
 20
39.9077308017
 10
100.5096184574
 20
39.6093559019
 10
100.6191744896
 20
39.31169987
 10
100.7193369699
 20
39.0149735553
 10
100.8099917847
 20
38.7189519852
 10
100.89117716
 20
38.4235595027
 10
100.9628425111
 20
38.1293023929
 10
101.0247614054
 20
37.836815557
 10
101.0769300644
 20
37.5462549792
 10
101.1194495238
 20
37.2578357384
 10
101.1523260263
 20
36.9722444562
 10
101.1756416405
 20
36.6898009584
 10
101.1895157898
 20
36.4104751957
 10
101.1940514556
 20
36.1344006725
  0
LWPOLYLINE
  5
3A6
100
AcDbEntity
  8
ASSI
100
AcDbPolyline
 62
7
  6
CONTINUOUS
 90
57
 70
0
 10
89.8561158723
 20
48.9398194923
 10
90.0824756597
 20
48.8189178698
 10
90.3117807767
 20
48.6927547562
 10
90.5439752694
 20
48.5613349637
 10
90.7787985723
 20
48.4247402599
 10
91.0157880936
 20
48.2831514632
 10
91.2548071948
 20
48.1366727777
 10
91.4956697137
 20
47.9853678791
 10
91.7378426718
 20
47.829402421
 10
91.9809766957
 20
47.6690442338
 10
92.2251048662
 20
47.5042695791
 10
92.4702633763
 20
47.3348042742
 10
92.7163731174
 20
47.1607048552
 10
92.9631746294
 20
46.9821251251
 10
93.2104194674
 20
46.7989082718
 10
93.4580565809
 20
46.6111017415
 10
93.7057814697
 20
46.4188860007
 10
93.9529634695
 20
46.2223111475
 10
94.1994286873
 20
46.0215540047
 10
94.4450019819
 20
45.8167266751
 10
94.6890569257
 20
45.607802573
 10
94.9314863159
 20
45.3949199485
 10
95.1720514685
 20
45.1782706622
 10
95.4099398442
 20
44.9579291545
 10
95.6450953109
 20
44.7340105459
 10
95.8772490398
 20
44.5067791666
 10
96.1053031621
 20
44.2765670781
 10
96.3291618242
 20
44.0435665991
 10
96.548659481
 20
43.8080240676
 10
96.7626526346
 20
43.5703907742
 10
96.9709576981
 20
43.3310037513
 10
97.1735903675
 20
43.0900032283
 10
97.3697589117
 20
42.8475656634
 10
97.5592303999
 20
42.6041378813
 10
97.7421374631
 20
42.3597462682
 10
97.9182350053
 20
42.1139312777
 10
98.0875905846
 20
41.8666897961
 10
98.2500014709
 20
41.6184671933
 10
98.4048151072
 20
41.3694697732
 10
98.5519756238
 20
41.1198834777
 10
98.6914732771
 20
40.8699536742
 10
98.8227666861
 20
40.6199714145
 10
98.9457461844
 20
40.3702934158
 10
99.0605331574
 20
40.1209655323
 10
99.1669456562
 20
39.8718059405
 10
99.2649607586
 20
39.6230112915
 10
99.3546091291
 20
39.3747617809
 10
99.4357651853
 20
39.1268502888
 10
99.5084601612
 20
38.8792121563
 10
99.5726523655
 20
38.6322764198
 10
99.6281245092
 20
38.3865654692
 10
99.6748656392
 20
38.1422068131
 10
99.712969003
 20
37.8993869193
 10
99.7424374583
 20
37.6586853752
 10
99.7633396394
 20
37.4203723361
 10
99.7757774049
 20
37.1844228424
 10
99.7798378932
 20
36.9509498591
  0
LINE
  5
3A7
100
AcDbEntity
  8
ASSI
100
AcDbLine
 62
7
  6
CONTINUOUS
 10
58.5602105711
 20
67.0837691987
 11
50.5929163828
 21
71.3721287881
  0
LWPOLYLINE
  5
3A8
100
AcDbEntity
  8
ASSI
100
AcDbPolyline
 62
7
  6
CONTINUOUS
 90
23
 70
0
 10
50.5929163828
 20
71.3721287881
 10
43.1913801104
 20
75.3862624519
 10
35.5493250316
 20
79.5634461137
 10
27.9355091896
 20
83.7579206032
 10
20.3502820373
 20
87.969493406
 10
12.7936448868
 20
92.1981653066
 10
5.2655964259
 20
96.4439355204
 10
-2.2335178291
 20
100.7066091785
 10
-9.7036965502
 20
104.9861870566
 10
-17.1449410655
 20
109.282668379
 10
-24.5569098426
 20
113.5958559493
 10
-31.939601538
 20
117.9257505341
 10
-39.2930174954
 20
122.2723513669
 10
-46.6168202135
 20
126.6354589507
 10
-53.9110083333
 20
131.0150740432
 10
-61.1755832139
 20
135.4111958868
 10
-68.4102114318
 20
139.8236227119
 10
-75.6148916124
 20
144.2523552668
 10
-82.7896251304
 20
148.6973928032
 10
-89.9340826855
 20
153.1585313063
 10
-97.048154511
 20
157.6357027713
 10
-104.1319503738
 20
162.128975203
 10
-111.1854702738
 20
166.6383486015
  0
LINE
  5
3A9
100
AcDbEntity
  8
ASSI
100
AcDbLine
 62
253
  6
CONTINUOUS
 10
-118.0090507122
 20
162.6995246041
 11
-116.5948371498
 21
161.8829754174
  0
LINE
  5
3AA
100
AcDbEntity
  8
ASSI
100
AcDbLine
 62
253
  6
CONTINUOUS
 10
101.1940514556
 20
36.1344006725
 11
99.7798378932
 21
36.9509498591
  0
LINE
  5
3AB
100
AcDbEntity
  8
0
100
AcDbLine
 62
7
  6
CONTINUOUS
 10
88.6429060895
 20
48.6900280653
 11
95.8617288643
 21
44.5219702682
  0
LWPOLYLINE
  5
3AC
100
AcDbEntity
  8
0
100
AcDbPolyline
 62
7
  6
CONTINUOUS
 90
25
 70
0
 10
49.8213981428
 20
58.6011821844
 10
49.7097759904
 20
58.7032657644
 10
49.6734351896
 20
58.7391855705
 10
49.6379599591
 20
58.7768203608
 10
49.6032498763
 20
58.8162923443
 10
49.5694053639
 20
58.8574793121
 10
49.5367276894
 20
58.9000146374
 10
49.5052272703
 20
58.9439103585
 10
49.4748936892
 20
58.9891544373
 10
49.445996961
 20
59.0353441325
 10
49.418549914
 20
59.0824878868
 10
49.3925397199
 20
59.1305772575
 10
49.368197909
 20
59.1791841763
 10
49.3455393767
 20
59.2283132637
 10
49.3245492275
 20
59.2779598991
 10
49.3054143059
 20
59.3276821519
 10
49.2881511751
 20
59.3774806973
 10
49.2727432718
 20
59.4273548601
 10
49.2593277498
 20
59.4768606845
 10
49.2479223969
 20
59.5259948819
 10
49.2385094253
 20
59.5747607409
 10
49.2311726247
 20
59.6227241711
 10
49.2259399249
 20
59.6697404758
 10
49.2227833962
 20
59.7159543518
 10
49.2217030384
 20
59.761365799
  0
LWPOLYLINE
  5
3AD
100
AcDbEntity
  8
0
100
AcDbPolyline
 62
7
  6
CONTINUOUS
 90
27
 70
0
 10
55.5380650201
 20
67.0770528645
 10
55.5574106105
 20
67.0515449698
 10
55.615614271
 20
66.9791705427
 10
55.6753569619
 20
66.9091657427
 10
55.7366283309
 20
66.8415146294
 10
55.7990143516
 20
66.776674333
 10
55.8625225725
 20
66.7146638894
 10
55.9271454452
 20
66.6554642627
 10
55.9924462978
 20
66.5994754749
 10
56.0584297217
 20
66.5467192709
 10
56.1250911256
 20
66.4971739057
 10
56.1919800636
 20
66.4511741666
 10
56.2590980766
 20
66.4087440657
 10
56.3264436239
 20
66.3698595907
 10
56.393561637
 20
66.3347834926
 10
56.460450575
 20
66.3035415627
 10
56.5271119788
 20
66.2761080096
 10
56.5930954027
 20
66.2526682097
 10
56.6583962553
 20
66.2332492097
 10
56.723019128
 20
66.2178239628
 10
56.7865273489
 20
66.2064967047
 10
56.8489133696
 20
66.1992951882
 10
56.9101847386
 20
66.1961916604
 10
56.9699274295
 20
66.1972070985
 10
57.02813109
 20
66.2023693974
 10
57.0848060725
 20
66.2116506621
 10
57.1271483764
 20
66.2219630626
  0
LINE
  5
3AE
100
AcDbEntity
  8
ASSI
100
AcDbLine
 62
7
  6
CONTINUOUS
 10
103.9347131414
 20
-24.2101174912
 11
101.5689232972
 21
-19.9752987552
  0
LINE
  5
3AF
100
AcDbEntity
  8
ASSI
100
AcDbLine
 62
7
  6
CONTINUOUS
 10
105.3489267038
 20
-25.0266666779
 11
102.9831368596
 21
-20.7918479419
  0
LWPOLYLINE
  5
3B0
100
AcDbEntity
  8
ASSI
100
AcDbPolyline
 62
7
  6
CONTINUOUS
 90
22
 70
0
 10
101.5689232972
 20
-19.9752987552
 10
101.4050749278
 20
-19.6710934796
 10
101.248861757
 20
-19.3588665641
 10
101.1002837847
 20
-19.0386180088
 10
100.9592787859
 20
-18.71019084
 10
100.8259089857
 20
-18.3737420313
 10
100.7003610592
 20
-18.029742504
 10
100.5826459599
 20
-17.6781816847
 10
100.4727527344
 20
-17.3190701468
 10
100.3708351982
 20
-16.9529105323
 10
100.2769045201
 20
-16.5796929715
 10
100.1909495314
 20
-16.199427334
 10
100.1130905417
 20
-15.8126458708
 10
100.0433388881
 20
-15.4193394575
 10
99.9816832336
 20
-15.0195172185
 10
99.9282098764
 20
-14.6137387777
 10
99.8829302744
 20
-14.2019957943
 10
99.8458329698
 20
-13.7842966092
 10
99.8169698869
 20
-13.3612258682
 10
99.796358334
 20
-12.9329784533
 10
99.7839810027
 20
-12.4993594826
 10
99.7798378932
 20
-12.060368956
  0
LWPOLYLINE
  5
3B1
100
AcDbEntity
  8
ASSI
100
AcDbPolyline
 62
7
  6
CONTINUOUS
 90
22
 70
0
 10
102.9831368596
 20
-20.7918479419
 10
102.8192884902
 20
-20.4876426662
 10
102.6630753194
 20
-20.1754157508
 10
102.5144973471
 20
-19.8551671955
 10
102.3734923483
 20
-19.5267400266
 10
102.240122548
 20
-19.1902912179
 10
102.1145746216
 20
-18.8462916907
 10
101.9968595222
 20
-18.4947308713
 10
101.8869662967
 20
-18.1356193335
 10
101.7850487606
 20
-17.769459719
 10
101.6911180825
 20
-17.3962421582
 10
101.6051630938
 20
-17.0159765207
 10
101.5273041041
 20
-16.6291950575
 10
101.4575524505
 20
-16.2358886442
 10
101.395896796
 20
-15.8360664052
 10
101.3424234387
 20
-15.4302879643
 10
101.2971438368
 20
-15.018544981
 10
101.2600465322
 20
-14.6008457959
 10
101.2311834493
 20
-14.1777750549
 10
101.2105718963
 20
-13.74952764
 10
101.1981945651
 20
-13.3159086693
 10
101.1940514556
 20
-12.8769181427
  0
LWPOLYLINE
  5
3B2
100
AcDbEntity
  8
ASSI
100
AcDbPolyline
 62
7
  6
CONTINUOUS
 90
19
 70
0
 10
103.9347131414
 20
-24.2101174912
 10
104.087092773
 20
-24.4947799324
 10
104.2311232492
 20
-24.7880929824
 10
104.3668045701
 20
-25.0900566411
 10
104.4942123204
 20
-25.4008737237
 10
104.6132709155
 20
-25.7203414151
 10
104.7237536009
 20
-26.0478512696
 10
104.8256440329
 20
-26.3834186137
 10
104.9189585552
 20
-26.7270281209
 10
105.0035194448
 20
-27.078025366
 10
105.079310019
 20
-27.4364244283
 10
105.1463469605
 20
-27.8022112285
 10
105.2045025931
 20
-28.1746891034
 10
105.2537599913
 20
-28.5538708046
 10
105.2941360807
 20
-28.9397435804
 10
105.3255539626
 20
-29.3315725128
 10
105.3479880041
 20
-29.7291126289
 10
105.3614638381
 20
-30.1326089015
 10
105.3659814646
 20
-30.5420613306
  0
LWPOLYLINE
  5
3B3
100
AcDbEntity
  8
ASSI
100
AcDbPolyline
 62
7
  6
CONTINUOUS
 90
19
 70
0
 10
105.3489267038
 20
-25.0266666779
 10
105.5013063353
 20
-25.3113291191
 10
105.6453368115
 20
-25.604642169
 10
105.7810181324
 20
-25.9066058277
 10
105.9084258828
 20
-26.2174229104
 10
106.0274844778
 20
-26.5368906018
 10
106.1379671632
 20
-26.8644004563
 10
106.2398575953
 20
-27.1999678004
 10
106.3331721176
 20
-27.5435773076
 10
106.4177330071
 20
-27.8945745527
 10
106.4935235814
 20
-28.252973615
 10
106.5605605229
 20
-28.6187604152
 10
106.6187161555
 20
-28.99123829
 10
106.6679735537
 20
-29.3704199912
 10
106.7083496431
 20
-29.7562927671
 10
106.739767525
 20
-30.1481216994
 10
106.7622015665
 20
-30.5456618155
 10
106.7756774005
 20
-30.9491580882
 10
106.780195027
 20
-31.3586105173
  0
LWPOLYLINE
  5
3B4
100
AcDbEntity
  8
0
100
AcDbPolyline
 62
7
  6
CONTINUOUS
 90
27
 70
0
 10
88.113498416
 20
49.5722504954
 10
88.1161840512
 20
49.5352551994
 10
88.1206329093
 20
49.4976008297
 10
88.1268719154
 20
49.4591558131
 10
88.1348741445
 20
49.4200517228
 10
88.1445588213
 20
49.380683279
 10
88.1559429859
 20
49.3410478042
 10
88.1690095982
 20
49.3011479758
 10
88.1836267628
 20
49.2613865462
 10
88.1998101838
 20
49.2217649171
 10
88.217544157
 20
49.1822816867
 10
88.2366496742
 20
49.1433354023
 10
88.2571406266
 20
49.104931502
 10
88.2790031229
 20
49.0670645476
 10
88.3020164813
 20
49.0301167714
 10
88.3261923578
 20
48.9940974831
 10
88.3515190963
 20
48.9589973729
 10
88.3777410466
 20
48.9251707445
 10
88.4048672755
 20
48.8926304959
 10
88.4328887161
 20
48.861363729
 10
88.4615225176
 20
48.8316860534
 10
88.490774882
 20
48.8036135635
 10
88.5206396074
 20
48.7771301649
 10
88.5508152366
 20
48.7525031832
 10
88.5812012838
 20
48.7298217269
 10
88.6118982348
 20
48.7089966876
 10
88.6429060895
 20
48.6900280653
  0
LWPOLYLINE
  5
3B5
100
AcDbEntity
  8
ASSI
100
AcDbPolyline
 62
7
  6
CONTINUOUS
 90
55
 70
0
 10
93.7694302531
 20
-149.2022413207
 10
93.770968479
 20
-149.283513404
 10
93.7755055264
 20
-149.3660611055
 10
93.7830413954
 20
-149.4498844252
 10
93.793601815
 20
-149.5351475734
 10
93.8071610562
 20
-149.6216863398
 10
93.8236419316
 20
-149.7090080935
 10
93.8430611044
 20
-149.7971173002
 10
93.8654019115
 20
-149.8860094942
 10
93.8905371753
 20
-149.9751786476
 10
93.918482834
 20
-150.0646263399
 10
93.9492229495
 20
-150.1543509915
 10
93.9825825305
 20
-150.2438418356
 10
94.018576517
 20
-150.3330975386
 10
94.057189969
 20
-150.4221194341
 10
94.0982030755
 20
-150.5104007558
 10
94.1416295228
 20
-150.5979372798
 10
94.1874556245
 20
-150.6847332299
 10
94.2354205108
 20
-150.7702945113
 10
94.2855363802
 20
-150.854614082
 10
94.3377910343
 20
-150.9376989839
 10
94.391887008
 20
-151.0190762477
 10
94.4478348032
 20
-151.098736134
 10
94.505623918
 20
-151.176688382
 10
94.564925382
 20
-151.2524892407
 10
94.6257478206
 20
-151.3261264397
 10
94.6880826084
 20
-151.3976122493
 10
94.7515748982
 20
-151.4665397292
 10
94.8162312915
 20
-151.5328942881
 10
94.8820451868
 20
-151.5966905172
 10
94.9486419316
 20
-151.65756525
 10
95.0160259908
 20
-151.7155018238
 10
95.0841928995
 20
-151.7705169013
 10
95.1527546106
 20
-151.8222973034
 10
95.2217133758
 20
-151.8708245814
 10
95.2910669433
 20
-151.916117184
 10
95.3604205108
 20
-151.9579172784
 10
95.4297740783
 20
-151.9962049454
 10
95.4991276458
 20
-152.0310001041
 10
95.568086411
 20
-152.0621046796
 10
95.6366481221
 20
-152.0894976229
 10
95.7048150308
 20
-152.113199983
 10
95.7721990901
 20
-152.1330768317
 10
95.8387958349
 20
-152.1491063505
 10
95.9046097301
 20
-152.1613103579
 10
95.9692661235
 20
-152.1696193814
 10
96.0327584132
 20
-152.1740112062
 10
96.095093201
 20
-152.1745080471
 10
96.1559156397
 20
-152.1711070757
 10
96.2152171036
 20
-152.1637860611
 10
96.2730062184
 20
-152.1525672343
 10
96.3289540136
 20
-152.1375144596
 10
96.3830499873
 20
-152.1186058703
 10
96.4353046414
 20
-152.0958633331
 10
96.4854748711
 20
-152.0693849282
  0
LWPOLYLINE
  5
3B6
100
AcDbEntity
  8
ASSI
100
AcDbPolyline
 62
7
  6
CONTINUOUS
 90
40
 70
0
 10
95.1836438155
 20
-148.385692134
 10
95.1851820414
 20
-148.4669642173
 10
95.1897190888
 20
-148.5495119189
 10
95.1972549577
 20
-148.6333352386
 10
95.2078153774
 20
-148.7185983868
 10
95.2213746186
 20
-148.8051371531
 10
95.2378554939
 20
-148.8924589068
 10
95.2572746668
 20
-148.9805681135
 10
95.2796154738
 20
-149.0694603076
 10
95.3047507377
 20
-149.1586294609
 10
95.3326963964
 20
-149.2480771532
 10
95.3634365119
 20
-149.3378018048
 10
95.3967960929
 20
-149.4272926489
 10
95.4327900794
 20
-149.516548352
 10
95.4714035314
 20
-149.6055702475
 10
95.5124166379
 20
-149.6938515691
 10
95.5558430851
 20
-149.7813880931
 10
95.6016691868
 20
-149.8681840433
 10
95.6496340732
 20
-149.9537453246
 10
95.6997499426
 20
-150.0380648953
 10
95.7520045967
 20
-150.1211497973
 10
95.8061005704
 20
-150.2025270611
 10
95.8620483656
 20
-150.2821869473
 10
95.9198374804
 20
-150.3601391954
 10
95.9791389444
 20
-150.4359400541
 10
96.039961383
 20
-150.5095772531
 10
96.1022961708
 20
-150.5810630627
 10
96.1657884605
 20
-150.6499905425
 10
96.2304448539
 20
-150.7163451014
 10
96.2962587491
 20
-150.7801413305
 10
96.3628554939
 20
-150.8410160633
 10
96.4302395532
 20
-150.8989526372
 10
96.4984064619
 20
-150.9539677147
 10
96.566968173
 20
-151.0057481168
 10
96.6359269382
 20
-151.0542753948
 10
96.7052805057
 20
-151.0995679974
 10
96.7746340732
 20
-151.1413680918
 10
96.8439876407
 20
-151.1796557587
 10
96.9133412082
 20
-151.2144509175
 10
96.9422066524
 20
-151.2274709793
  0
LWPOLYLINE
  5
3B7
100
AcDbEntity
  8
ASSI
100
AcDbPolyline
 62
7
  6
CONTINUOUS
 90
55
 70
0
 10
96.9514107685
 20
-148.9983012986
 10
96.9498725426
 20
-148.9170292153
 10
96.9453354952
 20
-148.8344815138
 10
96.9377996263
 20
-148.7506581941
 10
96.9272392066
 20
-148.6653950459
 10
96.9136799654
 20
-148.5788562795
 10
96.8971990901
 20
-148.4915345258
 10
96.8777799172
 20
-148.4034253191
 10
96.8554391102
 20
-148.3145331251
 10
96.8303038463
 20
-148.2253639717
 10
96.8023581876
 20
-148.1359162794
 10
96.7716180722
 20
-148.0461916278
 10
96.7382584911
 20
-147.9567007837
 10
96.7022645046
 20
-147.8674450807
 10
96.6636510526
 20
-147.7784231852
 10
96.6226379461
 20
-147.6901418635
 10
96.5792114989
 20
-147.6026053395
 10
96.5333853972
 20
-147.5158093894
 10
96.4854205108
 20
-147.430248108
 10
96.4353046414
 20
-147.3459285373
 10
96.3830499873
 20
-147.2628436354
 10
96.3289540136
 20
-147.1814663716
 10
96.2730062184
 20
-147.1018064853
 10
96.2152171036
 20
-147.0238542373
 10
96.1559156397
 20
-146.9480533786
 10
96.095093201
 20
-146.8744161796
 10
96.0327584132
 20
-146.80293037
 10
95.9692661235
 20
-146.7340028901
 10
95.9046097301
 20
-146.6676483312
 10
95.8387958349
 20
-146.6038521021
 10
95.7721990901
 20
-146.5429773693
 10
95.7048150308
 20
-146.4850407955
 10
95.6366481221
 20
-146.430025718
 10
95.568086411
 20
-146.3782453159
 10
95.4991276458
 20
-146.3297180379
 10
95.4297740783
 20
-146.2844254353
 10
95.3604205108
 20
-146.2426253409
 10
95.2910669433
 20
-146.2043376739
 10
95.2217133758
 20
-146.1695425152
 10
95.1527546106
 20
-146.1384379397
 10
95.0841928995
 20
-146.1110449964
 10
95.0160259908
 20
-146.0873426363
 10
94.9486419316
 20
-146.0674657876
 10
94.8820451868
 20
-146.0514362688
 10
94.8162312915
 20
-146.0392322614
 10
94.7515748982
 20
-146.0309232379
 10
94.6880826084
 20
-146.0265314131
 10
94.6257478206
 20
-146.0260345722
 10
94.564925382
 20
-146.0294355436
 10
94.505623918
 20
-146.0367565582
 10
94.4478348032
 20
-146.047975385
 10
94.391887008
 20
-146.0630281597
 10
94.3377910343
 20
-146.081936749
 10
94.2855363802
 20
-146.1046792862
 10
94.2353661505
 20
-146.1311576911
  0
LINE
  5
3B8
100
AcDbEntity
  8
ASSI
100
AcDbLine
 62
253
  6
CONTINUOUS
 10
89.6328555832
 20
50.6883640964
 11
89.6328555832
 21
49.0554235428
  0
LINE
  5
3B9
100
AcDbEntity
  8
ASSI
100
AcDbLine
 62
7
  6
CONTINUOUS
 10
93.7694302531
 20
-149.2022413207
 11
93.7694302531
 21
-147.1610656287
  0
LINE
  5
3BA
100
AcDbEntity
  8
ASSI
100
AcDbLine
 62
7
  6
CONTINUOUS
 10
95.1836438155
 20
-148.385692134
 11
95.1836438155
 21
-146.344516442
  0
LINE
  5
3BB
100
AcDbEntity
  8
ASSI
100
AcDbLine
 62
7
  6
CONTINUOUS
 10
96.9514107685
 20
-148.9983012986
 11
96.9514107685
 21
-151.0394769906
  0
LINE
  5
3BC
100
AcDbEntity
  8
ASSI
100
AcDbLine
 62
7
  6
CONTINUOUS
 10
99.7798378932
 20
-12.060368956
 11
99.7798378932
 21
36.9509498591
  0
LINE
  5
3BD
100
AcDbEntity
  8
ASSI
100
AcDbLine
 62
7
  6
CONTINUOUS
 10
101.1940514556
 20
-12.8769181427
 11
101.1940514556
 21
36.1344006725
  0
LWPOLYLINE
  5
3BE
100
AcDbEntity
  8
0
100
AcDbPolyline
 62
7
  6
CONTINUOUS
 90
4
 70
0
 10
26.918918021
 20
-103.071688068
 10
26.854419106
 20
-103.1287670693
 10
26.8304019896
 20
-103.1464690828
 10
26.811467248
 20
-103.1582709571
  0
LWPOLYLINE
  5
3BF
100
AcDbEntity
  8
0
100
AcDbPolyline
 62
7
  6
CONTINUOUS
 90
3
 70
0
 10
27.0084512843
 20
-103.0097425347
 10
26.962963068
 20
-103.0385255156
 10
26.918918021
 20
-103.071688068
  0
LWPOLYLINE
  5
3C0
100
AcDbEntity
  8
ASSI
100
AcDbPolyline
 62
7
  6
CONTINUOUS
 90
19
 70
0
 10
23.5246880319
 20
-105.3036983584
 10
23.4767775058
 20
-105.3338396073
 10
23.4309514041
 20
-105.3677167238
 10
23.3875249569
 20
-105.405105475
 10
23.3465118504
 20
-105.4460258893
 10
23.3078983983
 20
-105.4904579384
 10
23.2719044118
 20
-105.538148688
 10
23.2385448308
 20
-105.5891167241
 10
23.2078047153
 20
-105.6433434609
 10
23.1798590567
 20
-105.7005202071
 10
23.1547237928
 20
-105.7606637877
 10
23.1323829858
 20
-105.8237573778
 10
23.1129638129
 20
-105.8894418104
 10
23.0964829375
 20
-105.9577318624
 10
23.0829236963
 20
-106.0286127569
 10
23.0723632767
 20
-106.1016809972
 10
23.0648274077
 20
-106.1768020843
 10
23.0602903603
 20
-106.2541105172
 10
23.0587521345
 20
-106.3336062959
  0
LWPOLYLINE
  5
3C1
100
AcDbEntity
  8
0
100
AcDbPolyline
 62
7
  6
CONTINUOUS
 90
48
 70
0
 10
33.7587963439
 20
-87.7581918979
 10
33.7067115818
 20
-87.7908991466
 10
33.6556720741
 20
-87.82850404
 10
33.607304319
 20
-87.8700224287
 10
33.5616235917
 20
-87.9154766733
 10
33.5186146171
 20
-87.9648444133
 10
33.4785227351
 20
-88.0178437951
 10
33.4413646204
 20
-88.0744955679
 10
33.4071235982
 20
-88.1347789825
 10
33.3759949844
 20
-88.1983499382
 10
33.3479965679
 20
-88.2652272177
 10
33.3231105599
 20
-88.3353920382
 10
33.3014789092
 20
-88.4084439506
 10
33.2831202146
 20
-88.4843994499
 10
33.2680158773
 20
-88.563242041
 10
33.2562520503
 20
-88.6445217888
 10
33.2478478237
 20
-88.7282526189
 10
33.2427841073
 20
-88.8144206056
 10
33.2410897836
 20
-88.9025340374
 10
33.2427841073
 20
-88.9926040318
 10
33.2478478237
 20
-89.0846194713
 10
33.2562520503
 20
-89.1780552915
 10
33.2680158773
 20
-89.2729196119
 10
33.2831202146
 20
-89.369204313
 10
33.3014789092
 20
-89.4663599727
 10
33.3231105599
 20
-89.5643915731
 10
33.3479965679
 20
-89.663294132
 10
33.3759949844
 20
-89.762503281
 10
33.4071235982
 20
-89.8620207796
 10
33.4413646204
 20
-89.9618448683
 10
33.4785227351
 20
-90.0614059006
 10
33.5186146171
 20
-90.1607023828
 10
33.5616235917
 20
-90.2597358086
 10
33.607304319
 20
-90.3579410121
 10
33.6556720741
 20
-90.455313272
 10
33.7067115818
 20
-90.5518573096
 10
33.7601316777
 20
-90.6470221232
 10
33.8159459754
 20
-90.7407998441
 10
33.8741408612
 20
-90.8331983411
 10
33.9343843298
 20
-90.9236902184
 10
33.9966881003
 20
-91.0122645943
 10
34.0610404537
 20
-91.0989323505
 10
34.1270742279
 20
-91.1831987367
 10
34.1947990462
 20
-91.2650500439
 10
34.2642052852
 20
-91.3444999811
 10
34.3348969125
 20
-91.4210949255
 10
34.4067419172
 20
-91.4946836694
 10
34.4798723102
 20
-91.5654174204
  0
LWPOLYLINE
  5
3C2
100
AcDbEntity
  8
ASSI
100
AcDbPolyline
 62
7
  6
CONTINUOUS
 90
20
 70
0
 10
8.1703580983
 20
-101.5701075992
 10
8.2128074814
 20
-101.5440461817
 10
8.2672681372
 20
-101.5056378858
 10
8.319244904
 20
-101.4631021402
 10
8.368465025
 20
-101.4166621586
 10
8.4149140088
 20
-101.3662974167
 10
8.4586063467
 20
-101.3120284388
 10
8.4993127558
 20
-101.2541400105
 10
8.5370175395
 20
-101.1926131048
 10
8.5717363943
 20
-101.1274667487
 10
8.6032871271
 20
-101.0590428088
 10
8.6316530837
 20
-100.9873240553
 10
8.6568509183
 20
-100.912327718
 10
8.678748401
 20
-100.8344473529
 10
8.6973281823
 20
-100.7536677992
 10
8.7126076118
 20
-100.6700042177
 10
8.724506508
 20
-100.5838956474
 10
8.7329981438
 20
-100.4954884345
 10
8.7381092463
 20
-100.4046362328
 10
8.7398398155
 20
-100.3113390422
  0
LINE
  5
3C3
100
AcDbEntity
  8
ASSI
100
AcDbLine
 62
7
  6
CONTINUOUS
 10
35.0795674147
 20
-86.995595217
 11
33.7587963362
 21
-87.7581918845
  0
LINE
  5
3C4
100
AcDbEntity
  8
0
100
AcDbLine
 62
253
  6
CONTINUOUS
 10
34.5542880915
 20
-87.6882203857
 11
35.055528386
 21
-87.3988105217
  0
LWPOLYLINE
  5
3C5
100
AcDbEntity
  8
0
100
AcDbPolyline
 62
7
  6
CONTINUOUS
 90
11
 70
0
 10
34.8724811605
 20
-87.6602254965
 10
34.8552734921
 20
-87.6695075919
 10
34.8263767639
 20
-87.6823280697
 10
34.7960431828
 20
-87.6925436893
 10
34.7645427637
 20
-87.7000635161
 10
34.7318650892
 20
-87.704863482
 10
34.6980205767
 20
-87.7069676551
 10
34.663310494
 20
-87.7063573051
 10
34.6278352635
 20
-87.7030261884
 10
34.5914944626
 20
-87.6969805487
 10
34.5542880915
 20
-87.6882203857
  0
LWPOLYLINE
  5
3C6
100
AcDbEntity
  8
0
100
AcDbPolyline
 62
7
  6
CONTINUOUS
 90
13
 70
0
 10
-20.9636957571
 20
95.5514444825
 10
-20.8892799758
 20
95.5333897617
 10
-20.8161495828
 20
95.519674368
 10
-20.7443045781
 20
95.5102983013
 10
-20.6736129508
 20
95.5052603264
 10
-20.6042067117
 20
95.5045616785
 10
-20.5364818935
 20
95.5082060631
 10
-20.4704481193
 20
95.5162183022
 10
-20.4060957659
 20
95.5285735737
 10
-20.3437919954
 20
95.5452011171
 10
-20.2835485267
 20
95.5661253468
 10
-20.225353641
 20
95.5913218484
 10
-20.1682040095
 20
95.6214159947
  0
LWPOLYLINE
  5
3C7
100
AcDbEntity
  8
0
100
AcDbPolyline
 62
7
  6
CONTINUOUS
 90
13
 70
0
 10
-36.1563900272
 20
108.2685915377
 10
-36.2308058084
 20
108.2866462584
 10
-36.3039362015
 20
108.3003616522
 10
-36.3757812062
 20
108.3097377189
 10
-36.4464728335
 20
108.3147756938
 10
-36.5158790725
 20
108.3154743417
 10
-36.5836038908
 20
108.3118299571
 10
-36.6496376649
 20
108.303817718
 10
-36.7139900183
 20
108.2914624465
 10
-36.7762937888
 20
108.2748349031
 10
-36.8365372575
 20
108.2539106733
 10
-36.8947321433
 20
108.2287141718
 10
-36.9518817747
 20
108.1986200255
  0
LWPOLYLINE
  5
3C8
100
AcDbEntity
  8
0
100
AcDbPolyline
 62
7
  6
CONTINUOUS
 90
8
 70
0
 10
88.071005056
 20
49.8698724997
 10
88.0805931861
 20
49.8364901567
 10
88.0902778628
 20
49.7971217129
 10
88.0982800919
 20
49.7580176226
 10
88.104519098
 20
49.719572606
 10
88.1089679561
 20
49.6819182363
 10
88.1116535914
 20
49.6449229403
 10
88.113498416
 20
49.5722504954
  0
LWPOLYLINE
  5
3C9
100
AcDbEntity
  8
0
100
AcDbPolyline
 62
7
  6
CONTINUOUS
 90
24
 70
0
 10
106.780195027
 20
-176.1883831135
 10
106.7823706075
 20
-176.3298870722
 10
106.7888266157
 20
-176.4684000929
 10
106.7995630516
 20
-176.6039221755
 10
106.8146034069
 20
-176.7366110167
 10
106.8339241899
 20
-176.8663089199
 10
106.8574549255
 20
-176.9925427952
 10
106.8852109888
 20
-177.1152999916
 10
106.9171770047
 20
-177.2345931602
 10
106.9532363731
 20
-177.3499871637
 10
106.9934040431
 20
-177.4614677619
 10
107.0376650656
 20
-177.569049195
 10
107.0858579928
 20
-177.6723390457
 10
107.1379971842
 20
-177.7713216409
 10
107.1940682803
 20
-177.8660126538
 10
107.2538667544
 20
-177.9560666866
 10
107.3174062193
 20
-178.0414668047
 10
107.3846730623
 20
-178.1222299429
 10
107.4554219188
 20
-178.1980615069
 10
107.5296655055
 20
-178.2689434865
 10
107.6073911058
 20
-178.334893892
 10
107.6883152054
 20
-178.3956721608
 10
107.7724494856
 20
-178.451259404
 10
107.8156151725
 20
-178.4770552259
  0
LINE
  5
3CA
100
AcDbEntity
  8
0
100
AcDbLine
 62
7
  6
CONTINUOUS
 10
105.3659814646
 20
-175.3718339269
 11
105.3659814646
 21
-30.5420613306
  0
LINE
  5
3CB
100
AcDbEntity
  8
0
100
AcDbLine
 62
7
  6
CONTINUOUS
 10
106.780195027
 20
-176.1883831135
 11
106.780195027
 21
-31.3586105173
  0
LWPOLYLINE
  5
3CC
100
AcDbEntity
  8
ASSI
100
AcDbPolyline
 62
7
  6
CONTINUOUS
 90
4
 70
0
 10
95.1928479316
 20
-146.1565224533
 10
95.1897190888
 20
-146.1877122304
 10
95.1851820414
 20
-146.2650206633
 10
95.1836438155
 20
-146.344516442
  0
LWPOLYLINE
  5
3CD
100
AcDbEntity
  8
ASSI
100
AcDbPolyline
 62
7
  6
CONTINUOUS
 90
7
 70
0
 10
77.033928537
 20
-135.524659289
 10
77.0181558331
 20
-135.5932344761
 10
77.0028764036
 20
-135.6768980575
 10
76.9909775074
 20
-135.7630066279
 10
76.9824858717
 20
-135.8514138407
 10
76.9773747692
 20
-135.9422660425
 10
76.9756442
 20
-136.035563233
  0
LWPOLYLINE
  5
3CE
100
AcDbEntity
  8
0
100
AcDbPolyline
 62
7
  6
CONTINUOUS
 90
13
 70
0
 10
25.3361614805
 20
-117.8306165992
 10
25.3185094031
 20
-117.8424958168
 10
25.2515660593
 20
-117.9102337966
 10
25.20602868
 20
-117.9983622491
 10
25.1846227155
 20
-118.1094773299
 10
25.1846227155
 20
-118.2409828834
 10
25.20602868
 20
-118.3768170355
 10
25.2515660593
 20
-118.5175309121
 10
25.3185094031
 20
-118.6625733874
 10
25.3986823606
 20
-118.7942292099
 10
25.4893594814
 20
-118.9065932958
 10
25.5932662159
 20
-119.0055707289
 10
25.7104025639
 20
-119.0911615092
  0
LWPOLYLINE
  5
3CF
100
AcDbEntity
  8
0
100
AcDbPolyline
 62
7
  6
CONTINUOUS
 90
13
 70
0
 10
26.0846436474
 20
-119.127001004
 10
26.1022957247
 20
-119.1151217864
 10
26.1692390686
 20
-119.0473838065
 10
26.2147764479
 20
-118.9592553541
 10
26.2361824124
 20
-118.8481402732
 10
26.2361824124
 20
-118.7166347198
 10
26.2147764479
 20
-118.5808005677
 10
26.1692390686
 20
-118.4400866911
 10
26.1022957247
 20
-118.2950442157
 10
26.0221227673
 20
-118.1633883932
 10
25.9314456465
 20
-118.0510243073
 10
25.827538912
 20
-117.9520468743
 10
25.7104025639
 20
-117.866456094
  0
LWPOLYLINE
  5
3D0
100
AcDbEntity
  8
ASSI
100
AcDbPolyline
 62
7
  6
CONTINUOUS
 90
19
 70
0
 10
25.7747967525
 20
-111.2419255954
 10
25.8227072785
 20
-111.2117843465
 10
25.8685333802
 20
-111.17790723
 10
25.9119598275
 20
-111.1405184787
 10
25.952972934
 20
-111.0995980644
 10
25.991586386
 20
-111.0551660154
 10
26.0275803725
 20
-111.0074752657
 10
26.0609399535
 20
-110.9565072296
 10
26.091680069
 20
-110.9022804928
 10
26.1196257276
 20
-110.8451037467
 10
26.1447609915
 20
-110.784960166
 10
26.1671017986
 20
-110.721866576
 10
26.1865209714
 20
-110.6561821433
 10
26.2030018468
 20
-110.5878920914
 10
26.216561088
 20
-110.5170111969
 10
26.2271215076
 20
-110.4439429566
 10
26.2346573766
 20
-110.3688218695
 10
26.239194424
 20
-110.2915134365
 10
26.2407326498
 20
-110.2120176579
  0
LWPOLYLINE
  5
3D1
100
AcDbEntity
  8
0
100
AcDbPolyline
 62
7
  6
CONTINUOUS
 90
48
 70
0
 10
50.5424741091
 20
-100.3353959287
 10
50.5945588713
 20
-100.3026886801
 10
50.645598379
 20
-100.2650837866
 10
50.693966134
 20
-100.2235653979
 10
50.7396468614
 20
-100.1781111533
 10
50.7826558359
 20
-100.1287434133
 10
50.8227477179
 20
-100.0757440315
 10
50.8599058327
 20
-100.0190922587
 10
50.8941468549
 20
-99.9588088441
 10
50.9252754687
 20
-99.8952378885
 10
50.9532738851
 20
-99.8283606089
 10
50.9781598932
 20
-99.7581957884
 10
50.9997915439
 20
-99.6851438761
 10
51.0181502385
 20
-99.6091883767
 10
51.0332545757
 20
-99.5303457856
 10
51.0450184027
 20
-99.4490660378
 10
51.0534226293
 20
-99.3653352078
 10
51.0584863457
 20
-99.279167221
 10
51.0601806695
 20
-99.1910537892
 10
51.0584863457
 20
-99.1009837948
 10
51.0534226293
 20
-99.0089683554
 10
51.0450184027
 20
-98.9155325351
 10
51.0332545757
 20
-98.8206682147
 10
51.0181502385
 20
-98.7243835136
 10
50.9997915439
 20
-98.6272278539
 10
50.9781598932
 20
-98.5291962536
 10
50.9532738851
 20
-98.4302936947
 10
50.9252754687
 20
-98.3310845456
 10
50.8941468549
 20
-98.231567047
 10
50.8599058327
 20
-98.1317429583
 10
50.8227477179
 20
-98.032181926
 10
50.7826558359
 20
-97.9328854438
 10
50.7396468614
 20
-97.833852018
 10
50.693966134
 20
-97.7356468145
 10
50.645598379
 20
-97.6382745547
 10
50.5945588713
 20
-97.5417305171
 10
50.5411387753
 20
-97.4465657034
 10
50.4853244777
 20
-97.3527879825
 10
50.4271295919
 20
-97.2603894855
 10
50.3668861232
 20
-97.1698976082
 10
50.3045823527
 20
-97.0813232324
 10
50.2402299993
 20
-96.9946554761
 10
50.1741962252
 20
-96.9103890899
 10
50.1064714069
 20
-96.8285377827
 10
50.0370651679
 20
-96.7490878455
 10
49.9663735406
 20
-96.6724929011
 10
49.8945285359
 20
-96.5989041573
 10
49.8213981428
 20
-96.5281704063
  0
LWPOLYLINE
  5
3D2
100
AcDbEntity
  8
0
100
AcDbPolyline
 62
7
  6
CONTINUOUS
 90
48
 70
0
 10
51.9566876715
 20
-99.518846742
 10
52.0087724336
 20
-99.4861394934
 10
52.0598119414
 20
-99.4485346
 10
52.1081796964
 20
-99.4070162112
 10
52.1538604237
 20
-99.3615619666
 10
52.1968693983
 20
-99.3121942267
 10
52.2369612803
 20
-99.2591948449
 10
52.2741193951
 20
-99.2025430721
 10
52.3083604173
 20
-99.1422596575
 10
52.339489031
 20
-99.0786887018
 10
52.3674874475
 20
-99.0118114223
 10
52.3923734556
 20
-98.9416466017
 10
52.4140051063
 20
-98.8685946894
 10
52.4323638009
 20
-98.7926391901
 10
52.4474681381
 20
-98.7137965989
 10
52.4592319651
 20
-98.6325168511
 10
52.4676361917
 20
-98.5487860211
 10
52.4726999081
 20
-98.4626180344
 10
52.4743942319
 20
-98.3745046026
 10
52.4726999081
 20
-98.2844346082
 10
52.4676361917
 20
-98.1924191687
 10
52.4592319651
 20
-98.0989833485
 10
52.4474681381
 20
-98.0041190281
 10
52.4323638009
 20
-97.907834327
 10
52.4140051063
 20
-97.8106786672
 10
52.3923734556
 20
-97.7126470669
 10
52.3674874475
 20
-97.613744508
 10
52.339489031
 20
-97.514535359
 10
52.3083604173
 20
-97.4150178604
 10
52.2741193951
 20
-97.3151937716
 10
52.2369612803
 20
-97.2156327394
 10
52.1968693983
 20
-97.1163362571
 10
52.1538604237
 20
-97.0173028314
 10
52.1081796964
 20
-96.9190976279
 10
52.0598119414
 20
-96.821725368
 10
52.0087724336
 20
-96.7251813304
 10
51.9553523377
 20
-96.6300165168
 10
51.8995380401
 20
-96.5362387958
 10
51.8413431543
 20
-96.4438402989
 10
51.7810996856
 20
-96.3533484216
 10
51.7187959151
 20
-96.2647740457
 10
51.6544435617
 20
-96.1781062895
 10
51.5884097876
 20
-96.0938399032
 10
51.5206849693
 20
-96.0119885961
 10
51.4512787303
 20
-95.9325386589
 10
51.380587103
 20
-95.8559437145
 10
51.3087420982
 20
-95.7823549706
 10
51.2356117052
 20
-95.7116212196
  0
LWPOLYLINE
  5
3D3
100
AcDbEntity
  8
ASSI
100
AcDbPolyline
 62
7
  6
CONTINUOUS
 90
11
 70
0
 10
25.5657044803
 20
-117.0034950967
 10
25.540965618
 20
-117.0188560308
 10
25.5095032812
 20
-117.0418688568
 10
25.4797777933
 20
-117.0677453269
 10
25.4520099456
 20
-117.0962932391
 10
25.4262143149
 20
-117.1275324852
 10
25.4023763244
 20
-117.1614431733
 10
25.3806730351
 20
-117.1977734257
 10
25.3611203421
 20
-117.2365412588
 10
25.3437023504
 20
-117.2777286561
 10
25.3317966697
 20
-117.3117481345
  0
LWPOLYLINE
  5
3D4
100
AcDbEntity
  8
ASSI
100
AcDbPolyline
 62
7
  6
CONTINUOUS
 90
17
 70
0
 10
26.9157608194
 20
-119.3417106165
 10
26.9404996817
 20
-119.3263496823
 10
26.9719620184
 20
-119.3033368564
 10
27.0016875064
 20
-119.2774603862
 10
27.0294553541
 20
-119.248912474
 10
27.0552509848
 20
-119.217673228
 10
27.0790889753
 20
-119.1837625399
 10
27.1007922646
 20
-119.1474322875
 10
27.1203449575
 20
-119.1086644544
 10
27.1377629492
 20
-119.0674770571
 10
27.1529168645
 20
-119.0241760222
 10
27.1657898448
 20
-118.9787456115
 10
27.1763987486
 20
-118.9312015634
 10
27.1846647764
 20
-118.8818970197
 10
27.1905616618
 20
-118.8309496945
 10
27.1941156711
 20
-118.7782418738
 10
27.1953268044
 20
-118.7237735576
  0
LINE
  5
3D5
100
AcDbEntity
  8
0
100
AcDbLine
 62
253
  6
CONTINUOUS
 10
26.311443328
 20
-103.1087301953
 11
27.7256568903
 21
-102.2921810086
  0
LINE
  5
3D6
100
AcDbEntity
  8
ASSI
100
AcDbLine
 62
7
  6
CONTINUOUS
 10
28.4226648449
 20
-102.1931933451
 11
27.0084512825
 21
-103.0097425317
  0
LINE
  5
3D7
100
AcDbEntity
  8
ASSI
100
AcDbLine
 62
253
  6
CONTINUOUS
 10
24.4729656969
 20
-105.5170571092
 11
23.0587521345
 21
-106.3336062959
  0
LINE
  5
3D8
100
AcDbEntity
  8
0
100
AcDbLine
 62
253
  6
CONTINUOUS
 10
29.1398704527
 20
-104.4152404578
 11
30.5540840151
 21
-103.5986912712
  0
LINE
  5
3D9
100
AcDbEntity
  8
ASSI
100
AcDbLine
 62
253
  6
CONTINUOUS
 10
24.4729656969
 20
-107.5582328012
 11
23.0587521345
 21
-108.3747819879
  0
LINE
  5
3DA
100
AcDbEntity
  8
0
100
AcDbLine
 62
253
  6
CONTINUOUS
 10
29.7055558776
 20
-105.0684482432
 11
31.11976944
 21
-104.2518990566
  0
LINE
  5
3DB
100
AcDbEntity
  8
0
100
AcDbLine
 62
253
  6
CONTINUOUS
 10
49.2217030384
 20
-95.3679867916
 11
50.6359166008
 21
-94.551437605
  0
LINE
  5
3DC
100
AcDbEntity
  8
0
100
AcDbLine
 62
253
  6
CONTINUOUS
 10
49.7469823616
 20
-96.4602916481
 11
51.1611959239
 21
-95.6437424614
  0
LINE
  5
3DD
100
AcDbEntity
  8
0
100
AcDbLine
 62
253
  6
CONTINUOUS
 10
35.0795332446
 20
-107.3548056952
 11
34.3724606335
 21
-107.7630605592
  0
LINE
  5
3DE
100
AcDbEntity
  8
0
100
AcDbLine
 62
253
  6
CONTINUOUS
 10
49.2217030384
 20
-100.8910929016
 11
49.988906132
 21
-100.4481194506
  0
LINE
  5
3DF
100
AcDbEntity
  8
ASSI
100
AcDbLine
 62
7
  6
CONTINUOUS
 10
51.9566876792
 20
-99.5188467554
 11
50.5424741169
 21
-100.3353959421
  0
LINE
  5
3E0
100
AcDbEntity
  8
0
100
AcDbLine
 62
7
  6
CONTINUOUS
 10
25.1103735718
 20
-117.4395950562
 11
25.9495354297
 21
-116.9550735166
  0
LWPOLYLINE
  5
3E1
100
AcDbEntity
  8
0
100
AcDbPolyline
 62
7
  6
CONTINUOUS
 90
17
 70
0
 10
26.811467248
 20
-103.1582709571
 10
26.8050774038
 20
-103.1618677995
 10
26.7783713463
 20
-103.1749918043
 10
26.7503578193
 20
-103.1858125124
 10
26.7212588298
 20
-103.1942441697
 10
26.6910657529
 20
-103.200267793
 10
26.6597872136
 20
-103.2039023656
 10
26.627671094
 20
-103.2051190835
 10
26.5947107388
 20
-103.2038987345
 10
26.5609128033
 20
-103.2002605308
 10
26.5265451361
 20
-103.1942333052
 10
26.4916032099
 20
-103.1857980745
 10
26.456091552
 20
-103.1749738218
 10
26.4202915918
 20
-103.1618463294
 10
26.3842971394
 20
-103.1464441911
 10
26.3480143847
 20
-103.1287388131
 10
26.311443328
 20
-103.1087301953
  0
LWPOLYLINE
  5
3E2
100
AcDbEntity
  8
0
100
AcDbPolyline
 62
7
  6
CONTINUOUS
 90
11
 70
0
 10
49.4287892926
 20
-100.4333623301
 10
49.445996961
 20
-100.4240802348
 10
49.4748936892
 20
-100.4112597569
 10
49.5052272703
 20
-100.4010441373
 10
49.5367276894
 20
-100.3935243105
 10
49.5694053639
 20
-100.3887243446
 10
49.6032498763
 20
-100.3866201715
 10
49.6379599591
 20
-100.3872305215
 10
49.6734351896
 20
-100.3905616382
 10
49.7097759904
 20
-100.396607278
 10
49.7469823616
 20
-100.4053674409
  0
LWPOLYLINE
  5
3E3
100
AcDbEntity
  8
0
100
AcDbPolyline
 62
7
  6
CONTINUOUS
 90
16
 70
0
 10
34.8724847936
 20
-107.8126017368
 10
34.8456272955
 20
-107.8265134237
 10
34.8174259953
 20
-107.8380417821
 10
34.7880875713
 20
-107.8471063966
 10
34.7576026901
 20
-107.8536870453
 10
34.7259806852
 20
-107.8578039501
 10
34.6934803944
 20
-107.8594234125
 10
34.6600946092
 20
-107.8585249341
 10
34.6258305381
 20
-107.8551290134
 10
34.5909686457
 20
-107.8492634472
 10
34.5555040251
 20
-107.8409079653
 10
34.5194415831
 20
-107.8300828379
 10
34.4830765045
 20
-107.8168766728
 10
34.4465071842
 20
-107.801319006
 10
34.4096352271
 20
-107.7833803014
 10
34.3724606335
 20
-107.7630605592
  0
LWPOLYLINE
  5
3E4
100
AcDbEntity
  8
0
100
AcDbPolyline
 62
7
  6
CONTINUOUS
 90
13
 70
0
 10
-91.6743738757
 20
136.3789038153
 10
-91.5999580945
 20
136.3608490945
 10
-91.5268277014
 20
136.3471337008
 10
-91.4549826967
 20
136.337757634
 10
-91.3842910694
 20
136.3327196591
 10
-91.3148848304
 20
136.3320210113
 10
-91.2471600121
 20
136.3356653959
 10
-91.181126238
 20
136.343677635
 10
-91.1167738846
 20
136.3560329065
 10
-91.0544701141
 20
136.3726604499
 10
-90.9942266454
 20
136.3935846796
 10
-90.9360317596
 20
136.4187811812
 10
-90.8788821282
 20
136.4488753275
  0
LWPOLYLINE
  5
3E5
100
AcDbEntity
  8
0
100
AcDbPolyline
 62
7
  6
CONTINUOUS
 90
5
 70
0
 10
-96.7604919376
 20
154.1066266998
 10
-96.6433555895
 20
154.0569513614
 10
-96.539448855
 20
154.0359399021
 10
-96.4487717342
 20
154.0435923218
 10
-96.3862508541
 20
154.070787205
  0
LWPOLYLINE
  5
3E6
100
AcDbEntity
  8
0
100
AcDbPolyline
 62
7
  6
CONTINUOUS
 90
5
 70
0
 10
-96.7604919376
 20
155.331332115
 10
-96.8776282856
 20
155.3810074534
 10
-96.9815350201
 20
155.4020189127
 10
-97.0722121409
 20
155.394366493
 10
-97.134733021
 20
155.3671716098
  0
LINE
  5
3E7
100
AcDbEntity
  8
0
100
AcDbLine
 62
253
  6
CONTINUOUS
 10
-92.9067599801
 20
177.192246839
 11
107.9115658769
 21
61.2422623339
  0
LINE
  5
3E8
100
AcDbEntity
  8
0
100
AcDbLine
 62
253
  6
CONTINUOUS
 10
109.4115658769
 20
61.3909277122
 11
109.4116383573
 21
61.390885867
  0
LINE
  5
3E9
100
AcDbEntity
  8
0
100
AcDbLine
 62
7
  6
CONTINUOUS
 10
-91.4066874997
 20
177.340870372
 11
109.4116383573
 21
61.390885867
  0
LINE
  5
3EA
100
AcDbEntity
  8
RACCORDO
100
AcDbLine
 62
7
  6
CONTINUOUS
 10
-87.1933371881
 20
174.9389577422
 11
110.9379829004
 21
60.5404166917
  0
LWPOLYLINE
  5
3EB
100
AcDbEntity
  8
0
100
AcDbPolyline
 62
253
  6
CONTINUOUS
 90
55
 70
0
 10
107.9115658769
 20
61.2422623339
 10
108.178923901
 20
61.0834028617
 10
108.4460557135
 20
60.9156972007
 10
108.7127352942
 20
60.7392872467
 10
108.9787370056
 20
60.55432226
 10
109.2438357837
 20
60.3609587395
 10
109.5078073285
 20
60.15936029
 10
109.7704282936
 20
59.9496974841
 10
110.0314764755
 20
59.7321477173
 10
110.2907310015
 20
59.5068950584
 10
110.5479725162
 20
59.2741300937
 10
110.8029833677
 20
59.0340497657
 10
111.0555477913
 20
58.7868572061
 10
111.3054520923
 20
58.5327615646
 10
111.5524848268
 20
58.2719778316
 10
111.7964369804
 20
58.004726656
 10
112.0371021451
 20
57.731234159
 10
112.2742766943
 20
57.4517317426
 10
112.5077599546
 20
57.1664558938
 10
112.7373543758
 20
56.8756479843
 10
112.9628656982
 20
56.5795540668
 10
113.1841031166
 20
56.2784246662
 10
113.4008794422
 20
55.972514568
 10
113.6130112604
 20
55.6620826028
 10
113.8203190866
 20
55.347391427
 10
114.0226275177
 20
55.0287073007
 10
114.2197653806
 20
54.7062998626
 10
114.4115658769
 20
54.3804419014
 10
114.5978667242
 20
54.0514091256
 10
114.7785102936
 20
53.7194799298
 10
114.9533437423
 20
53.3849351591
 10
115.122219144
 20
53.0480578719
 10
115.2849936132
 20
52.7091331
 10
115.4415294263
 20
52.3684476075
 10
115.5916941385
 20
52.0262896485
 10
115.7353606955
 20
51.6829487227
 10
115.8724075409
 20
51.3387153307
 10
116.0027187196
 20
50.9938807285
 10
116.1261839751
 20
50.6487366805
 10
116.2426988436
 20
50.3035752131
 10
116.3521647419
 20
49.9586883673
 10
116.4544890509
 20
49.6143679517
 10
116.5495851939
 20
49.2709052959
 10
116.6373727103
 20
48.9285910036
 10
116.7177773229
 20
48.5877147068
 10
116.7907310015
 20
48.2485648209
 10
116.8561720199
 20
47.9114283005
 10
116.9140450085
 20
47.5765903969
 10
116.964301001
 20
47.2443344163
 10
117.0068974759
 20
46.9149414804
 10
117.0417983921
 20
46.5886902885
 10
117.0689742201
 20
46.2658568818
 10
117.0884019664
 20
45.9467144095
 10
117.1000651933
 20
45.631532898
 10
117.1039540323
 20
45.3205790224
  0
LWPOLYLINE
  5
3EC
100
AcDbEntity
  8
0
100
AcDbPolyline
 62
7
  6
CONTINUOUS
 90
52
 70
0
 10
109.4116383573
 20
61.390885867
 10
109.6950368375
 20
61.2222612521
 10
109.9762157827
 20
61.0450030262
 10
110.2550559174
 20
60.8592866212
 10
110.531563952
 20
60.6651935948
 10
110.8055038767
 20
60.4629675138
 10
111.0763900305
 20
60.2530635431
 10
111.3440691039
 20
60.0357119313
 10
111.6084659021
 20
59.8110776781
 10
111.8692048299
 20
59.5795891072
 10
112.1262049131
 20
59.341433384
 10
112.3793213028
 20
59.0968532015
 10
112.6280844465
 20
58.8464276374
 10
112.8721963678
 20
58.5906098855
 10
113.1117608761
 20
58.3294384484
 10
113.3468999052
 20
58.0628949513
 10
113.5775543556
 20
57.7911372255
 10
113.8035595848
 20
57.5144446142
 10
114.0248542691
 20
57.2329722141
 10
114.2413473203
 20
56.946905286
 10
114.4529017674
 20
56.6564889031
 10
114.6593797655
 20
56.3619748391
 10
114.8606230875
 20
56.0636521616
 10
115.0565721062
 20
55.7616674171
 10
115.2472271045
 20
55.4560585258
 10
115.432505206
 20
55.1469769838
 10
115.6122538404
 20
54.8346895452
 10
115.7863593645
 20
54.5194024958
 10
115.9546785577
 20
54.2013801215
 10
116.1171274779
 20
53.8807785077
 10
116.2736739986
 20
53.557635663
 10
116.4242258155
 20
53.232091245
 10
116.5686289814
 20
52.9044163196
 10
116.7067540304
 20
52.5748370947
 10
116.8384751881
 20
52.2435757119
 10
116.9636802469
 20
51.9108217191
 10
117.0822635521
 20
51.5767420436
 10
117.1940825968
 20
51.2416075894
 10
117.2990407476
 20
50.9055553542
 10
117.3970878514
 20
50.5685347344
 10
117.4881516661
 20
50.2304935133
 10
117.5720161301
 20
49.8918885608
 10
117.6484355562
 20
49.5534111753
 10
117.7172701207
 20
49.2154200599
 10
117.7784478695
 20
48.8779507702
 10
117.8318596657
 20
48.5411813957
 10
117.877390332
 20
48.2053092075
 10
117.9149235307
 20
47.8705219492
 10
117.9443436731
 20
47.5369546251
 10
117.9655248961
 20
47.2047710501
 10
117.978333452
 20
46.874185982
 10
117.9826336887
 20
46.5454028023
  0
LWPOLYLINE
  5
3ED
100
AcDbEntity
  8
RACCORDO
100
AcDbPolyline
 62
7
  6
CONTINUOUS
 90
52
 70
0
 10
110.9379829004
 20
60.5404166917
 10
111.1560799928
 20
60.4105872381
 10
111.3735586017
 20
60.2734080874
 10
111.590418727
 20
60.1288792398
 10
111.806864771
 20
59.976849753
 10
112.0226923314
 20
59.8174705693
 10
112.2372882012
 20
59.651194515
 10
112.4506488778
 20
59.4780019762
 10
112.6627778638
 20
59.2979125669
 10
112.8730724608
 20
59.1114379551
 10
113.0815274518
 20
58.918559982
 10
113.2881480538
 20
58.7192968064
 10
113.4923472184
 20
58.5142145727
 10
113.6941180595
 20
58.3032967321
 10
113.8934674633
 20
58.0865598334
 10
114.0898290404
 20
57.8646196671
 10
114.2831942938
 20
57.6374614357
 10
114.4735717206
 20
57.4050999367
 10
114.6604204224
 20
57.1681953531
 10
114.843730364
 20
56.9267347648
 10
115.0235115807
 20
56.6807310919
 10
115.19925328
 20
56.4308832773
 10
115.370943974
 20
56.1771803887
 10
115.5385951506
 20
55.9196333585
 10
115.7017304811
 20
55.6589739264
 10
115.8603371231
 20
55.3951932411
 10
116.0144279189
 20
55.128300154
 10
116.1635650676
 20
54.8590529588
 10
116.3077344815
 20
54.5874449606
 10
116.4469502483
 20
54.3134828544
 10
116.5808168295
 20
54.0379450181
 10
116.7093190128
 20
53.7608269708
 10
116.8324720106
 20
53.4821331934
 10
116.9499259219
 20
53.2026555079
 10
117.0616645393
 20
52.9223916848
 10
117.1677040702
 20
52.6413439534
 10
117.2677432362
 20
52.3603108236
 10
117.3617649731
 20
52.0792923368
 10
117.4497863452
 20
51.7982884516
 10
117.5315572672
 20
51.5180975531
 10
117.6070599633
 20
51.2387219534
 10
117.6763122093
 20
50.9601593404
 10
117.7391172464
 20
50.6832011631
 10
117.7954567395
 20
50.4078519845
 10
117.8453490236
 20
50.1341072417
 10
117.8886523455
 20
49.8627446953
 10
117.9253479667
 20
49.5937711199
 10
117.9554546256
 20
49.3271797409
 10
117.9788867835
 20
49.0637279948
 10
117.9956159275
 20
48.8036683605
 10
118.0056705704
 20
48.5467483591
 10
118.0090507122
 20
48.2929679905
  0
LINE
  5
3EE
100
AcDbEntity
  8
0
100
AcDbLine
 62
253
  6
CONTINUOUS
 10
117.1039540323
 20
45.3205790224
 11
117.1039540323
 21
-174.3099254349
  0
LINE
  5
3EF
100
AcDbEntity
  8
0
100
AcDbLine
 62
7
  6
CONTINUOUS
 10
117.9826336887
 20
46.5454028023
 11
117.9826336887
 21
-173.0851016549
  0
LINE
  5
3F0
100
AcDbEntity
  8
RACCORDO
100
AcDbLine
 62
7
  6
CONTINUOUS
 10
118.0090507122
 20
48.2929679905
 11
118.0090507122
 21
-167.8267142765
  0
LWPOLYLINE
  5
3F1
100
AcDbEntity
  8
0
100
AcDbPolyline
 62
7
  6
CONTINUOUS
 90
4
 70
0
 10
55.2031892684
 20
-119.4026718011
 10
55.1386903534
 20
-119.4597508024
 10
55.1146732371
 20
-119.4774528159
 10
55.0957384954
 20
-119.4892546902
  0
LINE
  5
3F2
100
AcDbEntity
  8
0
100
AcDbLine
 62
7
  6
CONTINUOUS
 10
26.3104315561
 20
-119.5180225469
 11
27.1496686299
 21
-119.0334575786
  0
LINE
  5
3F3
100
AcDbEntity
  8
0
100
AcDbLine
 62
253
  6
CONTINUOUS
 10
50.6359166008
 20
-114.7038075556
 11
49.2217030384
 21
-115.5203567423
  0
LINE
  5
3F4
100
AcDbEntity
  8
0
100
AcDbLine
 62
253
  6
CONTINUOUS
 10
51.343023382
 20
-115.9285524257
 11
49.9288098196
 21
-116.7451016124
  0
LWPOLYLINE
  5
3F5
100
AcDbEntity
  8
0
100
AcDbPolyline
 62
7
  6
CONTINUOUS
 90
6
 70
0
 10
25.1114066926
 20
-117.4413843699
 10
25.1668973932
 20
-117.4143317403
 10
25.2861384952
 20
-117.3853432442
 10
25.4149286054
 20
-117.3906888512
 10
25.5563499616
 20
-117.4285892596
 10
25.7104025639
 20
-117.4990444694
  0
LWPOLYLINE
  5
3F6
100
AcDbEntity
  8
0
100
AcDbPolyline
 62
7
  6
CONTINUOUS
 90
6
 70
0
 10
26.3093984353
 20
-119.5162332332
 10
26.2539077347
 20
-119.5432858628
 10
26.1346666327
 20
-119.5722743589
 10
26.0058765225
 20
-119.566928752
 10
25.8644551662
 20
-119.5290283436
 10
25.7104025639
 20
-119.4585731337
  0
LWPOLYLINE
  5
3F7
100
AcDbEntity
  8
ASSI
100
AcDbPolyline
 62
7
  6
CONTINUOUS
 90
12
 70
0
 10
-95.9389646316
 20
153.8076560124
 10
-95.9261016994
 20
153.8048104617
 10
-95.8814094454
 20
153.7977785752
 10
-95.8375892538
 20
153.793815844
 10
-95.7946346792
 20
153.7928995838
 10
-95.7528647744
 20
153.7950366004
 10
-95.7122883605
 20
153.8002496287
 10
-95.6728966164
 20
153.8085159337
 10
-95.6349821314
 20
153.8197741159
 10
-95.5985559052
 20
153.8340464533
 10
-95.5636069381
 20
153.8513106679
 10
-95.5551336821
 20
153.8560775925
  0
LWPOLYLINE
  5
3F8
100
AcDbEntity
  8
RACCORDO
100
AcDbPolyline
 62
7
  6
CONTINUOUS
 90
4
 70
0
 10
-87.8007973461
 20
175.2588745898
 10
-87.6289128895
 20
175.1749410397
 10
-87.4114342806
 20
175.0609813441
 10
-87.1933371881
 20
174.9389577422
  0
LWPOLYLINE
  5
3F9
100
AcDbEntity
  8
0
100
AcDbPolyline
 62
7
  6
CONTINUOUS
 90
3
 70
0
 10
55.2927225317
 20
-119.3407262678
 10
55.2472343154
 20
-119.3695092487
 10
55.2031892684
 20
-119.4026718011
  0
LWPOLYLINE
  5
3FA
100
AcDbEntity
  8
ASSI
100
AcDbPolyline
 62
7
  6
CONTINUOUS
 90
19
 70
0
 10
58.5264737006
 20
-125.5132907281
 10
58.4785631745
 20
-125.543431977
 10
58.4327370728
 20
-125.5773090935
 10
58.3893106256
 20
-125.6146978448
 10
58.3482975191
 20
-125.6556182591
 10
58.3096840671
 20
-125.7000503081
 10
58.2736900806
 20
-125.7477410577
 10
58.2403304996
 20
-125.7987090939
 10
58.2095903841
 20
-125.8529358306
 10
58.1816447254
 20
-125.9101125768
 10
58.1565094615
 20
-125.9702561575
 10
58.1341686545
 20
-126.0333497475
 10
58.1147494816
 20
-126.0990341802
 10
58.0982686063
 20
-126.1673242321
 10
58.0847093651
 20
-126.2382051266
 10
58.0741489454
 20
-126.3112733669
 10
58.0666130765
 20
-126.386394454
 10
58.0620760291
 20
-126.4637028869
 10
58.0605378032
 20
-126.5431986656
  0
LWPOLYLINE
  5
3FB
100
AcDbEntity
  8
ASSI
100
AcDbPolyline
 62
7
  6
CONTINUOUS
 90
19
 70
0
 10
60.7765824212
 20
-131.4515179651
 10
60.8244929473
 20
-131.4213767162
 10
60.870319049
 20
-131.3874995997
 10
60.9137454962
 20
-131.3501108484
 10
60.9547586027
 20
-131.3091904341
 10
60.9933720547
 20
-131.2647583851
 10
61.0293660412
 20
-131.2170676355
 10
61.0627256222
 20
-131.1660995993
 10
61.0934657377
 20
-131.1118728626
 10
61.1214113964
 20
-131.0546961164
 10
61.1465466602
 20
-130.9945525357
 10
61.1688874673
 20
-130.9314589457
 10
61.1883066402
 20
-130.865774513
 10
61.2047875155
 20
-130.7974844611
 10
61.2183467567
 20
-130.7266035666
 10
61.2289071764
 20
-130.6535353263
 10
61.2364430453
 20
-130.5784142392
 10
61.2409800927
 20
-130.5011058063
 10
61.2425183186
 20
-130.4216100276
  0
LINE
  5
3FC
100
AcDbEntity
  8
0
100
AcDbLine
 62
253
  6
CONTINUOUS
 10
54.5957145754
 20
-119.4397139284
 11
56.0099281378
 21
-118.6231647417
  0
LINE
  5
3FD
100
AcDbEntity
  8
ASSI
100
AcDbLine
 62
7
  6
CONTINUOUS
 10
56.7069360924
 20
-118.5241770782
 11
55.29272253
 21
-119.3407262648
  0
LINE
  5
3FE
100
AcDbEntity
  8
0
100
AcDbLine
 62
253
  6
CONTINUOUS
 10
57.4241417002
 20
-120.746224191
 11
58.8383552625
 21
-119.9296750043
  0
LINE
  5
3FF
100
AcDbEntity
  8
0
100
AcDbLine
 62
253
  6
CONTINUOUS
 10
57.9898271251
 20
-121.3994319763
 11
59.4040406875
 21
-120.5828827897
  0
LINE
  5
400
100
AcDbEntity
  8
ASSI
100
AcDbLine
 62
253
  6
CONTINUOUS
 10
59.4747513656
 20
-125.726649479
 11
58.0605378032
 21
-126.5431986656
  0
LINE
  5
401
100
AcDbEntity
  8
ASSI
100
AcDbLine
 62
253
  6
CONTINUOUS
 10
59.4747513656
 20
-127.7678251709
 11
58.0605378032
 21
-128.5843743576
  0
LWPOLYLINE
  5
402
100
AcDbEntity
  8
0
100
AcDbPolyline
 62
7
  6
CONTINUOUS
 90
17
 70
0
 10
55.0957384954
 20
-119.4892546902
 10
55.0893486513
 20
-119.4928515326
 10
55.0626425937
 20
-119.5059755374
 10
55.0346290667
 20
-119.5167962455
 10
55.0055300773
 20
-119.5252279028
 10
54.9753370004
 20
-119.5312515261
 10
54.944058461
 20
-119.5348860987
 10
54.9119423414
 20
-119.5361028166
 10
54.8789819862
 20
-119.5348824676
 10
54.8451840508
 20
-119.5312442639
 10
54.8108163835
 20
-119.5252170383
 10
54.7758744574
 20
-119.5167818076
 10
54.7403627994
 20
-119.5059575549
 10
54.7045628393
 20
-119.4928300625
 10
54.6685683868
 20
-119.4774279242
 10
54.6322856322
 20
-119.4597225462
 10
54.5957145754
 20
-119.4397139284
  0
LWPOLYLINE
  5
403
100
AcDbEntity
  8
ASSI
100
AcDbPolyline
 62
7
  6
CONTINUOUS
 90
20
 70
0
 10
76.1309123547
 20
-135.5933438627
 10
76.0884629716
 20
-135.6194052802
 10
76.0340023159
 20
-135.6578135761
 10
75.9820255491
 20
-135.7003493216
 10
75.9328054281
 20
-135.7467893033
 10
75.8863564443
 20
-135.7971540451
 10
75.8426641064
 20
-135.8514230231
 10
75.8019576972
 20
-135.9093114514
 10
75.7642529136
 20
-135.9708383571
 10
75.7295340588
 20
-136.0359847132
 10
75.6979833259
 20
-136.1044086531
 10
75.6696173694
 20
-136.1761274066
 10
75.6444195348
 20
-136.2511237439
 10
75.6225220521
 20
-136.329004109
 10
75.6039422707
 20
-136.4097836627
 10
75.5886628413
 20
-136.4934472442
 10
75.5767639451
 20
-136.5795558145
 10
75.5682723093
 20
-136.6679630274
 10
75.5631612068
 20
-136.7588152291
 10
75.5614306376
 20
-136.8521124197
  0
LINE
  5
404
100
AcDbEntity
  8
ASSI
100
AcDbLine
 62
253
  6
CONTINUOUS
 10
76.9756442
 20
-136.035563233
 11
75.5614306376
 21
-136.8521124197
  0
LINE
  5
405
100
AcDbEntity
  8
ASSI
100
AcDbLine
 62
253
  6
CONTINUOUS
 10
76.9756442
 20
-138.076738925
 11
75.5614306376
 21
-138.8932881117
  0
LWPOLYLINE
  5
406
100
AcDbEntity
  8
0
100
AcDbPolyline
 62
7
  6
CONTINUOUS
 90
4
 70
0
 10
97.6295961396
 20
-143.8991474008
 10
97.5650972246
 20
-143.9562264021
 10
97.5410801083
 20
-143.9739284155
 10
97.5221453666
 20
-143.9857302899
  0
LWPOLYLINE
  5
407
100
AcDbEntity
  8
0
100
AcDbPolyline
 62
7
  6
CONTINUOUS
 90
13
 70
0
 10
76.6014031165
 20
-147.4305246155
 10
76.5837510392
 20
-147.442403833
 10
76.5168076953
 20
-147.5101418129
 10
76.471270316
 20
-147.5982702653
 10
76.4498643515
 20
-147.7093853462
 10
76.4498643515
 20
-147.8408908996
 10
76.471270316
 20
-147.9767250517
 10
76.5168076953
 20
-148.1174389284
 10
76.5837510392
 20
-148.2624814037
 10
76.6639239966
 20
-148.3941372262
 10
76.7546011174
 20
-148.5065013121
 10
76.8585078519
 20
-148.6054787452
 10
76.9756442
 20
-148.6910695254
  0
LWPOLYLINE
  5
408
100
AcDbEntity
  8
0
100
AcDbPolyline
 62
7
  6
CONTINUOUS
 90
13
 70
0
 10
77.3498852834
 20
-148.7269090202
 10
77.3675373608
 20
-148.7150298026
 10
77.4344807046
 20
-148.6472918228
 10
77.4800180839
 20
-148.5591633704
 10
77.5014240485
 20
-148.4480482895
 10
77.5014240485
 20
-148.3165427361
 10
77.4800180839
 20
-148.180708584
 10
77.4344807046
 20
-148.0399947073
 10
77.3675373608
 20
-147.894952232
 10
77.2873644033
 20
-147.7632964095
 10
77.1966872825
 20
-147.6509323236
 10
77.092780548
 20
-147.5519548905
 10
76.9756442
 20
-147.4663641102
  0
LWPOLYLINE
  5
409
100
AcDbEntity
  8
0
100
AcDbPolyline
 62
7
  6
CONTINUOUS
 90
49
 70
0
 10
104.4694744626
 20
-128.5856512307
 10
104.4173897005
 20
-128.6183584793
 10
104.3663501927
 20
-128.6559633727
 10
104.3179824377
 20
-128.6974817615
 10
104.2723017104
 20
-128.7429360061
 10
104.2292927358
 20
-128.7923037461
 10
104.1892008538
 20
-128.8453031279
 10
104.152042739
 20
-128.9019549006
 10
104.1178017168
 20
-128.9622383153
 10
104.086673103
 20
-129.0258092709
 10
104.0586746866
 20
-129.0926865505
 10
104.0337886785
 20
-129.162851371
 10
104.0121570278
 20
-129.2359032833
 10
103.9937983332
 20
-129.3118587827
 10
103.978693996
 20
-129.3907013738
 10
103.966930169
 20
-129.4719811216
 10
103.9585259424
 20
-129.5557119516
 10
103.953462226
 20
-129.6418799384
 10
103.9517679022
 20
-129.7299933702
 10
103.953462226
 20
-129.8200633646
 10
103.9585259424
 20
-129.912078804
 10
103.966930169
 20
-130.0055146243
 10
103.978693996
 20
-130.1003789446
 10
103.9937983332
 20
-130.1966636458
 10
104.0121570278
 20
-130.2938193055
 10
104.0337886785
 20
-130.3918509058
 10
104.0586746866
 20
-130.4907534647
 10
104.086673103
 20
-130.5899626138
 10
104.1178017168
 20
-130.6894801124
 10
104.152042739
 20
-130.7893042011
 10
104.1892008538
 20
-130.8888652334
 10
104.2292927358
 20
-130.9881617156
 10
104.2723017104
 20
-131.0871951414
 10
104.3179824377
 20
-131.1854003449
 10
104.3663501927
 20
-131.2827726047
 10
104.4173897005
 20
-131.3793166423
 10
104.4708097964
 20
-131.474481456
 10
104.526624094
 20
-131.5682591769
 10
104.5848189798
 20
-131.6606576739
 10
104.6450624485
 20
-131.7511495512
 10
104.707366219
 20
-131.839723927
 10
104.7717185724
 20
-131.9263916833
 10
104.8377523465
 20
-132.0106580695
 10
104.9054771648
 20
-132.0925093767
 10
104.9748834038
 20
-132.1719593139
 10
105.0455750311
 20
-132.2485542583
 10
105.1174200359
 20
-132.3221430021
 10
105.1905504289
 20
-132.3928767531
 10
105.2649662102
 20
-132.4607555113
  0
LWPOLYLINE
  5
40A
100
AcDbEntity
  8
ASSI
100
AcDbPolyline
 62
7
  6
CONTINUOUS
 90
11
 70
0
 10
76.8309461163
 20
-146.603403113
 10
76.806207254
 20
-146.6187640471
 10
76.7747449173
 20
-146.6417768731
 10
76.7450194293
 20
-146.6676533432
 10
76.7172515816
 20
-146.6962012554
 10
76.6914559509
 20
-146.7274405015
 10
76.6676179604
 20
-146.7613511896
 10
76.6459146711
 20
-146.797681442
 10
76.6263619782
 20
-146.836449275
 10
76.6089439864
 20
-146.8776366724
 10
76.5970383058
 20
-146.9116561508
  0
LWPOLYLINE
  5
40B
100
AcDbEntity
  8
ASSI
100
AcDbPolyline
 62
7
  6
CONTINUOUS
 90
17
 70
0
 10
78.1810024554
 20
-148.9416186327
 10
78.2057413177
 20
-148.9262576986
 10
78.2372036545
 20
-148.9032448726
 10
78.2669291424
 20
-148.8773684025
 10
78.2946969901
 20
-148.8488204903
 10
78.3204926208
 20
-148.8175812442
 10
78.3443306113
 20
-148.7836705561
 10
78.3660339006
 20
-148.7473403037
 10
78.3855865935
 20
-148.7085724707
 10
78.4030045853
 20
-148.6673850733
 10
78.4181585006
 20
-148.6240840385
 10
78.4310314808
 20
-148.5786536278
 10
78.4416403846
 20
-148.5311095796
 10
78.4499064125
 20
-148.4818050359
 10
78.4558032978
 20
-148.4308577107
 10
78.4593573071
 20
-148.37814989
 10
78.4605684405
 20
-148.3236815738
  0
LWPOLYLINE
  5
40C
100
AcDbEntity
  8
ASSI
100
AcDbPolyline
 62
7
  6
CONTINUOUS
 90
20
 70
0
 10
78.881036217
 20
-142.3975669319
 10
78.9234856001
 20
-142.3715055145
 10
78.9779462558
 20
-142.3330972186
 10
79.0299230226
 20
-142.290561473
 10
79.0791431436
 20
-142.2441214913
 10
79.1255921274
 20
-142.1937567495
 10
79.1692844654
 20
-142.1394877716
 10
79.2099908745
 20
-142.0815993432
 10
79.2476956581
 20
-142.0200724375
 10
79.2824145129
 20
-141.9549260814
 10
79.3139652458
 20
-141.8865021416
 10
79.3423312023
 20
-141.814783388
 10
79.3675290369
 20
-141.7397870507
 10
79.3894265196
 20
-141.6619066857
 10
79.408006301
 20
-141.5811271319
 10
79.4232857305
 20
-141.4974635505
 10
79.4351846266
 20
-141.4113549801
 10
79.4436762624
 20
-141.3229477673
 10
79.4487873649
 20
-141.2320955655
 10
79.4505179341
 20
-141.138798375
  0
LINE
  5
40D
100
AcDbEntity
  8
ASSI
100
AcDbLine
 62
7
  6
CONTINUOUS
 10
105.3659814646
 20
-128.0680193057
 11
104.4694744549
 21
-128.5856512173
  0
LINE
  5
40E
100
AcDbEntity
  8
0
100
AcDbLine
 62
253
  6
CONTINUOUS
 10
105.2649662102
 20
-128.5156797185
 11
105.3659814646
 21
-128.4573547766
  0
LINE
  5
40F
100
AcDbEntity
  8
0
100
AcDbLine
 62
7
  6
CONTINUOUS
 10
76.3756152078
 20
-147.0395030725
 11
77.2147770658
 21
-146.5549815329
  0
LINE
  5
410
100
AcDbEntity
  8
0
100
AcDbLine
 62
7
  6
CONTINUOUS
 10
77.5756731921
 20
-149.1179305632
 11
78.414910266
 21
-148.6333655949
  0
LINE
  5
411
100
AcDbEntity
  8
0
100
AcDbLine
 62
253
  6
CONTINUOUS
 10
97.0221214466
 20
-143.936189528
 11
98.436335009
 21
-143.1196403414
  0
LWPOLYLINE
  5
412
100
AcDbEntity
  8
0
100
AcDbPolyline
 62
7
  6
CONTINUOUS
 90
6
 70
0
 10
76.3766483286
 20
-147.0412923862
 10
76.4321390292
 20
-147.0142397566
 10
76.5513801313
 20
-146.9852512605
 10
76.6801702414
 20
-146.9905968674
 10
76.8215915977
 20
-147.0284972758
 10
76.9756442
 20
-147.0989524857
  0
LWPOLYLINE
  5
413
100
AcDbEntity
  8
0
100
AcDbPolyline
 62
7
  6
CONTINUOUS
 90
6
 70
0
 10
77.5746400713
 20
-149.1161412495
 10
77.5191493707
 20
-149.1431938791
 10
77.3999082687
 20
-149.1721823752
 10
77.2711181585
 20
-149.1668367682
 10
77.1296968023
 20
-149.1289363598
 10
76.9756442
 20
-149.05848115
  0
LWPOLYLINE
  5
414
100
AcDbEntity
  8
0
100
AcDbPolyline
 62
7
  6
CONTINUOUS
 90
3
 70
0
 10
97.7191294029
 20
-143.8372018675
 10
97.6736411866
 20
-143.8659848484
 10
97.6295961396
 20
-143.8991474008
  0
LWPOLYLINE
  5
415
100
AcDbEntity
  8
ASSI
100
AcDbPolyline
 62
7
  6
CONTINUOUS
 90
19
 70
0
 10
94.2353661505
 20
-146.1311576911
 10
94.1874556245
 20
-146.16129894
 10
94.1416295228
 20
-146.1951760566
 10
94.0982030755
 20
-146.2325648078
 10
94.057189969
 20
-146.2734852221
 10
94.018576517
 20
-146.3179172711
 10
93.9825825305
 20
-146.3656080208
 10
93.9492229495
 20
-146.4165760569
 10
93.918482834
 20
-146.4708027937
 10
93.8905371753
 20
-146.5279795398
 10
93.8654019115
 20
-146.5881231205
 10
93.8430611044
 20
-146.6512167106
 10
93.8236419316
 20
-146.7169011432
 10
93.8071610562
 20
-146.7851911951
 10
93.793601815
 20
-146.8560720896
 10
93.7830413954
 20
-146.9291403299
 10
93.7755055264
 20
-147.0042614171
 10
93.770968479
 20
-147.08156985
 10
93.7694302531
 20
-147.1610656287
  0
LWPOLYLINE
  5
416
100
AcDbEntity
  8
ASSI
100
AcDbPolyline
 62
7
  6
CONTINUOUS
 90
19
 70
0
 10
96.4854748711
 20
-152.0693849282
 10
96.5333853972
 20
-152.0392436793
 10
96.5792114989
 20
-152.0053665627
 10
96.6226379461
 20
-151.9679778115
 10
96.6636510526
 20
-151.9270573972
 10
96.7022645046
 20
-151.8826253482
 10
96.7382584911
 20
-151.8349345985
 10
96.7716180722
 20
-151.7839665624
 10
96.8023581876
 20
-151.7297398256
 10
96.8303038463
 20
-151.6725630795
 10
96.8554391102
 20
-151.6124194988
 10
96.8777799172
 20
-151.5493259087
 10
96.8971990901
 20
-151.4836414761
 10
96.9136799654
 20
-151.4153514242
 10
96.9272392066
 20
-151.3444705297
 10
96.9377996263
 20
-151.2714022894
 10
96.9453354952
 20
-151.1962812022
 10
96.9498725426
 20
-151.1189727693
 10
96.9514107685
 20
-151.0394769906
  0
LINE
  5
417
100
AcDbEntity
  8
ASSI
100
AcDbLine
 62
7
  6
CONTINUOUS
 10
99.1333429635
 20
-143.0206526778
 11
97.7191294012
 21
-143.8372018645
  0
LINE
  5
418
100
AcDbEntity
  8
ASSI
100
AcDbLine
 62
253
  6
CONTINUOUS
 10
95.1836438155
 20
-146.344516442
 11
93.7694302531
 21
-147.1610656287
  0
LINE
  5
419
100
AcDbEntity
  8
0
100
AcDbLine
 62
253
  6
CONTINUOUS
 10
99.8505485714
 20
-145.2426997906
 11
101.2647621337
 21
-144.426150604
  0
LINE
  5
41A
100
AcDbEntity
  8
ASSI
100
AcDbLine
 62
253
  6
CONTINUOUS
 10
95.1836438155
 20
-148.385692134
 11
93.7694302531
 21
-149.2022413207
  0
LINE
  5
41B
100
AcDbEntity
  8
0
100
AcDbLine
 62
253
  6
CONTINUOUS
 10
100.4162339963
 20
-145.895907576
 11
101.8304475587
 21
-145.0793583893
  0
LINE
  5
41C
100
AcDbEntity
  8
0
100
AcDbLine
 62
253
  6
CONTINUOUS
 10
105.3659814646
 20
-148.4272100546
 11
105.0831387521
 21
-148.590519892
  0
LWPOLYLINE
  5
41D
100
AcDbEntity
  8
0
100
AcDbPolyline
 62
7
  6
CONTINUOUS
 90
17
 70
0
 10
97.5221453666
 20
-143.9857302899
 10
97.5157555225
 20
-143.9893271323
 10
97.4890494649
 20
-144.0024511371
 10
97.4610359379
 20
-144.0132718451
 10
97.4319369485
 20
-144.0217035025
 10
97.4017438716
 20
-144.0277271258
 10
97.3704653322
 20
-144.0313616984
 10
97.3383492126
 20
-144.0325784163
 10
97.3053888574
 20
-144.0313580673
 10
97.271590922
 20
-144.0277198636
 10
97.2372232547
 20
-144.0216926379
 10
97.2022813286
 20
-144.0132574072
 10
97.1667696706
 20
-144.0024331546
 10
97.1309697105
 20
-143.9893056621
 10
97.094975258
 20
-143.9739035239
 10
97.0586925034
 20
-143.9561981459
 10
97.0221214466
 20
-143.936189528
  0
LWPOLYLINE
  5
41E
100
AcDbEntity
  8
0
100
AcDbPolyline
 62
7
  6
CONTINUOUS
 90
19
 70
0
 10
117.1039540323
 20
-174.3099254349
 10
117.1947254233
 20
-174.2551467652
 10
117.2809719824
 20
-174.1983633914
 10
117.3626937096
 20
-174.1395753135
 10
117.4400287649
 20
-174.0786631447
 10
117.5128389883
 20
-174.0157462717
 10
117.5807099001
 20
-173.9511828555
 10
117.6436133293
 20
-173.8849635051
 10
117.701577447
 20
-173.8170976114
 10
117.7542722863
 20
-173.747971508
 10
117.8016677943
 20
-173.6775780075
 10
117.8437940241
 20
-173.6059242973
 10
117.8804111676
 20
-173.5334182736
 10
117.9114878042
 20
-173.4600550752
 10
117.9370553546
 20
-173.3858395634
 10
117.9569682729
 20
-173.3111942175
 10
117.9711943082
 20
-173.236116586
 10
117.9797657113
 20
-173.1606091204
 10
117.9826336887
 20
-173.0851016549
  0
LINE
  5
41F
100
AcDbEntity
  8
0
100
AcDbLine
 62
7
  6
CONTINUOUS
 10
117.9826336887
 20
-167.8419671348
 11
118.0090507122
 21
-167.8267142765
  0
LINE
  5
420
100
AcDbEntity
  8
0
100
AcDbLine
 62
7
  6
CONTINUOUS
 10
117.1039540323
 20
-174.3099254349
 11
110.3157289329
 21
-178.2293615309
  0
ENDSEC
  0
SECTION
  2
OBJECTS
  0
DICTIONARY
  5
C
100
AcDbDictionary
280
0
281
1
  3
ACAD_GROUP
350
D
  3
ACAD_MLINESTYLE
350
17
  3
ACAD_LAYOUT
350
1A
  3
ACAD_PLOTSETTINGS
350
19
  3
ACAD_PLOTSTYLENAME
350
E
  0
DICTIONARY
  5
D
102
{ACAD_REACTORS
330
C
102
}
100
AcDbDictionary
280
0
281
1
  0
ACDBDICTIONARYWDFLT
  5
E
102
{ACAD_REACTORS
330
C
102
}
100
AcDbDictionary
281
1
  3
Normal
350
F
100
AcDbDictionaryWithDefault
340
F
  0
DICTIONARY
  5
17
102
{ACAD_REACTORS
330
C
102
}
100
AcDbDictionary
280
0
281
1
  3
Standard
350
18
  0
DICTIONARY
  5
19
102
{ACAD_REACTORS
330
C
102
}
100
AcDbDictionary
281
1
  0
DICTIONARY
  5
1A
102
{ACAD_REACTORS
330
C
102
}
100
AcDbDictionary
281
1
  3
Model
350
421
  3
Layout1
350
422
  0
ACDBPLACEHOLDER
  5
F
102
{ACAD_REACTORS
330
E
102
}
  0
MLINESTYLE
  5
18
102
{ACAD_REACTORS
330
17
102
}
100
AcDbMlineStyle
  2
STANDARD
 70
0
  3

 62
256
 51
90.0
 52
90.0
 71
2
 49
0.5
 62
256
  6
BYLAYER
 49
-0.5
 62
256
  6
BYLAYER
  0
LAYOUT
  5
421
102
{ACAD_REACTORS
330
1A
102
}
100
AcDbPlotSettings
  1

  2
none_device
  4
ISO_A4_(297.00_x_210.00_MM)
  6

 40
0.0
 41
0.0
 42
0.0
 43
0.0
 44
297.0
 45
210.0
 46
0.0
 47
0.0
 48
0.0
 49
0.0
140
0.0
141
0.0
142
1.0
143
1.0
 70
1024
 72
1
 73
0
 74
0
  7

 75
0
147
1.0
148
0.0
149
0.0
100
AcDbLayout
  1
Model
 70
0
 71
0
 10
0.0
 20
0.0
 11
297.0
 21
210.0
 12
0.0
 22
0.0
 32
0.0
 14
0.0
 24
0.0
 34
0.0
 15
0.0
 25
0.0
 35
0.0
146
0.0
 13
0.0
 23
0.0
 33
0.0
 16
1.0
 26
0.0
 36
0.0
 17
0.0
 27
1.0
 37
0.0
 76
0
330
20F
345
0
346
0
  0
LAYOUT
  5
422
102
{ACAD_REACTORS
330
1A
102
}
100
AcDbPlotSettings
  1

  2
none_device
  4
ISO_A4_(297.00_x_210.00_MM)
  6

 40
0.0
 41
0.0
 42
0.0
 43
0.0
 44
297.0
 45
210.0
 46
0.0
 47
0.0
 48
0.0
 49
0.0
140
0.0
141
0.0
142
1.0
143
1.0
 70
0
 72
1
 73
0
 74
0
  7

 75
0
147
1.0
148
0.0
149
0.0
100
AcDbLayout
  1
Layout1
 70
0
 71
1
 10
0.0
 20
0.0
 11
297.0
 21
210.0
 12
0.0
 22
0.0
 32
0.0
 14
0.0
 24
0.0
 34
0.0
 15
0.0
 25
0.0
 35
0.0
146
0.0
 13
0.0
 23
0.0
 33
0.0
 16
1.0
 26
0.0
 36
0.0
 17
0.0
 27
1.0
 37
0.0
 76
0
330
210
345
0
346
0
  0
ENDSEC
  0
EOF
