  0
SECTION
  2
HEADER
  9
$ACADVER
  1
AC1021
  9
$DWGCODEPAGE
  3
ANSI_1252
  9
$EXTMAX
 10
297.0
 20
210.0
 30
0.0
  9
$EXTMIN
 10
0.0
 20
0.0
 30
0.0
  9
$LIMMIN
 10
0.0
 20
0.0
  9
$LIMMAX
 10
297.0
 20
210.0
  9
$VIEWCTR
 10
148.5
 20
105.0
  9
$VIEWSIZE
 40
210.0
  9
$CLAYER
  8
0
  9
$LTSCALE
 40
16.335
  9
$CELTYPE
  6
BYLAYER
  9
$DIMSCALE
 40
1.0
  9
$DIMASZ
 40
3.0
  9
$DIMEXO
 40
0.5
  9
$DIMDLI
 40
11.286
  9
$DIMEXE
 40
1.5
  9
$DIMCEN
 40
2.673
  9
$DIMLFAC
 40
1.0
  9
$DIMBLK
  1
_FILLED
  9
$DIMALT
 70
0
  9
$DIMALTF
 40
0.0393700787
  9
$DIMTXT
 40
3.0
  9
$DIMTOL
 70
1
  9
$DIMLIM
 70
0
  9
$DIMTFAC
 40
1.0
  9
$DIMTP
 40
0.01
  9
$DIMTM
 40
0.01
  9
$DIMGAP
 40
0.625
  9
$DIMDSEP
 70
44
  9
$AUNITS
 70
0
  9
$PDMODE
 70
3
  9
$PDSIZE
 40
3.0
  9
$HANDSEED
  5
4F1
  9
$TILEMODE
 70
1
  9
$MEASUREMENT
 70
1
  9
$INSUNITS
 70
4
  0
ENDSEC
  0
SECTION
  2
CLASSES
  0
CLASS
  1
ACDBDICTIONARYWDFLT
  2
AcDbDictionaryWithDefault
  3
AutoCAD 2000
 90
0
 91
1
280
0
281
0
  0
CLASS
  1
ACDBPLACEHOLDER
  2
AcDbPlaceHolder
  3
AutoCAD 2000
 90
0
 91
1
280
0
281
0
  0
CLASS
  1
LAYOUT
  2
AcDbLayout
  3
AutoCAD 2000
 90
0
 91
0
280
0
281
0
  0
ENDSEC
  0
SECTION
  2
TABLES
  0
TABLE
  2
VPORT
  5
8
100
AcDbSymbolTable
 70
2
  0
VPORT
  5
1F4
100
AcDbSymbolTableRecord
100
AcDbViewportTableRecord
  2
*ACTIVE
 70
0
 10
0.0
 20
0.0
 11
1.0
 21
1.0
 12
148.5
 22
105.0
 13
0.0
 23
0.0
 14
1.0
 24
1.0
 15
0.0
 25
0.0
 16
0.0
 26
0.0
 36
1.0
 17
0.0
 27
0.0
 37
0.0
 40
210.0
 41
1.4142857143
 42
50.0
 43
0.0
 44
0.0
 50
0.0
 51
0.0
 71
0
 72
100
 73
1
 74
1
 75
0
 76
0
 77
0
 78
0
  0
ENDTAB
  0
TABLE
  2
LTYPE
  5
5
100
AcDbSymbolTable
 70
6
  0
LTYPE
  5
14
100
AcDbSymbolTableRecord
100
AcDbLinetypeTableRecord
  2
BYBLOCK
 70
0
  3

 72
65
 73
0
 40
0.0
  0
LTYPE
  5
15
100
AcDbSymbolTableRecord
100
AcDbLinetypeTableRecord
  2
BYLAYER
 70
0
  3

 72
65
 73
0
 40
0.0
  0
LTYPE
  5
16
100
AcDbSymbolTableRecord
100
AcDbLinetypeTableRecord
  2
CONTINUOUS
 70
64
  3
Solid line
 72
65
 73
0
 40
0.0
  0
LTYPE
  5
1F5
100
AcDbSymbolTableRecord
100
AcDbLinetypeTableRecord
  2
CENTER
 70
64
  3
____ _ ____ _ ____ _ ____ _ ____ _ ____ _ ____
 72
65
 73
4
 40
0.6
 49
0.375
 74
0
 49
-0.075
 74
0
 49
0.075
 74
0
 49
-0.075
 74
0
  0
LTYPE
  5
1F6
100
AcDbSymbolTableRecord
100
AcDbLinetypeTableRecord
  2
HIDDEN
 70
64
  3
- - - - - - - - - - - - - - - - - - - -
 72
65
 73
2
 40
0.2
 49
0.1
 74
0
 49
-0.1
 74
0
  0
LTYPE
  5
1F7
100
AcDbSymbolTableRecord
100
AcDbLinetypeTableRecord
  2
PHANTOM
 70
64
  3
_____ _ _ _____ _ _ _____ _ _ _____
 72
65
 73
6
 40
0.8
 49
0.45
 74
0
 49
-0.05
 74
0
 49
0.1
 74
0
 49
-0.05
 74
0
 49
0.1
 74
0
 49
-0.05
 74
0
  0
LTYPE
  5
1F8
100
AcDbSymbolTableRecord
100
AcDbLinetypeTableRecord
  2
DOT
 70
64
  3
. . . . . . . . . . . . . . . . . . . .
 72
65
 73
2
 40
0.2
 49
0.1
 74
0
 49
-0.1
 74
0
  0
LTYPE
  5
1F9
100
AcDbSymbolTableRecord
100
AcDbLinetypeTableRecord
  2
DASHED
 70
64
  3
- - - - - - - - - - - - - - - - - - - -
 72
65
 73
2
 40
0.2
 49
0.1
 74
0
 49
-0.1
 74
0
  0
ENDTAB
  0
TABLE
  2
LAYER
  5
2
100
AcDbSymbolTable
 70
36
  0
LAYER
  5
10
100
AcDbSymbolTableRecord
100
AcDbLayerTableRecord
  2
0
 70
0
 62
7
  6
CONTINUOUS
370
-3
390
F
  0
LAYER
  5
1FA
100
AcDbSymbolTableRecord
100
AcDbLayerTableRecord
  2
DEFAULT_1
 70
0
 62
7
  6
CENTER
370
-3
390
F
  0
LAYER
  5
1FB
100
AcDbSymbolTableRecord
100
AcDbLayerTableRecord
  2
DEFAULT_2
 70
0
 62
7
  6
HIDDEN
370
-3
390
F
  0
LAYER
  5
1FC
100
AcDbSymbolTableRecord
100
AcDbLayerTableRecord
  2
DEFAULT_3
 70
0
 62
7
  6
PHANTOM
370
-3
390
F
  0
LAYER
  5
1FD
100
AcDbSymbolTableRecord
100
AcDbLayerTableRecord
  2
ASSI
 70
0
 62
7
  6
CONTINUOUS
370
-3
390
F
  0
LAYER
  5
1FE
100
AcDbSymbolTableRecord
100
AcDbLayerTableRecord
  2
COORDINATE
 70
0
 62
7
  6
CONTINUOUS
370
-3
390
F
  0
LAYER
  5
1FF
100
AcDbSymbolTableRecord
100
AcDbLayerTableRecord
  2
COPY_PUBLISH
 70
0
 62
7
  6
CONTINUOUS
370
-3
390
F
  0
LAYER
  5
200
100
AcDbSymbolTableRecord
100
AcDbLayerTableRecord
  2
COSMETICI
 70
0
 62
7
  6
CONTINUOUS
370
-3
390
F
  0
LAYER
  5
201
100
AcDbSymbolTableRecord
100
AcDbLayerTableRecord
  2
CURVE
 70
0
 62
7
  6
CONTINUOUS
370
-3
390
F
  0
LAYER
  5
202
100
AcDbSymbolTableRecord
100
AcDbLayerTableRecord
  2
DRAFT
 70
0
 62
7
  6
CONTINUOUS
370
-3
390
F
  0
LAYER
  5
203
100
AcDbSymbolTableRecord
100
AcDbLayerTableRecord
  2
IMPORT_IGES
 70
0
 62
7
  6
CONTINUOUS
370
-3
390
F
  0
LAYER
  5
204
100
AcDbSymbolTableRecord
100
AcDbLayerTableRecord
  2
INTFCLR_3
 70
0
 62
7
  6
CONTINUOUS
370
-3
390
F
  0
LAYER
  5
205
100
AcDbSymbolTableRecord
100
AcDbLayerTableRecord
  2
INTF_RED
 70
0
 62
7
  6
CONTINUOUS
370
-3
390
F
  0
LAYER
  5
206
100
AcDbSymbolTableRecord
100
AcDbLayerTableRecord
  2
LIVELLO_1
 70
0
 62
7
  6
CONTINUOUS
370
-3
390
F
  0
LAYER
  5
207
100
AcDbSymbolTableRecord
100
AcDbLayerTableRecord
  2
NOTE
 70
0
 62
7
  6
CONTINUOUS
370
-3
390
F
  0
LAYER
  5
208
100
AcDbSymbolTableRecord
100
AcDbLayerTableRecord
  2
PIANI
 70
0
 62
7
  6
CONTINUOUS
370
-3
390
F
  0
LAYER
  5
209
100
AcDbSymbolTableRecord
100
AcDbLayerTableRecord
  2
PUNTI
 70
0
 62
7
  6
CONTINUOUS
370
-3
390
F
  0
LAYER
  5
20A
100
AcDbSymbolTableRecord
100
AcDbLayerTableRecord
  2
RACCORDO
 70
0
 62
7
  6
CONTINUOUS
370
-3
390
F
  0
LAYER
  5
20B
100
AcDbSymbolTableRecord
100
AcDbLayerTableRecord
  2
SIMBOLI
 70
0
 62
7
  6
CONTINUOUS
370
-3
390
F
  0
LAYER
  5
20C
100
AcDbSymbolTableRecord
100
AcDbLayerTableRecord
  2
SMUSSO
 70
0
 62
7
  6
CONTINUOUS
370
-3
390
F
  0
LAYER
  5
20D
100
AcDbSymbolTableRecord
100
AcDbLayerTableRecord
  2
SUPERFICI
 70
0
 62
7
  6
CONTINUOUS
370
-3
390
F
  0
LAYER
  5
20E
100
AcDbSymbolTableRecord
100
AcDbLayerTableRecord
  2
TRASH
 70
0
 62
7
  6
CONTINUOUS
370
-3
390
F
  0
LAYER
  5
20F
100
AcDbSymbolTableRecord
100
AcDbLayerTableRecord
  2
WHITE
 70
0
 62
7
  6
CONTINUOUS
370
-3
390
F
  0
ENDTAB
  0
TABLE
  2
STYLE
  5
3
100
AcDbSymbolTable
 70
1
  0
STYLE
  5
11
100
AcDbSymbolTableRecord
100
AcDbTextStyleTableRecord
  2
STANDARD
 70
0
 40
0.0
 41
0.8
 50
0.0
 71
0
 42
0.2
  3
txt
  4

  0
STYLE
  5
210
100
AcDbSymbolTableRecord
100
AcDbTextStyleTableRecord
  2
TEXTSTYLE_1
 70
0
 40
0.0
 41
0.8
 50
0.0
 71
0
 42
0.2
  3
gdt
  4

  0
ENDTAB
  0
TABLE
  2
VIEW
  5
6
100
AcDbSymbolTable
 70
0
  0
ENDTAB
  0
TABLE
  2
UCS
  5
7
100
AcDbSymbolTable
 70
0
  0
ENDTAB
  0
TABLE
  2
APPID
  5
9
100
AcDbSymbolTable
 70
1
  0
APPID
  5
211
100
AcDbSymbolTableRecord
100
AcDbRegAppTableRecord
  2
ACAD
 70
0
  0
ENDTAB
  0
TABLE
  2
BLOCK_RECORD
  5
1
100
AcDbSymbolTable
 70
0
  0
BLOCK_RECORD
  5
212
100
AcDbSymbolTableRecord
100
AcDbBlockTableRecord
  2
*Model_Space
  0
BLOCK_RECORD
  5
213
100
AcDbSymbolTableRecord
100
AcDbBlockTableRecord
  2
*Paper_Space
  0
ENDTAB
  0
TABLE
  2
DIMSTYLE
  5
A
100
AcDbSymbolTable
 70
1
100
AcDbDimStyleTable
 71
0
  0
DIMSTYLE
105
214
100
AcDbSymbolTableRecord
100
AcDbDimStyleTableRecord
  2
STANDARD
 70
0
  3

  4

 40
1.0
 41
3.0
 42
0.5
 43
0.38
 44
1.5
 45
0.0
 46
0.0
 47
0.01
 48
0.01
140
3.0
141
0.09
142
0.0
143
25.4
144
1.0
145
0.0
146
1.0
147
0.625
 71
1.0
 72
0.0
 73
0
 74
0
 75
0
 76
0
 77
1
 78
8
170
0
171
2
172
0
173
0
174
0
175
0
176
0
177
0
178
0
270
2
271
2
272
2
273
2
274
2
275
0
280
0
281
0
282
0
283
1
284
8
285
0
286
0
287
3
288
0
340
11
278
44
  0
ENDTAB
  0
ENDSEC
  0
SECTION
  2
BLOCKS
  0
BLOCK
  5
20
100
AcDbEntity
  8
0
100
AcDbBlockBegin
  2
*Model_Space
 70
0
 10
0.0
 20
0.0
 30
0.0
  3
*Model_Space
  1

  0
ENDBLK
  5
21
100
AcDbEntity
  8
0
100
AcDbBlockEnd
  0
BLOCK
  5
1C
100
AcDbEntity
  8
0
100
AcDbBlockBegin
  2
*Paper_Space
 70
0
 10
0.0
 20
0.0
 30
0.0
  3
*Paper_Space
  1

  0
ENDBLK
  5
1D
100
AcDbEntity
  8
0
100
AcDbBlockEnd
  0
ENDSEC
  0
SECTION
  2
ENTITIES
  0
LWPOLYLINE
  5
215
100
AcDbEntity
  8
RACCORDO
100
AcDbPolyline
 62
7
  6
CONTINUOUS
 90
6
 70
0
 10
-21.642544973
 20
60.5518399117
 10
-21.6407691185
 20
60.5548501848
 10
-21.6396309242
 20
60.5564604973
 10
-21.6399150952
 20
60.55614926
 10
-21.641840495
 20
60.554427218
 10
-21.644756965
 20
60.5523760273
  0
LWPOLYLINE
  5
216
100
AcDbEntity
  8
RACCORDO
100
AcDbPolyline
 62
7
  6
CONTINUOUS
 90
13
 70
0
 10
-23.0059262148
 20
61.824509057
 10
-23.0266031927
 20
61.810745304
 10
-23.0520244922
 20
61.7908094751
 10
-23.0760353259
 20
61.7682904264
 10
-23.098345785
 20
61.7432658417
 10
-23.1186652716
 20
61.7158648035
 10
-23.1367388295
 20
61.6862519836
 10
-23.1523717394
 20
61.6545564261
 10
-23.1653375131
 20
61.6210298359
 10
-23.1754509115
 20
61.5859903918
 10
-23.1826286264
 20
61.5496397026
 10
-23.1868104898
 20
61.5121082669
 10
-23.1879636666
 20
61.478797276
  0
LWPOLYLINE
  5
217
100
AcDbEntity
  8
RACCORDO
100
AcDbPolyline
 62
253
  6
CONTINUOUS
 90
16
 70
0
 10
-22.7502704479
 20
61.8031517878
 10
-22.7721756207
 20
61.788750136
 10
-22.7938064281
 20
61.7719017167
 10
-22.814931111
 20
61.7527870491
 10
-22.835323333
 20
61.7316109334
 10
-22.8547646056
 20
61.7086002573
 10
-22.8730466291
 20
61.6840015641
 10
-22.8899735242
 20
61.6580784117
 10
-22.905363931
 20
61.6311085488
 10
-22.919052952
 20
61.6033809387
 10
-22.9308939188
 20
61.5751926637
 10
-22.9407599635
 20
61.5468457414
 10
-22.9485453785
 20
61.5186438896
 10
-22.9541667483
 20
61.4908892716
 10
-22.9575638439
 20
61.4638792587
 10
-22.9587002678
 20
61.4379032447
  0
LWPOLYLINE
  5
218
100
AcDbEntity
  8
RACCORDO
100
AcDbPolyline
 62
253
  6
CONTINUOUS
 90
16
 70
0
 10
-21.5209397286
 20
61.0933511756
 10
-21.5428460183
 20
61.0789490363
 10
-21.5644778441
 20
61.0620999854
 10
-21.585603425
 20
61.0429845802
 10
-21.6059964081
 20
61.0218076622
 10
-21.6254382903
 20
60.9987961546
 10
-21.6437207587
 20
60.9741966294
 10
-21.6606479276
 20
60.9482726801
 10
-21.6760384387
 20
60.921302085
 10
-21.689727398
 20
60.893573822
 10
-21.7015681416
 20
60.8653849976
 10
-21.7114338127
 20
60.8370376482
 10
-21.719218717
 20
60.8088354898
 10
-21.7248394508
 20
60.7810806921
 10
-21.7282357981
 20
60.7540706405
 10
-21.7293713773
 20
60.7280947332
  0
LINE
  5
219
100
AcDbEntity
  8
RACCORDO
100
AcDbLine
 62
7
  6
CONTINUOUS
 10
-22.1672196482
 20
62.343178461
 11
-23.006079441
 21
61.824414982
  0
LINE
  5
21A
100
AcDbEntity
  8
RACCORDO
100
AcDbLine
 62
253
  6
CONTINUOUS
 10
-21.9129158321
 20
62.3209844428
 11
-22.7502704479
 21
61.8031517878
  0
LINE
  5
21B
100
AcDbEntity
  8
RACCORDO
100
AcDbLine
 62
7
  6
CONTINUOUS
 10
-21.6448854998
 20
60.5522976495
 11
-25.465330562
 21
58.1896771151
  0
LINE
  5
21C
100
AcDbEntity
  8
RACCORDO
100
AcDbLine
 62
253
  6
CONTINUOUS
 10
-21.3920868226
 20
60.5291728308
 11
-25.2085181301
 21
58.1690344626
  0
LWPOLYLINE
  5
21D
100
AcDbEntity
  8
RACCORDO
100
AcDbPolyline
 62
253
  6
CONTINUOUS
 90
13
 70
0
 10
-21.6447754927
 20
60.5523656175
 10
-21.6381711936
 20
60.556235977
 10
-21.6204669563
 20
60.5647494615
 10
-21.6014266088
 20
60.5712838512
 10
-21.5810704605
 20
60.5757127607
 10
-21.5594715622
 20
60.5779079754
 10
-21.537021957
 20
60.5777731564
 10
-21.5139378487
 20
60.5753161256
 10
-21.4902401197
 20
60.5705490255
 10
-21.4660771645
 20
60.5635049114
 10
-21.4415837878
 20
60.5542282844
 10
-21.4168777571
 20
60.5427642881
 10
-21.3920868226
 20
60.5291728308
  0
LINE
  5
21E
100
AcDbEntity
  8
RACCORDO
100
AcDbLine
 62
7
  6
CONTINUOUS
 10
-22.1672183875
 20
62.343179139
 11
-22.158495684
 21
62.3482155183
  0
LWPOLYLINE
  5
21F
100
AcDbEntity
  8
RACCORDO
100
AcDbPolyline
 62
253
  6
CONTINUOUS
 90
19
 70
0
 10
-25.2085181301
 20
58.1690344626
 10
-25.2406813511
 20
58.1504968552
 10
-25.2729982539
 20
58.1292351444
 10
-25.3050082258
 20
58.1053161917
 10
-25.336026111
 20
58.0787786211
 10
-25.365833074
 20
58.0498496956
 10
-25.3946555383
 20
58.0188759252
 10
-25.4220466859
 20
57.9859680542
 10
-25.4475761401
 20
57.9513553754
 10
-25.4714846682
 20
57.9154752977
 10
-25.4934442057
 20
57.8783879648
 10
-25.513015746
 20
57.8403592879
 10
-25.5303746055
 20
57.8020064291
 10
-25.5454257153
 20
57.7632410225
 10
-25.5577522518
 20
57.7242819531
 10
-25.5674000691
 20
57.6860325335
 10
-25.5744699873
 20
57.6486841635
 10
-25.578779454
 20
57.6118130894
 10
-25.5800931437
 20
57.5752837964
  0
LWPOLYLINE
  5
220
100
AcDbEntity
  8
RACCORDO
100
AcDbPolyline
 62
253
  6
CONTINUOUS
 90
12
 70
0
 10
-23.0059446823
 20
61.8244982298
 10
-22.9922208726
 20
61.8321000049
 10
-22.9721554299
 20
61.8404584109
 10
-22.950828871
 20
61.8463379222
 10
-22.9283603235
 20
61.8497057138
 10
-22.9048747337
 20
61.8505433372
 10
-22.8805040896
 20
61.8488456471
 10
-22.85538486
 20
61.8446219736
 10
-22.8296562594
 20
61.8378966645
 10
-22.8034622203
 20
61.8287072399
 10
-22.7769505835
 20
61.8171041813
 10
-22.7502704479
 20
61.8031517878
  0
LINE
  5
221
100
AcDbEntity
  8
RACCORDO
100
AcDbLine
 62
7
  6
CONTINUOUS
 10
-21.6548823813
 20
62.619042455
 11
-22.1584969444
 21
62.3482148405
  0
LINE
  5
222
100
AcDbEntity
  8
RACCORDO
100
AcDbLine
 62
253
  6
CONTINUOUS
 10
-21.409301269
 20
62.5918120573
 11
-21.9129158321
 21
62.3209844428
  0
LWPOLYLINE
  5
223
100
AcDbEntity
  8
RACCORDO
100
AcDbPolyline
 62
7
  6
CONTINUOUS
 90
3
 70
0
 10
-22.158495684
 20
62.3482155183
 10
-22.153297817
 20
62.3508944502
 10
-22.1331841877
 20
62.3592514418
  0
LWPOLYLINE
  5
224
100
AcDbEntity
  8
RACCORDO
100
AcDbPolyline
 62
7
  6
CONTINUOUS
 90
9
 70
0
 10
33.5625083513
 20
-54.3688813573
 10
33.6368247289
 20
-54.3488278305
 10
33.7100385684
 20
-54.3265908509
 10
33.7821054211
 20
-54.3021961386
 10
33.8530151023
 20
-54.2756596719
 10
33.922788818
 20
-54.2469828031
 10
33.9914133471
 20
-54.2161769613
 10
34.0588439533
 20
-54.1832685335
 10
34.1250528067
 20
-54.1482786598
  0
LWPOLYLINE
  5
225
100
AcDbEntity
  8
RACCORDO
100
AcDbPolyline
 62
7
  6
CONTINUOUS
 90
7
 70
0
 10
32.7806957961
 20
-53.1614260837
 10
32.8478600249
 20
-53.1438929182
 10
32.9135433324
 20
-53.1235996564
 10
32.9778044279
 20
-53.1005568621
 10
33.040621883
 20
-53.0747909892
 10
33.1019034456
 20
-53.0463598246
 10
33.161595683
 20
-53.0153122218
  0
LWPOLYLINE
  5
226
100
AcDbEntity
  8
RACCORDO
100
AcDbPolyline
 62
7
  6
CONTINUOUS
 90
4
 70
0
 10
32.6921221945
 20
-54.8205055919
 10
32.7041348162
 20
-54.8175263379
 10
32.7267631323
 20
-54.8099307779
 10
32.7479891919
 20
-54.8000421814
  0
LINE
  5
227
100
AcDbEntity
  8
RACCORDO
100
AcDbLine
 62
7
  6
CONTINUOUS
 10
33.4901793677
 20
-54.3860554818
 11
33.5625083513
 21
-54.3688813573
  0
LINE
  5
228
100
AcDbEntity
  8
RACCORDO
100
AcDbLine
 62
253
  6
CONTINUOUS
 10
30.004788092
 20
-49.0589250861
 11
30.0671718134
 21
-49.0470758629
  0
LINE
  5
229
100
AcDbEntity
  8
0
100
AcDbLine
 62
7
  6
CONTINUOUS
 10
30.059486433
 20
-47.2321563581
 11
29.868286047
 21
-47.2676223337
  0
LWPOLYLINE
  5
22A
100
AcDbEntity
  8
RACCORDO
100
AcDbPolyline
 62
7
  6
CONTINUOUS
 90
3
 70
0
 10
32.6835219527
 20
-53.1813735524
 10
32.7120618494
 20
-53.1761576606
 10
32.7806957961
 20
-53.1614260837
  0
LWPOLYLINE
  5
22B
100
AcDbEntity
  8
RACCORDO
100
AcDbPolyline
 62
253
  6
CONTINUOUS
 90
10
 70
0
 10
29.0467821909
 20
-50.0617121525
 10
29.0577180646
 20
-50.0598369792
 10
29.0697355945
 20
-50.0574864093
 10
29.0827039772
 20
-50.0546102602
 10
29.0964300932
 20
-50.0511009135
 10
29.1108060251
 20
-50.0469868632
 10
29.1258204786
 20
-50.0424262149
 10
29.1413609208
 20
-50.0374514358
 10
29.1572065966
 20
-50.0319772284
 10
29.1731828686
 20
-50.0259887548
  0
LWPOLYLINE
  5
22C
100
AcDbEntity
  8
RACCORDO
100
AcDbPolyline
 62
7
  6
CONTINUOUS
 90
17
 70
0
 10
32.6835242473
 20
-53.1813584263
 10
32.6798333886
 20
-53.1819848095
 10
32.6549939225
 20
-53.1846508698
 10
32.6295077599
 20
-53.1848833293
 10
32.6035919532
 20
-53.1828983417
 10
32.577476431
 20
-53.1787049617
 10
32.5513777691
 20
-53.1723359057
 10
32.5254745511
 20
-53.1640530526
 10
32.499960347
 20
-53.1538991503
 10
32.4750139805
 20
-53.1419262018
 10
32.4507728511
 20
-53.1284145724
 10
32.4273902844
 20
-53.1134291898
 10
32.4050047066
 20
-53.0970342605
 10
32.3837144013
 20
-53.0795095688
 10
32.363624722
 20
-53.0609964444
 10
32.3448445175
 20
-53.0415012786
 10
32.3274596464
 20
-53.0211026574
  0
LWPOLYLINE
  5
22D
100
AcDbEntity
  8
RACCORDO
100
AcDbPolyline
 62
253
  6
CONTINUOUS
 90
16
 70
0
 10
27.6345353643
 20
-61.0717597331
 10
27.6814362391
 20
-61.0641515869
 10
27.7276206106
 20
-61.0542200735
 10
27.7711560247
 20
-61.0432363746
 10
27.8119092588
 20
-61.0324861495
 10
27.8504956508
 20
-61.0224902565
 10
27.8862170387
 20
-61.0136349669
 10
27.918658172
 20
-61.0067020376
 10
27.9484641448
 20
-61.0020103512
 10
27.9763597337
 20
-60.9987536592
 10
28.0023488845
 20
-60.9969245727
 10
28.0264010252
 20
-60.9969294633
 10
28.0490291229
 20
-60.9981614714
 10
28.070336949
 20
-61.0004214966
 10
28.0900875764
 20
-61.0040637716
 10
28.1082290118
 20
-61.0091837175
  0
LWPOLYLINE
  5
22E
100
AcDbEntity
  8
RACCORDO
100
AcDbPolyline
 62
7
  6
CONTINUOUS
 90
16
 70
0
 10
33.4901758254
 20
-54.3860706539
 10
33.4717941067
 20
-54.3888146917
 10
33.4548783638
 20
-54.3892230349
 10
33.4386063181
 20
-54.3873258744
 10
33.4230408114
 20
-54.3830185411
 10
33.408119002
 20
-54.3764057042
 10
33.3942442318
 20
-54.3675392691
 10
33.381479804
 20
-54.3564704896
 10
33.3697624156
 20
-54.3431481121
 10
33.3593054995
 20
-54.3274702807
 10
33.3500374321
 20
-54.3092789528
 10
33.342029837
 20
-54.2887321712
 10
33.3357110188
 20
-54.2662022084
 10
33.3312237456
 20
-54.2418131554
 10
33.3284252491
 20
-54.2154409212
 10
33.3273155295
 20
-54.187085506
  0
LWPOLYLINE
  5
22F
100
AcDbEntity
  8
RACCORDO
100
AcDbPolyline
 62
7
  6
CONTINUOUS
 90
6
 70
0
 10
30.0339050154
 20
-49.0357121137
 10
30.0337933011
 20
-49.0357265493
 10
30.0342944616
 20
-49.0357311541
 10
30.0354892604
 20
-49.0358525853
 10
30.03722084
 20
-49.0361808111
 10
30.0393923989
 20
-49.0367665916
  0
LINE
  5
230
100
AcDbEntity
  8
RACCORDO
100
AcDbLine
 62
253
  6
CONTINUOUS
 10
27.6068115117
 20
-61.0749499843
 11
27.6345353643
 21
-61.0717597331
  0
LINE
  5
231
100
AcDbEntity
  8
RACCORDO
100
AcDbLine
 62
253
  6
CONTINUOUS
 10
30.0634715927
 20
-49.3157332033
 11
30.6167277447
 21
-49.2524939166
  0
LINE
  5
232
100
AcDbEntity
  8
RACCORDO
100
AcDbLine
 62
253
  6
CONTINUOUS
 10
30.0047880949
 20
-49.2610663138
 11
30.4932656156
 21
-49.2063451102
  0
LWPOLYLINE
  5
233
100
AcDbEntity
  8
RACCORDO
100
AcDbPolyline
 62
253
  6
CONTINUOUS
 90
3
 70
0
 10
30.9452580274
 20
-49.2158988658
 10
31.2413142842
 20
-49.1840005095
 10
31.2623834838
 20
-49.1817927016
  0
LINE
  5
234
100
AcDbEntity
  8
RACCORDO
100
AcDbLine
 62
253
  6
CONTINUOUS
 10
31.1007625902
 20
-49.1416560221
 11
31.2546045153
 21
-49.1263612601
  0
LINE
  5
235
100
AcDbEntity
  8
RACCORDO
100
AcDbLine
 62
7
  6
CONTINUOUS
 10
27.6064790256
 20
-61.0749818871
 11
27.6068115117
 21
-61.0749499843
  0
LINE
  5
236
100
AcDbEntity
  8
RACCORDO
100
AcDbLine
 62
7
  6
CONTINUOUS
 10
27.6070077185
 20
-61.0748956706
 11
27.6414168654
 21
-61.0718987987
  0
LINE
  5
237
100
AcDbEntity
  8
RACCORDO
100
AcDbLine
 62
7
  6
CONTINUOUS
 10
27.6414168654
 20
-61.0718987987
 11
27.6817479548
 21
-61.069068413
  0
LWPOLYLINE
  5
238
100
AcDbEntity
  8
RACCORDO
100
AcDbPolyline
 62
7
  6
CONTINUOUS
 90
18
 70
0
 10
27.6817479548
 20
-61.069068413
 10
27.7212407561
 20
-61.067137277
 10
27.7600267038
 20
-61.0661800151
 10
27.797995189
 20
-61.0662442816
 10
27.8349807942
 20
-61.0673138962
 10
27.8709731654
 20
-61.0693756722
 10
27.9058049904
 20
-61.0724293816
 10
27.9392932689
 20
-61.0764540809
 10
27.9714147786
 20
-61.0813972385
 10
28.002009607
 20
-61.0871824856
 10
28.0308340403
 20
-61.0937037671
 10
28.057802644
 20
-61.1008636217
 10
28.0827908814
 20
-61.108536021
 10
28.1056160579
 20
-61.1165533689
 10
28.1261847422
 20
-61.1247480287
 10
28.1444459968
 20
-61.1329479681
 10
28.1603581648
 20
-61.1409636457
 10
28.1703746299
 20
-61.146520643
  0
LWPOLYLINE
  5
239
100
AcDbEntity
  8
RACCORDO
100
AcDbPolyline
 62
7
  6
CONTINUOUS
 90
3
 70
0
 10
30.7524078843
 20
-49.2953610132
 10
30.7667555264
 20
-49.2946800572
 10
30.7803731319
 20
-49.2922511875
  0
LWPOLYLINE
  5
23A
100
AcDbEntity
  8
RACCORDO
100
AcDbPolyline
 62
253
  6
CONTINUOUS
 90
6
 70
0
 10
30.7091152773
 20
-49.2652491138
 10
30.7184639657
 20
-49.265788113
 10
30.7278582101
 20
-49.2650094815
 10
30.737091302
 20
-49.2628765329
 10
30.7455431159
 20
-49.2592792072
 10
30.75310894
 20
-49.2540405864
  0
LWPOLYLINE
  5
23B
100
AcDbEntity
  8
RACCORDO
100
AcDbPolyline
 62
7
  6
CONTINUOUS
 90
4
 70
0
 10
29.730350171
 20
-51.5496658735
 10
29.7437004794
 20
-51.5504429433
 10
29.7584739034
 20
-51.5503042506
 10
29.7745343046
 20
-51.5492003127
  0
LINE
  5
23C
100
AcDbEntity
  8
RACCORDO
100
AcDbLine
 62
253
  6
CONTINUOUS
 10
30.9615796691
 20
-48.5170143289
 11
31.0263664757
 21
-48.5216706571
  0
LINE
  5
23D
100
AcDbEntity
  8
RACCORDO
100
AcDbLine
 62
7
  6
CONTINUOUS
 10
30.7375068238
 20
-49.2941875676
 11
30.7524078843
 21
-49.2953610132
  0
LWPOLYLINE
  5
23E
100
AcDbEntity
  8
RACCORDO
100
AcDbPolyline
 62
7
  6
CONTINUOUS
 90
5
 70
0
 10
30.9707987766
 20
-48.4934218776
 10
30.9706195577
 20
-48.4934043111
 10
30.9708580348
 20
-48.4934738902
 10
30.9722511393
 20
-48.4939897026
 10
30.9730697301
 20
-48.4943650867
  0
LWPOLYLINE
  5
23F
100
AcDbEntity
  8
RACCORDO
100
AcDbPolyline
 62
7
  6
CONTINUOUS
 90
11
 70
0
 10
29.6868766484
 20
-54.0289111278
 10
29.6879750726
 20
-54.0290923298
 10
29.690295373
 20
-54.0286874687
 10
29.6936946036
 20
-54.027588176
 10
29.6981196318
 20
-54.0259489308
 10
29.7035125894
 20
-54.0237491915
 10
29.7098083733
 20
-54.0209522498
 10
29.716957727
 20
-54.0176912176
 10
29.7249053538
 20
-54.0139506162
 10
29.7335879982
 20
-54.0097058885
 10
29.752935106
 20
-54.0001039161
  0
LWPOLYLINE
  5
240
100
AcDbEntity
  8
RACCORDO
100
AcDbPolyline
 62
253
  6
CONTINUOUS
 90
32
 70
0
 10
29.1731828686
 20
-50.0259887548
 10
29.1637514511
 20
-50.0234591164
 10
29.1543805621
 20
-50.0208303974
 10
29.1450913391
 20
-50.0181065028
 10
29.135903692
 20
-50.0152898707
 10
29.1268392741
 20
-50.0123867718
 10
29.1179211041
 20
-50.0094075129
 10
29.1091683448
 20
-50.006357996
 10
29.1006009439
 20
-50.0032432026
 10
29.0922418676
 20
-50.0000729
 10
29.0841091651
 20
-49.9968541824
 10
29.0762210668
 20
-49.9935929446
 10
29.068599378
 20
-49.990298011
 10
29.0612606889
 20
-49.9869775363
 10
29.0542214843
 20
-49.9836383477
 10
29.0475018289
 20
-49.9802880889
 10
29.0411164932
 20
-49.9769358373
 10
29.0350801413
 20
-49.9735893552
 10
29.0294109012
 20
-49.9702550582
 10
29.0241215752
 20
-49.9669429676
 10
29.0192244058
 20
-49.9636615936
 10
29.0147347099
 20
-49.9604157235
 10
29.0106626878
 20
-49.9572159766
 10
29.0070180802
 20
-49.9540716323
 10
29.0038132999
 20
-49.950985955
 10
29.001054406
 20
-49.9479688901
 10
28.9987494685
 20
-49.9450313288
 10
28.9969095012
 20
-49.9421782322
 10
28.9955362121
 20
-49.9394210586
 10
28.9946304775
 20
-49.9367692293
 10
28.9941955478
 20
-49.9342244203
 10
28.9942268947
 20
-49.9318014414
  0
LWPOLYLINE
  5
241
100
AcDbEntity
  8
RACCORDO
100
AcDbPolyline
 62
253
  6
CONTINUOUS
 90
10
 70
0
 10
30.8933041868
 20
-50.8776505165
 10
30.8996527169
 20
-50.8795460386
 10
30.9068249634
 20
-50.8808080371
 10
30.9146172537
 20
-50.8814006745
 10
30.9228083073
 20
-50.8813071217
 10
30.9311655199
 20
-50.8805300351
 10
30.939451569
 20
-50.879091482
 10
30.9474311526
 20
-50.8770323134
 10
30.9548776719
 20
-50.8744110045
 10
30.9615796652
 20
-50.8713019932
  0
LWPOLYLINE
  5
242
100
AcDbEntity
  8
RACCORDO
100
AcDbPolyline
 62
253
  6
CONTINUOUS
 90
10
 70
0
 10
30.7758529985
 20
-50.0407158214
 10
30.7822015124
 20
-50.0426113335
 10
30.7893737439
 20
-50.043873327
 10
30.7971660226
 20
-50.0444659637
 10
30.8053570699
 20
-50.044372413
 10
30.8137142824
 20
-50.0435953302
 10
30.8220003374
 20
-50.0421567813
 10
30.8299799324
 20
-50.0400976164
 10
30.8374264668
 20
-50.0374763094
 10
30.844128477
 20
-50.0343672981
  0
LWPOLYLINE
  5
243
100
AcDbEntity
  8
RACCORDO
100
AcDbPolyline
 62
253
  6
CONTINUOUS
 90
8
 70
0
 10
31.4363114174
 20
-50.2440102979
 10
31.4236471311
 20
-50.2400619746
 10
31.4108530169
 20
-50.2375393573
 10
31.3980935251
 20
-50.23662661
 10
31.3854593627
 20
-50.2375131127
 10
31.3732682352
 20
-50.2403837826
 10
31.3619846598
 20
-50.2452606934
 10
31.3562618354
 20
-50.2487671329
  0
LWPOLYLINE
  5
244
100
AcDbEntity
  8
RACCORDO
100
AcDbPolyline
 62
7
  6
CONTINUOUS
 90
3
 70
0
 10
30.7078044454
 20
-49.2865372253
 10
30.722283674
 20
-49.2911300063
 10
30.7375068238
 20
-49.2941875676
  0
LWPOLYLINE
  5
245
100
AcDbEntity
  8
RACCORDO
100
AcDbPolyline
 62
253
  6
CONTINUOUS
 90
12
 70
0
 10
31.4089374102
 20
-50.3070438201
 10
31.3992664168
 20
-50.3037961865
 10
31.3897565759
 20
-50.3019028702
 10
31.3804078876
 20
-50.301363871
 10
31.3710136432
 20
-50.3021425024
 10
31.3617805513
 20
-50.304275451
 10
31.3533287374
 20
-50.3078727768
 10
31.3457629133
 20
-50.3131113975
 10
31.3389783671
 20
-50.3198143954
 10
31.3332810892
 20
-50.3275610769
 10
31.3287730762
 20
-50.3362112108
 10
31.3253523313
 20
-50.3459050282
  0
LWPOLYLINE
  5
246
100
AcDbEntity
  8
RACCORDO
100
AcDbPolyline
 62
253
  6
CONTINUOUS
 90
3
 70
0
 10
30.6899344431
 20
-49.2601081638
 10
30.6996054365
 20
-49.2633557974
 10
30.7091152773
 20
-49.2652491138
  0
LWPOLYLINE
  5
247
100
AcDbEntity
  8
DRAFT
100
AcDbPolyline
 62
7
  6
CONTINUOUS
 90
3
 70
0
 10
31.3978107909
 20
-47.3601654712
 10
31.3037063848
 20
-47.3282379573
 10
31.2105533156
 20
-47.3032230591
  0
LINE
  5
248
100
AcDbEntity
  8
RACCORDO
100
AcDbLine
 62
7
  6
CONTINUOUS
 10
30.0393923989
 20
-49.0367665916
 11
30.0416190661
 21
-49.0375244218
  0
LINE
  5
249
100
AcDbEntity
  8
RACCORDO
100
AcDbLine
 62
253
  6
CONTINUOUS
 10
32.0750361987
 20
-50.5560243313
 11
31.4089374102
 21
-50.3070438201
  0
LINE
  5
24A
100
AcDbEntity
  8
RACCORDO
100
AcDbLine
 62
253
  6
CONTINUOUS
 10
32.1024102058
 20
-50.492990809
 11
31.4363114174
 21
-50.2440102979
  0
LINE
  5
24B
100
AcDbEntity
  8
RACCORDO
100
AcDbLine
 62
7
  6
CONTINUOUS
 10
30.0416845255
 20
-49.0375489908
 11
30.7077833504
 21
-49.2865295155
  0
LINE
  5
24C
100
AcDbEntity
  8
RACCORDO
100
AcDbLine
 62
253
  6
CONTINUOUS
 10
30.0238356308
 20
-49.0111276438
 11
30.6899344431
 21
-49.2601081638
  0
LWPOLYLINE
  5
24D
100
AcDbEntity
  8
RACCORDO
100
AcDbPolyline
 62
253
  6
CONTINUOUS
 90
10
 70
0
 10
29.9565951972
 20
-49.2565573112
 10
29.9609248873
 20
-49.2583919768
 10
29.965674148
 20
-49.2599257733
 10
29.9707787547
 20
-49.2611379582
 10
29.9761696772
 20
-49.2620121381
 10
29.981774013
 20
-49.2625364906
 10
29.9875159724
 20
-49.2627039238
 10
29.993317905
 20
-49.2625121731
 10
29.9991013497
 20
-49.2619638309
 10
30.0047880948
 20
-49.2610663121
  0
LWPOLYLINE
  5
24E
100
AcDbEntity
  8
RACCORDO
100
AcDbPolyline
 62
253
  6
CONTINUOUS
 90
19
 70
0
 10
30.0634715933
 20
-49.3157332037
 10
30.0575614508
 20
-49.313165732
 10
30.0519369109
 20
-49.3104029442
 10
30.0466023105
 20
-49.3074825539
 10
30.0415503069
 20
-49.3044447591
 10
30.036793596
 20
-49.3013190366
 10
30.032365453
 20
-49.2981228133
 10
30.0282681304
 20
-49.2948746836
 10
30.0245006063
 20
-49.2916095833
 10
30.0210897069
 20
-49.2883658412
 10
30.018057428
 20
-49.285184471
 10
30.01537641
 20
-49.2820642229
 10
30.0130001611
 20
-49.2789766916
 10
30.0109233825
 20
-49.2759507976
 10
30.0091484998
 20
-49.2729841799
 10
30.0076470668
 20
-49.2700036205
 10
30.0064134372
 20
-49.2669977582
 10
30.0054596575
 20
-49.2640126245
 10
30.0047880943
 20
-49.2610662853
  0
LWPOLYLINE
  5
24F
100
AcDbEntity
  8
RACCORDO
100
AcDbPolyline
 62
253
  6
CONTINUOUS
 90
10
 70
0
 10
31.1394828299
 20
-51.0974310753
 10
31.1194822764
 20
-51.0875725209
 10
31.0994767359
 20
-51.0772887061
 10
31.0794662085
 20
-51.0665796307
 10
31.0594473348
 20
-51.0554433516
 10
31.0394234741
 20
-51.043881812
 10
31.0194047049
 20
-51.0319008415
 10
30.9993943867
 20
-51.0195023831
 10
30.97938916
 20
-51.0066844938
 10
30.9593890248
 20
-50.9934471735
  0
LWPOLYLINE
  5
250
100
AcDbEntity
  8
RACCORDO
100
AcDbPolyline
 62
253
  6
CONTINUOUS
 90
10
 70
0
 10
31.1546461298
 20
-51.0505376329
 10
31.1352247718
 20
-51.0409656599
 10
31.115780681
 20
-51.030970622
 10
31.096320347
 20
-51.0205558551
 10
31.0768502649
 20
-51.0097248349
 10
31.0573769327
 20
-50.9984811765
 10
31.0379068487
 20
-50.9868286334
 10
31.0184465109
 20
-50.974771095
 10
30.9990024144
 20
-50.9623125853
 10
30.9795810487
 20
-50.9494572622
  0
LWPOLYLINE
  5
251
100
AcDbEntity
  8
RACCORDO
100
AcDbPolyline
 62
253
  6
CONTINUOUS
 90
15
 70
0
 10
23.0806450652
 20
-62.9825898393
 10
19.6269531196
 20
-61.2323657772
 10
16.2017193312
 20
-59.4638005325
 10
12.8052586076
 20
-57.6770470389
 10
9.4378146802
 20
-55.8722225266
 10
6.0997675189
 20
-54.0495201456
 10
2.7916271811
 20
-52.2092126937
 10
-0.4863070821
 20
-50.3514636189
 10
-3.7337384132
 20
-48.4764375275
 10
-6.9501755327
 20
-46.5844180707
 10
-10.1353328616
 20
-44.6755769165
 10
-13.2889277801
 20
-42.7500865668
 10
-16.4104892429
 20
-40.8082406967
 10
-19.4996831987
 20
-38.8502584201
 10
-22.5563061254
 20
-36.8762807344
  0
LWPOLYLINE
  5
252
100
AcDbEntity
  8
RACCORDO
100
AcDbPolyline
 62
253
  6
CONTINUOUS
 90
16
 70
0
 10
30.5396177524
 20
-62.2497721077
 10
30.5626825222
 20
-62.2617771029
 10
30.5877730167
 20
-62.2723411591
 10
30.6146204087
 20
-62.2813510898
 10
30.6429370469
 20
-62.2887103598
 10
30.6724195382
 20
-62.2943401196
 10
30.7027519981
 20
-62.2981800502
 10
30.7336094354
 20
-62.3001890095
 10
30.764661234
 20
-62.3003454729
 10
30.7955746953
 20
-62.2986477639
 10
30.8260186032
 20
-62.2951140723
 10
30.8556667721
 20
-62.2897822592
 10
30.8842015426
 20
-62.2827094512
 10
30.9113171843
 20
-62.2739714286
 10
30.9367231719
 20
-62.2636618131
 10
30.9601472979
 20
-62.2518910653
  0
LWPOLYLINE
  5
253
100
AcDbEntity
  8
RACCORDO
100
AcDbPolyline
 62
7
  6
CONTINUOUS
 90
13
 70
0
 10
30.4603769525
 20
-62.468733894
 10
30.4897673236
 20
-62.4843756611
 10
30.5243276885
 20
-62.4995117254
 10
30.5593650723
 20
-62.5114692491
 10
30.5947378851
 20
-62.5202357216
 10
30.6302303345
 20
-62.5257810427
 10
30.6654739642
 20
-62.528104383
 10
30.7001385754
 20
-62.5272768231
 10
30.7340159073
 20
-62.5234028317
 10
30.7668341392
 20
-62.5166179159
 10
30.7983355723
 20
-62.5071073016
 10
30.8283091482
 20
-62.4950839703
 10
30.8508511088
 20
-62.4839269515
  0
LWPOLYLINE
  5
254
100
AcDbEntity
  8
RACCORDO
100
AcDbPolyline
 62
253
  6
CONTINUOUS
 90
22
 70
0
 10
30.3982179353
 20
-62.3313988104
 10
30.4088473981
 20
-62.3370657374
 10
30.4193111028
 20
-62.3417495059
 10
30.4296090493
 20
-62.345450116
 10
30.4397998667
 20
-62.3481789022
 10
30.4498249259
 20
-62.3499245299
 10
30.4595083401
 20
-62.3506529955
 10
30.4688413004
 20
-62.3503457904
 10
30.4778326156
 20
-62.3490214232
 10
30.4863328257
 20
-62.3467014154
 10
30.4943337298
 20
-62.3433690609
 10
30.5018435288
 20
-62.3390410657
 10
30.508737365
 20
-62.3337890699
 10
30.515004979
 20
-62.327597652
 10
30.5206566302
 20
-62.3204822334
 10
30.5255982402
 20
-62.3125607182
 10
30.5298181208
 20
-62.3038193445
 10
30.5333279601
 20
-62.2942718742
 10
30.5360687443
 20
-62.2840774964
 10
30.5380208021
 20
-62.2732892743
 10
30.5392038048
 20
-62.2618541447
 10
30.5396177524
 20
-62.2497721077
  0
LWPOLYLINE
  5
255
100
AcDbEntity
  8
RACCORDO
100
AcDbPolyline
 62
253
  6
CONTINUOUS
 90
11
 70
0
 10
23.183752958
 20
-63.2112644597
 10
23.1742555574
 20
-63.2060226427
 10
23.1554193157
 20
-63.1924902814
 10
23.138264354
 20
-63.1756670266
 10
23.1233551763
 20
-63.1559453282
 10
23.1105706505
 20
-63.1332518687
 10
23.0997771829
 20
-63.107642
 10
23.0914426406
 20
-63.0797753696
 10
23.0856336973
 20
-63.0498630929
 10
23.0820563857
 20
-63.0175457458
 10
23.0806450657
 20
-62.9825898396
  0
LINE
  5
256
100
AcDbEntity
  8
RACCORDO
100
AcDbLine
 62
7
  6
CONTINUOUS
 10
28.1703529666
 20
-61.1465084844
 11
30.4603427101
 21
-62.468719862
  0
LINE
  5
257
100
AcDbEntity
  8
RACCORDO
100
AcDbLine
 62
253
  6
CONTINUOUS
 10
28.1082285609
 20
-61.0091856133
 11
30.3982179353
 21
-62.3313988104
  0
LWPOLYLINE
  5
258
100
AcDbEntity
  8
RACCORDO
100
AcDbPolyline
 62
7
  6
CONTINUOUS
 90
16
 70
0
 10
-25.479005162
 20
-35.1138351766
 10
-22.496070012
 20
-37.0769900992
 10
-19.4319745013
 20
-39.056249146
 10
-16.3354827579
 20
-41.0192216286
 10
-13.2069079189
 20
-42.96570811
 10
-10.0465243361
 20
-44.8955413226
 10
-6.8545863187
 20
-46.8085677086
 10
-3.6313635466
 20
-48.7046253216
 10
-0.3771588085
 20
-50.5835385532
 10
2.9077243426
 20
-52.4451330514
 10
6.2229801044
 20
-54.2892349018
 10
9.5683262634
 20
-56.115689264
 10
12.9434950415
 20
-57.9243500842
 10
16.3481945249
 20
-59.7150595721
 10
19.7820768146
 20
-61.4876373872
 10
23.1838864821
 20
-63.2113315123
  0
LINE
  5
259
100
AcDbEntity
  8
RACCORDO
100
AcDbLine
 62
253
  6
CONTINUOUS
 10
-22.5563061254
 20
-36.8762807344
 11
-25.5800931437
 21
-34.8864894598
  0
LINE
  5
25A
100
AcDbEntity
  8
RACCORDO
100
AcDbLine
 62
7
  6
CONTINUOUS
 10
-25.4790834954
 20
-35.113783142
 11
-25.4791506659
 21
-35.1137384964
  0
LWPOLYLINE
  5
25B
100
AcDbEntity
  8
RACCORDO
100
AcDbPolyline
 62
253
  6
CONTINUOUS
 90
10
 70
0
 10
-25.5800931437
 20
-34.8864894598
 10
-25.605759358
 20
-34.8679073063
 10
-25.6286912318
 20
-34.8481691019
 10
-25.648733332
 20
-34.8274086331
 10
-25.6657498123
 20
-34.8057666152
 10
-25.6796253344
 20
-34.7833897386
 10
-25.6902658493
 20
-34.7604296747
 10
-25.6975992352
 20
-34.7370420479
 10
-25.7015757862
 20
-34.7133853805
 10
-25.7023477726
 20
-34.6973490688
  0
LWPOLYLINE
  5
25C
100
AcDbEntity
  8
RACCORDO
100
AcDbPolyline
 62
253
  6
CONTINUOUS
 90
10
 70
0
 10
-25.4791506659
 20
-35.1137384964
 10
-25.4934440175
 20
-35.1032463498
 10
-25.5130155845
 20
-35.0850278125
 10
-25.5303744761
 20
-35.0638917075
 10
-25.5454256196
 20
-35.0398895478
 10
-25.5577521863
 20
-35.0133944906
 10
-25.5674000301
 20
-34.9847695669
 10
-25.5744699706
 20
-34.9541291831
 10
-25.5787794513
 20
-34.9213890524
 10
-25.5800931437
 20
-34.8864894598
  0
LWPOLYLINE
  5
25D
100
AcDbEntity
  8
RACCORDO
100
AcDbPolyline
 62
253
  6
CONTINUOUS
 90
9
 70
0
 10
-23.1879680505
 20
61.4787589089
 10
-23.1874189341
 20
61.46828337
 10
-23.1839392801
 20
61.4504667392
 10
-23.1772885484
 20
61.4329533042
 10
-23.1675380279
 20
61.4159306967
 10
-23.1547922067
 20
61.3995812793
 10
-23.1391876626
 20
61.3840802099
 10
-23.1208916076
 20
61.3695935641
 10
-23.1001000849
 20
61.3562765421
  0
LWPOLYLINE
  5
25E
100
AcDbEntity
  8
RACCORDO
100
AcDbPolyline
 62
253
  6
CONTINUOUS
 90
10
 70
0
 10
-25.7023477726
 20
57.7644241874
 10
-25.7015757862
 20
57.7483878757
 10
-25.6975992352
 20
57.7247312083
 10
-25.6902658493
 20
57.7013435815
 10
-25.6796253344
 20
57.6783835176
 10
-25.6657498123
 20
57.656006641
 10
-25.648733332
 20
57.6343646231
 10
-25.6286912318
 20
57.6136041543
 10
-25.605759358
 20
57.5938659499
 10
-25.5800931437
 20
57.5752837964
  0
LWPOLYLINE
  5
25F
100
AcDbEntity
  8
RACCORDO
100
AcDbPolyline
 62
7
  6
CONTINUOUS
 90
13
 70
0
 10
-25.7023477726
 20
-34.6973490688
 10
-25.7006111339
 20
-34.7389843614
 10
-25.6953361324
 20
-34.7807900377
 10
-25.686459674
 20
-34.8223917295
 10
-25.6739664988
 20
-34.8634086146
 10
-25.6578982104
 20
-34.9034407765
 10
-25.6383476916
 20
-34.9421021497
 10
-25.6154096487
 20
-34.9790934177
 10
-25.589287821
 20
-35.0140151336
 10
-25.5603000406
 20
-35.0464481576
 10
-25.5286611457
 20
-35.0761888435
 10
-25.4946255215
 20
-35.1030259314
 10
-25.4791506659
 20
-35.1137384964
  0
LWPOLYLINE
  5
260
100
AcDbEntity
  8
0
100
AcDbPolyline
 62
7
  6
CONTINUOUS
 90
16
 70
0
 10
-26.5306156923
 20
-14.6720951102
 10
-26.5292734946
 20
-14.7220844714
 10
-26.5200905253
 20
-14.8132064856
 10
-26.5022789322
 20
-14.9036205076
 10
-26.4757595555
 20
-14.993320043
 10
-26.440611555
 20
-15.0823115862
 10
-26.3971563852
 20
-15.1697812136
 10
-26.3453178352
 20
-15.2557149636
 10
-26.285172116
 20
-15.3401267978
 10
-26.2172693146
 20
-15.4222446772
 10
-26.1415382666
 20
-15.5020475575
 10
-26.0580501364
 20
-15.579556483
 10
-25.9675685048
 20
-15.6540625482
 10
-25.8700292121
 20
-15.7255382049
 10
-25.765496418
 20
-15.7940110013
 10
-25.7023477726
 20
-15.8310443871
  0
LWPOLYLINE
  5
261
100
AcDbEntity
  8
0
100
AcDbPolyline
 62
7
  6
CONTINUOUS
 90
16
 70
0
 10
-26.5306155918
 20
52.2784675868
 10
-26.5292837406
 20
52.2286732076
 10
-26.5201194322
 20
52.1375502814
 10
-26.5023263165
 20
52.0471347903
 10
-26.4758252323
 20
51.957433225
 10
-26.4406953409
 20
51.8684390946
 10
-26.3972579558
 20
51.7809663464
 10
-26.3454368639
 20
51.6950289382
 10
-26.2853082783
 20
51.610612912
 10
-26.2174221523
 20
51.5284903413
 10
-26.1417073183
 20
51.4486822668
 10
-26.0582349438
 20
51.3711676478
 10
-25.9677684847
 20
51.2966554348
 10
-25.8702437778
 20
51.2251731725
 10
-25.7657249863
 20
51.1566933161
 10
-25.7023477726
 20
51.1195171374
  0
LINE
  5
262
100
AcDbEntity
  8
0
100
AcDbLine
 62
7
  6
CONTINUOUS
 10
-26.5306289372
 20
55.5443486916
 11
-26.5306289372
 21
52.2784675845
  0
LINE
  5
263
100
AcDbEntity
  8
0
100
AcDbLine
 62
7
  6
CONTINUOUS
 10
-26.5306289372
 20
-11.4062140054
 11
-26.5306289372
 21
-14.6720951126
  0
LINE
  5
264
100
AcDbEntity
  8
RACCORDO
100
AcDbLine
 62
7
  6
CONTINUOUS
 10
-25.7023477726
 20
-34.6973490688
 11
-25.7023477726
 21
57.7644241874
  0
LINE
  5
265
100
AcDbEntity
  8
RACCORDO
100
AcDbLine
 62
253
  6
CONTINUOUS
 10
-25.5800931437
 20
-34.8864894598
 11
-25.5800931437
 21
57.5752837964
  0
LINE
  5
266
100
AcDbEntity
  8
RACCORDO
100
AcDbLine
 62
7
  6
CONTINUOUS
 10
-23.1879680505
 20
59.5980322534
 11
-23.1879680505
 21
61.4787589089
  0
LINE
  5
267
100
AcDbEntity
  8
RACCORDO
100
AcDbLine
 62
253
  6
CONTINUOUS
 10
-23.1001000849
 20
59.6523711214
 11
-23.1001000849
 21
61.3562765421
  0
LINE
  5
268
100
AcDbEntity
  8
RACCORDO
100
AcDbLine
 62
253
  6
CONTINUOUS
 10
-21.7492562711
 20
60.4877531989
 11
-21.7492562711
 21
60.5679145632
  0
LINE
  5
269
100
AcDbEntity
  8
0
100
AcDbLine
 62
7
  6
CONTINUOUS
 10
-2.0930605102
 20
-1.8565012821
 11
-2.0930605102
 21
-3.7702547925
  0
LINE
  5
26A
100
AcDbEntity
  8
0
100
AcDbLine
 62
7
  6
CONTINUOUS
 10
-1.5997948273
 20
-2.0511244646
 11
-1.5997948273
 21
-11.7837562493
  0
LINE
  5
26B
100
AcDbEntity
  8
0
100
AcDbLine
 62
7
  6
CONTINUOUS
 10
-0.6101397578
 20
-3.8541202396
 11
-0.6101397578
 21
-12.3555815575
  0
LWPOLYLINE
  5
26C
100
AcDbEntity
  8
0
100
AcDbPolyline
 62
7
  6
CONTINUOUS
 90
21
 70
0
 10
-1.5997948273
 20
-2.0511244622
 10
-1.5992080706
 20
-2.0218492325
 10
-1.5975712397
 20
-1.9932664486
 10
-1.5948843194
 20
-1.9653761016
 10
-1.5911111251
 20
-1.9380914263
 10
-1.5862877809
 20
-1.9114991532
 10
-1.5805227244
 20
-1.8858595116
 10
-1.573845967
 20
-1.8612736373
 10
-1.5662273952
 20
-1.8376403357
 10
-1.5576852536
 20
-1.8149163375
 10
-1.5482136383
 20
-1.7930400564
 10
-1.5378183063
 20
-1.7720729941
 10
-1.5265349869
 20
-1.7521565089
 10
-1.5143582743
 20
-1.7332854952
 10
-1.5012933903
 20
-1.7154649527
 10
-1.4873920045
 20
-1.6988513975
 10
-1.4726468252
 20
-1.683478386
 10
-1.4570649324
 20
-1.66931224
 10
-1.4407195606
 20
-1.656408628
 10
-1.4236181834
 20
-1.6447831706
 10
-1.4142106013
 20
-1.6391150815
  0
LWPOLYLINE
  5
26D
100
AcDbEntity
  8
RACCORDO
100
AcDbPolyline
 62
253
  6
CONTINUOUS
 90
7
 70
0
 10
-21.7492562711
 20
60.5679145632
 10
-21.7486599209
 20
60.5968836564
 10
-21.7469763872
 20
60.624944067
 10
-21.7442056701
 20
60.6520957951
 10
-21.7403477695
 20
60.6783388405
 10
-21.7354026854
 20
60.7036732034
 10
-21.7293704178
 20
60.7280988836
  0
LWPOLYLINE
  5
26E
100
AcDbEntity
  8
0
100
AcDbPolyline
 62
7
  6
CONTINUOUS
 90
16
 70
0
 10
-26.5306155918
 20
55.544348694
 10
-26.5297354115
 20
55.5855512566
 10
-26.5213945146
 20
55.6764210591
 10
-26.5043409802
 20
55.7671648774
 10
-26.47873077
 20
55.8569527575
 10
-26.4444853838
 20
55.9457759304
 10
-26.4016833217
 20
56.0336431651
 10
-26.3507160451
 20
56.1197508156
 10
-26.2915086451
 20
56.2040827399
 10
-26.2241360305
 20
56.28665508
 10
-26.1492143895
 20
56.3667126157
 10
-26.0666744661
 20
56.4442322766
 10
-25.9765855162
 20
56.5192371332
 10
-25.8797714965
 20
56.5910411771
 10
-25.7761707097
 20
56.6596150442
 10
-25.7023477726
 20
56.7033584697
  0
LWPOLYLINE
  5
26F
100
AcDbEntity
  8
0
100
AcDbPolyline
 62
7
  6
CONTINUOUS
 90
16
 70
0
 10
-26.5306155918
 20
-11.406214003
 10
-26.5297354115
 20
-11.3650114404
 10
-26.5213945146
 20
-11.2741416379
 10
-26.5043409802
 20
-11.1833978196
 10
-26.47873077
 20
-11.0936099395
 10
-26.4444853838
 20
-11.0047867666
 10
-26.4016833217
 20
-10.9169195319
 10
-26.3507160451
 20
-10.8308118814
 10
-26.2915086451
 20
-10.7464799571
 10
-26.2241360305
 20
-10.6639076171
 10
-26.1492143895
 20
-10.5838500813
 10
-26.0666744661
 20
-10.5063304204
 10
-25.9765855162
 20
-10.4313255638
 10
-25.8797714965
 20
-10.3595215199
 10
-25.7761707097
 20
-10.2909476528
 10
-25.7023477726
 20
-10.2472042273
  0
LWPOLYLINE
  5
270
100
AcDbEntity
  8
0
100
AcDbPolyline
 62
7
  6
CONTINUOUS
 90
21
 70
0
 10
-0.6101397578
 20
-12.3555815531
 10
-0.6107098429
 20
-12.379651328
 10
-0.6121223262
 20
-12.4028772279
 10
-0.6143771972
 20
-12.4252592466
 10
-0.6175082216
 20
-12.4467809408
 10
-0.6214815936
 20
-12.4674587306
 10
-0.6261959398
 20
-12.4873419019
 10
-0.63162971
 20
-12.506434662
 10
-0.6378043892
 20
-12.5247327659
 10
-0.6446831551
 20
-12.5422728197
 10
-0.6522773379
 20
-12.5590992817
 10
-0.6605755177
 20
-12.5751676417
 10
-0.6695067473
 20
-12.5903810531
 10
-0.6790630692
 20
-12.6047273614
 10
-0.6892523388
 20
-12.618218662
 10
-0.7000273333
 20
-12.6307944859
 10
-0.7113737554
 20
-12.6424465234
 10
-0.7233057899
 20
-12.6531830189
 10
-0.7358189365
 20
-12.6629683347
 10
-0.7489154884
 20
-12.6717970535
 10
-0.7554485197
 20
-12.6757210367
  0
LWPOLYLINE
  5
271
100
AcDbEntity
  8
RACCORDO
100
AcDbPolyline
 62
253
  6
CONTINUOUS
 90
22
 70
0
 10
-23.1001000849
 20
61.3562765421
 10
-23.0996918839
 20
61.3683224379
 10
-23.0985145412
 20
61.3797317662
 10
-23.0965680568
 20
61.3905045271
 10
-23.0938328973
 20
61.4006969764
 10
-23.0903285962
 20
61.4102528582
 10
-23.0861137535
 20
61.4190034049
 10
-23.0811766561
 20
61.426931916
 10
-23.0755290172
 20
61.434055092
 10
-23.0692645764
 20
61.4402542666
 10
-23.0623729557
 20
61.4455139247
 10
-23.054864533
 20
61.4498495814
 10
-23.0468641822
 20
61.4531891159
 10
-23.0383636586
 20
61.4555158003
 10
-23.0293712068
 20
61.4568463625
 10
-23.0200364349
 20
61.4571588655
 10
-23.0103513613
 20
61.4564351643
 10
-23.0003239674
 20
61.4546934039
 10
-22.9901278059
 20
61.4519660819
 10
-22.9798207275
 20
61.448264031
 10
-22.9693448815
 20
61.4435764186
 10
-22.9587002678
 20
61.4379032447
  0
LWPOLYLINE
  5
272
100
AcDbEntity
  8
RACCORDO
100
AcDbPolyline
 62
7
  6
CONTINUOUS
 90
13
 70
0
 10
-25.7023477726
 20
57.7644241874
 10
-25.7005352125
 20
57.8069582679
 10
-25.6950434108
 20
57.8495765534
 10
-25.6858289597
 20
57.8918837565
 10
-25.6729175876
 20
57.9334331977
 10
-25.6563671415
 20
57.9738672685
 10
-25.6362224027
 20
58.0129253048
 10
-25.6125591231
 20
58.050302903
 10
-25.585602765
 20
58.0855403762
 10
-25.5556527591
 20
58.1182258078
 10
-25.5229476539
 20
58.1481111794
 10
-25.4877700524
 20
58.1749532613
 10
-25.4653688299
 20
58.1896534425
  0
LWPOLYLINE
  5
273
100
AcDbEntity
  8
0
100
AcDbPolyline
 62
7
  6
CONTINUOUS
 90
90
 70
0
 10
1.2606102469
 20
-4.4648611632
 10
1.2761792924
 20
-4.3909632574
 10
1.289608166
 20
-4.3160793684
 10
1.3008966203
 20
-4.2402096409
 10
1.3100403158
 20
-4.1633543197
 10
1.3170432153
 20
-4.0855133803
 10
1.3219175843
 20
-4.0066865283
 10
1.3246616808
 20
-3.9268804938
 10
1.3252771071
 20
-3.8460886283
 10
1.3237812047
 20
-3.7642905345
 10
1.3201625376
 20
-3.6814484759
 10
1.3144326348
 20
-3.5976001346
 10
1.3066433399
 20
-3.5128382076
 10
1.2968046875
 20
-3.4271562497
 10
1.2849069548
 20
-3.3405605238
 10
1.2709723987
 20
-3.2531627604
 10
1.2549918498
 20
-3.164890807
 10
1.2369750029
 20
-3.0758165089
 10
1.2169724543
 20
-2.9862675676
 10
1.1949927257
 20
-2.8962881319
 10
1.1710280128
 20
-2.8058336337
 10
1.1451044609
 20
-2.7150986769
 10
1.1172110087
 20
-2.6240690883
 10
1.0873596286
 20
-2.5327585089
 10
1.0556110458
 20
-2.441403247
 10
1.0219533877
 20
-2.3500069781
 10
0.9863996011
 20
-2.2585653998
 10
0.9490476413
 20
-2.1673028529
 10
0.9098908007
 20
-2.0762066222
 10
0.868936979
 20
-1.9852887278
 10
0.8263060126
 20
-1.8948106318
 10
0.7819805992
 20
-1.804746253
 10
0.7359793103
 20
-1.7151209335
 10
0.6884757198
 20
-1.6262733129
 10
0.639492431
 20
-1.5382498344
 10
0.589008095
 20
-1.4510033255
 10
0.5371302713
 20
-1.3647320531
 10
0.4838308088
 20
-1.2794020036
 10
0.4291391458
 20
-1.1950464436
 10
0.3732491132
 20
-1.1119646256
 10
0.3161844715
 20
-1.0302096258
 10
0.2579226381
 20
-0.949727686
 10
0.1985877947
 20
-0.8706578863
 10
0.1381521036
 20
-0.792965766
 10
0.0766445425
 20
-0.7166851272
 10
0.0142743581
 20
-0.6420575368
 10
-0.0489303097
 20
-0.5691230952
 10
-0.1129966523
 20
-0.4978411559
 10
-0.1777985919
 20
-0.4283322655
 10
-0.243333394
 20
-0.3605961769
 10
-0.3096029401
 20
-0.2946326478
 10
-0.3764882083
 20
-0.2305623084
 10
-0.4439975575
 20
-0.1683766994
 10
-0.5121218827
 20
-0.1080838539
 10
-0.5807161158
 20
-0.0498292273
 10
-0.6497842097
 20
0.006376105
 10
-0.7193216222
 20
0.0605435531
 10
-0.789170721
 20
0.1125612858
 10
-0.8593432407
 20
0.1624348647
 10
-0.9298270363
 20
0.2101589588
 10
-1.0004288693
 20
0.2556052745
 10
-1.0711537923
 20
0.2987741469
 10
-1.1419965802
 20
0.3396653336
 10
-1.2127488258
 20
0.378149531
 10
-1.2834392571
 20
0.4142321385
 10
-1.3540392225
 20
0.4479077056
 10
-1.4242545588
 20
0.4790304745
 10
-1.4940253468
 20
0.5075674984
 10
-1.5634119808
 20
0.5335514435
 10
-1.6323010188
 20
0.5569348271
 10
-1.7007029395
 20
0.5777089029
 10
-1.7686078404
 20
0.5958820793
 10
-1.8358718607
 20
0.6114325178
 10
-1.9024873177
 20
0.6243582661
 10
-1.9684626347
 20
0.6346608449
 10
-2.0336782619
 20
0.6423235382
 10
-2.0981401231
 20
0.6473480325
 10
-2.1618431457
 20
0.6497321475
 10
-2.2246514251
 20
0.6494532865
 10
-2.2865879417
 20
0.6465020427
 10
-2.3476306798
 20
0.6408872651
 10
-2.4075764186
 20
0.63261364
 10
-2.4663962207
 20
0.6216834125
 10
-2.5241201766
 20
0.608093673
 10
-2.580633761
 20
0.5918412876
 10
-2.6359631977
 20
0.5728986642
 10
-2.6900834466
 20
0.5512927144
 10
-2.742803219
 20
0.5271019842
 10
-2.7940923554
 20
0.5003287191
 10
-2.8110907005
 20
0.4907061581
  0
LWPOLYLINE
  5
274
100
AcDbEntity
  8
0
100
AcDbPolyline
 62
7
  6
CONTINUOUS
 90
109
 70
0
 10
2.2036983991
 20
-6.4536622509
 10
2.2507522733
 20
-6.3792290275
 10
2.29546154
 20
-6.3020385018
 10
2.3378253018
 20
-6.222091201
 10
2.3778905626
 20
-6.139301274
 10
2.4156086761
 20
-6.0537555374
 10
2.4508352937
 20
-5.9657135055
 10
2.4835568557
 20
-5.8751860283
 10
2.5137854743
 20
-5.7821631078
 10
2.5414153161
 20
-5.6868729821
 10
2.566429567
 20
-5.5892857768
 10
2.5888438726
 20
-5.4894320547
 10
2.6086011379
 20
-5.3876306811
 10
2.6256812531
 20
-5.2839320255
 10
2.6401034929
 20
-5.1782862109
 10
2.6518699184
 20
-5.070861686
 10
2.6609850768
 20
-4.96164001
 10
2.6674439496
 20
-4.8506399018
 10
2.6712343399
 20
-4.7380854969
 10
2.6723523483
 20
-4.6240002437
 10
2.6708017628
 20
-4.5083607596
 10
2.6665820076
 20
-4.3913208809
 10
2.6596844319
 20
-4.272822991
 10
2.6501179392
 20
-4.1529245577
 10
2.6379083739
 20
-4.0319519914
 10
2.6230591451
 20
-3.9099438864
 10
2.6055674518
 20
-3.7868612899
 10
2.5854499082
 20
-3.6629142419
 10
2.5626907893
 20
-3.5380556638
 10
2.5373067806
 20
-3.4123320683
 10
2.5093631832
 20
-3.2860938394
 10
2.4788562561
 20
-3.1593834535
 10
2.4457910162
 20
-3.0321576831
 10
2.4102459497
 20
-2.9046383278
 10
2.3722236787
 20
-2.7768237013
 10
2.3317231379
 20
-2.6487145741
 10
2.2888173151
 20
-2.5205364124
 10
2.2435117547
 20
-2.3922972057
 10
2.1958027259
 20
-2.2639878989
 10
2.1457493291
 20
-2.1358083765
 10
2.0933406364
 20
-2.0077463612
 10
2.0385896387
 20
-1.8798129198
 10
1.9815913178
 20
-1.7522429511
 10
1.9223312388
 20
-1.625009237
 10
1.8608260882
 20
-1.4981376769
 10
1.797217478
 20
-1.3719428772
 10
1.7315000128
 20
-1.2464205846
 10
1.6636814373
 20
-1.1215736791
 10
1.5939229649
 20
-0.9977275325
 10
1.5221880804
 20
-0.8748452955
 10
1.4485156917
 20
-0.7529624218
 10
1.3731799317
 20
-0.6325128651
 10
1.2962194554
 20
-0.5135714239
 10
1.2175977974
 20
-0.3960620266
 10
1.137476166
 20
-0.2801924653
 10
1.0558354116
 20
-0.1659360656
 10
0.9726968174
 20
-0.0533182649
 10
0.8882820058
 20
0.0573748375
 10
0.8026338478
 20
0.1660819969
 10
0.7157113654
 20
0.2728655511
 10
0.6276102003
 20
0.3776246535
 10
0.5383037248
 20
0.4803896762
 10
0.4478204356
 20
0.5811313227
 10
0.3563384708
 20
0.6796591318
 10
0.2639094541
 20
0.7759323186
 10
0.1704833789
 20
0.8699925938
 10
0.0760857928
 20
0.9617731545
 10
-0.0193506327
 20
1.0513382653
 10
-0.1157568715
 20
1.1386246308
 10
-0.2129030429
 20
1.2233739921
 10
-0.3108193788
 20
1.3055833391
 10
-0.4094743098
 20
1.3852564393
 10
-0.5085457137
 20
1.4621449314
 10
-0.6080285893
 20
1.5362303802
 10
-0.7079271519
 20
1.6075316568
 10
-0.8079336457
 20
1.6758560445
 10
-0.908005268
 20
1.7411703761
 10
-1.0081845892
 20
1.8035079335
 10
-1.1082923387
 20
1.8627754279
 10
-1.2083500328
 20
1.9189805186
 10
-1.3083361997
 20
1.9721155008
 10
-1.4080074589
 20
2.0220638257
 10
-1.5073532844
 20
2.0688168934
 10
-1.6063846922
 20
2.1123830021
 10
-1.704891012
 20
2.1526707215
 10
-1.8028560346
 20
2.1896736916
 10
-1.9002968237
 20
2.2233977623
 10
-1.9970529384
 20
2.2537696351
 10
-2.0931506205
 20
2.2807768313
 10
-2.1885647197
 20
2.3044311855
 10
-2.2830580411
 20
2.3246956772
 10
-2.3765829441
 20
2.3415542623
 10
-2.4691885741
 20
2.3550221062
 10
-2.5607831826
 20
2.3651088505
 10
-2.6514025026
 20
2.3718237482
 10
-2.7410123674
 20
2.3751566352
 10
-2.8294164003
 20
2.3750879009
 10
-2.9165817993
 20
2.3716135835
 10
-3.0025432235
 20
2.3647365707
 10
-3.0872057015
 20
2.354447405
 10
-3.1706110603
 20
2.3407318867
 10
-3.2527193611
 20
2.323603127
 10
-3.3333131969
 20
2.3030925144
 10
-3.4123735102
 20
2.2792024295
 10
-3.4899214971
 20
2.2519292637
 10
-3.5658003721
 20
2.2212952859
 10
-3.6400521227
 20
2.1872646022
 10
-3.7126369615
 20
2.1498718468
 10
-3.7503758876
 20
2.1287110345
  0
LWPOLYLINE
  5
275
100
AcDbEntity
  8
0
100
AcDbPolyline
 62
7
  6
CONTINUOUS
 90
122
 70
0
 10
3.0643049139
 20
-8.2622395603
 10
3.1385590695
 20
-8.1821433364
 10
3.2098919395
 20
-8.098938604
 10
3.2783017474
 20
-8.0126264104
 10
3.3437992524
 20
-7.923160075
 10
3.4063703682
 20
-7.8305882417
 10
3.4659761418
 20
-7.7350548917
 10
3.5226036714
 20
-7.6365821605
 10
3.5762629306
 20
-7.5351496438
 10
3.6269493702
 20
-7.4308374598
 10
3.6746769133
 20
-7.3236169338
 10
3.7194291652
 20
-7.2135182039
 10
3.761156194
 20
-7.1007095525
 10
3.7998432847
 20
-6.9852350097
 10
3.8355030953
 20
-6.8670517651
 10
3.8681268474
 20
-6.746197784
 10
3.8977281351
 20
-6.6226280356
 10
3.9242917749
 20
-6.4963884943
 10
3.9477659253
 20
-6.3676535725
 10
3.9681418985
 20
-6.2364297064
 10
3.9854272413
 20
-6.1027111377
 10
3.9995945692
 20
-5.9666539246
 10
4.0106442413
 20
-5.8281608194
 10
4.0185752375
 20
-5.6873294627
 10
4.0233582211
 20
-5.5446081756
 10
4.0249788203
 20
-5.4000092065
 10
4.0234512372
 20
-5.2535204079
 10
4.0187891193
 20
-5.1055534347
 10
4.0109911039
 20
-4.9561588157
 10
4.0000588819
 20
-4.8052858268
 10
3.9860108038
 20
-4.6531941713
 10
3.9688416994
 20
-4.4998656738
 10
3.9485575572
 20
-4.3453180234
 10
3.9251935805
 20
-4.1898646517
 10
3.8987478445
 20
-4.0335722605
 10
3.8692235653
 20
-3.8763733811
 10
3.8366637615
 20
-3.7183801283
 10
3.8010623506
 20
-3.5595440948
 10
3.76242716
 20
-3.3999126526
 10
3.720822158
 20
-3.2397415347
 10
3.6762632743
 20
-3.0790591639
 10
3.628736736
 20
-2.9178358391
 10
3.5782620429
 20
-2.756240058
 10
3.5247997156
 20
-2.5941684138
 10
3.4683918383
 20
-2.4317227715
 10
3.409180292
 20
-2.2693795153
 10
3.3471683282
 20
-2.1071994075
 10
3.282355579
 20
-1.9451199822
 10
3.2148784569
 20
-1.783432805
 10
3.1447447522
 20
-1.6221510495
 10
3.0719497943
 20
-1.4612597029
 10
2.9966112507
 20
-1.3010080837
 10
2.918730374
 20
-1.1413885689
 10
2.8383092431
 20
-0.9824068218
 10
2.7554666983
 20
-0.8243321313
 10
2.6701901902
 20
-0.6671533423
 10
2.5824957696
 20
-0.5108795553
 10
2.4925450555
 20
-0.3558105168
 10
2.4002953819
 20
-0.2018924302
 10
2.3057929848
 20
-0.0491770033
 10
2.2093325488
 20
0.10187759
 10
2.110954342
 20
0.2512047039
 10
2.0106213892
 20
0.3988729032
 10
1.9085121741
 20
0.5446266303
 10
1.8045869299
 20
0.6885152925
 10
1.6988886487
 20
0.8304913552
 10
1.5917195724
 20
0.970153623
 10
1.4831327245
 20
1.1074139522
 10
1.3730778531
 20
1.2423620865
 10
1.2617019072
 20
1.3748634375
 10
1.1489939025
 20
1.5049337853
 10
1.0349674696
 20
1.6325588705
 10
0.9198061882
 20
1.7575588739
 10
0.8035378387
 20
1.879915298
 10
0.6861369911
 20
1.9996479821
 10
0.5677071454
 20
2.1166344557
 10
0.4482260558
 20
2.230897682
 10
0.3277182143
 20
2.3424159734
 10
0.2063569593
 20
2.4509997256
 10
0.0841178143
 20
2.5566507481
 10
-0.0389728009
 20
2.6593683256
 10
-0.1626656374
 20
2.7589588124
 10
-0.2869457299
 20
2.8554082894
 10
-0.4118266253
 20
2.948731461
 10
-0.5371023266
 20
3.0387773352
 10
-0.662807321
 20
3.1255675945
 10
-0.7889060962
 20
3.2090811108
 10
-0.9150882186
 20
3.2891023496
 10
-1.0413248033
 20
3.3656040206
 10
-1.1676444348
 20
3.4386135479
 10
-1.2938234738
 20
3.5079971273
 10
-1.4199143073
 20
3.5737691249
 10
-1.5458646837
 20
3.6359150569
 10
-1.6712946753
 20
3.6942574589
 10
-1.7961366482
 20
3.7487596073
 10
-1.9204592998
 20
3.7994575751
 10
-2.0440878131
 20
3.846282741
 10
-2.1670442881
 20
3.8892415791
 10
-2.2893079937
 20
3.9283267925
 10
-2.4106403128
 20
3.9634488465
 10
-2.5310193385
 20
3.9945802337
 10
-2.6504688695
 20
4.0217473432
 10
-2.7688192792
 20
4.0449412393
 10
-2.8860471384
 20
4.0641566875
 10
-3.002178085
 20
4.0793976278
 10
-3.1171163609
 20
4.0906687343
 10
-3.2308903466
 20
4.0979812756
 10
-3.3434739746
 20
4.1013226345
 10
-3.454690078
 20
4.1006615072
 10
-3.5645301385
 20
4.095997864
 10
-3.673005294
 20
4.0873302168
 10
-3.7799681643
 20
4.0746249047
 10
-3.8854725554
 20
4.0578499931
 10
-3.9894674302
 20
4.0370358197
 10
-4.0916485472
 20
4.0122419047
 10
-4.1919727629
 20
3.9834686742
 10
-4.2904864842
 20
3.9507138311
 10
-4.3870201922
 20
3.9140325876
 10
-4.4816125195
 20
3.8734015929
 10
-4.5742281693
 20
3.8288422921
 10
-4.664587067
 20
3.7804769014
 10
-4.6861998298
 20
3.7681474965
  0
LWPOLYLINE
  5
276
100
AcDbEntity
  8
RACCORDO
100
AcDbPolyline
 62
253
  6
CONTINUOUS
 90
22
 70
0
 10
29.0969393194
 20
18.8248940429
 10
29.0917736317
 20
18.8195639781
 10
29.0865644575
 20
18.8137804099
 10
29.0813213759
 20
18.8075051984
 10
29.0760927635
 20
18.8007441197
 10
29.0709060393
 20
18.7934891649
 10
29.0657826976
 20
18.7857170036
 10
29.0607633409
 20
18.7774298025
 10
29.0558971473
 20
18.7686667992
 10
29.0512063914
 20
18.7594200462
 10
29.0467232776
 20
18.7496954169
 10
29.0424971174
 20
18.7395655301
 10
29.0385433682
 20
18.7290347889
 10
29.0348844979
 20
18.7181161714
 10
29.0315610527
 20
18.7069070034
 10
29.0285819451
 20
18.6954354665
 10
29.0259526321
 20
18.6837059032
 10
29.023692031
 20
18.671787043
 10
29.0218018583
 20
18.6597121362
 10
29.020279876
 20
18.6474854571
 10
29.0191322173
 20
18.6351341129
 10
29.0183570411
 20
18.6226799882
  0
LINE
  5
277
100
AcDbEntity
  8
RACCORDO
100
AcDbLine
 62
253
  6
CONTINUOUS
 10
29.1020973935
 20
18.8298427165
 11
29.0969393194
 21
18.8248940429
  0
LWPOLYLINE
  5
278
100
AcDbEntity
  8
0
100
AcDbPolyline
 62
7
  6
CONTINUOUS
 90
5
 70
0
 10
-4.735257541
 20
-6.3560319957
 10
-4.7479840429
 20
-6.3675675753
 10
-4.7614389555
 20
-6.37804854
 10
-4.7756221897
 20
-6.3874748394
 10
-4.7808163986
 20
-6.3905591137
  0
LWPOLYLINE
  5
279
100
AcDbEntity
  8
RACCORDO
100
AcDbPolyline
 62
253
  6
CONTINUOUS
 90
13
 70
0
 10
29.0467821909
 20
18.444935751
 10
29.0972354151
 20
18.4900356875
 10
29.149642195
 20
18.5319438153
 10
29.2040025306
 20
18.5706601341
 10
29.260379641
 20
18.6062211814
 10
29.3187103072
 20
18.6385904199
 10
29.3788048715
 20
18.6676582377
 10
29.4406556889
 20
18.693411104
 10
29.5042704045
 20
18.7158625496
 10
29.569482296
 20
18.7349435548
 10
29.6362357895
 20
18.7506311132
 10
29.704586459
 20
18.7629482312
 10
29.7745343046
 20
18.7718949088
  0
LINE
  5
27A
100
AcDbEntity
  8
RACCORDO
100
AcDbLine
 62
253
  6
CONTINUOUS
 10
29.1073228109
 20
18.8345032486
 11
29.1020973935
 21
18.8298427165
  0
LWPOLYLINE
  5
27B
100
AcDbEntity
  8
RACCORDO
100
AcDbPolyline
 62
7
  6
CONTINUOUS
 90
15
 70
0
 10
29.1075751769
 20
18.8347190165
 10
29.1017384877
 20
18.829564208
 10
29.0858508804
 20
18.8138296719
 10
29.0711298902
 20
18.7966558767
 10
29.0574840905
 20
18.7779651151
 10
29.0449427751
 20
18.7577933528
 10
29.0335871605
 20
18.7362980037
 10
29.0234272417
 20
18.7135496909
 10
29.0144260419
 20
18.6894742876
 10
29.0066413576
 20
18.6641877415
 10
29.0002114509
 20
18.6381853246
 10
28.9951210509
 20
18.611506808
 10
28.9913741191
 20
18.5840856602
 10
28.9890555199
 20
18.5563240805
 10
28.9882034831
 20
18.5264798293
  0
LINE
  5
27C
100
AcDbEntity
  8
RACCORDO
100
AcDbLine
 62
7
  6
CONTINUOUS
 10
29.1075806847
 20
18.8347244847
 11
29.1073228109
 21
18.8345032486
  0
LWPOLYLINE
  5
27D
100
AcDbEntity
  8
RACCORDO
100
AcDbPolyline
 62
7
  6
CONTINUOUS
 90
3
 70
0
 10
31.356230232
 20
15.0688316885
 10
31.3503243981
 20
15.0644570242
 10
31.3405663364
 20
15.0555539046
  0
LWPOLYLINE
  5
27E
100
AcDbEntity
  8
RACCORDO
100
AcDbPolyline
 62
253
  6
CONTINUOUS
 90
19
 70
0
 10
23.4020543692
 20
30.101899135
 10
23.3736222267
 20
30.081207723
 10
23.3457152482
 20
30.0574002749
 10
23.3184103308
 20
30.0307651857
 10
23.2916219233
 20
30.001786069
 10
23.2655690897
 20
29.970690028
 10
23.2407524746
 20
29.9374037221
 10
23.2171435033
 20
29.9023123655
 10
23.194796409
 20
29.8658624265
 10
23.1742569074
 20
29.8280371799
 10
23.155420523
 20
29.7891465085
 10
23.1382653744
 20
29.7497224527
 10
23.1233560043
 20
29.7099549962
 10
23.1105712752
 20
29.6698806077
 10
23.0997775985
 20
29.6300360122
 10
23.0914428886
 20
29.5910279305
 10
23.0856338306
 20
29.552951062
 10
23.0820564373
 20
29.5156567996
 10
23.0806450657
 20
29.4791834167
  0
LINE
  5
27F
100
AcDbEntity
  8
RACCORDO
100
AcDbLine
 62
7
  6
CONTINUOUS
 10
31.764517738
 20
15.3492515675
 11
31.3561666913
 21
15.0687897917
  0
LINE
  5
280
100
AcDbEntity
  8
RACCORDO
100
AcDbLine
 62
253
  6
CONTINUOUS
 10
31.7987339371
 20
15.322529203
 11
31.4363114174
 21
15.0736118455
  0
LWPOLYLINE
  5
281
100
AcDbEntity
  8
0
100
AcDbPolyline
 62
7
  6
CONTINUOUS
 90
8
 70
0
 10
29.6496406141
 20
17.9584046946
 10
29.5327453095
 20
17.8792518425
 10
29.3962813636
 20
17.7454698313
 10
29.2801435592
 20
17.5802582181
 10
29.1889394583
 20
17.3901714818
 10
29.1242049151
 20
17.1773944486
 10
29.0844040754
 20
16.9397422923
 10
29.0695369393
 20
16.6772150128
  0
LWPOLYLINE
  5
282
100
AcDbEntity
  8
RACCORDO
100
AcDbPolyline
 62
7
  6
CONTINUOUS
 90
4
 70
0
 10
29.3065579144
 20
18.9790010321
 10
29.2101405892
 20
18.9153005015
 10
29.117986089
 20
18.8435693865
 10
29.1073193265
 20
18.8345002588
  0
LINE
  5
283
100
AcDbEntity
  8
RACCORDO
100
AcDbLine
 62
7
  6
CONTINUOUS
 10
30.33031334
 20
22.0270555968
 11
29.7708643988
 21
21.682135459
  0
LINE
  5
284
100
AcDbEntity
  8
DRAFT
100
AcDbLine
 62
7
  6
CONTINUOUS
 10
29.6866663389
 20
19.2094419115
 11
29.3065579144
 21
18.9790010321
  0
LWPOLYLINE
  5
285
100
AcDbEntity
  8
0
100
AcDbPolyline
 62
7
  6
CONTINUOUS
 90
36
 70
0
 10
-2.8110907005
 20
0.4907061581
 10
-2.8439823127
 20
0.4709699293
 10
-2.8923743381
 20
0.439096245
 10
-2.9392974976
 20
0.4046797545
 10
-2.9847239833
 20
0.3677476489
 10
-3.0284698211
 20
0.3284531621
 10
-3.0705102921
 20
0.2868071942
 10
-3.110871404
 20
0.2427981081
 10
-3.149445349
 20
0.1965452889
 10
-3.1862285695
 20
0.1480499398
 10
-3.2212258247
 20
0.0973101715
 10
-3.2543418094
 20
0.0444407151
 10
-3.2855637073
 20
-0.0105731756
 10
-3.3149054183
 20
-0.0677173724
 10
-3.342311709
 20
-0.1268338314
 10
-3.3677742658
 20
-0.187925636
 10
-3.3913023191
 20
-0.2509902252
 10
-3.4128669226
 20
-0.3158610711
 10
-3.4324756313
 20
-0.382575409
 10
-3.4501216134
 20
-0.4510964155
 10
-3.4657543054
 20
-0.5211464532
 10
-3.4793621842
 20
-0.59266249
 10
-3.4909573016
 20
-0.6657078591
 10
-3.5005244124
 20
-0.7401944454
 10
-3.5080722942
 20
-0.816131203
 10
-3.5135924803
 20
-0.8935093546
 10
-3.5170438063
 20
-0.9722141584
 10
-3.5184137439
 20
-1.0522138311
 10
-3.5177149111
 20
-1.133540207
 10
-3.5149438072
 20
-1.2161739393
 10
-3.5100963938
 20
-1.3001392017
 10
-3.5031765675
 20
-1.3854117399
 10
-3.4941926729
 20
-1.4718995318
 10
-3.4831473679
 20
-1.5595718332
 10
-3.4700376237
 20
-1.6484591774
 10
-3.4548631975
 20
-1.7385614262
  0
LWPOLYLINE
  5
286
100
AcDbEntity
  8
0
100
AcDbPolyline
 62
7
  6
CONTINUOUS
 90
58
 70
0
 10
-4.6861998298
 20
3.7681474965
 10
-4.7526469146
 20
3.7283081501
 10
-4.8384536305
 20
3.6723312487
 10
-4.9218597502
 20
3.6126569758
 10
-5.0028566441
 20
3.5492761666
 10
-5.0814564909
 20
3.4821959723
 10
-5.157543163
 20
3.4115515758
 10
-5.2311183379
 20
3.3373468828
 10
-5.302183731
 20
3.2595760677
 10
-5.3706233484
 20
3.1783596744
 10
-5.4364438423
 20
3.0936902099
 10
-5.4996417514
 20
3.0055733657
 10
-5.5600859721
 20
2.9141494302
 10
-5.6177791082
 20
2.8193590323
 10
-5.6727215125
 20
2.7212598773
 10
-5.7247787471
 20
2.6201678449
 10
-5.7739117101
 20
2.5161415525
 10
-5.8201621778
 20
2.4091208786
 10
-5.8635169915
 20
2.2992436171
 10
-5.9039937338
 20
2.1864930949
 10
-5.9415770365
 20
2.0708847412
 10
-5.9762042281
 20
1.9526045523
 10
-6.0078690231
 20
1.8316936214
 10
-6.0365795031
 20
1.7081098476
 10
-6.0622944607
 20
1.581914484
 10
-6.0850124769
 20
1.4530327685
 10
-6.1047363018
 20
1.3215387172
 10
-6.1214308757
 20
1.1877168097
 10
-6.1350903478
 20
1.0515816498
 10
-6.1457214139
 20
0.9131181605
 10
-6.1533077158
 20
0.7725663665
 10
-6.1578479116
 20
0.6298724902
 10
-6.1593436826
 20
0.4850901192
 10
-6.1577830787
 20
0.338620398
 10
-6.1531524727
 20
0.1904391686
 10
-6.1454653177
 20
0.0405706864
 10
-6.134750158
 20
-0.1105112129
 10
-6.1210083524
 20
-0.2627061912
 10
-6.1042378619
 20
-0.4161142057
 10
-6.0844620135
 20
-0.570561796
 10
-6.0616714107
 20
-0.7260717452
 10
-6.0358742744
 20
-0.8826206114
 10
-6.007120249
 20
-1.0399655354
 10
-5.9754234761
 20
-1.1980383956
 10
-5.9407681781
 20
-1.3569063959
 10
-5.9031590145
 20
-1.5165296059
 10
-5.8625808156
 20
-1.6769702382
 10
-5.8190466339
 20
-1.8381648914
 10
-5.7726033628
 20
-1.9998851587
 10
-5.7232670028
 20
-2.1620765406
 10
-5.6710190138
 20
-2.3247921087
 10
-5.6158543815
 20
-2.4879647573
 10
-5.5577593093
 20
-2.6516331082
 10
-5.4967445804
 20
-2.8157568426
 10
-5.4328419515
 20
-2.9801503884
 10
-5.3660608739
 20
-3.1447512481
 10
-5.2963884733
 20
-3.3096199882
 10
-5.223822924
 20
-3.4747555777
  0
LWPOLYLINE
  5
287
100
AcDbEntity
  8
RACCORDO
100
AcDbPolyline
 62
253
  6
CONTINUOUS
 90
7
 70
0
 10
29.3065579144
 20
18.9790010321
 10
29.3246669114
 20
18.9897776035
 10
29.3935525865
 20
19.0272405087
 10
29.4647514158
 20
19.0605188098
 10
29.5381745149
 20
19.0895709952
 10
29.6137305596
 20
19.114361038
 10
29.6866663389
 20
19.1336274689
  0
LWPOLYLINE
  5
288
100
AcDbEntity
  8
0
100
AcDbPolyline
 62
7
  6
CONTINUOUS
 90
65
 70
0
 10
-5.618401964
 20
5.4098521327
 10
-5.6784801618
 20
5.3742135133
 10
-5.7802534788
 20
5.3093396616
 10
-5.8795691714
 20
5.2402371415
 10
-5.976230199
 20
5.167032981
 10
-6.0702534124
 20
5.0896779551
 10
-6.1616265286
 20
5.0082187101
 10
-6.2501090987
 20
4.9229259189
 10
-6.335646098
 20
4.8338432795
 10
-6.4182971557
 20
4.7409245031
 10
-6.4979939495
 20
4.6443052023
 10
-6.5747552341
 20
4.5439684696
 10
-6.648566469
 20
4.4399288475
 10
-6.7193094066
 20
4.3323691153
 10
-6.7869577391
 20
4.2213261088
 10
-6.8515416812
 20
4.1067608047
 10
-6.9130277446
 20
3.9887422087
 10
-6.971425336
 20
3.8672308678
 10
-7.0267284642
 20
3.7422643264
 10
-7.078880464
 20
3.6140271314
 10
-7.1278823898
 20
3.4825294558
 10
-7.1737361299
 20
3.347759485
 10
-7.2163861877
 20
3.2098688317
 10
-7.2558429369
 20
3.0688395363
 10
-7.2920984358
 20
2.9246882035
 10
-7.3250696253
 20
2.7776183433
 10
-7.3547555235
 20
2.6275728369
 10
-7.381159021
 20
2.4746077408
 10
-7.4042027658
 20
2.3190963852
 10
-7.4238606132
 20
2.1611018324
 10
-7.4401600437
 20
2.0005602774
 10
-7.4531040048
 20
1.8376548255
 10
-7.4626962135
 20
1.6723424157
 10
-7.4689336554
 20
1.5046657186
 10
-7.4718090239
 20
1.334936524
 10
-7.4713249161
 20
1.163204576
 10
-7.4674788097
 20
0.989420089
 10
-7.4602555607
 20
0.8137456464
 10
-7.449646038
 20
0.6361029597
 10
-7.4356588123
 20
0.4565706288
 10
-7.4183051343
 20
0.2755466576
 10
-7.3975668286
 20
0.0930473724
 10
-7.3734608769
 20
-0.0909428894
 10
-7.3460511231
 20
-0.276074029
 10
-7.3153433302
 20
-0.4622958288
 10
-7.2813299543
 20
-0.6496575153
 10
-7.2440547553
 20
-0.8379580869
 10
-7.2035140069
 20
-1.0272246759
 10
-7.1597090828
 20
-1.2174288397
 10
-7.1126912816
 20
-1.4082861515
 10
-7.0624606211
 20
-1.5997818531
 10
-7.009014195
 20
-1.791929092
 10
-6.9523988184
 20
-1.9844852458
 10
-6.8925614478
 20
-2.1775589942
 10
-6.8295517056
 20
-2.3710397464
 10
-6.7635704098
 20
-2.5643559754
 10
-6.6946297942
 20
-2.7574393301
 10
-6.6227139471
 20
-2.9503561027
 10
-6.547981573
 20
-3.1427367879
 10
-6.4704013007
 20
-3.3346392034
 10
-6.3900005615
 20
-3.5260033209
 10
-6.3070264483
 20
-3.7162829674
 10
-6.2215600918
 20
-3.905295391
 10
-6.1335164567
 20
-4.0932211467
 10
-6.0428934815
 20
-4.2800590731
  0
LWPOLYLINE
  5
289
100
AcDbEntity
  8
0
100
AcDbPolyline
 62
7
  6
CONTINUOUS
 90
50
 70
0
 10
-3.7503758876
 20
2.1287110345
 10
-3.783275697
 20
2.109244936
 10
-3.8519275411
 20
2.0653778314
 10
-3.9186357127
 20
2.018275184
 10
-3.9832472559
 20
1.9680808162
 10
-4.0457562268
 20
1.9147915797
 10
-4.1061709545
 20
1.8584092647
 10
-4.1643599993
 20
1.7990850417
 10
-4.2203094242
 20
1.7368286645
 10
-4.2740354501
 20
1.6716290813
 10
-4.3254519226
 20
1.6036062274
 10
-4.3745502662
 20
1.5327560647
 10
-4.4213411478
 20
1.4590814446
 10
-4.4657672731
 20
1.3827126389
 10
-4.507834797
 20
1.3036444248
 10
-4.5475394079
 20
1.2218809806
 10
-4.584808088
 20
1.1375666938
 10
-4.6196432737
 20
1.0507033027
 10
-4.6520441157
 20
0.9612881709
 10
-4.6819326371
 20
0.8694591415
 10
-4.709304805
 20
0.7751654739
 10
-4.7341659558
 20
0.6784571719
 10
-4.7564521188
 20
0.579623223
 10
-4.7761463269
 20
0.4786992553
 10
-4.7932665296
 20
0.3756490858
 10
-4.8078010577
 20
0.2706540265
 10
-4.8197544158
 20
0.1636764166
 10
-4.8291227205
 20
0.0547535661
 10
-4.8358816331
 20
-0.055820707
 10
-4.8400235127
 20
-0.1679939133
 10
-4.8415562588
 20
-0.2818186882
 10
-4.8404787533
 20
-0.3971588496
 10
-4.83678716
 20
-0.514052926
 10
-4.830485202
 20
-0.6324623251
 10
-4.8215830085
 20
-0.7521351315
 10
-4.8100850157
 20
-0.8730415132
 10
-4.7959863061
 20
-0.9952110304
 10
-4.7792828863
 20
-1.1184808044
 10
-4.7599539603
 20
-1.2429282547
 10
-4.7380194704
 20
-1.3684754796
 10
-4.7135364496
 20
-1.4947265723
 10
-4.686490507
 20
-1.6216596946
 10
-4.656894841
 20
-1.7492960108
 10
-4.6248478191
 20
-1.8773040902
 10
-4.5903360453
 20
-2.0057123173
 10
-4.5533714362
 20
-2.1344914708
 10
-4.5140903187
 20
-2.2632237059
 10
-4.472537592
 20
-2.3917694334
 10
-4.4286666764
 20
-2.5202672909
 10
-4.3824766546
 20
-2.6487167584
  0
LINE
  5
28A
100
AcDbEntity
  8
RACCORDO
100
AcDbLine
 62
253
  6
CONTINUOUS
 10
23.4020543692
 20
30.101899135
 11
27.3540846786
 21
32.383744339
  0
LINE
  5
28B
100
AcDbEntity
  8
RACCORDO
100
AcDbLine
 62
253
  6
CONTINUOUS
 10
23.7555539119
 20
29.4896199672
 11
27.7075842213
 21
31.7714651712
  0
LINE
  5
28C
100
AcDbEntity
  8
RACCORDO
100
AcDbLine
 62
253
  6
CONTINUOUS
 10
30.6066477552
 20
30.9955359366
 11
32.6548529601
 21
32.1781446333
  0
LINE
  5
28D
100
AcDbEntity
  8
RACCORDO
100
AcDbLine
 62
253
  6
CONTINUOUS
 10
30.9601472979
 20
30.3832567688
 11
33.0083525028
 21
31.5658654656
  0
LINE
  5
28E
100
AcDbEntity
  8
DRAFT
100
AcDbLine
 62
7
  6
CONTINUOUS
 10
33.0083525028
 20
23.1152794969
 11
31.8272533859
 21
22.4333817556
  0
LINE
  5
28F
100
AcDbEntity
  8
RACCORDO
100
AcDbLine
 62
7
  6
CONTINUOUS
 10
31.8272533859
 20
22.4333817556
 11
30.9601472979
 21
21.9326989042
  0
LINE
  5
290
100
AcDbEntity
  8
0
100
AcDbLine
 62
7
  6
CONTINUOUS
 10
29.8968556517
 20
18.1017743316
 11
29.6493682782
 21
17.958878224
  0
LINE
  5
291
100
AcDbEntity
  8
RACCORDO
100
AcDbLine
 62
253
  6
CONTINUOUS
 10
31.3038815016
 20
15.8132725063
 11
30.729570403
 21
15.4816752497
  0
LINE
  5
292
100
AcDbEntity
  8
RACCORDO
100
AcDbLine
 62
253
  6
CONTINUOUS
 10
31.4184595317
 20
15.6148636242
 11
30.844128477
 21
15.2832548454
  0
LINE
  5
293
100
AcDbEntity
  8
0
100
AcDbLine
 62
7
  6
CONTINUOUS
 10
32.6969909484
 20
13.2521101866
 11
32.449503575
 21
13.1092140789
  0
LWPOLYLINE
  5
294
100
AcDbEntity
  8
0
100
AcDbPolyline
 62
7
  6
CONTINUOUS
 90
135
 70
0
 10
-5.9141195901
 20
5.9317540305
 10
-5.8915537355
 20
5.9446592628
 10
-5.7795250534
 20
6.0051856065
 10
-5.6649752601
 20
6.0612596887
 10
-5.5479315471
 20
6.1128710989
 10
-5.428633409
 20
6.1599202007
 10
-5.3071109394
 20
6.2023946228
 10
-5.1833292342
 20
6.2403094774
 10
-5.0574306497
 20
6.2736061557
 10
-4.9293461581
 20
6.3022851489
 10
-4.7991399868
 20
6.3263487131
 10
-4.6671548903
 20
6.3457405985
 10
-4.5334254122
 20
6.3604295486
 10
-4.3979129167
 20
6.3704491795
 10
-4.2608510473
 20
6.3758401809
 10
-4.1222616111
 20
6.3766061119
 10
-3.9821191457
 20
6.3727455366
 10
-3.8405868595
 20
6.3642913884
 10
-3.6976588188
 20
6.3512517834
 10
-3.5533375963
 20
6.3336205716
 10
-3.4077995785
 20
6.3114090533
 10
-3.2610779323
 20
6.2846258823
 10
-3.1131365498
 20
6.2532641413
 10
-2.9640482178
 20
6.2173115985
 10
-2.8137476577
 20
6.1767331805
 10
-2.6622972568
 20
6.1315656778
 10
-2.5099617441
 20
6.0819044025
 10
-2.3567825759
 20
6.027764006
 10
-2.2027161756
 20
5.9691311213
 10
-2.0479002631
 20
5.9060587258
 10
-1.8922569713
 20
5.8385139906
 10
-1.7358622929
 20
5.7665308945
 10
-1.5790854342
 20
5.6902622279
 10
-1.4219427939
 20
5.6097042907
 10
-1.2644171962
 20
5.5248613068
 10
-1.1068284397
 20
5.4358974046
 10
-0.949193572
 20
5.3428093995
 10
-0.791495655
 20
5.2456004903
 10
-0.6340043244
 20
5.1444439092
 10
-0.4766698677
 20
5.0392944126
 10
-0.3195427873
 20
4.9301968642
 10
-0.1630439889
 20
4.8174591078
 10
-0.007262541
 20
4.7011405561
 10
0.147888575
 20
4.5811806822
 10
0.3022518049
 20
4.4577069672
 10
0.4558487479
 20
4.330701178
 10
0.6086554709
 20
4.2001802617
 10
0.7604456237
 20
4.0663241774
 10
0.9111637202
 20
3.9291640544
 10
1.0608623063
 20
3.7886671163
 10
1.2094767178
 20
3.6449172509
 10
1.3570481182
 20
3.4978739135
 10
1.503532396
 20
3.3475759882
 10
1.6487366715
 20
3.1942263258
 10
1.792653895
 20
3.0378361017
 10
1.9352877339
 20
2.8783922164
 10
2.0764609544
 20
2.716060853
 10
2.2161949627
 20
2.550816048
 10
2.3544646788
 20
2.3826816595
 10
2.491022668
 20
2.2118983233
 10
2.6259021303
 20
2.0383920593
 10
2.7590657687
 20
1.8622344823
 10
2.8901597576
 20
1.6838842381
 10
3.0191120544
 20
1.5034193815
 10
3.1459899356
 20
1.3207590857
 10
3.2706480621
 20
1.136123381
 10
3.3931190927
 20
0.9494570888
 10
3.5133656266
 20
0.7608126176
 10
3.6311368976
 20
0.5705711756
 10
3.7464001715
 20
0.3787774276
 10
3.8591831925
 20
0.1853837799
 10
3.969325592
 20
-0.0093671395
 10
4.0768614486
 20
-0.2055669144
 10
4.1817517863
 20
-0.4031268464
 10
4.2837263621
 20
-0.6015340618
 10
4.3827595057
 20
-0.8007800134
 10
4.4788718911
 20
-1.0008762033
 10
4.5718625079
 20
-1.2013400034
 10
4.6616862079
 20
-1.4020831929
 10
4.7483832917
 20
-1.6031968685
 10
4.8318808375
 20
-1.8044674311
 10
4.9121932842
 20
-2.0059305558
 10
4.9893017887
 20
-2.2075531871
 10
5.0630835083
 20
-2.4090186306
 10
5.1335027695
 20
-2.6102499746
 10
5.2005912106
 20
-2.8113265366
 10
5.2643270084
 20
-3.0121659361
 10
5.3247263932
 20
-3.2128441202
 10
5.3817696636
 20
-3.4132872153
 10
5.4353811951
 20
-3.6131880531
 10
5.4855524287
 20
-3.8125037973
 10
5.532288954
 20
-4.0112790609
 10
5.5755364625
 20
-4.2093377957
 10
5.6153118172
 20
-4.4067603449
 10
5.6515957514
 20
-4.6034678055
 10
5.684279862
 20
-4.7990452004
 10
5.7133477454
 20
-4.9935014411
 10
5.7388139583
 20
-5.186828724
 10
5.7606166542
 20
-5.3785869299
 10
5.778732945
 20
-5.5686937777
 10
5.7931845047
 20
-5.7572322773
 10
5.8039764845
 20
-5.9440101537
 10
5.8111119825
 20
-6.1290755547
 10
5.8145873577
 20
-6.3123806584
 10
5.81439782
 20
-6.493589135
 10
5.8105465256
 20
-6.6726525218
 10
5.8030304408
 20
-6.8496192079
 10
5.7918356576
 20
-7.0242980404
 10
5.7769465383
 20
-7.1967697802
 10
5.7583795162
 20
-7.3669531888
 10
5.7361689534
 20
-7.5344140156
 10
5.7103015864
 20
-7.6990870656
 10
5.6807921321
 20
-7.8610366617
 10
5.6477170645
 20
-8.0200227456
 10
5.6110859589
 20
-8.1760136206
 10
5.5708913005
 20
-8.3290397481
 10
5.5271840526
 20
-8.4789542329
 10
5.4799674362
 20
-8.6257728674
 10
5.4292408845
 20
-8.7694782696
 10
5.3750497978
 20
-8.9098737121
 10
5.3173958353
 20
-9.0469520993
 10
5.2562805664
 20
-9.180718596
 10
5.1917493672
 20
-9.3109948008
 10
5.1237479774
 20
-9.4378263417
 10
5.0523344608
 20
-9.56116532
 10
4.977722679
 20
-9.6806930454
 10
4.899935265
 20
-9.7963565856
 10
4.8189536651
 20
-9.9082064431
 10
4.7349298633
 20
-10.0160791396
 10
4.647835224
 20
-10.1200033125
 10
4.5577027821
 20
-10.2199477106
 10
4.4647768632
 20
-10.3156591233
 10
4.3691403138
 20
-10.4070523151
 10
4.2707147045
 20
-10.4942099052
 10
4.1695023658
 20
-10.5771305151
  0
LINE
  5
295
100
AcDbEntity
  8
RACCORDO
100
AcDbLine
 62
7
  6
CONTINUOUS
 10
33.3273155295
 20
17.7589578919
 11
32.7479891919
 21
17.4297331859
  0
LINE
  5
296
100
AcDbEntity
  8
RACCORDO
100
AcDbLine
 62
7
  6
CONTINUOUS
 10
32.7479891919
 20
19.070444669
 11
33.5393835054
 21
19.5199377822
  0
LWPOLYLINE
  5
297
100
AcDbEntity
  8
0
100
AcDbPolyline
 62
7
  6
CONTINUOUS
 90
45
 70
0
 10
-1.4142106013
 20
-1.6391150815
 10
-1.4057531033
 20
-1.6344201181
 10
-1.3871748083
 20
-1.6253280895
 10
-1.3678689599
 20
-1.6175028125
 10
-1.3478496576
 20
-1.6109484215
 10
-1.3272100637
 20
-1.6056861559
 10
-1.3059070226
 20
-1.6017284504
 10
-1.2839834562
 20
-1.5990627356
 10
-1.2616616971
 20
-1.5976727754
 10
-1.238965246
 20
-1.5975716669
 10
-1.2158704484
 20
-1.5987462242
 10
-1.1925289754
 20
-1.6011408292
 10
-1.1689531328
 20
-1.604743897
 10
-1.1451305157
 20
-1.6095669551
 10
-1.1211757828
 20
-1.615589085
 10
-1.0970578281
 20
-1.622826908
 10
-1.0728076984
 20
-1.6312637685
 10
-1.0486333492
 20
-1.6408288714
 10
-1.0246023773
 20
-1.6515105128
 10
-1.0006472284
 20
-1.663320421
 10
-0.976773177
 20
-1.6762229758
 10
-0.9530546832
 20
-1.6901681365
 10
-0.9294173321
 20
-1.7052059696
 10
-0.9056430403
 20
-1.7214509903
 10
-0.8816533528
 20
-1.7389375723
 10
-0.8575266572
 20
-1.7576313028
 10
-0.8332800929
 20
-1.7775434931
 10
-0.8088268588
 20
-1.7987449407
 10
-0.7842536935
 20
-1.8211648117
 10
-0.7598381083
 20
-1.8446020068
 10
-0.7355837431
 20
-1.8690784996
 10
-0.7114870267
 20
-1.894572356
 10
-0.6878147702
 20
-1.9208166809
 10
-0.6646074492
 20
-1.9477761151
 10
-0.6418247686
 20
-1.9754861221
 10
-0.619612467
 20
-2.0037860892
 10
-0.5979570117
 20
-2.0326994346
 10
-0.5768721533
 20
-2.0622028661
 10
-0.5565446132
 20
-2.0920657393
 10
-0.5369466927
 20
-2.1223647164
 10
-0.5181063522
 20
-2.1530232867
 10
-0.5002938737
 20
-2.1835810879
 10
-0.4835994738
 20
-2.2138847373
 10
-0.4679332553
 20
-2.2440878025
 10
-0.453295359
 20
-2.274190365
  0
LWPOLYLINE
  5
298
100
AcDbEntity
  8
0
100
AcDbPolyline
 62
7
  6
CONTINUOUS
 90
125
 70
0
 10
-4.9821672105
 20
4.289821923
 10
-4.8939756622
 20
4.3384717823
 10
-4.7968125899
 20
4.3870023393
 10
-4.6974068896
 20
4.4315320881
 10
-4.5959901028
 20
4.4719710129
 10
-4.492575833
 20
4.5083086784
 10
-4.3871468276
 20
4.5405576043
 10
-4.279888682
 20
4.5686620178
 10
-4.1707660792
 20
4.5926161459
 10
-4.0598108254
 20
4.6124277754
 10
-3.9473096269
 20
4.6280612341
 10
-3.833316672
 20
4.6394932242
 10
-3.7177747563
 20
4.646748784
 10
-3.6008038818
 20
4.6498645284
 10
-3.4823691748
 20
4.6488457358
 10
-3.362502577
 20
4.6436888277
 10
-3.2414246538
 20
4.634416941
 10
-3.1191787958
 20
4.6210425497
 10
-2.9957191305
 20
4.60355463
 10
-2.8711326473
 20
4.5819408922
 10
-2.7453783099
 20
4.5561893236
 10
-2.618494743
 20
4.5263133532
 10
-2.4906887451
 20
4.4923386729
 10
-2.3619574546
 20
4.4542448003
 10
-2.2323017726
 20
4.412053382
 10
-2.1019346136
 20
4.3658530356
 10
-1.970865749
 20
4.3156496935
 10
-1.8390839206
 20
4.2614383205
 10
-1.7067709526
 20
4.2032908239
 10
-1.5738594824
 20
4.1411714541
 10
-1.4404157363
 20
4.0751166602
 10
-1.3068225825
 20
4.0053062679
 10
-1.1731333012
 20
3.9317558246
 10
-1.0392944668
 20
3.854449914
 10
-0.9055296018
 20
3.7735215052
 10
-0.7718079572
 20
3.6889420269
 10
-0.6381605954
 20
3.6007399166
 10
-0.50490439
 20
3.5091332914
 10
-0.3720708331
 20
3.4141392538
 10
-0.2396295276
 20
3.3157401137
 10
-0.1078051387
 20
3.2141014363
 10
0.0234008921
 20
3.1092222026
 10
0.153988437
 20
3.0011025655
 10
0.2837342976
 20
2.8899095543
 10
0.4126286702
 20
2.7756301867
 10
0.5406793147
 20
2.6582762985
 10
0.6676889196
 20
2.5380518787
 10
0.7936192723
 20
2.4149876857
 10
0.9185061426
 20
2.2890515764
 10
1.042262899
 20
2.1603530149
 10
1.1649352159
 20
2.0288495484
 10
1.2864749237
 20
1.8945822084
 10
1.406654316
 20
1.7577855021
 10
1.5254386601
 20
1.6185009241
 10
1.6428597559
 20
1.4766852959
 10
1.7587893571
 20
1.3324459154
 10
1.8732847716
 20
1.1856891218
 10
1.9862856816
 20
1.0365068397
 10
2.0974870134
 20
0.8852845148
 10
2.2068491713
 20
0.732057605
 10
2.3144082447
 20
0.5767886172
 10
2.4199722649
 20
0.4197533206
 10
2.5235542306
 20
0.2609228025
 10
2.6251375188
 20
0.1003238632
 10
2.7244854051
 20
-0.0616843516
 10
2.8215940749
 20
-0.2251169568
 10
2.9164635449
 20
-0.3899610598
 10
3.0088625169
 20
-0.5558156957
 10
3.0987462056
 20
-0.7226230132
 10
3.1861555046
 20
-0.8904431486
 10
3.2709874562
 20
-1.0590522255
 10
3.3532645993
 20
-1.2285049316
 10
3.4329607233
 20
-1.398748741
 10
3.5098996415
 20
-1.5693990213
 10
3.5840520415
 20
-1.7403934904
 10
3.6554436775
 20
-1.9117965309
 10
3.7239808889
 20
-2.0834135519
 10
3.7896856592
 20
-2.2553289086
 10
3.8525327639
 20
-2.4274601631
 10
3.9123576942
 20
-2.5993625588
 10
3.969119931
 20
-2.7709752863
 10
4.0228570026
 20
-2.9423609278
 10
4.0735214807
 20
-3.1132598094
 10
4.1211096124
 20
-3.2836531875
 10
4.1656226054
 20
-3.4535613167
 10
4.2070205567
 20
-3.6227829705
 10
4.2453104951
 20
-3.7913306871
 10
4.280483306
 20
-3.9591931682
 10
4.312474961
 20
-4.1261333787
 10
4.3412749703
 20
-4.2921121828
 10
4.3668921987
 20
-4.4571696835
 10
4.3892917509
 20
-4.6211876437
 10
4.4084732197
 20
-4.7842345612
 10
4.4244358908
 20
-4.9462426062
 10
4.437144527
 20
-5.1068889808
 10
4.4465959235
 20
-5.2661526897
 10
4.452792681
 20
-5.4240550881
 10
4.4557083971
 20
-5.5803368277
 10
4.4553306627
 20
-5.7351129743
 10
4.4516718171
 20
-5.8882685037
 10
4.4447427147
 20
-6.0391988539
 10
4.4345227962
 20
-6.187834909
 10
4.4210330915
 20
-6.3342455044
 10
4.4043469646
 20
-6.4780329304
 10
4.3844716687
 20
-6.6191050697
 10
4.3614009292
 20
-6.7575534567
 10
4.3351879284
 20
-6.8932557941
 10
4.3058428427
 20
-7.0262151789
 10
4.2733569585
 20
-7.1564276434
 10
4.2377552312
 20
-7.2837602292
 10
4.1990571252
 20
-7.4081887822
 10
4.157245117
 20
-7.5297363023
 10
4.1122888067
 20
-7.6483404871
 10
4.0641457079
 20
-7.7640372575
 10
4.0128607823
 20
-7.8767892224
 10
3.9585348956
 20
-7.9864240569
 10
3.9011903355
 20
-8.0928942816
 10
3.840807673
 20
-8.1962456807
 10
3.7774252558
 20
-8.2964457917
 10
3.7110389814
 20
-8.3935393431
 10
3.6416562486
 20
-8.4874796552
 10
3.5693327215
 20
-8.5780971167
 10
3.494088169
 20
-8.6653344731
 10
3.4159064997
 20
-8.7492468064
 10
3.3347896675
 20
-8.8298329636
  0
LWPOLYLINE
  5
299
100
AcDbEntity
  8
RACCORDO
100
AcDbPolyline
 62
7
  6
CONTINUOUS
 90
19
 70
0
 10
32.7479891919
 20
17.4297331859
 10
32.7265890642
 20
17.4179651859
 10
32.7037851624
 20
17.4064878827
 10
32.6798333886
 20
17.3953409923
 10
32.6549939225
 20
17.3844806824
 10
32.6295077599
 20
17.3739825034
 10
32.6035919532
 20
17.3640461474
 10
32.577476431
 20
17.354651068
 10
32.5513777691
 20
17.3457760407
 10
32.5254745511
 20
17.3376095086
 10
32.499960347
 20
17.3301080316
 10
32.4750139805
 20
17.323220299
 10
32.4507728511
 20
17.3171183431
 10
32.4273902844
 20
17.3117435728
 10
32.4050047066
 20
17.3070254451
 10
32.3837144013
 20
17.3031175649
 10
32.363624722
 20
17.3000230655
 10
32.3448445175
 20
17.2975910926
 10
32.3274596464
 20
17.2957430601
  0
LINE
  5
29A
100
AcDbEntity
  8
DRAFT
100
AcDbLine
 62
7
  6
CONTINUOUS
 10
33.7379241157
 20
12.6188458841
 11
33.161595683
 21
12.3023099217
  0
LINE
  5
29B
100
AcDbEntity
  8
DRAFT
100
AcDbLine
 62
7
  6
CONTINUOUS
 10
34.9876717836
 20
11.6431183534
 11
34.1250528067
 21
11.1693434837
  0
LWPOLYLINE
  5
29C
100
AcDbEntity
  8
RACCORDO
100
AcDbPolyline
 62
7
  6
CONTINUOUS
 90
19
 70
0
 10
32.7479891919
 20
19.070444669
 10
32.7267631323
 20
19.058798842
 10
32.7041348162
 20
19.0474565863
 10
32.6803510679
 20
19.0364599089
 10
32.6556637316
 20
19.0257714659
 10
32.6303075978
 20
19.0154669478
 10
32.6044958516
 20
19.0057394538
 10
32.5784548599
 20
18.9965716537
 10
32.5523984893
 20
18.9879474325
 10
32.5265048074
 20
18.9800514201
 10
32.5009674904
 20
18.9728437245
 10
32.4759664795
 20
18.9662776857
 10
32.4516418462
 20
18.9605228194
 10
32.4281500584
 20
18.9555236112
 10
32.405633669
 20
18.9512130256
 10
32.3841962975
 20
18.9477421606
 10
32.363948853
 20
18.9451146088
 10
32.3450059154
 20
18.9431829711
 10
32.3274596464
 20
18.9418698817
  0
LINE
  5
29D
100
AcDbEntity
  8
RACCORDO
100
AcDbLine
 62
7
  6
CONTINUOUS
 10
33.5156126182
 20
10.9376056489
 11
32.7479891919
 21
10.517579962
  0
LWPOLYLINE
  5
29E
100
AcDbEntity
  8
0
100
AcDbPolyline
 62
7
  6
CONTINUOUS
 90
114
 70
0
 10
-4.0483288933
 20
2.6492004078
 10
-3.9651722164
 20
2.6945523837
 10
-3.8862781517
 20
2.7329506294
 10
-3.8056324906
 20
2.7678407818
 10
-3.7231994653
 20
2.7992544553
 10
-3.6391427242
 20
2.8271624323
 10
-3.5534324858
 20
2.8515709648
 10
-3.466096082
 20
2.8724752056
 10
-3.3773831177
 20
2.8898291261
 10
-3.2873417201
 20
2.9036175413
 10
-3.1959216314
 20
2.9138568635
 10
-3.1032251354
 20
2.9205483161
 10
-3.0092269524
 20
2.9236875167
 10
-2.9139502734
 20
2.9232800551
 10
-2.8175703021
 20
2.9193419912
 10
-2.7201112867
 20
2.9118790438
 10
-2.6215471483
 20
2.900886558
 10
-2.5219778237
 20
2.8863649067
 10
-2.4213737204
 20
2.8683100376
 10
-2.3197626924
 20
2.8467270178
 10
-2.2173310913
 20
2.8216297593
 10
-2.1140613322
 20
2.7929927752
 10
-2.0099695666
 20
2.7608423958
 10
-1.9052931307
 20
2.725270042
 10
-1.8000595567
 20
2.6862831408
 10
-1.6942403231
 20
2.6438748564
 10
-1.5879890449
 20
2.5981150094
 10
-1.4812572271
 20
2.5489817418
 10
-1.3740926054
 20
2.4964973724
 10
-1.2667935654
 20
2.4407977432
 10
-1.1593948835
 20
2.381890973
 10
-1.0518616364
 20
2.3197690523
 10
-0.9443881251
 20
2.254543362
 10
-0.8369424907
 20
2.186184041
 10
-0.7295567698
 20
2.1147208724
 10
-0.6225215634
 20
2.0403544393
 10
-0.5158594905
 20
1.9630960108
 10
-0.4095486852
 20
1.8829339062
 10
-0.3038134989
 20
1.8000340074
 10
-0.1986660717
 20
1.7144010548
 10
-0.0940954104
 20
1.6260296664
 10
0.0097084584
 20
1.5350703221
 10
0.1127383432
 20
1.4415111366
 10
0.2149999757
 20
1.3453631691
 10
0.3163223991
 20
1.2468111329
 10
0.4166831445
 20
1.1458770588
 10
0.5161029541
 20
1.0425379316
 10
0.6144754592
 20
0.9369107615
 10
0.7118258137
 20
0.8289696958
 10
0.8081270401
 20
0.7187395428
 10
0.903194344
 20
0.6064131706
 10
0.9970002709
 20
0.4920150434
 10
1.0895701911
 20
0.3755194967
 10
1.1807983328
 20
0.2570440787
 10
1.2707338117
 20
0.1365147348
 10
1.3593253935
 20
0.0140042953
 10
1.4463165285
 20
-0.1101495132
 10
1.5316764518
 20
-0.2359077312
 10
1.6154334993
 20
-0.3633107282
 10
1.6974194922
 20
-0.4921399362
 10
1.7776723077
 20
-0.6224748094
 10
1.8561515862
 20
-0.7542373391
 10
1.932571526
 20
-0.8869729221
 10
2.0068899541
 20
-1.0206462757
 10
2.0791463397
 20
-1.1552942622
 10
2.1491771095
 20
-1.2905706353
 10
2.2169618879
 20
-1.4264463697
 10
2.2825184003
 20
-1.5629520428
 10
2.34574013
 20
-1.6998308682
 10
2.4066266908
 20
-1.8370876937
 10
2.4651759818
 20
-1.974719131
 10
2.5212788724
 20
-2.1124560652
 10
2.5749114048
 20
-2.2502556787
 10
2.6260952324
 20
-2.3881621438
 10
2.6747896487
 20
-2.5260368267
 10
2.7210108632
 20
-2.6639342202
 10
2.7647406542
 20
-2.8018010163
 10
2.8058866968
 20
-2.9393368641
 10
2.8444371104
 20
-3.0764923149
 10
2.8804020198
 20
-3.2133178527
 10
2.9137221412
 20
-3.3496630056
 10
2.9444070842
 20
-3.4856024383
 10
2.9724458024
 20
-3.6210623341
 10
2.9977480789
 20
-3.7556694702
 10
3.0202884874
 20
-3.8893735713
 10
3.0400913397
 20
-4.0222255709
 10
3.0571410988
 20
-4.1540040173
 10
3.0714389153
 20
-4.2847385605
 10
3.0829829068
 20
-4.4143999828
 10
3.091753079
 20
-4.5426784768
 10
3.0977436629
 20
-4.6695669907
 10
3.1009600802
 20
-4.7950727815
 10
3.1013992183
 20
-4.9189074487
 10
3.0990557878
 20
-5.0410237332
 10
3.0939351229
 20
-5.1614688675
 10
3.086050144
 20
-5.2800961313
 10
3.0753990251
 20
-5.396935259
 10
3.0619840264
 20
-5.5119562595
 10
3.0458242916
 20
-5.6249227686
 10
3.0269288492
 20
-5.735803739
 10
3.0052894855
 20
-5.8446297365
 10
2.9808995758
 20
-5.951256761
 10
2.9537317735
 20
-6.0557319681
 10
2.9238146325
 20
-6.1580074892
 10
2.8912254575
 20
-6.2577967421
 10
2.8559622459
 20
-6.3550470571
 10
2.8180285413
 20
-6.4498101944
 10
2.7775100118
 20
-6.5419561905
 10
2.7343968905
 20
-6.63151373
 10
2.6887007871
 20
-6.718453042
 10
2.6405394473
 20
-6.8025564721
 10
2.5899527916
 20
-6.8837510735
 10
2.5369029658
 20
-6.9621085768
 10
2.4813910866
 20
-7.0376283254
  0
LWPOLYLINE
  5
29F
100
AcDbEntity
  8
0
100
AcDbPolyline
 62
7
  6
CONTINUOUS
 90
70
 70
0
 10
-4.7808163986
 20
-6.3905591137
 10
-4.7905812176
 20
-6.3958787535
 10
-4.80626837
 20
-6.403227891
 10
-4.8225408592
 20
-6.409425203
 10
-4.8393637422
 20
-6.4144551406
 10
-4.8567717893
 20
-6.4183331551
 10
-4.8747268045
 20
-6.4210087096
 10
-4.8932474767
 20
-6.4224769389
 10
-4.9123149334
 20
-6.4227426047
 10
-4.9318346542
 20
-6.42176962
 10
-4.9518380231
 20
-6.4195414152
 10
-4.9722934895
 20
-6.4160744661
 10
-4.9930121795
 20
-6.4113822815
 10
-5.0139927689
 20
-6.405446309
 10
-5.0352364816
 20
-6.3982850447
 10
-5.0565583359
 20
-6.3899676099
 10
-5.0779073178
 20
-6.3805087153
 10
-5.0993344168
 20
-6.3698936367
 10
-5.1208076979
 20
-6.3581473665
 10
-5.1423601931
 20
-6.3452584402
 10
-5.1639588473
 20
-6.3312383096
 10
-5.185472627
 20
-6.3161463599
 10
-5.206919186
 20
-6.2999590749
 10
-5.2282809006
 20
-6.2826999881
 10
-5.2493738833
 20
-6.2644990939
 10
-5.2701654638
 20
-6.2453645016
 10
-5.2906884185
 20
-6.2252881618
 10
-5.3108570799
 20
-6.2043758595
 10
-5.3306675671
 20
-6.1826368553
 10
-5.3501238902
 20
-6.1600619614
 10
-5.3691522456
 20
-6.136729305
 10
-5.3877877932
 20
-6.1125878339
 10
-5.4059955155
 20
-6.0876886806
 10
-5.4235963831
 20
-6.0622632725
 10
-5.4405811152
 20
-6.0362867236
 10
-5.4569591847
 20
-6.0097840281
 10
-5.4725797396
 20
-5.9830614595
 10
-5.4873955057
 20
-5.9561915679
 10
-5.5014539718
 20
-5.9291019241
 10
-5.5147464461
 20
-5.9018813414
 10
-5.5272775337
 20
-5.874536857
 10
-5.5390428097
 20
-5.8470615351
 10
-5.5500200329
 20
-5.8195232277
 10
-5.5602206166
 20
-5.7918947042
 10
-5.5696332991
 20
-5.7642032805
 10
-5.5782018253
 20
-5.7365986277
 10
-5.5859281405
 20
-5.7090840401
 10
-5.5928104251
 20
-5.6816562941
 10
-5.5987867761
 20
-5.6544552838
 10
-5.6038528953
 20
-5.6275072794
 10
-5.6080131724
 20
-5.6007860623
 10
-5.6112187304
 20
-5.5743527905
 10
-5.613446134
 20
-5.5481608365
 10
-5.6147188664
 20
-5.5222568548
 10
-5.6150584167
 20
-5.49684192
 10
-5.6144525567
 20
-5.4718980755
 10
-5.6129135123
 20
-5.4474432766
 10
-5.6104994428
 20
-5.4237324599
 10
-5.6072067117
 20
-5.4008082238
 10
-5.6030389097
 20
-5.3786279441
 10
-5.5980650298
 20
-5.3573187189
 10
-5.592291574
 20
-5.3368932047
 10
-5.5857119615
 20
-5.3173387007
 10
-5.5783755571
 20
-5.2987442671
 10
-5.5702647545
 20
-5.2810811341
 10
-5.5613970524
 20
-5.264378011
 10
-5.5518744779
 20
-5.2488101794
 10
-5.5417310046
 20
-5.2344360465
 10
-5.5309325432
 20
-5.22119714
 10
-5.5194790292
 20
-5.2090934237
  0
LWPOLYLINE
  5
2A0
100
AcDbEntity
  8
0
100
AcDbPolyline
 62
7
  6
CONTINUOUS
 90
96
 70
0
 10
-3.1083701382
 20
1.0116985935
 10
-3.0477682487
 20
1.0446238981
 10
-2.9881976604
 20
1.0731768235
 10
-2.9271169093
 20
1.0987991989
 10
-2.864540823
 20
1.1215041788
 10
-2.8006244442
 20
1.1412684398
 10
-2.7353851083
 20
1.1580880047
 10
-2.6688039611
 20
1.1719677236
 10
-2.6009818854
 20
1.182897444
 10
-2.5318718155
 20
1.1908805274
 10
-2.461519307
 20
1.1959144823
 10
-2.3901643655
 20
1.1979802672
 10
-2.3178206445
 20
1.1970620127
 10
-2.2444732416
 20
1.1931763108
 10
-2.1703195954
 20
1.1863526604
 10
-2.0953808518
 20
1.1765949689
 10
-2.0196348364
 20
1.1638999268
 10
-1.9432142176
 20
1.1482860869
 10
-1.8661068932
 20
1.1297451474
 10
-1.7883240741
 20
1.1082859309
 10
-1.7100335975
 20
1.0839525622
 10
-1.631263144
 20
1.0567448733
 10
-1.5519843748
 20
1.0266634203
 10
-1.4722812695
 20
0.9937533161
 10
-1.3921073965
 20
0.9579984311
 10
-1.3115086027
 20
0.9194152417
 10
-1.2307075002
 20
0.8780976462
 10
-1.1497082581
 20
0.8340439078
 10
-1.0685064576
 20
0.7872559178
 10
-0.9873121365
 20
0.7378328388
 10
-0.9061235817
 20
0.6857704478
 10
-0.8249425528
 20
0.6310729517
 10
-0.7439846003
 20
0.5738519821
 10
-0.6632257084
 20
0.5140815122
 10
-0.5826902337
 20
0.4517873822
 10
-0.50266664
 20
0.3871588194
 10
-0.4231612839
 20
0.3201702853
 10
-0.3441685602
 20
0.2508468933
 10
-0.2659593757
 20
0.1794536247
 10
-0.1885885739
 20
0.1060283946
 10
-0.1120024315
 20
0.0305326477
 10
-0.0363092546
 20
-0.0468834863
 10
0.0384975159
 20
-0.1262203214
 10
0.1124101249
 20
-0.2074782297
 10
0.1852986513
 20
-0.2905072512
 10
0.2571856213
 20
-0.375342354
 10
0.328047204
 20
-0.461949321
 10
0.3976837526
 20
-0.5500745269
 10
0.4660575025
 20
-0.6396692483
 10
0.5332047145
 20
-0.7307830774
 10
0.599036626
 20
-0.8233099511
 10
0.6635803422
 20
-0.9172892822
 10
0.7268072647
 20
-1.0126825228
 10
0.788544954
 20
-1.1092667408
 10
0.84877203
 20
-1.2070308558
 10
0.9075082799
 20
-1.3059868729
 10
0.9646428953
 20
-1.4059465592
 10
1.0202171735
 20
-1.5070042012
 10
1.0741882606
 20
-1.6090664179
 10
1.1263189896
 20
-1.7116635517
 10
1.1765686725
 20
-1.8147350238
 10
1.2249763524
 20
-1.9183423719
 10
1.2714243457
 20
-2.0221991806
 10
1.315914712
 20
-2.1263160455
 10
1.3584438519
 20
-2.2306832699
 10
1.3988855484
 20
-2.3349840262
 10
1.4372240934
 20
-2.4391820232
 10
1.4734737735
 20
-2.5433143831
 10
1.5075533492
 20
-2.6471744074
 10
1.5394445193
 20
-2.7507303604
 10
1.5691643494
 20
-2.854014701
 10
1.5966846786
 20
-2.9569170058
 10
1.6220000712
 20
-3.0594475032
 10
1.6451149634
 20
-3.1615965502
 10
1.6660160555
 20
-3.2632238855
 10
1.6847122332
 20
-3.3643472309
 10
1.7011938594
 20
-3.464949305
 10
1.7154199049
 20
-3.5648373099
 10
1.7273940199
 20
-3.6640850495
 10
1.7371120476
 20
-3.7626190168
 10
1.744521304
 20
-3.8600254155
 10
1.7496086536
 20
-3.9562441125
 10
1.752386984
 20
-4.0513353861
 10
1.7528427107
 20
-4.1450660186
 10
1.7509675605
 20
-4.2374633059
 10
1.7467698349
 20
-4.3284999356
 10
1.7402608787
 20
-4.4178607377
 10
1.7314260834
 20
-4.5054949272
 10
1.7202803623
 20
-4.5914531104
 10
1.7068794068
 20
-4.6755721665
 10
1.6912136743
 20
-4.7578751622
 10
1.6732932704
 20
-4.8383387007
 10
1.6532034056
 20
-4.9167299382
 10
1.6309727401
 20
-4.9929711097
 10
1.6065733983
 20
-5.0671395204
 10
1.5800058346
 20
-5.139234904
  0
LWPOLYLINE
  5
2A1
100
AcDbEntity
  8
0
100
AcDbPolyline
 62
7
  6
CONTINUOUS
 90
22
 70
0
 10
32.4492312392
 20
13.1096876083
 10
32.4085192457
 20
13.0877516758
 10
32.2305858063
 20
13.0180924932
 10
32.0393854203
 20
12.9826265176
 10
31.8343846912
 20
12.9827284841
 10
31.6161170156
 20
13.0170236576
 10
31.3932417777
 20
13.0841514376
 10
31.1655737311
 20
13.1854318565
 10
30.9332981222
 20
13.319544882
 10
30.7056300755
 20
13.4811698167
 10
30.4827548377
 20
13.6714127747
 10
30.2644871621
 20
13.889167642
 10
30.059486433
 20
14.1257953789
 10
29.868286047
 20
14.3820547677
 10
29.6903526075
 20
14.6571870261
 10
29.5327453095
 20
14.9402767679
 10
29.3962813636
 20
15.2316439232
 10
29.2801435592
 20
15.5309685618
 10
29.1889394583
 20
15.8263755077
 10
29.1242049151
 20
16.1139063688
 10
29.0844040754
 20
16.3975195372
 10
29.0695369393
 20
16.6772150128
  0
LINE
  5
2A2
100
AcDbEntity
  8
DRAFT
100
AcDbLine
 62
7
  6
CONTINUOUS
 10
32.2724998658
 20
32.398910518
 11
31.5530504898
 21
32.0120139259
  0
LWPOLYLINE
  5
2A3
100
AcDbEntity
  8
RACCORDO
100
AcDbPolyline
 62
7
  6
CONTINUOUS
 90
19
 70
0
 10
30.9601472979
 20
21.9326989042
 10
30.9409047212
 20
21.9224875014
 10
30.9201864976
 20
21.9132202565
 10
30.8981299943
 20
21.9049754645
 10
30.87481881
 20
21.8978113403
 10
30.8504777905
 20
21.8918132707
 10
30.8254957315
 20
21.8870587955
 10
30.800171418
 20
21.8835771351
 10
30.7746023191
 20
21.8813510528
 10
30.7488925409
 20
21.8803554795
 10
30.7232544279
 20
21.8805888888
 10
30.6978522581
 20
21.8820402865
 10
30.6727188641
 20
21.8846924877
 10
30.6479252766
 20
21.8885579815
 10
30.6237963028
 20
21.893615153
 10
30.6007293025
 20
21.8997714239
 10
30.5789492439
 20
21.9069350068
 10
30.5585338537
 20
21.9150515403
 10
30.5396177524
 20
21.9240418396
  0
LWPOLYLINE
  5
2A4
100
AcDbEntity
  8
RACCORDO
100
AcDbPolyline
 62
253
  6
CONTINUOUS
 90
8
 70
0
 10
30.800269574
 20
16.0325026636
 10
30.8030827208
 20
16.0339513208
 10
30.8133272006
 20
16.0408369166
 10
30.8224237322
 20
16.0497162821
 10
30.830072065
 20
16.0602509492
 10
30.8362037514
 20
16.0721268015
 10
30.8408835147
 20
16.0852136065
 10
30.844128477
 20
16.0993027846
  0
LWPOLYLINE
  5
2A5
100
AcDbEntity
  8
RACCORDO
100
AcDbPolyline
 62
7
  6
CONTINUOUS
 90
3
 70
0
 10
29.752935106
 20
11.3175182273
 10
29.7634823809
 20
11.3228992193
 10
29.7745343046
 20
11.3286936798
  0
LWPOLYLINE
  5
2A6
100
AcDbEntity
  8
RACCORDO
100
AcDbPolyline
 62
253
  6
CONTINUOUS
 90
16
 70
0
 10
27.7075842213
 20
31.7714651712
 10
27.7310083473
 20
31.7832359189
 10
27.756414335
 20
31.7935455342
 10
27.7835299767
 20
31.8022835568
 10
27.8120647472
 20
31.8093563648
 10
27.8417129161
 20
31.814688178
 10
27.872156824
 20
31.8182218696
 10
27.9030702853
 20
31.8199195786
 10
27.9341220839
 20
31.8197631153
 10
27.9649795211
 20
31.8177541561
 10
27.9953119811
 20
31.8139142254
 10
28.0247944723
 20
31.8082844657
 10
28.0531111105
 20
31.8009251957
 10
28.0799585025
 20
31.791915265
 10
28.105048997
 20
31.7813512088
 10
28.1281137668
 20
31.7693462136
  0
LINE
  5
2A7
100
AcDbEntity
  8
RACCORDO
100
AcDbLine
 62
253
  6
CONTINUOUS
 10
31.2409239974
 20
16.2887456361
 11
30.844128477
 21
16.0993027846
  0
LINE
  5
2A8
100
AcDbEntity
  8
RACCORDO
100
AcDbLine
 62
7
  6
CONTINUOUS
 10
31.2469558969
 20
16.2457634741
 11
30.7998856465
 21
16.0323178611
  0
LWPOLYLINE
  5
2A9
100
AcDbEntity
  8
0
100
AcDbPolyline
 62
7
  6
CONTINUOUS
 90
3
 70
0
 10
29.868286047
 20
18.0499998097
 10
29.6903526075
 20
17.9803406271
 10
29.6496406141
 20
17.9584046946
  0
LWPOLYLINE
  5
2AA
100
AcDbEntity
  8
RACCORDO
100
AcDbPolyline
 62
253
  6
CONTINUOUS
 90
31
 70
0
 10
33.3273155295
 20
11.1305366375
 10
33.4685675891
 20
11.1753326646
 10
33.604725871
 20
11.2292317377
 10
33.7357903751
 20
11.2922338568
 10
33.8619696273
 20
11.364478951
 10
33.9830551017
 20
11.4458270913
 10
34.0984212213
 20
11.5358584901
 10
34.2080378876
 20
11.6346185786
 10
34.3119351991
 20
11.7420619257
 10
34.4095778737
 20
11.8576324509
 10
34.5009323823
 20
11.9813705234
 10
34.5860322539
 20
12.113235774
 10
34.6644427941
 20
12.2525510149
 10
34.7361300143
 20
12.3993543638
 10
34.801127903
 20
12.5536077031
 10
34.8591037315
 20
12.7145194917
 10
34.9100217
 20
12.8821244283
 10
34.9539176083
 20
13.0563878142
 10
34.9905661263
 20
13.2364140126
 10
35.019929934
 20
13.4222329478
 10
35.0420463515
 20
13.6138146954
 10
35.0568020092
 20
13.8101738456
 10
35.0641589654
 20
14.0113346175
 10
35.0641551617
 20
14.2172727921
 10
35.0567910535
 20
14.4269303025
 10
35.0420290238
 20
14.6403253314
 10
35.0199066896
 20
14.8574396962
 10
34.9905373567
 20
15.0771607825
 10
34.9538840799
 20
15.2995019978
 10
34.9099838044
 20
15.5244499345
 10
34.8590606715
 20
15.7508517552
  0
LWPOLYLINE
  5
2AB
100
AcDbEntity
  8
RACCORDO
100
AcDbPolyline
 62
7
  6
CONTINUOUS
 90
3
 70
0
 10
30.7803731319
 20
16.0253709559
 10
30.7931704131
 20
16.0294244909
 10
30.8003232884
 20
16.0325408621
  0
LWPOLYLINE
  5
2AC
100
AcDbEntity
  8
RACCORDO
100
AcDbPolyline
 62
7
  6
CONTINUOUS
 90
9
 70
0
 10
33.5625083513
 20
10.9487407861
 10
33.6368247289
 20
10.968794313
 10
33.7100385684
 20
10.9910312925
 10
33.7821054211
 20
11.0154260049
 10
33.8530151023
 20
11.0419624716
 10
33.922788818
 20
11.0706393404
 10
33.9914133471
 20
11.1014451821
 10
34.0588439533
 20
11.1343536099
 10
34.1250528067
 20
11.1693434837
  0
LWPOLYLINE
  5
2AD
100
AcDbEntity
  8
RACCORDO
100
AcDbPolyline
 62
7
  6
CONTINUOUS
 90
7
 70
0
 10
32.7806957961
 20
12.1561960597
 10
32.8478600249
 20
12.1737292253
 10
32.9135433324
 20
12.194022487
 10
32.9778044279
 20
12.2170652813
 10
33.040621883
 20
12.2428311542
 10
33.1019034456
 20
12.2712623188
 10
33.161595683
 20
12.3023099217
  0
LWPOLYLINE
  5
2AE
100
AcDbEntity
  8
RACCORDO
100
AcDbPolyline
 62
7
  6
CONTINUOUS
 90
4
 70
0
 10
32.6921221945
 20
10.4971165515
 10
32.7041348162
 20
10.5000958056
 10
32.7267631323
 20
10.5076913655
 10
32.7479891919
 20
10.517579962
  0
LINE
  5
2AF
100
AcDbEntity
  8
RACCORDO
100
AcDbLine
 62
7
  6
CONTINUOUS
 10
33.4901793677
 20
10.9315666616
 11
33.5625083513
 21
10.9487407861
  0
LINE
  5
2B0
100
AcDbEntity
  8
DRAFT
100
AcDbLine
 62
7
  6
CONTINUOUS
 10
31.4087705933
 20
-47.3646463763
 11
31.3978107909
 21
-47.3601654712
  0
LWPOLYLINE
  5
2B1
100
AcDbEntity
  8
0
100
AcDbPolyline
 62
7
  6
CONTINUOUS
 90
8
 70
0
 10
31.1818024122
 20
-47.2919614992
 10
30.9531174489
 20
-47.1907851704
 10
30.72908187
 20
-47.1227394649
 10
30.5127253724
 20
-47.0887445841
 10
30.3069738064
 20
-47.0892602505
 10
30.1146096091
 20
-47.1242794904
 10
29.9382341762
 20
-47.1933287288
 10
29.8968556517
 20
-47.2158478118
  0
LWPOLYLINE
  5
2B2
100
AcDbEntity
  8
RACCORDO
100
AcDbPolyline
 62
253
  6
CONTINUOUS
 90
6
 70
0
 10
31.3230188547
 20
-49.5264361626
 10
31.3176743343
 20
-49.5239609573
 10
31.3134855745
 20
-49.5209763445
 10
31.3105715268
 20
-49.5175670784
 10
31.3090149444
 20
-49.5138299723
 10
31.3088593886
 20
-49.512971107
  0
LWPOLYLINE
  5
2B3
100
AcDbEntity
  8
RACCORDO
100
AcDbPolyline
 62
253
  6
CONTINUOUS
 90
6
 70
0
 10
31.2055676623
 20
-48.6895014376
 10
31.2002231301
 20
-48.6870262196
 10
31.1960343664
 20
-48.6840415956
 10
31.1931203209
 20
-48.6806323207
 10
31.1915637448
 20
-48.6768952094
 10
31.191408194
 20
-48.6760363659
  0
LINE
  5
2B4
100
AcDbEntity
  8
RACCORDO
100
AcDbLine
 62
7
  6
CONTINUOUS
 10
30.9730256132
 20
-48.4943438142
 11
30.9730697554
 21
-48.4943650329
  0
LWPOLYLINE
  5
2B5
100
AcDbEntity
  8
RACCORDO
100
AcDbPolyline
 62
253
  6
CONTINUOUS
 90
4
 70
0
 10
30.9593890217
 20
-48.4697209123
 10
30.9793895756
 20
-48.4795794648
 10
30.9993951164
 20
-48.4898632784
 10
31.0194056442
 20
-48.500572353
  0
LWPOLYLINE
  5
2B6
100
AcDbEntity
  8
RACCORDO
100
AcDbPolyline
 62
7
  6
CONTINUOUS
 90
7
 70
0
 10
30.5396177524
 20
-43.3935803038
 10
30.5046865775
 20
-43.3756022688
 10
30.469774245
 20
-43.3579478639
 10
30.4348807551
 20
-43.3406170893
 10
30.4000061076
 20
-43.3236099448
 10
30.3651503026
 20
-43.3069264306
 10
30.33031334
 20
-43.2905665467
  0
LINE
  5
2B7
100
AcDbEntity
  8
0
100
AcDbLine
 62
7
  6
CONTINUOUS
 10
31.2967319569
 20
-47.3544526408
 11
31.1818024122
 21
-47.2919614992
  0
LWPOLYLINE
  5
2B8
100
AcDbEntity
  8
RACCORDO
100
AcDbPolyline
 62
253
  6
CONTINUOUS
 90
8
 70
0
 10
32.14227666
 20
-50.3105946769
 10
32.1384250831
 20
-50.3084839549
 10
32.1351037078
 20
-50.3061257153
 10
32.132357451
 20
-50.3035518487
 10
32.1302234524
 20
-50.3007971617
 10
32.1287305719
 20
-50.2978989064
 10
32.1278989996
 20
-50.2948962769
 10
32.1277489933
 20
-50.2935997351
  0
LWPOLYLINE
  5
2B9
100
AcDbEntity
  8
RACCORDO
100
AcDbPolyline
 62
7
  6
CONTINUOUS
 90
5
 70
0
 10
31.0501333857
 20
-48.5347986109
 10
31.0308082485
 20
-48.524047876
 10
31.0115103675
 20
-48.513719728
 10
30.9922471384
 20
-48.5038174138
 10
30.9730256132
 20
-48.4943438142
  0
LWPOLYLINE
  5
2BA
100
AcDbEntity
  8
RACCORDO
100
AcDbPolyline
 62
253
  6
CONTINUOUS
 90
3
 70
0
 10
31.0194056442
 20
-48.500572353
 10
31.0394245184
 20
-48.5117086318
 10
31.0594483796
 20
-48.5232701716
  0
LINE
  5
2BB
100
AcDbEntity
  8
0
100
AcDbLine
 62
7
  6
CONTINUOUS
 10
31.6449292844
 20
-47.5554585585
 11
31.2967319569
 21
-47.3544526408
  0
LINE
  5
2BC
100
AcDbEntity
  8
DRAFT
100
AcDbLine
 62
7
  6
CONTINUOUS
 10
32.3135883164
 20
-17.4195242436
 11
33.0083525028
 21
-17.8206723774
  0
LWPOLYLINE
  5
2BD
100
AcDbEntity
  8
0
100
AcDbPolyline
 62
7
  6
CONTINUOUS
 90
16
 70
0
 10
-25.7023477726
 20
-12.5651644525
 10
-25.7657249863
 20
-12.5279882737
 10
-25.8702437778
 20
-12.4595084174
 10
-25.9677684847
 20
-12.3880261551
 10
-26.0582349438
 20
-12.313513942
 10
-26.1417073183
 20
-12.235999323
 10
-26.2174221523
 20
-12.1561912486
 10
-26.2853082783
 20
-12.0740686778
 10
-26.3454368639
 20
-11.9896526517
 10
-26.3972579558
 20
-11.9037152434
 10
-26.4406953409
 20
-11.8162424952
 10
-26.4758252323
 20
-11.7272483649
 10
-26.5023263165
 20
-11.6375467995
 10
-26.5201194322
 20
-11.5471313084
 10
-26.5292837406
 20
-11.4560083823
 10
-26.5306155918
 20
-11.406214003
  0
LWPOLYLINE
  5
2BE
100
AcDbEntity
  8
RACCORDO
100
AcDbPolyline
 62
253
  6
CONTINUOUS
 90
5
 70
0
 10
31.0594483796
 20
-48.5232701716
 10
31.0794671492
 20
-48.5352511429
 10
31.0994774677
 20
-48.5476496027
 10
31.1194826948
 20
-48.560467494
 10
31.1394828303
 20
-48.5737048168
  0
LWPOLYLINE
  5
2BF
100
AcDbEntity
  8
RACCORDO
100
AcDbPolyline
 62
253
  6
CONTINUOUS
 90
10
 70
0
 10
29.9565951942
 20
-49.0486095911
 10
29.9609248953
 20
-49.0512226354
 10
29.965674166
 20
-49.0535242824
 10
29.9707787808
 20
-49.055483406
 10
29.9761697083
 20
-49.0570735123
 10
29.9817740457
 20
-49.0582730978
 10
29.9875160035
 20
-49.05906594
 10
29.9933179317
 20
-49.0594413169
 10
29.9991013689
 20
-49.0593941521
 10
30.0047881039
 20
-49.0589250832
  0
LWPOLYLINE
  5
2C0
100
AcDbEntity
  8
RACCORDO
100
AcDbPolyline
 62
253
  6
CONTINUOUS
 90
17
 70
0
 10
29.0467821909
 20
-50.0617121525
 10
29.0396688601
 20
-50.0573871723
 10
29.0329473269
 20
-50.0528527336
 10
29.026636378
 20
-50.0481205389
 10
29.0207537188
 20
-50.0432028228
 10
29.0153160587
 20
-50.0381124348
 10
29.010339025
 20
-50.0328628193
 10
29.0058368495
 20
-50.0274676983
 10
29.0018226765
 20
-50.021941396
 10
28.9983085197
 20
-50.0162989512
 10
28.9953040922
 20
-50.0105540083
 10
28.9928193191
 20
-50.0047232603
 10
28.9908631704
 20
-49.9988269955
 10
28.9894396421
 20
-49.9928761465
 10
28.9885541437
 20
-49.9868917962
 10
28.9882090016
 20
-49.9809100757
 10
28.9882035506
 20
-49.9800786525
  0
LINE
  5
2C1
100
AcDbEntity
  8
RACCORDO
100
AcDbLine
 62
253
  6
CONTINUOUS
 10
29.0396703815
 20
-47.1885084183
 11
29.0467821909
 21
-47.1928324242
  0
LWPOLYLINE
  5
2C2
100
AcDbEntity
  8
0
100
AcDbPolyline
 62
7
  6
CONTINUOUS
 90
40
 70
0
 10
-1.1053234421
 20
-12.6414418009
 10
-1.1264488695
 20
-12.6285754261
 10
-1.1472557808
 20
-12.6149223809
 10
-1.1677442337
 20
-12.600482699
 10
-1.1879152666
 20
-12.5852165933
 10
-1.2077679543
 20
-12.5691639161
 10
-1.2272994089
 20
-12.5524441596
 10
-1.2465024198
 20
-12.535087384
 10
-1.2653843074
 20
-12.5170635924
 10
-1.2839639761
 20
-12.4984021883
 10
-1.3022862023
 20
-12.4790648819
 10
-1.3203063025
 20
-12.4590900166
 10
-1.3379090051
 20
-12.4386219538
 10
-1.3550803531
 20
-12.417678763
 10
-1.3718344324
 20
-12.3962424491
 10
-1.3880980635
 20
-12.3744032917
 10
-1.403858535
 20
-12.3521848597
 10
-1.4191286974
 20
-12.3295636644
 10
-1.4338737269
 20
-12.3065594062
 10
-1.4480937141
 20
-12.2831643168
 10
-1.461788702
 20
-12.2593862415
 10
-1.4749238007
 20
-12.2352683036
 10
-1.4875018146
 20
-12.2107888956
 10
-1.4995200657
 20
-12.1859696979
 10
-1.5109354455
 20
-12.1609187687
 10
-1.5217555005
 20
-12.1356094579
 10
-1.5319728018
 20
-12.1100684832
 10
-1.5415217834
 20
-12.0844839576
 10
-1.5503916014
 20
-12.0588920131
 10
-1.5585932088
 20
-12.0332565803
 10
-1.5660937381
 20
-12.0076574718
 10
-1.5728994584
 20
-11.9820929547
 10
-1.5790041888
 20
-11.9565648125
 10
-1.5843563854
 20
-11.9311581318
 10
-1.5889674097
 20
-11.905815494
 10
-1.592825966
 20
-11.8805943554
 10
-1.5958465223
 20
-11.8557521132
 10
-1.598000582
 20
-11.8313745745
 10
-1.5993166804
 20
-11.8073759545
 10
-1.5997948273
 20
-11.7837562588
  0
LWPOLYLINE
  5
2C3
100
AcDbEntity
  8
RACCORDO
100
AcDbPolyline
 62
253
  6
CONTINUOUS
 90
19
 70
0
 10
29.7745343046
 20
-53.9889284636
 10
29.9179576953
 20
-54.0774964288
 10
30.0624492388
 20
-54.1608267309
 10
30.2080089351
 20
-54.2389193701
 10
30.3550394748
 20
-54.3120791034
 10
30.5031381673
 20
-54.3800011738
 10
30.6510969409
 20
-54.4417713095
 10
30.798874487
 20
-54.4972563998
 10
30.9465121142
 20
-54.5465895554
 10
31.0929256757
 20
-54.5892558371
 10
31.2380010172
 20
-54.6251389209
 10
31.3818522931
 20
-54.6543551307
 10
31.5237378197
 20
-54.6767384985
 10
31.6635891557
 20
-54.6922332426
 10
31.8014747424
 20
-54.7008951446
 10
31.9368582207
 20
-54.7027255815
 10
32.0695608043
 20
-54.6977250124
 10
32.1997612795
 20
-54.6858929782
 10
32.3274596464
 20
-54.667229479
  0
LWPOLYLINE
  5
2C4
100
AcDbEntity
  8
RACCORDO
100
AcDbPolyline
 62
7
  6
CONTINUOUS
 90
4
 70
0
 10
31.1082064601
 20
-48.5695559892
 10
31.0888389212
 20
-48.5575557355
 10
31.0694789844
 20
-48.5459688407
 10
31.0501333857
 20
-48.5347986109
  0
LINE
  5
2C5
100
AcDbEntity
  8
RACCORDO
100
AcDbLine
 62
253
  6
CONTINUOUS
 10
31.117945569
 20
-47.1031459545
 11
31.2407998128
 21
-47.1818860228
  0
LWPOLYLINE
  5
2C6
100
AcDbEntity
  8
RACCORDO
100
AcDbPolyline
 62
253
  6
CONTINUOUS
 90
8
 70
0
 10
29.0467821909
 20
-50.3818514439
 10
29.0313204702
 20
-50.3718197909
 10
29.017980299
 20
-50.3608195581
 10
29.0069420837
 20
-50.3489995019
 10
28.9983551018
 20
-50.3365194662
 10
28.9923354818
 20
-50.3235482198
 10
28.9889646336
 20
-50.310261174
 10
28.9882035472
 20
-50.300196476
  0
LWPOLYLINE
  5
2C7
100
AcDbEntity
  8
RACCORDO
100
AcDbPolyline
 62
253
  6
CONTINUOUS
 90
8
 70
0
 10
29.0467821909
 20
-46.8726862044
 10
29.0313204142
 20
-46.8626545256
 10
29.0179802127
 20
-46.8516542653
 10
29.0069419898
 20
-46.8398341832
 10
28.9983550185
 20
-46.8273541257
 10
28.9923354228
 20
-46.8143828641
 10
28.9889646076
 20
-46.8010958124
 10
28.9882036396
 20
-46.7911423139
  0
LWPOLYLINE
  5
2C8
100
AcDbEntity
  8
RACCORDO
100
AcDbPolyline
 62
7
  6
CONTINUOUS
 90
19
 70
0
 10
29.6868770736
 20
-54.0289313415
 10
29.8020384901
 20
-54.104503309
 10
29.9800663706
 20
-54.2145966303
 10
30.1585856031
 20
-54.3168302229
 10
30.3374076495
 20
-54.4110621178
 10
30.5162368451
 20
-54.4970997162
 10
30.6946790172
 20
-54.5747279293
 10
30.8725444794
 20
-54.6438430137
 10
31.0495494697
 20
-54.7043102482
 10
31.2251762118
 20
-54.7559486121
 10
31.3992214813
 20
-54.7987097485
 10
31.5714354589
 20
-54.8325407509
 10
31.7412532182
 20
-54.8573638586
 10
31.9084312704
 20
-54.8732028696
 10
32.0727888816
 20
-54.8800984928
 10
32.233874512
 20
-54.8781057084
 10
32.3914057335
 20
-54.8673284023
 10
32.5452623115
 20
-54.8478762354
 10
32.6921164966
 20
-54.8205498966
  0
LWPOLYLINE
  5
2C9
100
AcDbEntity
  8
RACCORDO
100
AcDbPolyline
 62
7
  6
CONTINUOUS
 90
3
 70
0
 10
31.1469350163
 20
-48.5947810417
 10
31.12757419
 20
-48.5819657153
 10
31.1082064601
 20
-48.5695559892
  0
LWPOLYLINE
  5
2CA
100
AcDbEntity
  8
RACCORDO
100
AcDbPolyline
 62
253
  6
CONTINUOUS
 90
10
 70
0
 10
30.7758529985
 20
-49.2105094548
 10
30.7822015286
 20
-49.2147856645
 10
30.7893737752
 20
-49.2183607454
 10
30.7971660655
 20
-49.2211331746
 10
30.805357119
 20
-49.2230242225
 10
30.8137143317
 20
-49.2239801884
 10
30.8220003808
 20
-49.2239739254
 10
30.8299799644
 20
-49.2230056113
 10
30.8374264836
 20
-49.2211027436
 10
30.844128477
 20
-49.2183193588
  0
LWPOLYLINE
  5
2CB
100
AcDbEntity
  8
RACCORDO
100
AcDbPolyline
 62
253
  6
CONTINUOUS
 90
10
 70
0
 10
30.8933041905
 20
-48.5092044255
 10
30.8996526857
 20
-48.5134806148
 10
30.9068249003
 20
-48.5170556874
 10
30.9146171669
 20
-48.5198281185
 10
30.92280821
 20
-48.5217191755
 10
30.9311654265
 20
-48.5226751532
 10
30.9394514901
 20
-48.5226689007
 10
30.9474310964
 20
-48.5217005929
 10
30.9548776446
 20
-48.5197977244
 10
30.961579669
 20
-48.5170143295
  0
LWPOLYLINE
  5
2CC
100
AcDbEntity
  8
RACCORDO
100
AcDbPolyline
 62
253
  6
CONTINUOUS
 90
22
 70
0
 10
30.9593890248
 20
-50.9934471735
 10
30.9558820006
 20
-50.9909976492
 10
30.9523357324
 20
-50.9882513045
 10
30.9487502202
 20
-50.9852081394
 10
30.9451124853
 20
-50.9818734535
 10
30.9414355063
 20
-50.9782419472
 10
30.9377582189
 20
-50.9742977216
 10
30.9340776907
 20
-50.9700379858
 10
30.930396854
 20
-50.9654655306
 10
30.9267634417
 20
-50.9605728303
 10
30.9231773046
 20
-50.9553655568
 10
30.9196385918
 20
-50.9498380382
 10
30.9161954832
 20
-50.9439657325
 10
30.912832369
 20
-50.937727557
 10
30.909564859
 20
-50.9311445946
 10
30.9064879632
 20
-50.924255551
 10
30.9035931785
 20
-50.9170333462
 10
30.9008890079
 20
-50.9095050604
 10
30.8984959715
 20
-50.9017906399
 10
30.8964542425
 20
-50.8939300668
 10
30.8947236476
 20
-50.885883359
 10
30.8933041868
 20
-50.8776505165
  0
LINE
  5
2CD
100
AcDbEntity
  8
RACCORDO
100
AcDbLine
 62
253
  6
CONTINUOUS
 10
31.1394828303
 20
-48.5737048168
 11
31.1429898538
 21
-48.5761543425
  0
LINE
  5
2CE
100
AcDbEntity
  8
RACCORDO
100
AcDbLine
 62
253
  6
CONTINUOUS
 10
31.2407998128
 20
-47.1818860228
 11
31.3631286985
 21
-47.2677762076
  0
LWPOLYLINE
  5
2CF
100
AcDbEntity
  8
RACCORDO
100
AcDbPolyline
 62
7
  6
CONTINUOUS
 90
5
 70
0
 10
31.1470322413
 20
-48.5948457843
 10
31.1494481356
 20
-48.5965954252
 10
31.155084881
 20
-48.6015004749
 10
31.1613978401
 20
-48.6082961831
 10
31.1678697093
 20
-48.6167759312
  0
LWPOLYLINE
  5
2D0
100
AcDbEntity
  8
RACCORDO
100
AcDbPolyline
 62
253
  6
CONTINUOUS
 90
9
 70
0
 10
32.1422766636
 20
-50.5185423933
 10
32.1384250791
 20
-50.515653293
 10
32.1351037
 20
-50.5125272014
 10
32.1323574427
 20
-50.5092063934
 10
32.1302234457
 20
-50.5057357774
 10
32.1287305679
 20
-50.5021622873
 10
32.1278989983
 20
-50.4985342487
 10
32.1277399826
 20
-50.4949007244
 10
32.1277698858
 20
-50.4944175674
  0
LWPOLYLINE
  5
2D1
100
AcDbEntity
  8
RACCORDO
100
AcDbPolyline
 62
253
  6
CONTINUOUS
 90
3
 70
0
 10
31.3631286985
 20
-47.2677762076
 10
31.4849361448
 20
-47.3607583476
 10
31.6052285203
 20
-47.4600739875
  0
LWPOLYLINE
  5
2D2
100
AcDbEntity
  8
RACCORDO
100
AcDbPolyline
 62
253
  6
CONTINUOUS
 90
15
 70
0
 10
31.1429898538
 20
-48.5761543425
 10
31.1465361213
 20
-48.5789006879
 10
31.150121633
 20
-48.581943853
 10
31.1537593674
 20
-48.585278538
 10
31.1574363459
 20
-48.5889100427
 10
31.161113633
 20
-48.5928542667
 10
31.164794161
 20
-48.5971140011
 10
31.1684749976
 20
-48.6016864547
 10
31.1721084099
 20
-48.6065791534
 10
31.1756945469
 20
-48.6117864252
 10
31.1792332597
 20
-48.6173139421
 10
31.1826763682
 20
-48.6231862458
 10
31.1860394822
 20
-48.6294244188
 10
31.189306992
 20
-48.6360073787
 10
31.1923838874
 20
-48.6428964196
  0
LINE
  5
2D3
100
AcDbEntity
  8
RACCORDO
100
AcDbLine
 62
253
  6
CONTINUOUS
 10
30.6899344431
 20
-49.8919005181
 11
30.0238356334
 21
-49.3716868281
  0
LINE
  5
2D4
100
AcDbEntity
  8
RACCORDO
100
AcDbLine
 62
253
  6
CONTINUOUS
 10
30.729570403
 20
-49.8359468938
 11
30.0634715927
 21
-49.3157332033
  0
LINE
  5
2D5
100
AcDbEntity
  8
RACCORDO
100
AcDbLine
 62
7
  6
CONTINUOUS
 10
31.4135170135
 20
-49.6942440058
 11
32.0796158177
 21
-50.2144576915
  0
LINE
  5
2D6
100
AcDbEntity
  8
RACCORDO
100
AcDbLine
 62
253
  6
CONTINUOUS
 10
31.4089374102
 20
-49.6752514658
 11
32.0750362141
 21
-50.1954651513
  0
LWPOLYLINE
  5
2D7
100
AcDbEntity
  8
RACCORDO
100
AcDbPolyline
 62
7
  6
CONTINUOUS
 90
4
 70
0
 10
32.0798218405
 20
-50.2146147726
 10
32.0826318457
 20
-50.2168952488
 10
32.0925881026
 20
-50.2261992322
 10
32.1016242113
 20
-50.2364991914
  0
LINE
  5
2D8
100
AcDbEntity
  8
RACCORDO
100
AcDbLine
 62
7
  6
CONTINUOUS
 10
31.4060104495
 20
-49.6881260894
 11
31.4135629787
 21
-49.694277916
  0
LWPOLYLINE
  5
2D9
100
AcDbEntity
  8
RACCORDO
100
AcDbPolyline
 62
253
  6
CONTINUOUS
 90
19
 70
0
 10
30.0238356334
 20
-49.3716868281
 10
30.0168821401
 20
-49.3658695814
 10
30.0102877613
 20
-49.3598320776
 10
30.0040524969
 20
-49.3535743167
 10
29.9981632377
 20
-49.3470423586
 10
29.9926330929
 20
-49.3402901434
 10
29.9875013903
 20
-49.3334794917
 10
29.9827729737
 20
-49.3266066461
 10
29.9784429992
 20
-49.319675364
 10
29.9745362623
 20
-49.3128587384
 10
29.9710811921
 20
-49.3062125657
 10
29.9680493596
 20
-49.2996810495
 10
29.9653802736
 20
-49.2932698932
 10
29.9630636687
 20
-49.2870100574
 10
29.9611098102
 20
-49.2808705815
 10
29.9594890034
 20
-49.2747642868
 10
29.9581913498
 20
-49.2686621137
 10
29.9572267477
 20
-49.2625931219
 10
29.9565951972
 20
-49.2565573112
  0
LWPOLYLINE
  5
2DA
100
AcDbEntity
  8
RACCORDO
100
AcDbPolyline
 62
253
  6
CONTINUOUS
 90
11
 70
0
 10
32.0750362141
 20
-50.1954651513
 10
32.0819897082
 20
-50.2012823986
 10
32.0885840879
 20
-50.2073199029
 10
32.0948193532
 20
-50.2135776643
 10
32.1007086133
 20
-50.2201096229
 10
32.106238759
 20
-50.2268618385
 10
32.1113704627
 20
-50.2336724908
 10
32.1160988805
 20
-50.2405453373
 10
32.1204288564
 20
-50.2474766206
 10
32.1243355945
 20
-50.2542932475
 10
32.127790666
 20
-50.2609394218
  0
LWPOLYLINE
  5
2DB
100
AcDbEntity
  8
RACCORDO
100
AcDbPolyline
 62
253
  6
CONTINUOUS
 90
22
 70
0
 10
30.9795810694
 20
-50.9494572945
 10
30.9779712117
 20
-50.9480466944
 10
30.9763843614
 20
-50.946421737
 10
30.9748234286
 20
-50.944581542
 10
30.9732887142
 20
-50.9425317406
 10
30.9717879561
 20
-50.9402664214
 10
30.9703363006
 20
-50.9377679812
 10
30.968941243
 20
-50.9350375358
 10
30.9676081952
 20
-50.9320768872
 10
30.9663504917
 20
-50.9288699836
 10
30.9651798695
 20
-50.9254262309
 10
30.9641034106
 20
-50.9217432795
 10
30.9631298373
 20
-50.9177876795
 10
30.9622728147
 20
-50.9135545015
 10
30.9615473986
 20
-50.9090607312
 10
30.9609680066
 20
-50.9043070419
 10
30.9605585741
 20
-50.8992892281
 10
30.9603354125
 20
-50.8940331433
 10
30.9603038237
 20
-50.8885869828
 10
30.9604812441
 20
-50.8829773858
 10
30.9608979594
 20
-50.8772095737
 10
30.9615796652
 20
-50.8713019932
  0
LWPOLYLINE
  5
2DC
100
AcDbEntity
  8
RACCORDO
100
AcDbPolyline
 62
253
  6
CONTINUOUS
 90
3
 70
0
 10
31.6052285203
 20
-47.4600739875
 10
31.723993328
 20
-47.5657748496
 10
31.8412430651
 20
-47.6778092116
  0
LWPOLYLINE
  5
2DD
100
AcDbEntity
  8
RACCORDO
100
AcDbPolyline
 62
253
  6
CONTINUOUS
 90
7
 70
0
 10
31.2055676638
 20
-51.0579475523
 10
31.2002231562
 20
-51.0530916732
 10
31.1960343996
 20
-51.0477939893
 10
31.1931203477
 20
-51.0422049382
 10
31.1915637567
 20
-51.0364832317
 10
31.1914088358
 20
-51.0307913513
 10
31.1915980341
 20
-51.0293459608
  0
LWPOLYLINE
  5
2DE
100
AcDbEntity
  8
RACCORDO
100
AcDbPolyline
 62
253
  6
CONTINUOUS
 90
7
 70
0
 10
31.3230188547
 20
-50.3566425291
 10
31.3176743225
 20
-50.3517866236
 10
31.3134855588
 20
-50.3464889171
 10
31.3105715133
 20
-50.3408998505
 10
31.3090149373
 20
-50.3351781384
 10
31.3088600332
 20
-50.3294862624
 10
31.3090609784
 20
-50.3279700594
  0
LINE
  5
2DF
100
AcDbEntity
  8
RACCORDO
100
AcDbLine
 62
253
  6
CONTINUOUS
 10
31.8412430651
 20
-47.6778092116
 11
31.9560215912
 21
-47.7952634514
  0
LWPOLYLINE
  5
2E0
100
AcDbEntity
  8
RACCORDO
100
AcDbPolyline
 62
7
  6
CONTINUOUS
 90
6
 70
0
 10
29.6903893729
 20
-51.5348855918
 10
29.6937056799
 20
-51.5382834348
 10
29.7001238849
 20
-51.5424555725
 10
29.7084473357
 20
-51.5457581694
 10
29.7185592112
 20
-51.5481081478
 10
29.730350171
 20
-51.5496658735
  0
LINE
  5
2E1
100
AcDbEntity
  8
RACCORDO
100
AcDbLine
 62
253
  6
CONTINUOUS
 10
31.9560215912
 20
-47.7952634514
 11
32.0683087276
 21
-47.9181819144
  0
LWPOLYLINE
  5
2E2
100
AcDbEntity
  8
RACCORDO
100
AcDbPolyline
 62
7
  6
CONTINUOUS
 90
17
 70
0
 10
32.3274596464
 20
-54.667229479
 10
32.3450059154
 20
-54.6872521021
 10
32.363948853
 20
-54.706358684
 10
32.3841962975
 20
-54.7244718591
 10
32.405633669
 20
-54.7415853633
 10
32.4281500584
 20
-54.7575616543
 10
32.4516418462
 20
-54.7721284241
 10
32.4759664795
 20
-54.7852241668
 10
32.5009674904
 20
-54.7967878387
 10
32.5265048074
 20
-54.8065489614
 10
32.5523984893
 20
-54.814458944
 10
32.5784548599
 20
-54.8204798255
 10
32.6044958516
 20
-54.8243620355
 10
32.6303075978
 20
-54.826076183
 10
32.6556637316
 20
-54.8256182137
 10
32.6803510679
 20
-54.8227868543
 10
32.6921221945
 20
-54.8205055919
  0
LWPOLYLINE
  5
2E3
100
AcDbEntity
  8
0
100
AcDbPolyline
 62
7
  6
CONTINUOUS
 90
6
 70
0
 10
32.134722299
 20
-48.056348206
 10
32.0811212277
 20
-47.9943166944
 10
31.8647647301
 20
-47.7784685149
 10
31.6407291512
 20
-47.5878035495
 10
31.4120441879
 20
-47.4249002149
 10
31.2967319569
 20
-47.3544526408
  0
LWPOLYLINE
  5
2E4
100
AcDbEntity
  8
RACCORDO
100
AcDbPolyline
 62
253
  6
CONTINUOUS
 90
15
 70
0
 10
32.0683087276
 20
-47.9181819144
 10
32.1781246532
 20
-48.0465202552
 10
32.2845737642
 20
-48.1792318156
 10
32.3876285249
 20
-48.3163523569
 10
32.4873164711
 20
-48.4578461178
 10
32.582824607
 20
-48.6025591563
 10
32.6741187456
 20
-48.7505177863
 10
32.7612330738
 20
-48.9016956939
 10
32.8434571574
 20
-49.054859995
 10
32.9207510128
 20
-49.2100269443
 10
32.9931546235
 20
-49.3671802871
 10
33.0600775054
 20
-49.5250383748
 10
33.1214748439
 20
-49.6836070021
 10
33.1773914535
 20
-49.8428803743
 10
33.2273712932
 20
-50.0015594591
  0
LWPOLYLINE
  5
2E5
100
AcDbEntity
  8
RACCORDO
100
AcDbPolyline
 62
253
  6
CONTINUOUS
 90
10
 70
0
 10
29.0467821909
 20
-47.1928356714
 10
29.0577933402
 20
-47.2060722351
 10
29.0697973127
 20
-47.2185877358
 10
29.0827029425
 20
-47.2302867935
 10
29.0964125988
 20
-47.2410805558
 10
29.1108216915
 20
-47.2508862919
 10
29.125819259
 20
-47.2596283443
 10
29.1412906098
 20
-47.2672400405
 10
29.1571183949
 20
-47.2736638742
 10
29.1731821255
 20
-47.2788510806
  0
LINE
  5
2E6
100
AcDbEntity
  8
RACCORDO
100
AcDbLine
 62
253
  6
CONTINUOUS
 10
29.7745343046
 20
-51.5492003127
 11
29.7090390886
 21
-51.4655441155
  0
LWPOLYLINE
  5
2E7
100
AcDbEntity
  8
RACCORDO
100
AcDbPolyline
 62
253
  6
CONTINUOUS
 90
12
 70
0
 10
32.3274596464
 20
-48.0218790833
 10
32.4272870422
 20
-48.1512982465
 10
32.5237094376
 20
-48.2836685508
 10
32.6167268327
 20
-48.4189899963
 10
32.7065241684
 20
-48.5575664114
 10
32.7929165037
 20
-48.6990939677
 10
32.8753490157
 20
-48.8426611793
 10
32.9537968137
 20
-48.9882807564
 10
33.0282847885
 20
-49.1359399888
 10
33.0983327899
 20
-49.2846892603
 10
33.1639142379
 20
-49.434540099
 10
33.2250557124
 20
-49.5854809768
  0
LWPOLYLINE
  5
2E8
100
AcDbEntity
  8
RACCORDO
100
AcDbPolyline
 62
253
  6
CONTINUOUS
 90
19
 70
0
 10
32.3274596464
 20
-46.3757522617
 10
32.2004079902
 20
-46.2105782277
 10
32.0714119902
 20
-46.049800126
 10
31.9404716461
 20
-45.8934179565
 10
31.8072909104
 20
-45.7411896197
 10
31.6721658306
 20
-45.5933572152
 10
31.5359845503
 20
-45.4506470416
 10
31.3991843812
 20
-45.3134758012
 10
31.2613280115
 20
-45.1814267917
 10
31.1219916491
 20
-45.0539762047
 10
30.9813577457
 20
-44.931108286
 10
30.8392438497
 20
-44.8128387897
 10
30.6946788135
 20
-44.6986911702
 10
30.5473144045
 20
-44.5882626045
 10
30.3974988553
 20
-44.4819559156
 10
30.2453057157
 20
-44.3805030268
 10
30.0907595023
 20
-44.2841479124
 10
29.9338356986
 20
-44.192646598
 10
29.7745343046
 20
-44.1059990837
  0
LINE
  5
2E9
100
AcDbEntity
  8
RACCORDO
100
AcDbLine
 62
7
  6
CONTINUOUS
 10
29.6364985449
 20
-51.4637659035
 11
29.6903884463
 21
-51.5348715466
  0
LWPOLYLINE
  5
2EA
100
AcDbEntity
  8
RACCORDO
100
AcDbPolyline
 62
253
  6
CONTINUOUS
 90
11
 70
0
 10
29.7090390886
 20
-51.4655441155
 10
29.644111979
 20
-51.3791378111
 10
29.5797529756
 20
-51.2899813995
 10
29.5157719403
 20
-51.1979279854
 10
29.4523590113
 20
-51.103124464
 10
29.3900846036
 20
-51.0060115218
 10
29.3289427721
 20
-50.906508873
 10
29.268939462
 20
-50.8046968033
 10
29.2106629237
 20
-50.7012568564
 10
29.1543092409
 20
-50.5964162133
 10
29.09968233
 20
-50.489947693
  0
LWPOLYLINE
  5
2EB
100
AcDbEntity
  8
RACCORDO
100
AcDbPolyline
 62
253
  6
CONTINUOUS
 90
19
 70
0
 10
32.7479891919
 20
-46.2471774744
 10
32.6031610469
 20
-46.0530778996
 10
32.4550170235
 20
-45.8637797035
 10
32.3037956592
 20
-45.6795392233
 10
32.1495179116
 20
-45.5003532772
 10
31.9926392961
 20
-45.3267228252
 10
31.8340885404
 20
-45.1595769268
 10
31.6747385194
 20
-44.9996417591
 10
31.5142783895
 20
-44.8464155767
 10
31.3518478729
 20
-44.6990134645
 10
31.188155208
 20
-44.5580606771
 10
31.0229540662
 20
-44.4233278267
 10
30.8538562564
 20
-44.293059321
 10
30.6799544909
 20
-44.1670012547
 10
30.5025608271
 20
-44.0465552985
 10
30.3226004986
 20
-43.9326832204
 10
30.1405757105
 20
-43.8259770794
 10
29.9565580111
 20
-43.7267558537
 10
29.7708643988
 20
-43.6354866845
  0
LWPOLYLINE
  5
2EC
100
AcDbEntity
  8
RACCORDO
100
AcDbPolyline
 62
253
  6
CONTINUOUS
 90
39
 70
0
 10
32.7479891919
 20
-47.8878889575
 10
32.8551686675
 20
-48.0348388447
 10
32.9587099052
 20
-48.1854917715
 10
33.0583774951
 20
-48.3395045823
 10
33.1539433802
 20
-48.4965239867
 10
33.245191985
 20
-48.6561948644
 10
33.3319200033
 20
-48.8181614747
 10
33.4139292672
 20
-48.9820544294
 10
33.4910332791
 20
-49.1475017531
 10
33.5630606807
 20
-49.3141378086
 10
33.6298501019
 20
-49.4815939289
 10
33.6912433986
 20
-49.6494786425
 10
33.7470928433
 20
-49.8173892743
 10
33.7972737984
 20
-49.9849505556
 10
33.8416700369
 20
-50.1517737796
 10
33.8801721677
 20
-50.3174380297
 10
33.9126934287
 20
-50.4815445132
 10
33.9391707242
 20
-50.6437446972
 10
33.9595519482
 20
-50.8036987162
 10
33.9737910652
 20
-50.9610193241
 10
33.9818614802
 20
-51.1153755494
 10
33.9837461463
 20
-51.2665140402
 10
33.9794298069
 20
-51.4141070572
 10
33.9689116672
 20
-51.5577901614
 10
33.9522018092
 20
-51.6972571934
 10
33.9292946533
 20
-51.8323339205
 10
33.9002449932
 20
-51.9625356857
 10
33.8652309061
 20
-52.087152327
 10
33.8243536175
 20
-52.2060054907
 10
33.7777689563
 20
-52.3187972376
 10
33.7259006768
 20
-52.4248010514
 10
33.6691720105
 20
-52.523626349
 10
33.6076810955
 20
-52.6155276094
 10
33.5413952345
 20
-52.7007906768
 10
33.4706191617
 20
-52.7791911322
 10
33.3954593129
 20
-52.8507665508
 10
33.315414297
 20
-52.9159728341
 10
33.2300195661
 20
-52.9749300742
 10
33.161595683
 20
-53.0153122218
  0
LWPOLYLINE
  5
2ED
100
AcDbEntity
  8
RACCORDO
100
AcDbPolyline
 62
7
  6
CONTINUOUS
 90
3
 70
0
 10
32.1016242113
 20
-50.2364991914
 10
32.1094484029
 20
-50.2472607592
 10
32.1161146583
 20
-50.2584129577
  0
LWPOLYLINE
  5
2EE
100
AcDbEntity
  8
DRAFT
100
AcDbPolyline
 62
7
  6
CONTINUOUS
 90
37
 70
0
 10
33.3273155295
 20
-47.5586642515
 10
33.4419541454
 20
-47.7165930863
 10
33.5519107559
 20
-47.8779037927
 10
33.657185361
 20
-48.0425963706
 10
33.7580527897
 20
-48.2111676174
 10
33.8542382131
 20
-48.3831207358
 10
33.9449171435
 20
-48.5569653334
 10
34.0299821149
 20
-48.7325733752
 10
34.1095405934
 20
-48.9100728962
 10
34.18309049
 20
-49.088357609
 10
34.2506589618
 20
-49.2676329231
 10
34.3122188518
 20
-49.4476934292
 10
34.3671866002
 20
-49.626816611
 10
34.4154457255
 20
-49.8047553496
 10
34.4571127092
 20
-49.9817567641
 10
34.491953436
 20
-50.1568396959
 10
34.5199600232
 20
-50.330250206
 10
34.5411403535
 20
-50.5017422336
 10
34.5552839591
 20
-50.6695964375
 10
34.5623206839
 20
-50.8335230995
 10
34.5623206839
 20
-50.9938119379
 10
34.5552839591
 20
-51.1496127665
 10
34.5411403535
 20
-51.3011342893
 10
34.5199600232
 20
-51.4481678023
 10
34.491953436
 20
-51.5892370074
 10
34.4571127092
 20
-51.7240867413
 10
34.4154457255
 20
-51.8529721674
 10
34.3671866002
 20
-51.9751824777
 10
34.3122188518
 20
-52.0908302816
 10
34.2506589618
 20
-52.1998029697
 10
34.18309049
 20
-52.3010519063
 10
34.1095405934
 20
-52.394403042
 10
34.0299821149
 20
-52.4800304263
 10
33.9449171435
 20
-52.5574075713
 10
33.8542382131
 20
-52.626538413
 10
33.7580527897
 20
-52.6874190155
 10
33.7379017725
 20
-52.6987369354
  0
LWPOLYLINE
  5
2EF
100
AcDbEntity
  8
RACCORDO
100
AcDbPolyline
 62
7
  6
CONTINUOUS
 90
4
 70
0
 10
31.3514705108
 20
-49.6247689877
 10
31.367924286
 20
-49.6480920694
 10
31.3861752445
 20
-49.6693229036
 10
31.4060104495
 20
-49.6881260894
  0
LWPOLYLINE
  5
2F0
100
AcDbEntity
  8
RACCORDO
100
AcDbPolyline
 62
7
  6
CONTINUOUS
 90
3
 70
0
 10
31.1678697093
 20
-48.6167759312
 10
31.1740448674
 20
-48.6265683383
 10
31.1795288217
 20
-48.6371312486
  0
LWPOLYLINE
  5
2F1
100
AcDbEntity
  8
RACCORDO
100
AcDbPolyline
 62
253
  6
CONTINUOUS
 90
7
 70
0
 10
31.351543799
 20
-49.6071154037
 10
31.3598640015
 20
-49.6206553641
 10
31.3690617559
 20
-49.6337998989
 10
31.3786197093
 20
-49.6458969793
 10
31.3883654106
 20
-49.6567292625
 10
31.3984713109
 20
-49.6665140913
 10
31.4089374102
 20
-49.6752514658
  0
LWPOLYLINE
  5
2F2
100
AcDbEntity
  8
RACCORDO
100
AcDbPolyline
 62
7
  6
CONTINUOUS
 90
15
 70
0
 10
29.7745343046
 20
-44.1059990837
 10
29.7634823809
 20
-44.0867396143
 10
29.752935106
 20
-44.0670355116
 10
29.7429503078
 20
-44.0468947395
 10
29.7335879982
 20
-44.0262844907
 10
29.7249053538
 20
-44.0052613199
 10
29.716957727
 20
-43.9839707868
 10
29.7098083733
 20
-43.9624341132
 10
29.7035125894
 20
-43.9406701132
 10
29.6981196318
 20
-43.9188236102
 10
29.6936946036
 20
-43.8969230277
 10
29.690295373
 20
-43.874997192
 10
29.6879750726
 20
-43.8531944128
 10
29.6868025866
 20
-43.8315459832
 10
29.686666339
 20
-43.8214251799
  0
LINE
  5
2F3
100
AcDbEntity
  8
RACCORDO
100
AcDbLine
 62
7
  6
CONTINUOUS
 10
31.3371622771
 20
-49.5997981972
 11
31.3514705108
 21
-49.6247689877
  0
LWPOLYLINE
  5
2F4
100
AcDbEntity
  8
0
100
AcDbPolyline
 62
7
  6
CONTINUOUS
 90
66
 70
0
 10
-6.2978846312
 20
-4.5313331376
 10
-6.3960192051
 20
-4.333386184
 10
-6.4914029032
 20
-4.1343972512
 10
-6.5840381097
 20
-3.9343676813
 10
-6.6740054453
 20
-3.7331233597
 10
-6.7612288148
 20
-3.5308409445
 10
-6.8454756172
 20
-3.3280479836
 10
-6.9267196006
 20
-3.1248068419
 10
-7.0049915407
 20
-2.9210576892
 10
-7.0801445552
 20
-2.7171448769
 10
-7.1521982784
 20
-2.5130011296
 10
-7.2211372899
 20
-2.3086960779
 10
-7.2867622303
 20
-2.1047794891
 10
-7.3490220323
 20
-1.9013605072
 10
-7.4079716968
 20
-1.6983321818
 10
-7.4635709684
 20
-1.4959201389
 10
-7.515821685
 20
-1.2941195596
 10
-7.5647253552
 20
-1.0929371257
 10
-7.6102411166
 20
-0.8926156503
 10
-7.6523727936
 20
-0.693167988
 10
-7.6911193186
 20
-0.4945828166
 10
-7.7264323692
 20
-0.2970666158
 10
-7.7583213403
 20
-0.1005768237
 10
-7.7867789824
 20
0.0948428066
 10
-7.8117318803
 20
0.288856394
 10
-7.8331667705
 20
0.4815064179
 10
-7.8510984338
 20
0.672749557
 10
-7.8654953745
 20
0.8621213104
 10
-7.8763431215
 20
1.049526198
 10
-7.8836569797
 20
1.2350592375
 10
-7.8874499472
 20
1.4185417692
 10
-7.8877251921
 20
1.6000235741
 10
-7.88447968
 20
1.7794547971
 10
-7.8777169316
 20
1.9565074207
 10
-7.8674397043
 20
2.1311407984
 10
-7.8536446815
 20
2.3033958868
 10
-7.8363260989
 20
2.4730671701
 10
-7.8154618201
 20
2.6402111458
 10
-7.791072724
 20
2.8047720138
 10
-7.7632174084
 20
2.966375902
 10
-7.7318809081
 20
3.1249943625
 10
-7.6970762741
 20
3.2806569054
 10
-7.658904008
 20
3.4330766633
 10
-7.617379944
 20
3.5821978209
 10
-7.5724857559
 20
3.728077578
 10
-7.5242706011
 20
3.8705986477
 10
-7.4727270333
 20
4.009796174
 10
-7.4178594225
 20
4.1456367242
 10
-7.3597345536
 20
4.2779002019
 10
-7.2983665013
 20
4.4065361965
 10
-7.233737595
 20
4.5315971224
 10
-7.1658669027
 20
4.6530171763
 10
-7.0947196279
 20
4.770836717
 10
-7.0203263962
 20
4.8850177146
 10
-6.94280436
 20
4.9953768108
 10
-6.8621665902
 20
5.1018996656
 10
-6.7783954773
 20
5.2046031592
 10
-6.691562159
 20
5.3033507623
 10
-6.6016246188
 20
5.39818274
 10
-6.5086199007
 20
5.4890616174
 10
-6.4127378292
 20
5.5757342044
 10
-6.3139563334
 20
5.6581845115
 10
-6.2122923773
 20
5.7364314028
 10
-6.1079946276
 20
5.8102738085
 10
-6.0010935814
 20
5.8796673642
 10
-5.9141195901
 20
5.9317540305
  0
LWPOLYLINE
  5
2F5
100
AcDbEntity
  8
RACCORDO
100
AcDbPolyline
 62
7
  6
CONTINUOUS
 90
8
 70
0
 10
29.019426268
 20
-50.4532500952
 10
29.0361800213
 20
-50.4871616158
 10
29.1240829194
 20
-50.6573429782
 10
29.2171446645
 20
-50.8250664569
 10
29.315136925
 20
-50.9899319506
 10
29.4178524921
 20
-51.1515913287
 10
29.5250598247
 20
-51.309669186
 10
29.6364985449
 20
-51.4637659035
  0
LINE
  5
2F6
100
AcDbEntity
  8
RACCORDO
100
AcDbLine
 62
253
  6
CONTINUOUS
 10
29.09968233
 20
-50.489947693
 11
29.0467821909
 21
-50.3818512955
  0
LINE
  5
2F7
100
AcDbEntity
  8
RACCORDO
100
AcDbLine
 62
7
  6
CONTINUOUS
 10
29.0194034286
 20
-50.4532032161
 11
29.0194279414
 21
-50.4532535078
  0
LWPOLYLINE
  5
2F8
100
AcDbEntity
  8
RACCORDO
100
AcDbPolyline
 62
7
  6
CONTINUOUS
 90
4
 70
0
 10
32.1161146583
 20
-50.2584129577
 10
32.1214591259
 20
-50.2696422472
 10
32.1251817485
 20
-50.2801436884
 10
32.1272228742
 20
-50.2890764385
  0
LINE
  5
2F9
100
AcDbEntity
  8
RACCORDO
100
AcDbLine
 62
7
  6
CONTINUOUS
 10
29.0161836779
 20
-50.4463858191
 11
29.0194013496
 21
-50.4531999692
  0
LWPOLYLINE
  5
2FA
100
AcDbEntity
  8
RACCORDO
100
AcDbPolyline
 62
253
  6
CONTINUOUS
 90
7
 70
0
 10
29.1731821703
 20
-47.2788510234
 10
29.2082071697
 20
-47.3542613974
 10
29.2408433782
 20
-47.4299598691
 10
29.2709853454
 20
-47.5060401523
 10
29.2984246078
 20
-47.5826427684
 10
29.3231895806
 20
-47.6598804224
 10
29.3264984753
 20
-47.6714218275
  0
LWPOLYLINE
  5
2FB
100
AcDbEntity
  8
RACCORDO
100
AcDbPolyline
 62
253
  6
CONTINUOUS
 90
8
 70
0
 10
32.127790666
 20
-50.2609394218
 10
32.1308224997
 20
-50.2674709399
 10
32.1334915866
 20
-50.2738820976
 10
32.1358081922
 20
-50.2801419344
 10
32.137762051
 20
-50.2862814108
 10
32.1393828577
 20
-50.2923877054
 10
32.1406805106
 20
-50.2984898777
 10
32.1416451114
 20
-50.3045588682
  0
LWPOLYLINE
  5
2FC
100
AcDbEntity
  8
RACCORDO
100
AcDbPolyline
 62
253
  6
CONTINUOUS
 90
25
 70
0
 10
29.0057161567
 20
-47.1930209243
 10
29.0069929388
 20
-47.1957785814
 10
29.0106096799
 20
-47.2027995725
 10
29.0146495102
 20
-47.209595761
 10
29.0191032641
 20
-47.216153322
 10
29.0239611809
 20
-47.2224593159
 10
29.0292103035
 20
-47.2284964599
 10
29.0348396126
 20
-47.2342527334
 10
29.0408369127
 20
-47.239716326
 10
29.0471861481
 20
-47.2448714555
 10
29.0538740998
 20
-47.2497074846
 10
29.0608865639
 20
-47.2542143826
 10
29.0682044236
 20
-47.258378714
 10
29.0758121397
 20
-47.2621912941
 10
29.0836937775
 20
-47.265644054
 10
29.0918279788
 20
-47.2687268595
 10
29.1001971345
 20
-47.2714322074
 10
29.1087836399
 20
-47.2737539269
 10
29.1175645859
 20
-47.2756856025
 10
29.1265205866
 20
-47.2772215942
 10
29.1356323837
 20
-47.2783576527
 10
29.1448758342
 20
-47.2790912526
 10
29.1542288062
 20
-47.279419882
 10
29.1636715996
 20
-47.2793404515
 10
29.1731827907
 20
-47.2788509444
  0
LWPOLYLINE
  5
2FD
100
AcDbEntity
  8
0
100
AcDbPolyline
 62
7
  6
CONTINUOUS
 90
34
 70
0
 10
3.3706398483
 20
-10.3457689046
 10
3.3823958311
 20
-10.3712829933
 10
3.3934801969
 20
-10.3971657407
 10
3.4038928827
 20
-10.4234171839
 10
3.4136687656
 20
-10.4501356448
 10
3.4227728559
 20
-10.4772228683
 10
3.4311002883
 20
-10.504384028
 10
3.4386329826
 20
-10.5315698573
 10
3.4453889142
 20
-10.5588296849
 10
3.4513172982
 20
-10.5860165793
 10
3.4564248069
 20
-10.6131508996
 10
3.460704691
 20
-10.6402123323
 10
3.4640860361
 20
-10.6669929354
 10
3.4665651012
 20
-10.6935310964
 10
3.4681455828
 20
-10.7197884542
 10
3.4687677297
 20
-10.7454419405
 10
3.4684189759
 20
-10.7704592745
 10
3.4671118853
 20
-10.7948727385
 10
3.4648244128
 20
-10.8184561022
 10
3.4615324821
 20
-10.8411352322
 10
3.4572602162
 20
-10.8629842344
 10
3.4520578793
 20
-10.8839992321
 10
3.4459210473
 20
-10.9042013515
 10
3.4388542335
 20
-10.9235694135
 10
3.4309211141
 20
-10.9420360791
 10
3.4221236767
 20
-10.9596067699
 10
3.412460056
 20
-10.9762759919
 10
3.4019881489
 20
-10.9919600319
 10
3.3907196633
 20
-11.0066448452
 10
3.3786430392
 20
-11.020344389
 10
3.3657812735
 20
-11.0330169524
 10
3.352139081
 20
-11.0446747539
 10
3.3377119225
 20
-11.0553054709
 10
3.3225399699
 20
-11.0648127547
  0
LWPOLYLINE
  5
2FE
100
AcDbEntity
  8
0
100
AcDbPolyline
 62
7
  6
CONTINUOUS
 90
60
 70
0
 10
-5.4871354158
 20
-3.7339275108
 10
-5.566196884
 20
-3.5608059065
 10
-5.6423644131
 20
-3.3877274344
 10
-5.7156400018
 20
-3.2146932223
 10
-5.786042952
 20
-3.0416285036
 10
-5.8535577278
 20
-2.868610167
 10
-5.9181339905
 20
-2.6958667759
 10
-5.9797697097
 20
-2.5234452483
 10
-6.0384702977
 20
-2.3513005681
 10
-6.0941965171
 20
-2.1795233615
 10
-6.1469672986
 20
-2.0080520475
 10
-6.1967666563
 20
-1.8369498603
 10
-6.2435029227
 20
-1.6664946176
 10
-6.287135524
 20
-1.496772491
 10
-6.3277075834
 20
-1.3276987378
 10
-6.3652528802
 20
-1.1592947486
 10
-6.3997901719
 20
-0.9915214874
 10
-6.4313027017
 20
-0.8244191101
 10
-6.4597708461
 20
-0.6581277213
 10
-6.4852064506
 20
-0.4926333694
 10
-6.5075991783
 20
-0.3279508496
 10
-6.5268960214
 20
-0.164263324
 10
-6.5431040968
 20
-0.0014628777
 10
-6.5562172998
 20
0.1603420087
 10
-6.5661626786
 20
0.320643643
 10
-6.5729189765
 20
0.4794772605
 10
-6.5765079391
 20
0.6368073526
 10
-6.5769209884
 20
0.7920201837
 10
-6.5741462671
 20
0.9449871128
 10
-6.5681955632
 20
1.0958368196
 10
-6.5590956283
 20
1.2443416268
 10
-6.5468443504
 20
1.3905158167
 10
-6.5314432212
 20
1.5343454537
 10
-6.5129242673
 20
1.675560607
 10
-6.4912872574
 20
1.8140980441
 10
-6.466531269
 20
1.9500216426
 10
-6.4386871687
 20
2.0832522057
 10
-6.4077446529
 20
2.2138196242
 10
-6.3737123525
 20
2.341694943
 10
-6.3366494298
 20
2.4667107553
 10
-6.2965625309
 20
2.588865035
 10
-6.2534428629
 20
2.7081610103
 10
-6.2073263383
 20
2.8244392081
 10
-6.1582080082
 20
2.9377187313
 10
-6.1060902033
 20
3.047981945
 10
-6.0510196697
 20
3.1550143175
 10
-5.9929588695
 20
3.2588302091
 10
-5.9319422732
 20
3.3594169822
 10
-5.8681246315
 20
3.456519613
 10
-5.8015266852
 20
3.5500838901
 10
-5.7321243726
 20
3.6401658936
 10
-5.6600052782
 20
3.7266760166
 10
-5.5851425851
 20
3.8096461118
 10
-5.5075594724
 20
3.889046378
 10
-5.4274185932
 20
3.9646946873
 10
-5.3447399094
 20
4.0365686142
 10
-5.2594997045
 20
4.1046927071
 10
-5.1717952202
 20
4.1689552409
 10
-5.0815804604
 20
4.2293679594
 10
-4.9821672105
 20
4.289821923
  0
LINE
  5
2FF
100
AcDbEntity
  8
RACCORDO
100
AcDbLine
 62
7
  6
CONTINUOUS
 10
31.3253527194
 20
-49.5738564097
 11
31.3371622771
 21
-49.5997981972
  0
LINE
  5
300
100
AcDbEntity
  8
RACCORDO
100
AcDbLine
 62
7
  6
CONTINUOUS
 10
29.0056238294
 20
-47.192814752
 11
29.0057161567
 21
-47.1930209243
  0
LWPOLYLINE
  5
301
100
AcDbEntity
  8
RACCORDO
100
AcDbPolyline
 62
7
  6
CONTINUOUS
 90
3
 70
0
 10
29.686666339
 20
-54.0285446826
 10
29.6868025866
 20
-54.0288565145
 10
29.6868766484
 20
-54.0289111278
  0
LWPOLYLINE
  5
302
100
AcDbEntity
  8
RACCORDO
100
AcDbPolyline
 62
7
  6
CONTINUOUS
 90
9
 70
0
 10
29.0056236141
 20
-47.1928158145
 10
29.0280596509
 20
-47.244394961
 10
29.0660844848
 20
-47.3397491103
 10
29.1004811399
 20
-47.43731791
 10
29.1310900433
 20
-47.5370115331
 10
29.157823987
 20
-47.6388526138
 10
29.1806469996
 20
-47.7429557607
 10
29.1995028254
 20
-47.8491617916
 10
29.2055183187
 20
-47.8928971556
  0
LWPOLYLINE
  5
303
100
AcDbEntity
  8
RACCORDO
100
AcDbPolyline
 62
7
  6
CONTINUOUS
 90
5
 70
0
 10
31.1795288217
 20
-48.6371312486
 10
31.184222308
 20
-48.6483035151
 10
31.1880785003
 20
-48.6601826642
 10
31.190834795
 20
-48.6723800326
 10
31.1913803433
 20
-48.675823042
  0
LINE
  5
304
100
AcDbEntity
  8
RACCORDO
100
AcDbLine
 62
7
  6
CONTINUOUS
 10
29.0072684292
 20
-50.4242239645
 11
29.0161836779
 21
-50.4463858191
  0
LWPOLYLINE
  5
305
100
AcDbEntity
  8
0
100
AcDbPolyline
 62
7
  6
CONTINUOUS
 90
53
 70
0
 10
-4.6541645763
 20
-2.9152552261
 10
-4.7084875537
 20
-2.7764702376
 10
-4.7603911205
 20
-2.6376586948
 10
-4.8098764107
 20
-2.4988212398
 10
-4.8569827666
 20
-2.3598430864
 10
-4.9016729464
 20
-2.2208402088
 10
-4.9438331757
 20
-2.0821593708
 10
-4.9834555411
 20
-1.9438359533
 10
-5.0205498333
 20
-1.8058356358
 10
-5.0550288231
 20
-1.6684006235
 10
-5.0868881687
 20
-1.5314918601
 10
-5.1161337885
 20
-1.3951492914
 10
-5.1426938002
 20
-1.2597336004
 10
-5.1665428382
 20
-1.125318869
 10
-5.1877075034
 20
-0.9918317117
 10
-5.2061937837
 20
-0.8594115658
 10
-5.2220102605
 20
-0.7280234786
 10
-5.2351491882
 20
-0.5977028735
 10
-5.2455919683
 20
-0.4686946976
 10
-5.253337778
 20
-0.3410234385
 10
-5.258387887
 20
-0.2146648602
 10
-5.2607267394
 20
-0.0897907705
 10
-5.2603484408
 20
0.0336434518
 10
-5.2572589341
 20
0.1555931584
 10
-5.251460319
 20
0.2757526934
 10
-5.2429461363
 20
0.3941181167
 10
-5.2317224916
 20
0.5106935676
 10
-5.2178102338
 20
0.6251855653
 10
-5.2012101953
 20
0.7375650058
 10
-5.1819207965
 20
0.847861414
 10
-5.1599591752
 20
0.955869305
 10
-5.1353027253
 20
1.0616047043
 10
-5.1079729159
 20
1.1650522272
 10
-5.0780529242
 20
1.2659593154
 10
-5.0455512271
 20
1.3642702661
 10
-5.0104578797
 20
1.4600416102
 10
-4.9728283735
 20
1.5531891696
 10
-4.9326523803
 20
1.6437492187
 10
-4.8899384356
 20
1.7316864954
 10
-4.8447702895
 20
1.8168095381
 10
-4.797162049
 20
1.8990882574
 10
-4.7470975499
 20
1.9785539059
 10
-4.6946151055
 20
2.0551070528
 10
-4.6396900241
 20
2.1287659753
 10
-4.5823446444
 20
2.1995137286
 10
-4.5226878213
 20
2.2671980512
 10
-4.4607185902
 20
2.3318154212
 10
-4.3964353848
 20
2.3933707963
 10
-4.3299462076
 20
2.4517246081
 10
-4.2612325475
 20
2.5068836357
 10
-4.1903102328
 20
2.558842625
 10
-4.1173388775
 20
2.6074439009
 10
-4.0483288933
 20
2.6492004078
  0
LWPOLYLINE
  5
306
100
AcDbEntity
  8
0
100
AcDbPolyline
 62
7
  6
CONTINUOUS
 90
41
 70
0
 10
-3.7695872439
 20
-2.0473831275
 10
-3.7957177311
 20
-1.9448454261
 10
-3.8197112609
 20
-1.8427198552
 10
-3.841568294
 20
-1.7410066768
 10
-3.8613171449
 20
-1.6395990835
 10
-3.8789302949
 20
-1.5386043347
 10
-3.8943244072
 20
-1.4383437649
 10
-3.9074910478
 20
-1.3388424737
 10
-3.9184392218
 20
-1.2400756858
 10
-3.9271117028
 20
-1.1422898955
 10
-3.9334929354
 20
-1.0454617427
 10
-3.9375987843
 20
-0.9496147629
 10
-3.9394190898
 20
-0.8550657576
 10
-3.9389451908
 20
-0.7618400964
 10
-3.9361857762
 20
-0.6699124254
 10
-3.9311566414
 20
-0.5795234205
 10
-3.9238451937
 20
-0.4906402094
 10
-3.9142637731
 20
-0.403295521
 10
-3.9024655099
 20
-0.3178283964
 10
-3.8884544217
 20
-0.234304393
 10
-3.8722259762
 20
-0.1526576611
 10
-3.8538204225
 20
-0.0730300993
 10
-3.8332467376
 20
0.0045721526
 10
-3.8104951823
 20
0.0801556673
 10
-3.7855778762
 20
0.1535976472
 10
-3.7584891647
 20
0.2248839972
 10
-3.7292336895
 20
0.2940293881
 10
-3.6978389617
 20
0.360954201
 10
-3.6642886284
 20
0.4256683288
 10
-3.6285977925
 20
0.4881625896
 10
-3.590841119
 20
0.5483287687
 10
-3.5510057813
 20
0.6061861359
 10
-3.5091031671
 20
0.6617162407
 10
-3.4652442723
 20
0.7147542839
 10
-3.4194236703
 20
0.7653018993
 10
-3.3716452183
 20
0.813358348
 10
-3.3220338825
 20
0.8587552456
 10
-3.2705524151
 20
0.9015033376
 10
-3.2172364011
 20
0.9415928281
 10
-3.1623201777
 20
0.978824452
 10
-3.1083701382
 20
1.0116985935
  0
LINE
  5
307
100
AcDbEntity
  8
RACCORDO
100
AcDbLine
 62
253
  6
CONTINUOUS
 10
32.1416451114
 20
-50.3045588682
 11
32.14227666
 21
-50.3105946769
  0
LINE
  5
308
100
AcDbEntity
  8
RACCORDO
100
AcDbLine
 62
253
  6
CONTINUOUS
 10
32.1416451114
 20
15.0130632752
 11
32.14227666
 21
15.0070274665
  0
LWPOLYLINE
  5
309
100
AcDbEntity
  8
0
100
AcDbPolyline
 62
7
  6
CONTINUOUS
 90
7
 70
0
 10
37.0598435667
 20
-47.2931009727
 10
37.0406803176
 20
-47.0749878547
 10
36.9828278514
 20
-46.8407759915
 10
36.8889801311
 20
-46.6048096721
 10
36.7635156638
 20
-46.37809801
 10
36.6148959535
 20
-46.1743455008
 10
36.443052713
 20
-45.9944558294
  0
LWPOLYLINE
  5
30A
100
AcDbEntity
  8
0
100
AcDbPolyline
 62
7
  6
CONTINUOUS
 90
7
 70
0
 10
37.0598435667
 20
18.0245211708
 10
37.0406803176
 20
18.2426342887
 10
36.9828278514
 20
18.476846152
 10
36.8889801311
 20
18.7128124713
 10
36.7635156638
 20
18.9395241334
 10
36.6148959535
 20
19.1432766426
 10
36.443052713
 20
19.3231663141
  0
LWPOLYLINE
  5
30B
100
AcDbEntity
  8
0
100
AcDbPolyline
 62
7
  6
CONTINUOUS
 90
12
 70
0
 10
37.2719756011
 20
-47.4155833507
 10
37.2579930992
 20
-47.21868941
 10
37.2229803067
 20
-47.0213468741
 10
37.1669372235
 20
-46.823555743
 10
37.0877048902
 20
-46.620943499
 10
36.9874422663
 20
-46.4178826598
 10
36.8726262296
 20
-46.2274907783
 10
36.742295953
 20
-46.0506042686
 10
36.5974122636
 20
-45.8863867167
 10
36.4473345213
 20
-45.7454464329
 10
36.2917198109
 20
-45.6293202002
 10
36.2207613789
 20
-45.5883496909
  0
LWPOLYLINE
  5
30C
100
AcDbEntity
  8
0
100
AcDbPolyline
 62
7
  6
CONTINUOUS
 90
12
 70
0
 10
37.2719756011
 20
17.9020387928
 10
37.2579930992
 20
18.0989327334
 10
37.2229803067
 20
18.2962752693
 10
37.1669372235
 20
18.4940664004
 10
37.0877048902
 20
18.6966786444
 10
36.9874422663
 20
18.8997394836
 10
36.8726262296
 20
19.0901313651
 10
36.742295953
 20
19.2670178748
 10
36.5974122636
 20
19.4312354268
 10
36.4473345213
 20
19.5721757105
 10
36.2917198109
 20
19.6883019432
 10
36.2207613789
 20
19.7292724526
  0
LWPOLYLINE
  5
30D
100
AcDbEntity
  8
RACCORDO
100
AcDbPolyline
 62
253
  6
CONTINUOUS
 90
10
 70
0
 10
31.4089374102
 20
-50.3070438201
 10
31.4084085029
 20
-50.2994079835
 10
31.4088986102
 20
-50.2914092861
 10
31.410393816
 20
-50.2832748684
 10
31.412851662
 20
-50.2752357257
 10
31.4162023537
 20
-50.2675201485
 10
31.4203507416
 20
-50.2603472395
 10
31.4251790236
 20
-50.2539206918
 10
31.4305500901
 20
-50.2484230039
 10
31.4363114174
 20
-50.2440102979
  0
LWPOLYLINE
  5
30E
100
AcDbEntity
  8
RACCORDO
100
AcDbPolyline
 62
253
  6
CONTINUOUS
 90
10
 70
0
 10
32.0750361987
 20
-50.5560243313
 10
32.0745072965
 20
-50.5483884788
 10
32.0749974116
 20
-50.5403897685
 10
32.076492626
 20
-50.5322553425
 10
32.0789504797
 20
-50.524216197
 10
32.0823011761
 20
-50.5165006223
 10
32.0864495643
 20
-50.5093277205
 10
32.0912778411
 20
-50.5029011827
 10
32.0966488962
 20
-50.4974035058
 10
32.1024102059
 20
-50.4929908091
  0
LWPOLYLINE
  5
30F
100
AcDbEntity
  8
RACCORDO
100
AcDbPolyline
 62
253
  6
CONTINUOUS
 90
10
 70
0
 10
31.4089374102
 20
15.0105783233
 10
31.4084085029
 20
15.0182141599
 10
31.4088986102
 20
15.0262128574
 10
31.410393816
 20
15.0343472751
 10
31.412851662
 20
15.0423864177
 10
31.4162023537
 20
15.0501019949
 10
31.4203507416
 20
15.0572749039
 10
31.4251790236
 20
15.0637014517
 10
31.4305500901
 20
15.0691991395
 10
31.4363114174
 20
15.0736118455
  0
LWPOLYLINE
  5
310
100
AcDbEntity
  8
RACCORDO
100
AcDbPolyline
 62
253
  6
CONTINUOUS
 90
10
 70
0
 10
32.0750361987
 20
14.7615978121
 10
32.0745072965
 20
14.7692336646
 10
32.0749974116
 20
14.7772323749
 10
32.076492626
 20
14.7853668009
 10
32.0789504797
 20
14.7934059465
 10
32.0823011761
 20
14.8011215211
 10
32.0864495643
 20
14.808294423
 10
32.0912778411
 20
14.8147209607
 10
32.0966488962
 20
14.8202186376
 10
32.1024102059
 20
14.8246313343
  0
LWPOLYLINE
  5
311
100
AcDbEntity
  8
RACCORDO
100
AcDbPolyline
 62
253
  6
CONTINUOUS
 90
10
 70
0
 10
29.9565951972
 20
-49.2565573112
 10
29.9551319858
 20
-49.2326185649
 10
29.9540345793
 20
-49.2088852716
 10
29.9533029779
 20
-49.1853574313
 10
29.9529371844
 20
-49.1620311666
 10
29.952937196
 20
-49.1389103549
 10
29.9533030036
 20
-49.1160066283
 10
29.9540346044
 20
-49.0933238642
 10
29.9551320012
 20
-49.0708581851
 10
29.9565951942
 20
-49.0486095911
  0
LWPOLYLINE
  5
312
100
AcDbEntity
  8
RACCORDO
100
AcDbPolyline
 62
253
  6
CONTINUOUS
 90
7
 70
0
 10
30.0047880949
 20
-49.2610663138
 10
30.0033663132
 20
-49.2378202609
 10
30.0022995616
 20
-49.2147529498
 10
30.0015881959
 20
-49.1918720795
 10
30.0012324539
 20
-49.1691852866
 10
30.0012324539
 20
-49.1467001428
 10
30.0015881959
 20
-49.1244241525
  0
LINE
  5
313
100
AcDbEntity
  8
RACCORDO
100
AcDbLine
 62
7
  6
CONTINUOUS
 10
32.1291664294
 20
-50.3167739174
 11
32.1277489933
 21
-50.2935997351
  0
LINE
  5
314
100
AcDbEntity
  8
RACCORDO
100
AcDbLine
 62
253
  6
CONTINUOUS
 10
32.14227666
 20
-50.3105946769
 11
32.1437398697
 21
-50.3345334218
  0
LWPOLYLINE
  5
315
100
AcDbEntity
  8
RACCORDO
100
AcDbPolyline
 62
253
  6
CONTINUOUS
 90
10
 70
0
 10
29.9565951972
 20
16.0610648322
 10
29.9551319858
 20
16.0850035785
 10
29.9540345793
 20
16.1087368718
 10
29.9533029779
 20
16.1322647121
 10
29.9529371844
 20
16.1555909768
 10
29.952937196
 20
16.1787117885
 10
29.9533030036
 20
16.2016155151
 10
29.9540346044
 20
16.2242982792
 10
29.9551320012
 20
16.2467639583
 10
29.9565951942
 20
16.2690125523
  0
LWPOLYLINE
  5
316
100
AcDbEntity
  8
RACCORDO
100
AcDbPolyline
 62
253
  6
CONTINUOUS
 90
7
 70
0
 10
30.0047880949
 20
16.0565558296
 10
30.0033663132
 20
16.0798018826
 10
30.0022995616
 20
16.1028691936
 10
30.0015881959
 20
16.1257500639
 10
30.0012324539
 20
16.1484368568
 10
30.0012324539
 20
16.1709220006
 10
30.0015881959
 20
16.1931979909
  0
LINE
  5
317
100
AcDbEntity
  8
RACCORDO
100
AcDbLine
 62
7
  6
CONTINUOUS
 10
32.1291664294
 20
15.000848226
 11
32.1277489933
 21
15.0240224083
  0
LINE
  5
318
100
AcDbEntity
  8
RACCORDO
100
AcDbLine
 62
253
  6
CONTINUOUS
 10
32.14227666
 20
15.0070274665
 11
32.1437398697
 21
14.9830887216
  0
LWPOLYLINE
  5
319
100
AcDbEntity
  8
0
100
AcDbPolyline
 62
7
  6
CONTINUOUS
 90
19
 70
0
 10
33.029334914
 20
-50.9267448533
 10
33.0144677778
 20
-50.6470493777
 10
32.9746669382
 20
-50.3634362093
 10
32.9099323949
 20
-50.0759053482
 10
32.8187282941
 20
-49.7804984023
 10
32.7025904896
 20
-49.4811737637
 10
32.5661265438
 20
-49.1898066084
 10
32.4085192457
 20
-48.9067168666
 10
32.2305858063
 20
-48.6315846082
 10
32.0393854203
 20
-48.3753252194
 10
31.8343846912
 20
-48.1386974825
 10
31.6161170156
 20
-47.9209426152
 10
31.3932417777
 20
-47.7306996572
 10
31.1655737311
 20
-47.5690747225
 10
30.9332981222
 20
-47.434961697
 10
30.7056300755
 20
-47.3336812781
 10
30.4827548377
 20
-47.2665534981
 10
30.2644871621
 20
-47.2322583246
 10
30.059486433
 20
-47.2321563581
  0
LWPOLYLINE
  5
31A
100
AcDbEntity
  8
0
100
AcDbPolyline
 62
7
  6
CONTINUOUS
 90
19
 70
0
 10
33.029334914
 20
14.3908772901
 10
33.0144677778
 20
14.6705727658
 10
32.9746669382
 20
14.9541859341
 10
32.9099323949
 20
15.2417167952
 10
32.8187282941
 20
15.5371237411
 10
32.7025904896
 20
15.8364483798
 10
32.5661265438
 20
16.127815535
 10
32.4085192457
 20
16.4109052768
 10
32.2305858063
 20
16.6860375352
 10
32.0393854203
 20
16.942296924
 10
31.8343846912
 20
17.1789246609
 10
31.6161170156
 20
17.3966795282
 10
31.3932417777
 20
17.5869224863
 10
31.1655737311
 20
17.748547421
 10
30.9332981222
 20
17.8826604464
 10
30.7056300755
 20
17.9839408653
 10
30.4827548377
 20
18.0510686453
 10
30.2644871621
 20
18.0853638188
 10
30.059486433
 20
18.0854657853
  0
LWPOLYLINE
  5
31B
100
AcDbEntity
  8
0
100
AcDbPolyline
 62
7
  6
CONTINUOUS
 90
5
 70
0
 10
33.2768222874
 20
-50.7838487456
 10
33.2634349187
 20
-50.5107170883
 10
33.2234538539
 20
-50.2258196703
 10
33.1574197683
 20
-49.9330092405
 10
33.0887537348
 20
-49.709556374
  0
LWPOLYLINE
  5
31C
100
AcDbEntity
  8
0
100
AcDbPolyline
 62
7
  6
CONTINUOUS
 90
5
 70
0
 10
33.2768222874
 20
14.5337733978
 10
33.2634349187
 20
14.8069050551
 10
33.2234538539
 20
15.0918024731
 10
33.1574197683
 20
15.3846129029
 10
33.0887537868
 20
15.6080656001
  0
LWPOLYLINE
  5
31D
100
AcDbEntity
  8
RACCORDO
100
AcDbPolyline
 62
253
  6
CONTINUOUS
 90
3
 70
0
 10
32.1437398697
 20
-50.3345334218
 10
32.1448372748
 20
-50.3582667139
 10
32.1455688754
 20
-50.3817945533
  0
LWPOLYLINE
  5
31E
100
AcDbEntity
  8
RACCORDO
100
AcDbPolyline
 62
253
  6
CONTINUOUS
 90
3
 70
0
 10
32.1437398697
 20
14.9830887216
 10
32.1448372748
 20
14.9593554295
 10
32.1455688754
 20
14.9358275902
  0
LWPOLYLINE
  5
31F
100
AcDbEntity
  8
RACCORDO
100
AcDbPolyline
 62
253
  6
CONTINUOUS
 90
9
 70
0
 10
28.1082284228
 20
-61.0091855336
 10
28.1093646452
 20
-61.0338494629
 10
28.1127615661
 20
-61.0569368258
 10
28.1183827889
 20
-61.0782002542
 10
28.1261680853
 20
-61.0974119225
 10
28.1360340399
 20
-61.1143659886
 10
28.1478749443
 20
-61.1288807991
 10
28.1615639297
 20
-61.1408008361
 10
28.1703529666
 20
-61.1465084844
  0
LWPOLYLINE
  5
320
100
AcDbEntity
  8
RACCORDO
100
AcDbPolyline
 62
253
  6
CONTINUOUS
 90
9
 70
0
 10
30.3982179353
 20
-62.3313988104
 10
30.3993543234
 20
-62.356062162
 10
30.4027513284
 20
-62.3791490441
 10
30.4083725695
 20
-62.4004120916
 10
30.416157835
 20
-62.4196234778
 10
30.4260237263
 20
-62.4365773544
 10
30.4378645511
 20
-62.4510920582
 10
30.4515534573
 20
-62.4630120597
 10
30.4603427101
 20
-62.468719862
  0
LWPOLYLINE
  5
321
100
AcDbEntity
  8
RACCORDO
100
AcDbPolyline
 62
253
  6
CONTINUOUS
 90
22
 70
0
 10
30.9601472979
 20
30.3832567688
 10
30.9588894908
 20
30.4141781509
 10
30.9556812838
 20
30.4460784454
 10
30.950541551
 20
30.4787798444
 10
30.9435005107
 20
30.5121003819
 10
30.9345976389
 20
30.5458538371
 10
30.9238814455
 20
30.5798507733
 10
30.9114120824
 20
30.6139012487
 10
30.8972600191
 20
30.6478153686
 10
30.8815037224
 20
30.681403231
 10
30.8642311915
 20
30.7144769962
 10
30.8455394086
 20
30.7468520524
 10
30.825532793
 20
30.778347531
 10
30.8043227041
 20
30.8087871442
 10
30.7820278404
 20
30.8380007458
 10
30.7587735052
 20
30.8658253946
 10
30.734688962
 20
30.892105111
 10
30.7099085965
 20
30.9166928391
 10
30.6845721749
 20
30.9394518368
 10
30.6588212213
 20
30.9602548016
 10
30.6327982307
 20
30.9789845849
 10
30.6066477552
 20
30.9955359366
  0
LWPOLYLINE
  5
322
100
AcDbEntity
  8
RACCORDO
100
AcDbPolyline
 62
7
  6
CONTINUOUS
 90
7
 70
0
 10
28.988203565
 20
-47.1111287944
 10
28.9887658577
 20
-47.126164434
 10
28.9902585802
 20
-47.13977453
 10
28.9926800759
 20
-47.1532556694
 10
28.9960317574
 20
-47.1665851154
 10
29.00030842
 20
-47.1797006162
 10
29.0057166778
 20
-47.1930220878
  0
LWPOLYLINE
  5
323
100
AcDbEntity
  8
RACCORDO
100
AcDbPolyline
 62
7
  6
CONTINUOUS
 90
7
 70
0
 10
28.988203565
 20
18.2064903104
 10
28.9887657443
 20
18.1914561879
 10
28.9902582945
 20
18.1778465599
 10
28.9926795534
 20
18.1643658707
 10
28.9960309336
 20
18.1510368541
 10
29.0003072315
 20
18.1379217549
 10
29.005714968
 20
18.1246008366
  0
LWPOLYLINE
  5
324
100
AcDbEntity
  8
RACCORDO
100
AcDbPolyline
 62
253
  6
CONTINUOUS
 90
22
 70
0
 10
30.5396177524
 20
30.3853757264
 10
30.5392038048
 20
30.3979357797
 10
30.5380208021
 20
30.4107370111
 10
30.5360687443
 20
30.4237794207
 10
30.5333279601
 20
30.4371387874
 10
30.5298181208
 20
30.4507393322
 10
30.5255982402
 20
30.4643537181
 10
30.5206566302
 20
30.4779816807
 10
30.515004979
 20
30.4916234845
 10
30.508737365
 20
30.5050525859
 10
30.5018435288
 20
30.518265411
 10
30.4943337298
 20
30.5312655338
 10
30.4863328257
 20
30.5438371318
 10
30.4778326156
 20
30.5559729692
 10
30.4688413004
 20
30.5676802819
 10
30.4595083401
 20
30.5787649555
 10
30.4498249259
 20
30.5892186539
 10
30.4397998667
 20
30.5990497133
 10
30.4296090493
 20
30.6080890275
 10
30.4193111028
 20
30.616280228
 10
30.4088473981
 20
30.6236796833
 10
30.3982179353
 20
30.6302873935
  0
LWPOLYLINE
  5
325
100
AcDbEntity
  8
RACCORDO
100
AcDbPolyline
 62
7
  6
CONTINUOUS
 90
22
 70
0
 10
31.8272533859
 20
30.8839112966
 10
31.8262731611
 20
30.9149197247
 10
31.8233204829
 20
30.9469329308
 10
31.8184062517
 20
30.9797772757
 10
31.8115433105
 20
31.0133190081
 10
31.8027683605
 20
31.047328487
 10
31.7921663353
 20
31.0814765059
 10
31.7798543421
 20
31.115459762
 10
31.7658841747
 20
31.149201431
 10
31.7502498249
 20
31.1827079825
 10
31.7329522304
 20
31.2159198671
 10
31.7141358281
 20
31.2485108317
 10
31.6940221988
 20
31.2800970876
 10
31.6728216695
 20
31.3103904181
 10
31.6505853444
 20
31.3393602335
 10
31.6273106248
 20
31.3670149722
 10
31.6030381452
 20
31.3932713675
 10
31.5779720226
 20
31.4178763454
 10
31.5523548966
 20
31.4405917397
 10
31.5263672959
 20
31.4612709375
 10
31.5001186348
 20
31.4798359349
 10
31.4737538432
 20
31.4961904643
  0
LWPOLYLINE
  5
326
100
AcDbEntity
  8
RACCORDO
100
AcDbPolyline
 62
7
  6
CONTINUOUS
 90
6
 70
0
 10
28.9882033305
 20
-50.3000920986
 10
28.9890089948
 20
-50.3283141257
 10
28.9912771758
 20
-50.3538729074
 10
28.9949649241
 20
-50.3779421113
 10
29.0002248814
 20
-50.4013100979
 10
29.0072684292
 20
-50.4242239645
  0
LWPOLYLINE
  5
327
100
AcDbEntity
  8
RACCORDO
100
AcDbPolyline
 62
7
  6
CONTINUOUS
 90
6
 70
0
 10
28.9882033305
 20
15.0175300448
 10
28.9890089948
 20
14.9893080178
 10
28.9912771758
 20
14.9637492361
 10
28.9949649241
 20
14.9396800322
 10
29.0002248814
 20
14.9163120455
 10
29.0072684292
 20
14.893398179
  0
LWPOLYLINE
  5
328
100
AcDbEntity
  8
RACCORDO
100
AcDbPolyline
 62
7
  6
CONTINUOUS
 90
11
 70
0
 10
29.6866663392
 20
-46.3261083882
 10
29.6870002368
 20
-46.3388641759
 10
29.6892998113
 20
-46.3624375446
 10
29.6937056799
 20
-46.3862857917
 10
29.7001238849
 20
-46.41010312
 10
29.7084473357
 20
-46.4337978788
 10
29.7185592112
 20
-46.4572933897
 10
29.730350171
 20
-46.4803160044
 10
29.7437004794
 20
-46.5027326482
 10
29.7584739034
 20
-46.5245528858
 10
29.7745343046
 20
-46.5457272346
  0
LWPOLYLINE
  5
329
100
AcDbEntity
  8
RACCORDO
100
AcDbPolyline
 62
7
  6
CONTINUOUS
 90
11
 70
0
 10
29.6866663392
 20
18.9915137553
 10
29.6870002368
 20
18.9787579675
 10
29.6892998113
 20
18.9551845988
 10
29.6937056799
 20
18.9313363518
 10
29.7001238849
 20
18.9075190234
 10
29.7084473357
 20
18.8838242646
 10
29.7185592112
 20
18.8603287537
 10
29.730350171
 20
18.837306139
 10
29.7437004794
 20
18.8148894952
 10
29.7584739034
 20
18.7930692576
 10
29.7745343046
 20
18.7718949088
  0
LWPOLYLINE
  5
32A
100
AcDbEntity
  8
RACCORDO
100
AcDbPolyline
 62
7
  6
CONTINUOUS
 90
31
 70
0
 10
33.3475329655
 20
-51.0626359084
 10
33.3445168752
 20
-50.9276081351
 10
33.3354413426
 20
-50.7888401664
 10
33.3202835399
 20
-50.6467480761
 10
33.2990467683
 20
-50.5017736254
 10
33.2717532706
 20
-50.3543360276
 10
33.2384340401
 20
-50.2048152769
 10
33.1991380513
 20
-50.0536162835
 10
33.1539540185
 20
-49.9012266973
 10
33.1029987634
 20
-49.7481437006
 10
33.0463980543
 20
-49.5948221375
 10
32.9842981162
 20
-49.4417207895
 10
32.9168819548
 20
-49.2893364483
 10
32.8443355542
 20
-49.1381214067
 10
32.766863718
 20
-48.9885273984
 10
32.6847102233
 20
-48.8410392594
 10
32.5981156833
 20
-48.6960937963
 10
32.507335298
 20
-48.5541188311
 10
32.4126642898
 20
-48.4155691829
 10
32.3143892902
 20
-48.2808503509
 10
32.2128077741
 20
-48.150353084
 10
32.1082576563
 20
-48.0244881769
 10
32.0010638628
 20
-47.9036170581
 10
31.8915556878
 20
-47.7880784801
 10
31.7801012676
 20
-47.6782227539
 10
31.6670594346
 20
-47.5743586391
 10
31.5527762024
 20
-47.476755944
 10
31.4376219137
 20
-47.3856794168
 10
31.3219697739
 20
-47.3013672912
 10
31.2061844837
 20
-47.2240240578
 10
31.0906393356
 20
-47.153833314
  0
LWPOLYLINE
  5
32B
100
AcDbEntity
  8
RACCORDO
100
AcDbPolyline
 62
7
  6
CONTINUOUS
 90
31
 70
0
 10
33.3475329655
 20
14.2549862835
 10
33.3445169734
 20
14.3900117818
 10
33.3354415255
 20
14.5287798557
 10
33.3202837936
 20
14.670872065
 10
33.2990470787
 20
14.8158466472
 10
33.2717536233
 20
14.9632843874
 10
33.2384344205
 20
15.1128052908
 10
33.1991384448
 20
15.2640044455
 10
33.1539544106
 20
15.4163942002
 10
33.1029991396
 20
15.5694773709
 10
33.0463984006
 20
15.7227991118
 10
32.9842984189
 20
15.8759006399
 10
32.9168822007
 20
16.0282851617
 10
32.8443357306
 20
16.1795003828
 10
32.7668638131
 20
16.3290945681
 10
32.6847102258
 20
16.4765828796
 10
32.598115583
 20
16.6215285094
 10
32.5073350854
 20
16.7635036339
 10
32.4126639565
 20
16.9020534326
 10
32.314388829
 20
17.0367724047
 10
32.2128071786
 20
17.1672698
 10
32.1082569215
 20
17.2931348227
 10
32.001062985
 20
17.4140060429
 10
31.8915546643
 20
17.5295447073
 10
31.7801000972
 20
17.6394005037
 10
31.6670581174
 20
17.7432646717
 10
31.5527747397
 20
17.8408674022
 10
31.437620308
 20
17.9319439466
 10
31.3219680291
 20
18.0162560708
 10
31.206182605
 20
18.0935992836
 10
31.0906393773
 20
18.1637888053
  0
LWPOLYLINE
  5
32C
100
AcDbEntity
  8
RACCORDO
100
AcDbPolyline
 62
253
  6
CONTINUOUS
 90
10
 70
0
 10
31.1394828299
 20
-51.0974310753
 10
31.13938483
 20
-51.0923751309
 10
31.139766274
 20
-51.0871114956
 10
31.1406220046
 20
-51.0817113505
 10
31.1419404506
 20
-51.0762477228
 10
31.1437037831
 20
-51.0707944989
 10
31.1458881567
 20
-51.0654254251
 10
31.1484640318
 20
-51.0602131095
 10
31.1513965747
 20
-51.0552280402
 10
31.1546461284
 20
-51.0505376322
  0
LWPOLYLINE
  5
32D
100
AcDbEntity
  8
RACCORDO
100
AcDbPolyline
 62
253
  6
CONTINUOUS
 90
10
 70
0
 10
31.1394828299
 20
14.2201910681
 10
31.13938483
 20
14.2252470126
 10
31.139766274
 20
14.2305106479
 10
31.1406220046
 20
14.2359107929
 10
31.1419404506
 20
14.2413744206
 10
31.1437037831
 20
14.2468276445
 10
31.1458881567
 20
14.2521967183
 10
31.1484640318
 20
14.2574090339
 10
31.1513965747
 20
14.2623941033
 10
31.1546461284
 20
14.2670845112
  0
LINE
  5
32E
100
AcDbEntity
  8
RACCORDO
100
AcDbLine
 62
253
  6
CONTINUOUS
 10
32.1455688754
 20
-50.3817945533
 11
32.1459346684
 21
-50.4051208172
  0
LINE
  5
32F
100
AcDbEntity
  8
RACCORDO
100
AcDbLine
 62
253
  6
CONTINUOUS
 10
32.1455688754
 20
14.9358275902
 11
32.1459346684
 21
14.9125013262
  0
LWPOLYLINE
  5
330
100
AcDbEntity
  8
RACCORDO
100
AcDbPolyline
 62
253
  6
CONTINUOUS
 90
16
 70
0
 10
28.9882035472
 20
-47.1111775056
 10
28.9882132812
 20
-47.1123168088
 10
28.9885825632
 20
-47.1182834246
 10
28.9894887653
 20
-47.1242478474
 10
28.9909287594
 20
-47.1301757301
 10
28.9928962809
 20
-47.1360458978
 10
28.9953867395
 20
-47.141848025
 10
28.9983919336
 20
-47.1475646056
 10
29.0019020506
 20
-47.1531792289
 10
29.0059074445
 20
-47.1586783936
 10
29.0103981128
 20
-47.1640493885
 10
29.0153617061
 20
-47.1692780013
 10
29.0207846149
 20
-47.1743503998
 10
29.0266540127
 20
-47.1792547639
 10
29.0329550456
 20
-47.1839784932
 10
29.0396703815
 20
-47.1885084183
  0
LWPOLYLINE
  5
331
100
AcDbEntity
  8
RACCORDO
100
AcDbPolyline
 62
253
  6
CONTINUOUS
 90
16
 70
0
 10
28.9882035472
 20
18.2064416065
 10
28.9882132812
 20
18.2053023033
 10
28.9885825632
 20
18.1993356874
 10
28.9894887653
 20
18.1933712647
 10
28.9909287594
 20
18.187443382
 10
28.9928962809
 20
18.1815732143
 10
28.9953867395
 20
18.1757710871
 10
28.9983919336
 20
18.1700545065
 10
29.0019020506
 20
18.1644398832
 10
29.0059074445
 20
18.1589407185
 10
29.0103981128
 20
18.1535697235
 10
29.0153617061
 20
18.1483411108
 10
29.0207846149
 20
18.1432687122
 10
29.0266540127
 20
18.1383643482
 10
29.0329550456
 20
18.1336406189
 10
29.0396703815
 20
18.1291106938
  0
LINE
  5
332
100
AcDbEntity
  8
RACCORDO
100
AcDbLine
 62
253
  6
CONTINUOUS
 10
23.0806450652
 20
-62.9825898393
 11
23.0806450652
 21
29.4791834169
  0
LINE
  5
333
100
AcDbEntity
  8
RACCORDO
100
AcDbLine
 62
253
  6
CONTINUOUS
 10
23.7555539119
 20
-62.972153289
 11
23.7555539119
 21
29.4896199672
  0
LINE
  5
334
100
AcDbEntity
  8
RACCORDO
100
AcDbLine
 62
253
  6
CONTINUOUS
 10
27.7075842213
 20
31.7714651712
 11
27.7075842213
 21
-60.8468792813
  0
LINE
  5
335
100
AcDbEntity
  8
RACCORDO
100
AcDbLine
 62
253
  6
CONTINUOUS
 10
28.1281137668
 20
31.7693462136
 11
28.1281137668
 21
-60.8489982389
  0
LINE
  5
336
100
AcDbEntity
  8
RACCORDO
100
AcDbLine
 62
7
  6
CONTINUOUS
 10
28.9882035472
 20
18.5265908577
 11
28.9882035472
 21
18.2064416065
  0
LINE
  5
337
100
AcDbEntity
  8
RACCORDO
100
AcDbLine
 62
7
  6
CONTINUOUS
 10
28.9882035472
 20
15.3375630522
 11
28.9882035472
 21
15.0174256674
  0
LINE
  5
338
100
AcDbEntity
  8
RACCORDO
100
AcDbLine
 62
7
  6
CONTINUOUS
 10
28.9882035472
 20
-46.7910312857
 11
28.9882035472
 21
-47.1111775056
  0
LINE
  5
339
100
AcDbEntity
  8
RACCORDO
100
AcDbLine
 62
7
  6
CONTINUOUS
 10
28.9882035472
 20
-49.9800572338
 11
28.9882035472
 21
-50.300196476
  0
LINE
  5
33A
100
AcDbEntity
  8
RACCORDO
100
AcDbLine
 62
253
  6
CONTINUOUS
 10
29.0467821909
 20
18.444935751
 11
29.0467821909
 21
18.124786472
  0
LINE
  5
33B
100
AcDbEntity
  8
RACCORDO
100
AcDbLine
 62
253
  6
CONTINUOUS
 10
29.0467821909
 20
15.2559201666
 11
29.0467821909
 21
14.935770848
  0
LINE
  5
33C
100
AcDbEntity
  8
RACCORDO
100
AcDbLine
 62
253
  6
CONTINUOUS
 10
29.0467821909
 20
-46.8726863924
 11
29.0467821909
 21
-47.1928356714
  0
LINE
  5
33D
100
AcDbEntity
  8
RACCORDO
100
AcDbLine
 62
253
  6
CONTINUOUS
 10
29.0467821909
 20
-50.0617019768
 11
29.0467821909
 21
-50.3818512955
  0
LINE
  5
33E
100
AcDbEntity
  8
RACCORDO
100
AcDbLine
 62
7
  6
CONTINUOUS
 10
29.6866663389
 20
21.4961928661
 11
29.6866663389
 21
18.99153531
  0
LINE
  5
33F
100
AcDbEntity
  8
RACCORDO
100
AcDbLine
 62
7
  6
CONTINUOUS
 10
29.6866663389
 20
13.7876617737
 11
29.6866663389
 21
11.2890886295
  0
LINE
  5
340
100
AcDbEntity
  8
RACCORDO
100
AcDbLine
 62
7
  6
CONTINUOUS
 10
29.6866663389
 20
-43.8214292773
 11
29.6866663389
 21
-46.3260868335
  0
LINE
  5
341
100
AcDbEntity
  8
RACCORDO
100
AcDbLine
 62
7
  6
CONTINUOUS
 10
29.6866663389
 20
-51.5299603697
 11
29.6866663389
 21
-54.028533514
  0
LINE
  5
342
100
AcDbEntity
  8
RACCORDO
100
AcDbLine
 62
253
  6
CONTINUOUS
 10
29.7745343046
 20
21.2116230597
 11
29.7745343046
 21
18.7718949088
  0
LINE
  5
343
100
AcDbEntity
  8
RACCORDO
100
AcDbLine
 62
253
  6
CONTINUOUS
 10
29.7745343046
 20
13.7684218307
 11
29.7745343046
 21
11.3286936798
  0
LINE
  5
344
100
AcDbEntity
  8
RACCORDO
100
AcDbLine
 62
253
  6
CONTINUOUS
 10
29.7745343046
 20
-44.1059990837
 11
29.7745343046
 21
-46.5457272346
  0
LINE
  5
345
100
AcDbEntity
  8
RACCORDO
100
AcDbLine
 62
253
  6
CONTINUOUS
 10
29.7745343046
 20
-51.5492003127
 11
29.7745343046
 21
-53.9889284636
  0
LINE
  5
346
100
AcDbEntity
  8
RACCORDO
100
AcDbLine
 62
253
  6
CONTINUOUS
 10
30.5396177524
 20
-62.2497721077
 11
30.5396177524
 21
-54.5072711798
  0
LINE
  5
347
100
AcDbEntity
  8
RACCORDO
100
AcDbLine
 62
253
  6
CONTINUOUS
 10
30.5396177524
 20
-43.3935803038
 11
30.5396177524
 21
10.8103509637
  0
LINE
  5
348
100
AcDbEntity
  8
RACCORDO
100
AcDbLine
 62
253
  6
CONTINUOUS
 10
30.5396177524
 20
21.9240418396
 11
30.5396177524
 21
30.3853757264
  0
LINE
  5
349
100
AcDbEntity
  8
RACCORDO
100
AcDbLine
 62
253
  6
CONTINUOUS
 10
30.9601472979
 20
-62.2518910653
 11
30.9601472979
 21
-54.6737692896
  0
LINE
  5
34A
100
AcDbEntity
  8
RACCORDO
100
AcDbLine
 62
253
  6
CONTINUOUS
 10
30.9601472979
 20
-43.3849232392
 11
30.9601472979
 21
10.6438528538
  0
LINE
  5
34B
100
AcDbEntity
  8
RACCORDO
100
AcDbLine
 62
253
  6
CONTINUOUS
 10
30.9601472979
 20
21.9326989042
 11
30.9601472979
 21
30.3832567688
  0
LINE
  5
34C
100
AcDbEntity
  8
RACCORDO
100
AcDbLine
 62
7
  6
CONTINUOUS
 10
31.8272533859
 20
30.8839112966
 11
31.8272533859
 21
22.4333817556
  0
LINE
  5
34D
100
AcDbEntity
  8
DRAFT
100
AcDbLine
 62
7
  6
CONTINUOUS
 10
31.8272533859
 20
10.4521103397
 11
31.8272533859
 21
-42.8842403879
  0
LINE
  5
34E
100
AcDbEntity
  8
RACCORDO
100
AcDbLine
 62
7
  6
CONTINUOUS
 10
31.8272533859
 20
-54.8655118038
 11
31.8272533859
 21
-61.7855894718
  0
LWPOLYLINE
  5
34F
100
AcDbEntity
  8
RACCORDO
100
AcDbPolyline
 62
7
  6
CONTINUOUS
 90
5
 70
0
 10
32.1312914629
 20
-50.4074183724
 10
32.131291194
 20
-50.3850811371
 10
32.1309372513
 20
-50.3625228902
 10
32.1302291133
 20
-50.3397509938
 10
32.1291664294
 20
-50.3167739174
  0
LWPOLYLINE
  5
350
100
AcDbEntity
  8
RACCORDO
100
AcDbPolyline
 62
7
  6
CONTINUOUS
 90
5
 70
0
 10
32.1312914629
 20
14.910203771
 10
32.131291194
 20
14.9325410063
 10
32.1309372513
 20
14.9550992532
 10
32.1302291133
 20
14.9778711496
 10
32.1291664294
 20
15.000848226
  0
LWPOLYLINE
  5
351
100
AcDbEntity
  8
RACCORDO
100
AcDbPolyline
 62
253
  6
CONTINUOUS
 90
5
 70
0
 10
32.1459346684
 20
14.9125013262
 10
32.1459346568
 20
14.8893805151
 10
32.1455688497
 20
14.8664767887
 10
32.1448372499
 20
14.8437940244
 10
32.1437398546
 20
14.8213283448
  0
LWPOLYLINE
  5
352
100
AcDbEntity
  8
RACCORDO
100
AcDbPolyline
 62
253
  6
CONTINUOUS
 90
5
 70
0
 10
32.1459346684
 20
-50.4051208172
 10
32.1459346568
 20
-50.4282416283
 10
32.1455688497
 20
-50.4511453547
 10
32.1448372499
 20
-50.473828119
 10
32.1437398546
 20
-50.4962937986
  0
LINE
  5
353
100
AcDbEntity
  8
DRAFT
100
AcDbLine
 62
7
  6
CONTINUOUS
 10
32.3135883164
 20
-12.0982948126
 11
32.3135883164
 21
-18.2218218886
  0
LINE
  5
354
100
AcDbEntity
  8
RACCORDO
100
AcDbLine
 62
253
  6
CONTINUOUS
 10
32.3274596464
 20
-54.667229479
 11
32.3274596464
 21
-53.0211026574
  0
LINE
  5
355
100
AcDbEntity
  8
RACCORDO
100
AcDbLine
 62
253
  6
CONTINUOUS
 10
32.3274596464
 20
-48.0218790833
 11
32.3274596464
 21
-46.3757522617
  0
LINE
  5
356
100
AcDbEntity
  8
RACCORDO
100
AcDbLine
 62
253
  6
CONTINUOUS
 10
32.3274596464
 20
10.6503926644
 11
32.3274596464
 21
12.296519486
  0
LINE
  5
357
100
AcDbEntity
  8
RACCORDO
100
AcDbLine
 62
253
  6
CONTINUOUS
 10
32.3274596464
 20
17.2957430601
 11
32.3274596464
 21
18.9418698817
  0
LINE
  5
358
100
AcDbEntity
  8
RACCORDO
100
AcDbLine
 62
253
  6
CONTINUOUS
 10
32.7479891919
 20
-54.8000421814
 11
32.7479891919
 21
-53.1684462228
  0
LINE
  5
359
100
AcDbEntity
  8
RACCORDO
100
AcDbLine
 62
253
  6
CONTINUOUS
 10
32.7479891919
 20
-47.8878889575
 11
32.7479891919
 21
-46.2471774744
  0
LINE
  5
35A
100
AcDbEntity
  8
RACCORDO
100
AcDbLine
 62
253
  6
CONTINUOUS
 10
32.7479891919
 20
10.517579962
 11
32.7479891919
 21
12.1491759206
  0
LINE
  5
35B
100
AcDbEntity
  8
RACCORDO
100
AcDbLine
 62
253
  6
CONTINUOUS
 10
32.7479891919
 20
17.4297331859
 11
32.7479891919
 21
19.070444669
  0
LINE
  5
35C
100
AcDbEntity
  8
RACCORDO
100
AcDbLine
 62
7
  6
CONTINUOUS
 10
33.0083525028
 20
31.5658654656
 11
33.0083525028
 21
23.1152794969
  0
LINE
  5
35D
100
AcDbEntity
  8
DRAFT
100
AcDbLine
 62
7
  6
CONTINUOUS
 10
33.0083525028
 20
10.6600430386
 11
33.0083525028
 21
-11.6686422181
  0
LINE
  5
35E
100
AcDbEntity
  8
DRAFT
100
AcDbLine
 62
7
  6
CONTINUOUS
 10
33.0083525028
 20
-17.8206723774
 11
33.0083525028
 21
-42.2023426465
  0
LINE
  5
35F
100
AcDbEntity
  8
RACCORDO
100
AcDbLine
 62
7
  6
CONTINUOUS
 10
33.0083525028
 20
-54.6575791048
 11
33.0083525028
 21
-61.055180061
  0
LINE
  5
360
100
AcDbEntity
  8
0
100
AcDbLine
 62
7
  6
CONTINUOUS
 10
33.2768222874
 20
14.9359037438
 11
33.2768222874
 21
14.5337733978
  0
LINE
  5
361
100
AcDbEntity
  8
0
100
AcDbLine
 62
7
  6
CONTINUOUS
 10
33.2768222874
 20
-50.3817185076
 11
33.2768222874
 21
-50.7838487456
  0
LINE
  5
362
100
AcDbEntity
  8
RACCORDO
100
AcDbLine
 62
7
  6
CONTINUOUS
 10
33.3273155295
 20
-54.187085506
 11
33.3273155295
 21
-52.92429417
  0
LINE
  5
363
100
AcDbEntity
  8
RACCORDO
100
AcDbLine
 62
7
  6
CONTINUOUS
 10
33.3273155295
 20
-47.5586642515
 11
33.3273155295
 21
-46.2140965357
  0
LINE
  5
364
100
AcDbEntity
  8
RACCORDO
100
AcDbLine
 62
7
  6
CONTINUOUS
 10
33.3273155295
 20
11.1305366375
 11
33.3273155295
 21
12.3933279734
  0
LINE
  5
365
100
AcDbEntity
  8
RACCORDO
100
AcDbLine
 62
7
  6
CONTINUOUS
 10
33.3273155295
 20
17.7589578919
 11
33.3273155295
 21
19.1035256078
  0
LWPOLYLINE
  5
366
100
AcDbEntity
  8
RACCORDO
100
AcDbPolyline
 62
7
  6
CONTINUOUS
 90
12
 70
0
 10
29.686666339
 20
21.4961969636
 10
29.6868421363
 20
21.5075226319
 10
29.6881648625
 20
21.5285887717
 10
29.6908451216
 20
21.5492374009
 10
29.6949536556
 20
21.5693951599
 10
29.7005895181
 20
21.5888175728
 10
29.7078362313
 20
21.6074626884
 10
29.716761693
 20
21.6252137845
 10
29.7274679634
 20
21.6416951052
 10
29.7400333719
 20
21.656706176
 10
29.7544904094
 20
21.6702271265
 10
29.7708643988
 20
21.682135459
  0
LWPOLYLINE
  5
367
100
AcDbEntity
  8
RACCORDO
100
AcDbPolyline
 62
7
  6
CONTINUOUS
 90
12
 70
0
 10
29.686666339
 20
-43.8214251799
 10
29.6868421363
 20
-43.8100995116
 10
29.6881648625
 20
-43.7890333717
 10
29.6908451216
 20
-43.7683847425
 10
29.6949536556
 20
-43.7482269835
 10
29.7005895181
 20
-43.7288045707
 10
29.7078362313
 20
-43.710159455
 10
29.716761693
 20
-43.692408359
 10
29.7274679634
 20
-43.6759270382
 10
29.7400333719
 20
-43.6609159674
 10
29.7544904094
 20
-43.6473950169
 10
29.7708643988
 20
-43.6354866845
  0
LINE
  5
368
100
AcDbEntity
  8
RACCORDO
100
AcDbLine
 62
7
  6
CONTINUOUS
 10
32.1309386725
 20
14.8880939193
 11
32.1312914629
 21
14.910203771
  0
LINE
  5
369
100
AcDbEntity
  8
RACCORDO
100
AcDbLine
 62
7
  6
CONTINUOUS
 10
32.1309386725
 20
-50.4295282241
 11
32.1312914629
 21
-50.4074183724
  0
LWPOLYLINE
  5
36A
100
AcDbEntity
  8
RACCORDO
100
AcDbPolyline
 62
253
  6
CONTINUOUS
 90
13
 70
0
 10
27.7075842213
 20
-60.8468792813
 10
27.7070799406
 20
-60.8727778551
 10
27.7050832016
 20
-60.897623057
 10
27.7016218023
 20
-60.9213221564
 10
27.6967370735
 20
-60.9437629673
 10
27.6904627529
 20
-60.9648959655
 10
27.6828088889
 20
-60.9847193558
 10
27.6738111259
 20
-61.0031519308
 10
27.6635082605
 20
-61.020122606
 10
27.651894362
 20
-61.0356226204
 10
27.6390114916
 20
-61.0495668161
 10
27.6248967392
 20
-61.0618879158
 10
27.6095144899
 20
-61.0725685205
  0
LWPOLYLINE
  5
36B
100
AcDbEntity
  8
RACCORDO
100
AcDbPolyline
 62
253
  6
CONTINUOUS
 90
7
 70
0
 10
28.1281137668
 20
-60.8489982389
 10
28.1275164773
 20
-60.8779744541
 10
28.1258324231
 20
-60.9060393416
 10
28.1230616044
 20
-60.9331929012
 10
28.1192040211
 20
-60.9594351331
 10
28.1142596733
 20
-60.9847660371
 10
28.1082285609
 20
-61.0091856133
  0
LWPOLYLINE
  5
36C
100
AcDbEntity
  8
RACCORDO
100
AcDbPolyline
 62
253
  6
CONTINUOUS
 90
8
 70
0
 10
31.1394828303
 20
16.7439173266
 10
31.1393848313
 20
16.7395266517
 10
31.1397662783
 20
16.7354714133
 10
31.1406220129
 20
16.7318064519
 10
31.1419404629
 20
16.7285813299
 10
31.1437037987
 20
16.7258396618
 10
31.1458881743
 20
16.7236185241
 10
31.1469350163
 20
16.7228411017
  0
LWPOLYLINE
  5
36D
100
AcDbEntity
  8
RACCORDO
100
AcDbPolyline
 62
253
  6
CONTINUOUS
 90
8
 70
0
 10
31.1394828303
 20
-48.5737048168
 10
31.1393848313
 20
-48.5780954918
 10
31.1397662783
 20
-48.5821507301
 10
31.1406220129
 20
-48.5858156915
 10
31.1419404629
 20
-48.5890408135
 10
31.1437037987
 20
-48.5917824816
 10
31.1458881743
 20
-48.5940036193
 10
31.1469350163
 20
-48.5947810417
  0
LWPOLYLINE
  5
36E
100
AcDbEntity
  8
RACCORDO
100
AcDbPolyline
 62
253
  6
CONTINUOUS
 90
49
 70
0
 10
33.3475329655
 20
14.2549860437
 10
33.3442585097
 20
14.1165575555
 10
33.3344442066
 20
13.9823076016
 10
33.3181178806
 20
13.8526262459
 10
33.2953259228
 20
13.7278887629
 10
33.2661340122
 20
13.6084594668
 10
33.2306277601
 20
13.4946899391
 10
33.1889109051
 20
13.3869116633
 10
33.141104232
 20
13.2854359145
 10
33.0873466769
 20
13.190557251
 10
33.0277946755
 20
13.1025513148
 10
32.9626209721
 20
13.0216729743
 10
32.8920139586
 20
12.9481559914
 10
32.8161779536
 20
12.8822134521
 10
32.735333466
 20
12.8240374207
 10
32.6497158243
 20
12.7737972829
 10
32.5595739807
 20
12.7316389589
 10
32.4651692719
 20
12.6976845171
 10
32.3667753304
 20
12.6720323497
 10
32.2646775327
 20
12.6547569203
 10
32.1591724142
 20
12.6459084655
 10
32.0505664082
 20
12.6455126942
 10
31.9391748527
 20
12.6535707313
 10
31.8253209986
 20
12.6700591693
 10
31.7093352668
 20
12.6949301491
 10
31.5915543264
 20
12.7281114764
 10
31.4723200493
 20
12.7695068373
 10
31.3519784559
 20
12.8189961074
 10
31.2308787639
 20
12.8764356959
 10
31.1093725705
 20
12.9416588553
 10
30.9878127596
 20
13.0144761562
 10
30.866552397
 20
13.0946760594
 10
30.7459432332
 20
13.1820258775
 10
30.6263348873
 20
13.2762724237
 10
30.5080740733
 20
13.3771426134
 10
30.3915045645
 20
13.4843433396
 10
30.2769656819
 20
13.5975625222
 10
30.1647905918
 20
13.7164706229
 10
30.0553040866
 20
13.8407231394
 10
29.9488226974
 20
13.9699608605
 10
29.8456552161
 20
14.1038092034
 10
29.7461015272
 20
14.2418793102
 10
29.6504505281
 20
14.3837707031
 10
29.5589789044
 20
14.5290734376
 10
29.4719534468
 20
14.6773640306
 10
29.3896295788
 20
14.8282065956
 10
29.3122466895
 20
14.9811612517
 10
29.2400279972
 20
15.1357857064
 10
29.1731826577
 20
15.2916310827
  0
LWPOLYLINE
  5
36F
100
AcDbEntity
  8
RACCORDO
100
AcDbPolyline
 62
253
  6
CONTINUOUS
 90
49
 70
0
 10
33.3475329655
 20
-51.0626360997
 10
33.3442585058
 20
-51.2010646689
 10
33.3344441911
 20
-51.3353146987
 10
33.3181178457
 20
-51.4649961244
 10
33.295325861
 20
-51.5897336708
 10
33.2661339161
 20
-51.7091630232
 10
33.2306276224
 20
-51.8229325993
 10
33.1889107189
 20
-51.9307109154
 10
33.1411039905
 20
-52.0321866958
 10
33.0873463738
 20
-52.1270653816
 10
33.0277943049
 20
-52.2150713306
 10
32.9626205282
 20
-52.2959496738
 10
32.8920134363
 20
-52.3694666494
 10
32.8161773482
 20
-52.4354091709
 10
32.7353327733
 20
-52.4935851738
 10
32.6497150407
 20
-52.5438252725
 10
32.5595731031
 20
-52.5859835465
 10
32.4651682978
 20
-52.6199379275
 10
32.3667742578
 20
-52.6455900234
 10
32.2646763604
 20
-52.6628653706
 10
32.1591711415
 20
-52.6717137329
 10
32.0505650351
 20
-52.6721094014
 10
31.9391733798
 20
-52.6640512516
 10
31.8253194273
 20
-52.6475626913
 10
31.7093335992
 20
-52.6226915802
 10
31.5915525654
 20
-52.589510113
 10
31.4723181984
 20
-52.548114604
 10
31.3519765189
 20
-52.4986251781
 10
31.2308767447
 20
-52.4411854266
 10
31.1093704742
 20
-52.3759620976
 10
30.9878105931
 20
-52.3031446219
 10
30.8665501693
 20
-52.2229445409
 10
30.7459409524
 20
-52.1355945416
 10
30.6263325586
 20
-52.0413478095
 10
30.5080716983
 20
-51.9404774257
 10
30.3915021499
 20
-51.8332765009
 10
30.2769632442
 20
-51.7200571254
 10
30.1647881588
 20
-51.6011488516
 10
30.0553016741
 20
-51.4768961723
 10
29.9488202975
 20
-51.3476582714
 10
29.8456527934
 20
-51.2138096904
 10
29.74609908
 20
-51.0757393234
 10
29.6504481182
 20
-50.9338477416
 10
29.5589765569
 20
-50.7885448813
 10
29.4719512123
 20
-50.640254243
 10
29.3896276432
 20
-50.4894118658
 10
29.3122452624
 20
-50.3364576965
 10
29.2400272144
 20
-50.1818339901
 10
29.1731826275
 20
-50.0259896297
  0
LWPOLYLINE
  5
370
100
AcDbEntity
  8
RACCORDO
100
AcDbPolyline
 62
253
  6
CONTINUOUS
 90
12
 70
0
 10
29.0183570411
 20
18.6226799882
 10
29.0179517083
 20
18.6101382918
 10
29.0179205278
 20
18.5975259537
 10
29.0182603697
 20
18.584859358
 10
29.0189677141
 20
18.5721583974
 10
29.0200462377
 20
18.5594450183
 10
29.0214890535
 20
18.5467539167
 10
29.0232916436
 20
18.5340855946
 10
29.0254656386
 20
18.5214113561
 10
29.0280027937
 20
18.5087846774
 10
29.0309049955
 20
18.4961884507
 10
29.0342179066
 20
18.4834939791
  0
LWPOLYLINE
  5
371
100
AcDbEntity
  8
RACCORDO
100
AcDbPolyline
 62
253
  6
CONTINUOUS
 90
4
 70
0
 10
30.0015881959
 20
16.1931979909
 10
30.0022995609
 20
16.2152573929
 10
30.0033663116
 20
16.2370928443
 10
30.004788092
 20
16.2586970574
  0
LWPOLYLINE
  5
372
100
AcDbEntity
  8
RACCORDO
100
AcDbPolyline
 62
253
  6
CONTINUOUS
 90
12
 70
0
 10
29.0183570411
 20
-46.6949421552
 10
29.0179517083
 20
-46.7074838516
 10
29.0179205278
 20
-46.7200961898
 10
29.0182603697
 20
-46.7327627854
 10
29.0189677141
 20
-46.745463746
 10
29.0200462377
 20
-46.7581771252
 10
29.0214890535
 20
-46.7708682267
 10
29.0232916436
 20
-46.7835365488
 10
29.0254656386
 20
-46.7962107873
 10
29.0280027937
 20
-46.8088374661
 10
29.0309049955
 20
-46.8214336927
 10
29.0342179066
 20
-46.8341281643
  0
LWPOLYLINE
  5
373
100
AcDbEntity
  8
RACCORDO
100
AcDbPolyline
 62
253
  6
CONTINUOUS
 90
4
 70
0
 10
30.0015881959
 20
-49.1244241525
 10
30.0022995609
 20
-49.1023647505
 10
30.0033663116
 20
-49.0805292991
 10
30.004788092
 20
-49.0589250861
  0
LINE
  5
374
100
AcDbEntity
  8
RACCORDO
100
AcDbLine
 62
7
  6
CONTINUOUS
 10
32.1302335337
 20
14.8662187722
 11
32.1309386725
 21
14.8880939193
  0
LINE
  5
375
100
AcDbEntity
  8
RACCORDO
100
AcDbLine
 62
7
  6
CONTINUOUS
 10
32.1302335337
 20
-50.4514033712
 11
32.1309386725
 21
-50.4295282241
  0
LWPOLYLINE
  5
376
100
AcDbEntity
  8
RACCORDO
100
AcDbPolyline
 62
7
  6
CONTINUOUS
 90
6
 70
0
 10
28.9882071163
 20
15.3387575668
 10
28.9885504414
 20
15.3493374892
 10
28.9894534977
 20
15.359888325
 10
28.9909145385
 20
15.3703814466
 10
28.9929327678
 20
15.3807987171
 10
28.9945265739
 20
15.3874552321
  0
LWPOLYLINE
  5
377
100
AcDbEntity
  8
RACCORDO
100
AcDbPolyline
 62
7
  6
CONTINUOUS
 90
6
 70
0
 10
28.9882071174
 20
-49.9788625467
 10
28.9885504561
 20
-49.968282548
 10
28.9894535342
 20
-49.9577316369
 10
28.9909146047
 20
-49.9472384416
 10
28.9929328717
 20
-49.9368210996
 10
28.9945265769
 20
-49.9301650422
  0
LWPOLYLINE
  5
378
100
AcDbEntity
  8
RACCORDO
100
AcDbPolyline
 62
7
  6
CONTINUOUS
 90
12
 70
0
 10
31.8272533859
 20
-61.7855894718
 10
31.8262657708
 20
-61.8154616938
 10
31.8233147085
 20
-61.8440661541
 10
31.8184062517
 20
-61.871239002
 10
31.8115458877
 20
-61.89685707
 10
31.8027689774
 20
-61.9207323248
 10
31.7921663353
 20
-61.9426370346
 10
31.779854612
 20
-61.9624028653
 10
31.7658833144
 20
-61.9800114826
 10
31.7502498249
 20
-61.9954643756
 10
31.7329544379
 20
-62.0087027062
 10
31.728058876
 20
-62.0118494942
  0
LWPOLYLINE
  5
379
100
AcDbEntity
  8
RACCORDO
100
AcDbPolyline
 62
7
  6
CONTINUOUS
 90
19
 70
0
 10
33.3273155295
 20
19.1035256078
 10
33.3284252491
 20
19.1331185304
 10
33.3312237456
 20
19.1626115168
 10
33.3357110188
 20
19.1920045669
 10
33.342029837
 20
19.22158098
 10
33.3500374321
 20
19.2510574568
 10
33.3593054995
 20
19.2795840996
 10
33.3697624156
 20
19.3069229943
 10
33.381479804
 20
19.333312055
 10
33.3942442318
 20
19.3586151268
 10
33.408119002
 20
19.3829540561
 10
33.4230408114
 20
19.4062069965
 10
33.4386063181
 20
19.4278722542
 10
33.4548783638
 20
19.4479152385
 10
33.4717941067
 20
19.46637054
 10
33.4887616791
 20
19.4828402372
 10
33.5055837917
 20
19.4971916898
 10
33.5224577338
 20
19.5095575381
 10
33.5393835054
 20
19.5199377822
  0
LWPOLYLINE
  5
37A
100
AcDbEntity
  8
RACCORDO
100
AcDbPolyline
 62
7
  6
CONTINUOUS
 90
19
 70
0
 10
33.3273155295
 20
-46.2140965357
 10
33.3284252491
 20
-46.184503613
 10
33.3312237456
 20
-46.1550106267
 10
33.3357110188
 20
-46.1256175765
 10
33.342029837
 20
-46.0960411635
 10
33.3500374321
 20
-46.0665646867
 10
33.3593054995
 20
-46.0380380438
 10
33.3697624156
 20
-46.0106991491
 10
33.381479804
 20
-45.9843100884
 10
33.3942442318
 20
-45.9590070166
 10
33.408119002
 20
-45.9346680873
 10
33.4230408114
 20
-45.9114151469
 10
33.4386063181
 20
-45.8897498892
 10
33.4548783638
 20
-45.869706905
 10
33.4717941067
 20
-45.8512516035
 10
33.4887616791
 20
-45.8347819062
 10
33.5055837917
 20
-45.8204304537
 10
33.5224577338
 20
-45.8080646053
 10
33.5393835054
 20
-45.7976843613
  0
LWPOLYLINE
  5
37B
100
AcDbEntity
  8
RACCORDO
100
AcDbPolyline
 62
253
  6
CONTINUOUS
 90
16
 70
0
 10
28.1082283323
 20
31.9524965357
 10
28.109364738
 20
31.9784716126
 10
28.1127616723
 20
32.0054809649
 10
28.1183828058
 20
32.0332352402
 10
28.1261679848
 20
32.0614371917
 10
28.1360338608
 20
32.0897845628
 10
28.1478747189
 20
32.1179733239
 10
28.1615636609
 20
32.1457013469
 10
28.1769540307
 20
32.1726716385
 10
28.1938809288
 20
32.1985952227
 10
28.2121629897
 20
32.2231943405
 10
28.2316043286
 20
32.246205424
 10
28.2519966419
 20
32.2673819181
 10
28.2731214349
 20
32.2864969263
 10
28.2947523626
 20
32.3033456416
 10
28.3166576582
 20
32.3177475386
  0
LWPOLYLINE
  5
37C
100
AcDbEntity
  8
RACCORDO
100
AcDbPolyline
 62
253
  6
CONTINUOUS
 90
16
 70
0
 10
30.3982179353
 20
30.6302873935
 10
30.3993543592
 20
30.6562634075
 10
30.4027514548
 20
30.6832734203
 10
30.4083728246
 20
30.7110280384
 10
30.4161582396
 20
30.7392298902
 10
30.4260242844
 20
30.7675768124
 10
30.4378652511
 20
30.7957650875
 10
30.4515542721
 20
30.8234926975
 10
30.4669446789
 20
30.8504625605
 10
30.483871574
 20
30.8763857128
 10
30.5021535975
 20
30.9009844061
 10
30.5215948701
 20
30.9239950822
 10
30.5419870922
 20
30.9451711978
 10
30.563111775
 20
30.9642858655
 10
30.5847425824
 20
30.9811342848
 10
30.6066477552
 20
30.9955359366
  0
LINE
  5
37D
100
AcDbEntity
  8
RACCORDO
100
AcDbLine
 62
7
  6
CONTINUOUS
 10
32.1291769292
 20
14.8445864744
 11
32.1302335337
 21
14.8662187722
  0
LINE
  5
37E
100
AcDbEntity
  8
RACCORDO
100
AcDbLine
 62
7
  6
CONTINUOUS
 10
32.1291769292
 20
-50.4730356691
 11
32.1302335337
 21
-50.4514033712
  0
LWPOLYLINE
  5
37F
100
AcDbEntity
  8
0
100
AcDbPolyline
 62
7
  6
CONTINUOUS
 90
8
 70
0
 10
33.2768222874
 20
14.5337733978
 10
33.2634349187
 20
14.2761011382
 10
33.2234538539
 20
14.0373728517
 10
33.1574197683
 20
13.8208169288
 10
33.0662256597
 20
13.6293619168
 10
32.9511047718
 20
13.4655969163
 10
32.8136139172
 20
13.3317365681
 10
32.6969909484
 20
13.2521101866
  0
LWPOLYLINE
  5
380
100
AcDbEntity
  8
0
100
AcDbPolyline
 62
7
  6
CONTINUOUS
 90
8
 70
0
 10
33.2768222874
 20
-50.7838487456
 10
33.2634349187
 20
-51.0415210052
 10
33.2234538539
 20
-51.2802492917
 10
33.1574197683
 20
-51.4968052146
 10
33.0662256597
 20
-51.6882602267
 10
32.9511047718
 20
-51.8520252271
 10
32.8136139172
 20
-51.9858855753
 10
32.6969909484
 20
-52.0655119568
  0
LWPOLYLINE
  5
381
100
AcDbEntity
  8
0
100
AcDbPolyline
 62
7
  6
CONTINUOUS
 90
6
 70
0
 10
33.029334914
 20
14.3908772901
 10
33.0144677778
 20
14.1283500106
 10
32.9746669382
 20
13.8906978543
 10
32.9099323949
 20
13.6779208211
 10
32.8187282941
 20
13.4878340848
 10
32.7025904896
 20
13.3226224716
  0
LWPOLYLINE
  5
382
100
AcDbEntity
  8
0
100
AcDbPolyline
 62
7
  6
CONTINUOUS
 90
6
 70
0
 10
33.029334914
 20
-50.9267448533
 10
33.0144677778
 20
-51.1892721328
 10
32.9746669382
 20
-51.4269242891
 10
32.9099323949
 20
-51.6397013223
 10
32.8187282941
 20
-51.8297880586
 10
32.7025904896
 20
-51.9949996718
  0
LINE
  5
383
100
AcDbEntity
  8
RACCORDO
100
AcDbLine
 62
253
  6
CONTINUOUS
 10
32.1437398546
 20
14.8213283448
 11
32.1422766636
 21
14.7990797501
  0
LINE
  5
384
100
AcDbEntity
  8
RACCORDO
100
AcDbLine
 62
253
  6
CONTINUOUS
 10
32.1437398546
 20
-50.4962937986
 11
32.1422766636
 21
-50.5185423933
  0
LINE
  5
385
100
AcDbEntity
  8
RACCORDO
100
AcDbLine
 62
7
  6
CONTINUOUS
 10
32.1277698858
 20
14.8232045758
 11
32.1291769292
 21
14.8445864744
  0
LINE
  5
386
100
AcDbEntity
  8
RACCORDO
100
AcDbLine
 62
7
  6
CONTINUOUS
 10
32.1277698858
 20
-50.4944175677
 11
32.1291769292
 21
-50.4730356691
  0
LINE
  5
387
100
AcDbEntity
  8
RACCORDO
100
AcDbLine
 62
7
  6
CONTINUOUS
 10
32.1277698858
 20
14.823204576
 11
32.1277749034
 21
14.8232704764
  0
LINE
  5
388
100
AcDbEntity
  8
RACCORDO
100
AcDbLine
 62
7
  6
CONTINUOUS
 10
32.1277698858
 20
-50.4944175674
 11
32.1277749034
 21
-50.4943516671
  0
LWPOLYLINE
  5
389
100
AcDbEntity
  8
0
100
AcDbPolyline
 62
7
  6
CONTINUOUS
 90
4
 70
0
 10
37.2719756011
 20
17.9020387928
 10
37.2579930992
 20
17.7212914947
 10
37.2229803067
 20
17.564380854
 10
37.1910979914
 20
17.4886764771
  0
LWPOLYLINE
  5
38A
100
AcDbEntity
  8
0
100
AcDbPolyline
 62
7
  6
CONTINUOUS
 90
4
 70
0
 10
37.2719756011
 20
-47.4155833507
 10
37.2579930992
 20
-47.5963306487
 10
37.2229803067
 20
-47.7532412894
 10
37.1910979914
 20
-47.8289456663
  0
LWPOLYLINE
  5
38B
100
AcDbEntity
  8
RACCORDO
100
AcDbPolyline
 62
253
  6
CONTINUOUS
 90
6
 70
0
 10
31.4089374102
 20
15.6423706776
 10
31.408408508
 20
15.6365049798
 10
31.4088986231
 20
15.631385548
 10
31.4103938375
 20
15.6271577607
 10
31.4128516912
 20
15.6239416756
 10
31.4135170135
 20
15.6233781376
  0
LWPOLYLINE
  5
38C
100
AcDbEntity
  8
RACCORDO
100
AcDbPolyline
 62
253
  6
CONTINUOUS
 90
6
 70
0
 10
32.0750362141
 20
15.1221569921
 10
32.0745073121
 20
15.1162913226
 10
32.0749974183
 20
15.1111719042
 10
32.0764926193
 20
15.1069441172
 10
32.07895046
 20
15.1037280224
 10
32.0796158177
 20
15.1031644519
  0
LWPOLYLINE
  5
38D
100
AcDbEntity
  8
RACCORDO
100
AcDbPolyline
 62
253
  6
CONTINUOUS
 90
6
 70
0
 10
31.4089374102
 20
-49.6752514658
 10
31.408408508
 20
-49.6811171636
 10
31.4088986231
 20
-49.6862365954
 10
31.4103938375
 20
-49.6904643828
 10
31.4128516912
 20
-49.6936804678
 10
31.4135170135
 20
-49.6942440058
  0
LWPOLYLINE
  5
38E
100
AcDbEntity
  8
RACCORDO
100
AcDbPolyline
 62
253
  6
CONTINUOUS
 90
6
 70
0
 10
32.0750362141
 20
-50.1954651513
 10
32.0745073121
 20
-50.2013308208
 10
32.0749974183
 20
-50.2064502392
 10
32.0764926193
 20
-50.2106780263
 10
32.07895046
 20
-50.213894121
 10
32.0796158177
 20
-50.2144576915
  0
LWPOLYLINE
  5
38F
100
AcDbEntity
  8
RACCORDO
100
AcDbPolyline
 62
253
  6
CONTINUOUS
 90
22
 70
0
 10
29.9565951942
 20
16.2690125523
 10
29.9569629328
 20
16.272849656
 10
29.9575681092
 20
16.2765949799
 10
29.9584107233
 20
16.2802485241
 10
29.9594796952
 20
16.2838316716
 10
29.960786105
 20
16.2873230392
 10
29.9623631919
 20
16.2906584775
 10
29.9642119071
 20
16.2938408233
 10
29.9663312995
 20
16.2968672398
 10
29.9687517557
 20
16.2996650667
 10
29.9714682888
 20
16.3022373555
 10
29.9744858857
 20
16.3045810548
 10
29.9778498931
 20
16.3066143502
 10
29.9815707639
 20
16.3083492305
 10
29.9856380453
 20
16.3097737069
 10
29.9900657255
 20
16.3107699983
 10
29.9948730053
 20
16.3113368368
 10
30.0000406839
 20
16.3114754903
 10
30.0055251472
 20
16.3110719811
 10
30.0113118571
 20
16.3100883166
 10
30.0174153516
 20
16.3085624895
 10
30.0238356308
 20
16.3064944997
  0
LWPOLYLINE
  5
390
100
AcDbEntity
  8
RACCORDO
100
AcDbPolyline
 62
253
  6
CONTINUOUS
 90
8
 70
0
 10
32.1422766636
 20
14.7990797501
 10
32.1419089266
 20
14.7952426447
 10
32.1413037512
 20
14.7914973195
 10
32.1404611374
 20
14.7878437745
 10
32.1393921649
 20
14.7842606267
 10
32.138085754
 20
14.7807692592
 10
32.1365086658
 20
14.7774338212
 10
32.1346599495
 20
14.7742514759
  0
LWPOLYLINE
  5
391
100
AcDbEntity
  8
RACCORDO
100
AcDbPolyline
 62
253
  6
CONTINUOUS
 90
22
 70
0
 10
29.9565951942
 20
-49.0486095911
 10
29.9569629328
 20
-49.0447724874
 10
29.9575681092
 20
-49.0410271635
 10
29.9584107233
 20
-49.0373736194
 10
29.9594796952
 20
-49.0337904719
 10
29.960786105
 20
-49.0302991042
 10
29.9623631919
 20
-49.0269636659
 10
29.9642119071
 20
-49.0237813201
 10
29.9663312995
 20
-49.0207549037
 10
29.9687517557
 20
-49.0179570768
 10
29.9714682888
 20
-49.0153847879
 10
29.9744858857
 20
-49.0130410886
 10
29.9778498931
 20
-49.0110077932
 10
29.9815707639
 20
-49.0092729129
 10
29.9856380453
 20
-49.0078484365
 10
29.9900657255
 20
-49.0068521452
 10
29.9948730053
 20
-49.0062853066
 10
30.0000406839
 20
-49.0061466532
 10
30.0055251472
 20
-49.0065501624
 10
30.0113118571
 20
-49.0075338268
 10
30.0174153516
 20
-49.0090596539
 10
30.0238356308
 20
-49.0111276438
  0
LWPOLYLINE
  5
392
100
AcDbEntity
  8
RACCORDO
100
AcDbPolyline
 62
253
  6
CONTINUOUS
 90
8
 70
0
 10
32.1422766636
 20
-50.5185423933
 10
32.1419089266
 20
-50.5223794988
 10
32.1413037512
 20
-50.526124824
 10
32.1404611374
 20
-50.5297783689
 10
32.1393921649
 20
-50.5333615167
 10
32.138085754
 20
-50.5368528842
 10
32.1365086658
 20
-50.5401883222
 10
32.1346599495
 20
-50.5433706676
  0
LWPOLYLINE
  5
393
100
AcDbEntity
  8
0
100
AcDbPolyline
 62
7
  6
CONTINUOUS
 90
7
 70
0
 10
37.0538931595
 20
17.9121287112
 10
37.0555155402
 20
17.9281889449
 10
37.0571229191
 20
17.9476965179
 10
37.0581790244
 20
17.9641430957
 10
37.059105817
 20
17.984099815
 10
37.0596607408
 20
18.0042891636
 10
37.0598435667
 20
18.024521172
  0
LWPOLYLINE
  5
394
100
AcDbEntity
  8
0
100
AcDbPolyline
 62
7
  6
CONTINUOUS
 90
7
 70
0
 10
37.0538931595
 20
-47.4054934322
 10
37.0555155402
 20
-47.3894331985
 10
37.0571229191
 20
-47.3699256255
 10
37.0581790244
 20
-47.3534790477
 10
37.059105817
 20
-47.3335223285
 10
37.0596607408
 20
-47.3133329798
 10
37.0598435667
 20
-47.2931009714
  0
LINE
  5
395
100
AcDbEntity
  8
RACCORDO
100
AcDbLine
 62
7
  6
CONTINUOUS
 10
32.1277749601
 20
14.8232704722
 11
32.1275990625
 21
14.8216998491
  0
LINE
  5
396
100
AcDbEntity
  8
RACCORDO
100
AcDbLine
 62
7
  6
CONTINUOUS
 10
32.1277749601
 20
-50.4943516712
 11
32.1275990625
 21
-50.4959222944
  0
LWPOLYLINE
  5
397
100
AcDbEntity
  8
RACCORDO
100
AcDbPolyline
 62
253
  6
CONTINUOUS
 90
10
 70
0
 10
30.9593890248
 20
14.32417497
 10
30.9599651382
 20
14.3288416998
 10
30.9610115811
 20
14.3337213818
 10
30.9625142025
 20
14.3387480266
 10
30.9644526819
 20
14.3438536575
 10
30.9668008051
 20
14.3489692296
 10
30.9695268177
 20
14.3540255633
 10
30.9725938551
 20
14.3589542804
 10
30.975960441
 20
14.3636887283
 10
30.9795810482
 20
14.3681648815
  0
LWPOLYLINE
  5
398
100
AcDbEntity
  8
RACCORDO
100
AcDbPolyline
 62
253
  6
CONTINUOUS
 90
10
 70
0
 10
30.9593890248
 20
-50.9934471734
 10
30.9599651382
 20
-50.9887804436
 10
30.9610115811
 20
-50.9839007616
 10
30.9625142025
 20
-50.9788741169
 10
30.9644526819
 20
-50.973768486
 10
30.9668008051
 20
-50.9686529139
 10
30.9695268177
 20
-50.9635965801
 10
30.9725938551
 20
-50.958667863
 10
30.975960441
 20
-50.9539334151
 10
30.9795810482
 20
-50.9494572619
  0
LINE
  5
399
100
AcDbEntity
  8
RACCORDO
100
AcDbLine
 62
253
  6
CONTINUOUS
 10
30.7758529985
 20
16.1071126886
 11
30.8933041905
 21
16.8084177179
  0
LINE
  5
39A
100
AcDbEntity
  8
RACCORDO
100
AcDbLine
 62
253
  6
CONTINUOUS
 10
30.844128477
 20
16.0993027846
 11
30.9615796691
 21
16.8006078145
  0
LINE
  5
39B
100
AcDbEntity
  8
RACCORDO
100
AcDbLine
 62
7
  6
CONTINUOUS
 10
31.3090609784
 20
14.989652084
 11
31.1916097874
 21
14.2883470605
  0
LINE
  5
39C
100
AcDbEntity
  8
RACCORDO
100
AcDbLine
 62
253
  6
CONTINUOUS
 10
31.3230188547
 20
14.9609796143
 11
31.2055676638
 21
14.2596745911
  0
LINE
  5
39D
100
AcDbEntity
  8
RACCORDO
100
AcDbLine
 62
253
  6
CONTINUOUS
 10
30.7758529985
 20
-49.2105094548
 11
30.8933041905
 21
-48.5092044255
  0
LINE
  5
39E
100
AcDbEntity
  8
RACCORDO
100
AcDbLine
 62
253
  6
CONTINUOUS
 10
30.844128477
 20
-49.2183193588
 11
30.9615796691
 21
-48.5170143289
  0
LINE
  5
39F
100
AcDbEntity
  8
RACCORDO
100
AcDbLine
 62
7
  6
CONTINUOUS
 10
31.3090609784
 20
-50.3279700594
 11
31.1916097874
 21
-51.0292750829
  0
LINE
  5
3A0
100
AcDbEntity
  8
RACCORDO
100
AcDbLine
 62
253
  6
CONTINUOUS
 10
31.3230188547
 20
-50.3566425291
 11
31.2055676638
 21
-51.0579475523
  0
LWPOLYLINE
  5
3A1
100
AcDbEntity
  8
RACCORDO
100
AcDbPolyline
 62
7
  6
CONTINUOUS
 90
6
 70
0
 10
29.1403658718
 20
16.0421243872
 10
29.1279526187
 20
15.9741467285
 10
29.0958837309
 20
15.8163608431
 10
29.0597832999
 20
15.6539927912
 10
29.0197732012
 20
15.4872613568
 10
28.9945279434
 20
15.3874694654
  0
LWPOLYLINE
  5
3A2
100
AcDbEntity
  8
RACCORDO
100
AcDbPolyline
 62
7
  6
CONTINUOUS
 90
6
 70
0
 10
29.1403658779
 20
-49.2754977833
 10
29.1279528451
 20
-49.3434737118
 10
29.0958839398
 20
-49.5012603875
 10
29.0597839218
 20
-49.663627131
 10
29.0197736216
 20
-49.8303586895
 10
28.9945282111
 20
-49.9301509046
  0
LINE
  5
3A3
100
AcDbEntity
  8
RACCORDO
100
AcDbLine
 62
253
  6
CONTINUOUS
 10
28.9942268908
 20
15.3858188508
 11
28.9945264926
 21
15.3874549167
  0
LINE
  5
3A4
100
AcDbEntity
  8
RACCORDO
100
AcDbLine
 62
253
  6
CONTINUOUS
 10
28.9942268947
 20
-49.9318014414
 11
28.9945264952
 21
-49.9301653591
  0
LWPOLYLINE
  5
3A5
100
AcDbEntity
  8
RACCORDO
100
AcDbPolyline
 62
7
  6
CONTINUOUS
 90
4
 70
0
 10
32.1275990625
 20
14.8216998491
 10
32.1274667324
 20
14.8210083438
 10
32.1273656931
 20
14.8206167076
 10
32.1274559519
 20
14.8208185634
  0
LWPOLYLINE
  5
3A6
100
AcDbEntity
  8
RACCORDO
100
AcDbPolyline
 62
7
  6
CONTINUOUS
 90
4
 70
0
 10
32.1275990625
 20
-50.4959222944
 10
32.1274667324
 20
-50.4966137996
 10
32.1273656931
 20
-50.4970054358
 10
32.1274559519
 20
-50.49680358
  0
LWPOLYLINE
  5
3A7
100
AcDbEntity
  8
RACCORDO
100
AcDbPolyline
 62
7
  6
CONTINUOUS
 90
5
 70
0
 10
31.1915980515
 20
14.2882761782
 10
31.1911840174
 20
14.2861599162
 10
31.1906008212
 20
14.2839240227
 10
31.1900095395
 20
14.2822066427
 10
31.1897373561
 20
14.2815585359
  0
LWPOLYLINE
  5
3A8
100
AcDbEntity
  8
RACCORDO
100
AcDbPolyline
 62
7
  6
CONTINUOUS
 90
5
 70
0
 10
31.1915980515
 20
-51.0293459653
 10
31.1911840174
 20
-51.0314622272
 10
31.1906008212
 20
-51.0336981207
 10
31.1900095395
 20
-51.0354155007
 10
31.1897373561
 20
-51.0360636075
  0
LWPOLYLINE
  5
3A9
100
AcDbEntity
  8
RACCORDO
100
AcDbPolyline
 62
253
  6
CONTINUOUS
 90
16
 70
0
 10
30.0047880891
 20
16.2586970958
 10
30.0052047294
 20
16.2606406471
 10
30.0058185119
 20
16.2625754111
 10
30.0066316546
 20
16.2644910417
 10
30.007639431
 20
16.2663747651
 10
30.0088508305
 20
16.2682172383
 10
30.0102886727
 20
16.2700121774
 10
30.0119557401
 20
16.2717465548
 10
30.013853178
 20
16.2734079961
 10
30.0160015549
 20
16.2749892866
 10
30.0183985943
 20
16.2764731824
 10
30.0210498723
 20
16.2778483039
 10
30.0239887186
 20
16.2791106592
 10
30.0272262355
 20
16.2802432825
 10
30.0307552414
 20
16.2812233221
 10
30.0340757129
 20
16.281938887
  0
LWPOLYLINE
  5
3AA
100
AcDbEntity
  8
RACCORDO
100
AcDbPolyline
 62
253
  6
CONTINUOUS
 90
16
 70
0
 10
30.0047880891
 20
-49.0589250476
 10
30.0052047294
 20
-49.0569814963
 10
30.0058185119
 20
-49.0550467323
 10
30.0066316546
 20
-49.0531311018
 10
30.007639431
 20
-49.0512473783
 10
30.0088508305
 20
-49.0494049051
 10
30.0102886727
 20
-49.047609966
 10
30.0119557401
 20
-49.0458755886
 10
30.013853178
 20
-49.0442141473
 10
30.0160015549
 20
-49.0426328568
 10
30.0183985943
 20
-49.041148961
 10
30.0210498723
 20
-49.0397738396
 10
30.0239887186
 20
-49.0385114843
 10
30.0272262355
 20
-49.0373788609
 10
30.0307552414
 20
-49.0363988213
 10
30.0340757129
 20
-49.0356832565
  0
LINE
  5
3AB
100
AcDbEntity
  8
RACCORDO
100
AcDbLine
 62
253
  6
CONTINUOUS
 10
30.7735195219
 20
16.0963751876
 11
30.7758529985
 21
16.1071126886
  0
LINE
  5
3AC
100
AcDbEntity
  8
RACCORDO
100
AcDbLine
 62
253
  6
CONTINUOUS
 10
31.3253523313
 20
14.9717171153
 11
31.3230188547
 21
14.9609796143
  0
LINE
  5
3AD
100
AcDbEntity
  8
RACCORDO
100
AcDbLine
 62
253
  6
CONTINUOUS
 10
30.7735195219
 20
-49.2212469558
 11
30.7758529985
 21
-49.2105094548
  0
LINE
  5
3AE
100
AcDbEntity
  8
RACCORDO
100
AcDbLine
 62
253
  6
CONTINUOUS
 10
31.3253523313
 20
-50.3459050282
 11
31.3230188547
 21
-50.3566425291
  0
LWPOLYLINE
  5
3AF
100
AcDbEntity
  8
RACCORDO
100
AcDbPolyline
 62
253
  6
CONTINUOUS
 90
19
 70
0
 10
30.8933041905
 20
16.8084177179
 10
30.8948651536
 20
16.8155453811
 10
30.8967964457
 20
16.8220445648
 10
30.8990980666
 20
16.8279152689
 10
30.9018101764
 20
16.8331494424
 10
30.904892615
 20
16.8377551363
 10
30.9082249031
 20
16.8417565039
 10
30.911812717
 20
16.8451446745
 10
30.9156503802
 20
16.8479285186
 10
30.9196003842
 20
16.8501588016
 10
30.9236286219
 20
16.8518223906
 10
30.9277692003
 20
16.8529324183
 10
30.9319869315
 20
16.853579049
 10
30.9362498685
 20
16.8537925813
 10
30.9405899583
 20
16.8535427166
 10
30.9450678533
 20
16.8528287224
 10
30.9497037709
 20
16.8516503547
 10
30.9544774937
 20
16.8500078576
 10
30.9593890217
 20
16.8479012311
  0
LWPOLYLINE
  5
3B0
100
AcDbEntity
  8
RACCORDO
100
AcDbPolyline
 62
253
  6
CONTINUOUS
 90
4
 70
0
 10
31.2055676638
 20
14.2596745911
 10
31.2040067006
 20
14.252546927
 10
31.2020754085
 20
14.2460477424
 10
31.1997737876
 20
14.2401770372
  0
LWPOLYLINE
  5
3B1
100
AcDbEntity
  8
RACCORDO
100
AcDbPolyline
 62
253
  6
CONTINUOUS
 90
19
 70
0
 10
30.8933041905
 20
-48.5092044255
 10
30.8948651536
 20
-48.5020767623
 10
30.8967964457
 20
-48.4955775787
 10
30.8990980666
 20
-48.4897068746
 10
30.9018101764
 20
-48.4844727011
 10
30.904892615
 20
-48.4798670071
 10
30.9082249031
 20
-48.4758656395
 10
30.911812717
 20
-48.472477469
 10
30.9156503802
 20
-48.4696936248
 10
30.9196003842
 20
-48.4674633418
 10
30.9236286219
 20
-48.4657997529
 10
30.9277692003
 20
-48.4646897251
 10
30.9319869315
 20
-48.4640430944
 10
30.9362498685
 20
-48.4638295621
 10
30.9405899583
 20
-48.4640794269
 10
30.9450678533
 20
-48.464793421
 10
30.9497037709
 20
-48.4659717887
 10
30.9544774937
 20
-48.4676142858
 10
30.9593890217
 20
-48.4697209123
  0
LWPOLYLINE
  5
3B2
100
AcDbEntity
  8
RACCORDO
100
AcDbPolyline
 62
253
  6
CONTINUOUS
 90
4
 70
0
 10
31.2055676638
 20
-51.0579475523
 10
31.2040067006
 20
-51.0650752164
 10
31.2020754085
 20
-51.0715744011
 10
31.1997737876
 20
-51.0774451062
  0
LWPOLYLINE
  5
3B3
100
AcDbEntity
  8
RACCORDO
100
AcDbPolyline
 62
253
  6
CONTINUOUS
 90
10
 70
0
 10
30.0238356334
 20
15.9459353153
 10
30.025368523
 20
15.9523806747
 10
30.0278618747
 20
15.9592227043
 10
30.0312448884
 20
15.9662671114
 10
30.0354214999
 20
15.9733138557
 10
30.0402731074
 20
15.9801628274
 10
30.0456619383
 20
15.9866195301
 10
30.0514349642
 20
15.9925006077
 10
30.0574282472
 20
15.9976390514
 10
30.0634715933
 20
16.0018889397
  0
LWPOLYLINE
  5
3B4
100
AcDbEntity
  8
RACCORDO
100
AcDbPolyline
 62
253
  6
CONTINUOUS
 90
10
 70
0
 10
30.6899344431
 20
15.4257216253
 10
30.6914673432
 20
15.4321670189
 10
30.693960711
 20
15.4390090763
 10
30.6973437413
 20
15.4460535011
 10
30.7015203651
 20
15.4531002503
 10
30.7063719773
 20
15.4599492149
 10
30.711760805
 20
15.4664059026
 10
30.7175338199
 20
15.4722869604
 10
30.7235270835
 20
15.4774253819
 10
30.729570403
 20
15.4816752497
  0
LWPOLYLINE
  5
3B5
100
AcDbEntity
  8
RACCORDO
100
AcDbPolyline
 62
253
  6
CONTINUOUS
 90
10
 70
0
 10
30.0238356334
 20
-49.3716868281
 10
30.025368523
 20
-49.3652414687
 10
30.0278618747
 20
-49.3583994391
 10
30.0312448884
 20
-49.351355032
 10
30.0354214999
 20
-49.3443082877
 10
30.0402731074
 20
-49.337459316
 10
30.0456619383
 20
-49.3310026134
 10
30.0514349642
 20
-49.3251215357
 10
30.0574282472
 20
-49.319983092
 10
30.0634715933
 20
-49.3157332037
  0
LWPOLYLINE
  5
3B6
100
AcDbEntity
  8
RACCORDO
100
AcDbPolyline
 62
253
  6
CONTINUOUS
 90
10
 70
0
 10
30.6899344431
 20
-49.8919005181
 10
30.6914673432
 20
-49.8854551245
 10
30.693960711
 20
-49.8786130671
 10
30.6973437413
 20
-49.8715686424
 10
30.7015203651
 20
-49.8645218932
 10
30.7063719773
 20
-49.8576729285
 10
30.711760805
 20
-49.8512162409
 10
30.7175338199
 20
-49.8453351831
 10
30.7235270835
 20
-49.8401967615
 10
30.729570403
 20
-49.8359468938
  0
LWPOLYLINE
  5
3B7
100
AcDbEntity
  8
RACCORDO
100
AcDbPolyline
 62
253
  6
CONTINUOUS
 90
4
 70
0
 10
29.2564370297
 20
15.6077531955
 10
29.2434625527
 20
15.5555856402
 10
29.2096095913
 20
15.4259951169
 10
29.1731826577
 20
15.2916310827
  0
LWPOLYLINE
  5
3B8
100
AcDbEntity
  8
RACCORDO
100
AcDbPolyline
 62
253
  6
CONTINUOUS
 90
4
 70
0
 10
29.2564372648
 20
-49.7098697094
 10
29.2434553899
 20
-49.7620675029
 10
29.2096057555
 20
-49.8916445363
 10
29.1731826275
 20
-50.0259896297
  0
LINE
  5
3B9
100
AcDbEntity
  8
RACCORDO
100
AcDbLine
 62
253
  6
CONTINUOUS
 10
32.1024102058
 20
14.8246313344
 11
32.1307774828
 21
14.8830934161
  0
LINE
  5
3BA
100
AcDbEntity
  8
RACCORDO
100
AcDbLine
 62
7
  6
CONTINUOUS
 10
32.1274647758
 20
14.8208362207
 11
32.1274255009
 21
14.8207561902
  0
LWPOLYLINE
  5
3BB
100
AcDbEntity
  8
RACCORDO
100
AcDbPolyline
 62
253
  6
CONTINUOUS
 90
17
 70
0
 10
32.1274255009
 20
14.8207561902
 10
32.1272436691
 20
14.820402188
 10
32.1265171747
 20
14.8192108873
 10
32.125674344
 20
14.8181583647
 10
32.1247119786
 20
14.8172618644
 10
32.1236280201
 20
14.8165361272
 10
32.1224169071
 20
14.8159925413
 10
32.1210672406
 20
14.8156477612
 10
32.1195724416
 20
14.8155213641
 10
32.1179313657
 20
14.8156313947
 10
32.1161389928
 20
14.8159973992
 10
32.1141955977
 20
14.816646857
 10
32.1121045204
 20
14.8175966734
 10
32.1098691524
 20
14.8188510101
 10
32.1074985573
 20
14.8204247664
 10
32.1050067843
 20
14.8223448022
 10
32.1024102059
 20
14.8246313343
  0
LINE
  5
3BC
100
AcDbEntity
  8
RACCORDO
100
AcDbLine
 62
7
  6
CONTINUOUS
 10
31.1897373561
 20
14.2815585359
 11
31.1892446705
 21
14.2806074024
  0
LINE
  5
3BD
100
AcDbEntity
  8
RACCORDO
100
AcDbLine
 62
253
  6
CONTINUOUS
 10
31.1997737876
 20
14.2401770372
 11
31.1970616779
 21
14.2349428626
  0
LWPOLYLINE
  5
3BE
100
AcDbEntity
  8
RACCORDO
100
AcDbPolyline
 62
253
  6
CONTINUOUS
 90
3
 70
0
 10
30.7655907641
 20
16.0780312364
 10
30.7700987771
 20
16.0866813702
 10
30.7735195219
 20
16.0963751876
  0
LWPOLYLINE
  5
3BF
100
AcDbEntity
  8
RACCORDO
100
AcDbPolyline
 62
253
  6
CONTINUOUS
 90
17
 70
0
 10
29.0467821909
 20
14.9357706996
 10
29.0416177592
 20
14.9278423077
 10
29.0370464984
 20
14.9204441501
 10
29.0330441785
 20
14.9135641729
 10
29.0295885739
 20
14.9071987241
 10
29.0266456096
 20
14.9013248767
 10
29.0241764909
 20
14.89590356
 10
29.0221549349
 20
14.890923404
 10
29.0205561024
 20
14.8863729153
 10
29.0193527561
 20
14.8822171914
 10
29.0185214275
 20
14.8784447952
 10
29.0180398236
 20
14.8750472456
 10
29.0178892698
 20
14.8719970433
 10
29.0180483076
 20
14.8692831996
 10
29.0184961681
 20
14.8668985127
 10
29.019217025
 20
14.8648218117
 10
29.0194034286
 20
14.8644189273
  0
LWPOLYLINE
  5
3C0
100
AcDbEntity
  8
RACCORDO
100
AcDbPolyline
 62
253
  6
CONTINUOUS
 90
15
 70
0
 10
31.1970616779
 20
14.2349428626
 10
31.1939792394
 20
14.2303371675
 10
31.1906469513
 20
14.2263357987
 10
31.1870591372
 20
14.2229476268
 10
31.1832214736
 20
14.2201637813
 10
31.1792714692
 20
14.2179334971
 10
31.1752432306
 20
14.2162699072
 10
31.1711026512
 20
14.2151598786
 10
31.1668849193
 20
14.2145132474
 10
31.1626219818
 20
14.2142997145
 10
31.1582818917
 20
14.214549579
 10
31.1538039968
 20
14.2152635733
 10
31.1491680794
 20
14.2164419417
 10
31.1443943571
 20
14.21808444
 10
31.1394828299
 20
14.2201910681
  0
LINE
  5
3C1
100
AcDbEntity
  8
RACCORDO
100
AcDbLine
 62
253
  6
CONTINUOUS
 10
32.1346599495
 20
14.7742514759
 11
32.1325405558
 21
14.7712250601
  0
LINE
  5
3C2
100
AcDbEntity
  8
RACCORDO
100
AcDbLine
 62
253
  6
CONTINUOUS
 10
31.630841712
 20
15.2574408181
 11
31.7211022539
 21
15.3831584427
  0
LWPOLYLINE
  5
3C3
100
AcDbEntity
  8
RACCORDO
100
AcDbPolyline
 62
253
  6
CONTINUOUS
 90
3
 70
0
 10
31.4887791108
 20
15.1598700399
 10
31.5112168574
 20
15.1904623698
 10
31.6769871847
 20
15.4176116838
  0
LINE
  5
3C4
100
AcDbEntity
  8
RACCORDO
100
AcDbLine
 62
253
  6
CONTINUOUS
 10
30.9795810487
 20
14.3681648813
 11
31.2712555907
 21
14.7639148391
  0
LINE
  5
3C5
100
AcDbEntity
  8
RACCORDO
100
AcDbLine
 62
253
  6
CONTINUOUS
 10
30.9615796652
 20
14.4463201504
 11
31.2930288058
 21
14.8939234406
  0
LINE
  5
3C6
100
AcDbEntity
  8
RACCORDO
100
AcDbLine
 62
7
  6
CONTINUOUS
 10
31.1892446705
 20
14.2806074024
 11
31.1894221538
 21
14.2808283518
  0
LWPOLYLINE
  5
3C7
100
AcDbEntity
  8
RACCORDO
100
AcDbPolyline
 62
7
  6
CONTINUOUS
 90
6
 70
0
 10
31.3405663364
 20
15.0555539046
 10
31.3317905683
 20
15.0451861614
 10
31.3241268542
 20
15.0333933793
 10
31.3177300929
 20
15.0202771814
 10
31.3127400961
 20
15.0059886569
 10
31.3090671485
 20
14.9896782398
  0
LWPOLYLINE
  5
3C8
100
AcDbEntity
  8
RACCORDO
100
AcDbPolyline
 62
253
  6
CONTINUOUS
 90
21
 70
0
 10
29.0467821909
 20
18.124786472
 10
29.1143018358
 20
18.204471001
 10
29.1867949443
 20
18.2766311545
 10
29.2642615165
 20
18.3412669325
 10
29.3469825223
 20
18.3985590395
 10
29.4346769918
 20
18.4483267711
 10
29.5265020146
 20
18.4900280136
 10
29.622437238
 20
18.5235471419
 10
29.7225030147
 20
18.5489997811
 10
29.8259174923
 20
18.5661906926
 10
29.9327256595
 20
18.5750576073
 10
30.0428825277
 20
18.5756627944
 10
30.1554712791
 20
18.5679978227
 10
30.2705034021
 20
18.5519940042
 10
30.3879674083
 20
18.5277200269
 10
30.5069120145
 20
18.4953735235
 10
30.6273523438
 20
18.4548881715
 10
30.7492732732
 20
18.4063302934
 10
30.8716781501
 20
18.3500964892
 10
30.9945698858
 20
18.2861243021
 10
31.117945569
 20
18.2144761889
  0
LWPOLYLINE
  5
3C9
100
AcDbEntity
  8
RACCORDO
100
AcDbPolyline
 62
253
  6
CONTINUOUS
 90
20
 70
0
 10
29.1731817115
 20
18.0387703993
 10
29.2400241557
 20
18.117423747
 10
29.3122403573
 20
18.1886517595
 10
29.3896212642
 20
18.2522469462
 10
29.4719439392
 20
18.3080246222
 10
29.5589689029
 20
18.3558211795
 10
29.6504402157
 20
18.3954956401
 10
29.7460909793
 20
18.4269326284
 10
29.8456446552
 20
18.4500416077
 10
29.948812134
 20
18.464755642
 10
30.0552934202
 20
18.471032179
 10
30.1647798144
 20
18.4688532489
 10
30.276954861
 20
18.458225161
 10
30.3914938098
 20
18.4391784584
 10
30.5080634546
 20
18.4117683294
 10
30.6263244302
 20
18.3760745398
 10
30.7459329375
 20
18.3322009742
 10
30.8665422825
 20
18.2802749206
 10
30.9878028688
 20
18.2204469119
 10
31.0906391912
 20
18.1637889127
  0
LINE
  5
3CA
100
AcDbEntity
  8
RACCORDO
100
AcDbLine
 62
253
  6
CONTINUOUS
 10
31.1546461298
 20
14.2670845105
 11
31.1961060712
 21
14.315194523
  0
LWPOLYLINE
  5
3CB
100
AcDbEntity
  8
RACCORDO
100
AcDbPolyline
 62
253
  6
CONTINUOUS
 90
14
 70
0
 10
32.1325405558
 20
14.7712250601
 10
32.1301200983
 20
14.7684272339
 10
32.1274035637
 20
14.7658549458
 10
32.1243859653
 20
14.7635112474
 10
32.1210219562
 20
14.7614779529
 10
32.1173010834
 20
14.7597430735
 10
32.1132337999
 20
14.758318598
 10
32.1088061175
 20
14.7573223076
 10
32.1039988355
 20
14.7567554701
 10
32.0988311546
 20
14.7566168177
 10
32.0933466891
 20
14.757020328
 10
32.0875599769
 20
14.7580039934
 10
32.0814564801
 20
14.7595298214
 10
32.0750361987
 20
14.7615978121
  0
LWPOLYLINE
  5
3CC
100
AcDbEntity
  8
RACCORDO
100
AcDbPolyline
 62
253
  6
CONTINUOUS
 90
14
 70
0
 10
31.189419984
 20
14.2808260802
 10
31.1882650509
 20
14.279516785
 10
31.185319157
 20
14.2764865549
 10
31.1823506478
 20
14.2738501978
 10
31.1793994271
 20
14.2716156499
 10
31.1765082509
 20
14.2697836234
 10
31.1736771411
 20
14.2683225138
 10
31.1708775412
 20
14.2671951255
 10
31.1681257656
 20
14.2663859197
 10
31.165432009
 20
14.2658918117
 10
31.1627412426
 20
14.265711729
 10
31.1600329201
 20
14.2658510146
 10
31.157332732
 20
14.2663087443
 10
31.1546461586
 20
14.2670844858
  0
LWPOLYLINE
  5
3CD
100
AcDbEntity
  8
RACCORDO
100
AcDbPolyline
 62
253
  6
CONTINUOUS
 90
39
 70
0
 10
32.9931546152
 20
12.8730928075
 10
32.9207510029
 20
12.7995493395
 10
32.8434571463
 20
12.7336393973
 10
32.7612330626
 20
12.6754254081
 10
32.6741187347
 20
12.6248449448
 10
32.5828245962
 20
12.582310499
 10
32.4873164598
 20
12.5478878629
 10
32.3876285128
 20
12.5215112443
 10
32.2845737515
 20
12.5033957584
 10
32.1781246401
 20
12.4936089641
 10
32.0683087143
 20
12.4920833025
 10
31.9560215776
 20
12.4988312111
 10
31.841243051
 20
12.5139203373
 10
31.7239933135
 20
12.5372830337
 10
31.6052285052
 20
12.5687287957
 10
31.4849361292
 20
12.608323777
 10
31.3631286825
 20
12.6560018239
 10
31.2407997964
 20
12.7113739712
 10
31.1179455523
 20
12.7745029053
 10
30.9945698687
 20
12.8453259398
 10
30.8716781328
 20
12.9232660499
 10
30.7492732559
 20
13.0083823305
 10
30.6273523266
 20
13.1006156866
 10
30.5069119974
 20
13.1992118089
 10
30.3879673915
 20
13.3042195561
 10
30.2705033857
 20
13.4155900695
 10
30.1554712631
 20
13.532422464
 10
30.0428825121
 20
13.6547721609
 10
29.9327256443
 20
13.7825837389
 10
29.8259174775
 20
13.9147900486
 10
29.7225030001
 20
14.0514014078
 10
29.6224372236
 20
14.1924074987
 10
29.5265020006
 20
14.336710219
 10
29.4346769785
 20
14.4844486967
 10
29.3469825099
 20
14.6354838036
 10
29.2642615058
 20
14.7883000528
 10
29.1867949364
 20
14.9423922819
 10
29.1143018314
 20
15.0982656531
 10
29.0467821909
 20
15.2559201666
  0
LWPOLYLINE
  5
3CE
100
AcDbEntity
  8
RACCORDO
100
AcDbPolyline
 62
253
  6
CONTINUOUS
 90
3
 70
0
 10
30.75310894
 20
16.063581557
 10
30.7598934861
 20
16.0702845549
 10
30.7655907641
 20
16.0780312364
  0
LWPOLYLINE
  5
3CF
100
AcDbEntity
  8
0
100
AcDbPolyline
 62
7
  6
CONTINUOUS
 90
3
 70
0
 10
32.7025904896
 20
13.3226224716
 10
32.5661265438
 20
13.1888404604
 10
32.4492312392
 20
13.1096876083
  0
LWPOLYLINE
  5
3D0
100
AcDbEntity
  8
0
100
AcDbPolyline
 62
7
  6
CONTINUOUS
 90
133
 70
0
 10
3.9062796981
 20
-10.0264410797
 10
3.9995511053
 20
-9.9458291419
 10
4.0902166877
 20
-9.8611312918
 10
4.1782744356
 20
-9.7723487169
 10
4.263808424
 20
-9.6793983924
 10
4.346730776
 20
-9.5823655925
 10
4.4267814633
 20
-9.4815040095
 10
4.5039292748
 20
-9.3768365557
 10
4.5782015949
 20
-9.2683425894
 10
4.6494261099
 20
-9.1562105795
 10
4.7176127094
 20
-9.0403950195
 10
4.7827479332
 20
-8.9209435395
 10
4.8446243442
 20
-8.798184374
 10
4.9031885013
 20
-8.6721659255
 10
4.9584905373
 20
-8.542841763
 10
5.0104783762
 20
-8.4103978715
 10
5.0591518265
 20
-8.2748236348
 10
5.1045082906
 20
-8.1361313338
 10
5.1464921778
 20
-7.9945412431
 10
5.1851000813
 20
-7.8500767144
 10
5.2203331401
 20
-7.7027157516
 10
5.2521426896
 20
-7.5526105427
 10
5.2805342496
 20
-7.3997195812
 10
5.3055005853
 20
-7.2440853998
 10
5.3269740187
 20
-7.0859861751
 10
5.3449352115
 20
-6.9253906852
 10
5.3594023545
 20
-6.7623308389
 10
5.3703642007
 20
-6.5971794274
 10
5.3778118187
 20
-6.4300000901
 10
5.3817536033
 20
-6.260729509
 10
5.38220445
 20
-6.089549947
 10
5.3791670426
 20
-5.9164168764
 10
5.3726387724
 20
-5.7413747799
 10
5.3626267481
 20
-5.5647393459
 10
5.3491342241
 20
-5.3865523033
 10
5.3321586263
 20
-5.2067715158
 10
5.3116984716
 20
-5.0255867827
 10
5.2877265411
 20
-4.8429059175
 10
5.2602713446
 20
-4.6588203339
 10
5.2294151261
 20
-4.4737951526
 10
5.1951572445
 20
-4.2878858808
 10
5.157500185
 20
-4.1010359081
 10
5.1165309797
 20
-3.9135421198
 10
5.0722599836
 20
-3.7254299581
 10
5.0246791942
 20
-3.536672575
 10
4.9738481959
 20
-3.3474883679
 10
4.9197685674
 20
-3.1578667291
 10
4.8624415802
 20
-2.9678165657
 10
4.8019264409
 20
-2.7775854978
 10
4.7382306076
 20
-2.5872142461
 10
4.6713499395
 20
-2.3966601138
 10
4.6013263238
 20
-2.2060455499
 10
4.5281323051
 20
-2.0152997985
 10
4.4517991355
 20
-1.8244913581
 10
4.3724567862
 20
-1.6339515475
 10
4.2901236069
 20
-1.4437137347
 10
4.2047853475
 20
-1.25374212
 10
4.1165230583
 20
-1.0642642849
 10
4.0252831796
 20
-0.8751736512
 10
3.9311237491
 20
-0.6865741476
 10
3.8342930731
 20
-0.4990092011
 10
3.7348094802
 20
-0.3125430214
 10
3.6326591039
 20
-0.1271087675
 10
3.5280416874
 20
0.056946546
 10
3.4209614259
 20
0.2396074275
 10
3.3114186031
 20
0.4208920003
 10
3.1996068288
 20
0.6005035131
 10
3.0855229812
 20
0.7784486602
 10
2.9691746123
 20
0.9547233403
 10
2.8507710306
 20
1.12901442
 10
2.7303207901
 20
1.3013105607
 10
2.6078196058
 20
1.4716255886
 10
2.4834571863
 20
1.639683914
 10
2.3571796223
 20
1.8055351906
 10
2.2290449594
 20
1.9691321633
 10
2.0994103044
 20
2.1300535619
 10
1.9683457949
 20
2.2882020359
 10
1.8357847249
 20
2.4436769098
 10
1.70187841
 20
2.5963516141
 10
1.566605217
 20
2.746259129
 10
1.4299900584
 20
2.89336835
 10
1.2922536684
 20
3.0374563443
 10
1.1534415723
 20
3.1784856306
 10
1.0135110497
 20
3.3164952796
 10
0.8725501243
 20
3.4513769837
 10
0.7305357816
 20
3.5831455115
 10
0.5874937595
 20
3.7117876284
 10
0.4435849252
 20
3.8371528536
 10
0.2988063063
 20
3.9592353528
 10
0.1531632465
 20
4.078042282
 10
0.006828685
 20
4.1934424098
 10
-0.1402256151
 20
4.3054604002
 10
-0.2879694162
 20
4.414072689
 10
-0.4361426094
 20
4.5190753859
 10
-0.584784864
 20
4.6204879073
 10
-0.7338551423
 20
4.7182915651
 10
-0.882973101
 20
4.8122248328
 10
-1.0320873352
 20
4.9022439337
 10
-1.1812489434
 20
4.9883927561
 10
-1.3302321278
 20
5.0705408141
 10
-1.47909599
 20
5.1487062977
 10
-1.6277816171
 20
5.2228708426
 10
-1.7758870128
 20
5.2928486584
 10
-1.9233464024
 20
5.3586015304
 10
-2.0702269089
 20
5.4201668342
 10
-2.2163266717
 20
5.4774717124
 10
-2.3616467287
 20
5.5305184069
 10
-2.5061878425
 20
5.5793035821
 10
-2.6497482576
 20
5.6237457179
 10
-2.7923181644
 20
5.6638283306
 10
-2.9339096726
 20
5.6995665302
 10
-3.0743543709
 20
5.7309259239
 10
-3.2136231816
 20
5.7578901064
 10
-3.3517478789
 20
5.7804738901
 10
-3.4886516261
 20
5.7986895407
 10
-3.6243787841
 20
5.8125495054
 10
-3.7588877604
 20
5.822039711
 10
-3.8919731186
 20
5.8271324564
 10
-4.0236165815
 20
5.8278328661
 10
-4.1538396662
 20
5.82413393
 10
-4.2824970272
 20
5.8159895203
 10
-4.4096601127
 20
5.8033778801
 10
-4.5352608859
 20
5.7863187923
 10
-4.6589453222
 20
5.7648281307
 10
-4.7806571432
 20
5.7388895309
 10
-4.9004567962
 20
5.7085169644
 10
-5.0181659007
 20
5.6737714977
 10
-5.1337932293
 20
5.6346470051
 10
-5.2473343218
 20
5.5911471487
 10
-5.3585912966
 20
5.5433474829
 10
-5.4675613955
 20
5.4912464316
 10
-5.5742518676
 20
5.4348430168
 10
-5.618401964
 20
5.4098521327
  0
LWPOLYLINE
  5
3D1
100
AcDbEntity
  8
DRAFT
100
AcDbPolyline
 62
7
  6
CONTINUOUS
 90
30
 70
0
 10
36.2537243521
 20
12.408370615
 10
36.343747088
 20
12.4660882729
 10
36.4739307374
 20
12.5615898182
 10
36.5973994387
 20
12.6672003633
 10
36.7142566391
 20
12.7831053261
 10
36.8243988914
 20
12.9091192886
 10
36.9270060881
 20
13.0443106363
 10
37.0219265265
 20
13.1885864165
 10
37.1093119093
 20
13.3420395818
 10
37.1887972369
 20
13.5040173744
 10
37.2604100719
 20
13.6747128554
 10
37.3241228516
 20
13.8539329637
 10
37.3794878884
 20
14.0404457589
 10
37.4264168503
 20
14.2341742496
 10
37.4649980692
 20
14.4351954271
 10
37.4950488531
 20
14.6425083251
 10
37.516537941
 20
14.8562176281
 10
37.5294965939
 20
15.0762186517
 10
37.5338359024
 20
15.3011963767
 10
37.5294965939
 20
15.5311850264
 10
37.516537941
 20
15.7661503775
 10
37.4950488531
 20
16.0046747406
 10
37.4649980692
 20
16.2466895306
 10
37.4264168503
 20
16.4922633326
 10
37.3794878884
 20
16.7401842121
 10
37.3241228516
 20
16.990631164
 10
37.2604100719
 20
17.2434251934
 10
37.1887972369
 20
17.4968173812
 10
37.1093119093
 20
17.7505828377
 10
37.0219265265
 20
18.0049464527
  0
LWPOLYLINE
  5
3D2
100
AcDbEntity
  8
DRAFT
100
AcDbPolyline
 62
7
  6
CONTINUOUS
 90
53
 70
0
 10
35.0666567561
 20
11.6887232866
 10
35.1348904928
 20
11.7318743584
 10
35.2719222613
 20
11.8301202836
 10
35.4017407102
 20
11.9394145651
 10
35.5242623582
 20
12.0596885693
 10
35.6393270848
 20
12.1908529167
 10
35.7465530219
 20
12.3325447102
 10
35.8455523433
 20
12.4842497114
 10
35.936047386
 20
12.6454520832
 10
36.0179808843
 20
12.8159512723
 10
36.0913177891
 20
12.9956759109
 10
36.1559515183
 20
13.1844923636
 10
36.2116383703
 20
13.3818338971
 10
36.2581680053
 20
13.5869534272
 10
36.2954299197
 20
13.7991555237
 10
36.323429974
 20
14.0182143167
 10
36.3421592061
 20
14.2440612179
 10
36.3515597103
 20
14.4765215259
 10
36.3515597103
 20
14.7148669047
 10
36.3421592061
 20
14.9581826793
 10
36.323429974
 20
15.2056576283
 10
36.2954299197
 20
15.4570501821
 10
36.2581680053
 20
15.7122814034
 10
36.2116383703
 20
15.9711321896
 10
36.1559515183
 20
16.232779504
 10
36.0913177891
 20
16.4962333671
 10
36.0179808843
 20
16.7606456251
 10
35.936047386
 20
17.0257595642
 10
35.8455523433
 20
17.2914633431
 10
35.7465530219
 20
17.5574902792
 10
35.6393270848
 20
17.8230038972
 10
35.5242623582
 20
18.0870421065
 10
35.4017407102
 20
18.3488010387
 10
35.2719222613
 20
18.608006411
 10
35.1348904928
 20
18.8644931877
 10
34.990781481
 20
19.1179513655
 10
34.8400013425
 20
19.3676139446
 10
34.6830551438
 20
19.6126427651
 10
34.5204114699
 20
19.8523488027
 10
34.3522949127
 20
20.0864420126
 10
34.1788678299
 20
20.3146981048
 10
34.0003602021
 20
20.5367818596
 10
33.8172499459
 20
20.7520670291
 10
33.6300818907
 20
20.9599110005
 10
33.4393507397
 20
21.1597880611
 10
33.2453580835
 20
21.3514053212
 10
33.0483746406
 20
21.534497367
 10
32.848732395
 20
21.7087398581
 10
32.6469151175
 20
21.8736949973
 10
32.4434261322
 20
22.0289490706
 10
32.2387170163
 20
22.1741645035
 10
32.033184033
 20
22.3090671137
 10
31.8272533859
 20
22.4333817556
  0
LINE
  5
3D3
100
AcDbEntity
  8
DRAFT
100
AcDbLine
 62
7
  6
CONTINUOUS
 10
33.0083525028
 20
-11.6686422181
 11
32.3135883164
 21
-12.0982948126
  0
LINE
  5
3D4
100
AcDbEntity
  8
DRAFT
100
AcDbLine
 62
7
  6
CONTINUOUS
 10
36.2537187852
 20
12.4083801008
 11
35.0666567561
 21
11.6887232866
  0
LWPOLYLINE
  5
3D5
100
AcDbEntity
  8
RACCORDO
100
AcDbPolyline
 62
253
  6
CONTINUOUS
 90
42
 70
0
 10
34.1250528067
 20
11.1693434837
 10
34.2709777469
 20
11.2572741873
 10
34.4001243037
 20
11.3493499814
 10
34.5229561604
 20
11.4513188032
 10
34.6392483443
 20
11.5629940126
 10
34.748783203
 20
11.6841663269
 10
34.8513577823
 20
11.8146098295
 10
34.9467850766
 20
11.9540852119
 10
35.0348908653
 20
12.1023370837
 10
35.1155129543
 20
12.2590922138
 10
35.1885027619
 20
12.4240613684
 10
35.2537265771
 20
12.5969423507
 10
35.3110642874
 20
12.7774174924
 10
35.3604097428
 20
12.9651534728
 10
35.4016717481
 20
13.1598038535
 10
35.4347742072
 20
13.3610101999
 10
35.4596559543
 20
13.5684014048
 10
35.4762709558
 20
13.7815937274
 10
35.4845886694
 20
14.0001937364
 10
35.4845938913
 20
14.2237987947
 10
35.4762867258
 20
14.4519962791
 10
35.4596827185
 20
14.6843643845
 10
35.4348125899
 20
14.9204758017
 10
35.4017218549
 20
15.1598982535
 10
35.3604713268
 20
15.402190546
 10
35.3111368786
 20
15.6469060716
 10
35.2538085628
 20
15.8935966928
 10
35.1885905861
 20
16.1418114596
 10
35.1156035304
 20
16.3910892168
 10
35.0349842885
 20
16.6409622524
 10
34.9468811536
 20
16.8909716772
 10
34.8514573989
 20
17.1406548434
 10
34.7488949683
 20
17.3895380864
 10
34.6393894914
 20
17.6371516245
 10
34.5231396471
 20
17.8830508351
 10
34.4003505593
 20
18.1268031113
 10
34.2712545822
 20
18.3679476354
 10
34.1360835163
 20
18.6060518305
 10
33.9950533936
 20
18.8407298616
 10
33.8484087138
 20
19.0715637963
 10
33.6964265092
 20
19.2981068969
 10
33.5393835054
 20
19.5199377822
  0
LINE
  5
3D6
100
AcDbEntity
  8
DRAFT
100
AcDbLine
 62
7
  6
CONTINUOUS
 10
34.9876717836
 20
11.6431183534
 11
35.0666567561
 21
11.6887232866
  0
LINE
  5
3D7
100
AcDbEntity
  8
DRAFT
100
AcDbLine
 62
7
  6
CONTINUOUS
 10
33.0083525028
 20
-17.8206723774
 11
32.3135883164
 21
-18.2218218886
  0
LWPOLYLINE
  5
3D8
100
AcDbEntity
  8
0
100
AcDbPolyline
 62
7
  6
CONTINUOUS
 90
21
 70
0
 10
-0.7554485197
 20
-12.6757210367
 10
-0.762593022
 20
-12.679674517
 10
-0.7768399589
 20
-12.6865812232
 10
-0.7916688991
 20
-12.6925131121
 10
-0.8070670964
 20
-12.6974741591
 10
-0.8229849572
 20
-12.7014569187
 10
-0.839440499
 20
-12.7044636864
 10
-0.856415555
 20
-12.7064920804
 10
-0.8738062739
 20
-12.7075276489
 10
-0.8916070517
 20
-12.7075713683
 10
-0.9098233644
 20
-12.7066221885
 10
-0.9283680089
 20
-12.7046626339
 10
-0.9472407253
 20
-12.7016931221
 10
-0.9664416652
 20
-12.6977131731
 10
-0.98588427
 20
-12.6927039808
 10
-1.005618063
 20
-12.6866427605
 10
-1.0255934315
 20
-12.6795522454
 10
-1.0455751675
 20
-12.6714819376
 10
-1.0654848856
 20
-12.6624483479
 10
-1.0854009776
 20
-12.6524349692
 10
-1.1053234421
 20
-12.6414418009
  0
LWPOLYLINE
  5
3D9
100
AcDbEntity
  8
0
100
AcDbPolyline
 62
7
  6
CONTINUOUS
 90
40
 70
0
 10
3.3225399699
 20
-11.0648127547
 10
3.3064815518
 20
-11.0732670321
 10
3.2896785488
 20
-11.0805977524
 10
3.272254883
 20
-11.0866931726
 10
3.2542010277
 20
-11.0915173195
 10
3.2355266971
 20
-11.0951060554
 10
3.2164156794
 20
-11.0974375946
 10
3.1969040265
 20
-11.0985018681
 10
3.1769558258
 20
-11.0983088627
 10
3.1566468798
 20
-11.0968668997
 10
3.1359732038
 20
-11.0941805492
 10
3.1149389088
 20
-11.0902451667
 10
3.0936319145
 20
-11.0850552671
 10
3.072018742
 20
-11.0785806174
 10
3.0501329742
 20
-11.0708513895
 10
3.0281630743
 20
-11.0619527347
 10
3.0061271257
 20
-11.0518817518
 10
2.9840070749
 20
-11.0406413246
 10
2.9619371201
 20
-11.0283253183
 10
2.939951084
 20
-11.0149609235
 10
2.9180151217
 20
-11.000520963
 10
2.8961618986
 20
-10.9850177686
 10
2.8743391988
 20
-10.9684064328
 10
2.8525992147
 20
-10.9507318772
 10
2.8311311835
 20
-10.9321412012
 10
2.8099337525
 20
-10.91261442
 10
2.7890081768
 20
-10.8921715761
 10
2.768547537
 20
-10.8710198504
 10
2.7485839347
 20
-10.8491795451
 10
2.7290851057
 20
-10.826630454
 10
2.7101475346
 20
-10.8035190232
 10
2.6917903317
 20
-10.7798624379
 10
2.6739942073
 20
-10.7556436187
 10
2.6567980286
 20
-10.7309576248
 10
2.6401660792
 20
-10.7057482781
 10
2.6241339068
 20
-10.6800718564
 10
2.6088472529
 20
-10.654192114
 10
2.5943546266
 20
-10.6281970115
 10
2.5806073261
 20
-10.6019987021
 10
2.5676052644
 20
-10.5755972372
  0
LINE
  5
3DA
100
AcDbEntity
  8
RACCORDO
100
AcDbLine
 62
253
  6
CONTINUOUS
 10
30.004788092
 20
16.2586970574
 11
30.0671718134
 21
16.2705462806
  0
LINE
  5
3DB
100
AcDbEntity
  8
0
100
AcDbLine
 62
7
  6
CONTINUOUS
 10
30.059486433
 20
18.0854657853
 11
29.868286047
 21
18.0499998097
  0
LWPOLYLINE
  5
3DC
100
AcDbEntity
  8
RACCORDO
100
AcDbPolyline
 62
7
  6
CONTINUOUS
 90
3
 70
0
 10
32.6835219527
 20
12.136248591
 10
32.7120618494
 20
12.1414644828
 10
32.7806957961
 20
12.1561960597
  0
LWPOLYLINE
  5
3DD
100
AcDbEntity
  8
RACCORDO
100
AcDbPolyline
 62
253
  6
CONTINUOUS
 90
10
 70
0
 10
29.0467821909
 20
15.2559081335
 10
29.0577181172
 20
15.2577833265
 10
29.0697356855
 20
15.2601339144
 10
29.0827040843
 20
15.263010078
 10
29.0964301787
 20
15.2665194498
 10
29.1108060559
 20
15.2706335158
 10
29.125820447
 20
15.2751941172
 10
29.1413608291
 20
15.280168768
 10
29.157206441
 20
15.2856427798
 10
29.1731826506
 20
15.2916309893
  0
LWPOLYLINE
  5
3DE
100
AcDbEntity
  8
RACCORDO
100
AcDbPolyline
 62
7
  6
CONTINUOUS
 90
17
 70
0
 10
32.6835242473
 20
12.1362637171
 10
32.6798333886
 20
12.1356373339
 10
32.6549939225
 20
12.1329712736
 10
32.6295077599
 20
12.1327388142
 10
32.6035919532
 20
12.1347238018
 10
32.577476431
 20
12.1389171817
 10
32.5513777691
 20
12.1452862377
 10
32.5254745511
 20
12.1535690909
 10
32.499960347
 20
12.1637229931
 10
32.4750139805
 20
12.1756959416
 10
32.4507728511
 20
12.189207571
 10
32.4273902844
 20
12.2041929536
 10
32.4050047066
 20
12.2205878829
 10
32.3837144013
 20
12.2381125746
 10
32.363624722
 20
12.256625699
 10
32.3448445175
 20
12.2761208649
 10
32.3274596464
 20
12.296519486
  0
LWPOLYLINE
  5
3DF
100
AcDbEntity
  8
RACCORDO
100
AcDbPolyline
 62
253
  6
CONTINUOUS
 90
3
 70
0
 10
27.4277379497
 20
32.3960986157
 10
27.3897783526
 20
32.3899549445
 10
27.3540846786
 20
32.383744339
  0
LWPOLYLINE
  5
3E0
100
AcDbEntity
  8
RACCORDO
100
AcDbPolyline
 62
7
  6
CONTINUOUS
 90
16
 70
0
 10
33.4901758254
 20
10.9315514895
 10
33.4717941067
 20
10.9288074517
 10
33.4548783638
 20
10.9283991085
 10
33.4386063181
 20
10.930296269
 10
33.4230408114
 20
10.9346036023
 10
33.408119002
 20
10.9412164393
 10
33.3942442318
 20
10.9500828743
 10
33.381479804
 20
10.9611516538
 10
33.3697624156
 20
10.9744740314
 10
33.3593054995
 20
10.9901518627
 10
33.3500374321
 20
11.0083431906
 10
33.342029837
 20
11.0288899723
 10
33.3357110188
 20
11.051419935
 10
33.3312237456
 20
11.0758089881
 10
33.3284252491
 20
11.1021812222
 10
33.3273155295
 20
11.1305366375
  0
LWPOLYLINE
  5
3E1
100
AcDbEntity
  8
RACCORDO
100
AcDbPolyline
 62
7
  6
CONTINUOUS
 90
6
 70
0
 10
30.0339050154
 20
16.2819100298
 10
30.0337933011
 20
16.2818955941
 10
30.0342944616
 20
16.2818909893
 10
30.0354892604
 20
16.2817695581
 10
30.03722084
 20
16.2814413324
 10
30.0393923989
 20
16.2808555518
  0
LINE
  5
3E2
100
AcDbEntity
  8
RACCORDO
100
AcDbLine
 62
253
  6
CONTINUOUS
 10
30.0634715927
 20
16.0018889401
 11
30.6167277447
 21
16.0651282269
  0
LINE
  5
3E3
100
AcDbEntity
  8
RACCORDO
100
AcDbLine
 62
253
  6
CONTINUOUS
 10
30.0047880949
 20
16.0565558296
 11
30.4932656156
 21
16.1112770333
  0
LWPOLYLINE
  5
3E4
100
AcDbEntity
  8
RACCORDO
100
AcDbPolyline
 62
253
  6
CONTINUOUS
 90
3
 70
0
 10
30.9452580274
 20
16.1017232777
 10
31.2413142842
 20
16.1336216339
 10
31.2623834838
 20
16.1358294418
  0
LINE
  5
3E5
100
AcDbEntity
  8
RACCORDO
100
AcDbLine
 62
253
  6
CONTINUOUS
 10
31.1007625902
 20
16.1759661214
 11
31.2546045153
 21
16.1912608834
  0
LWPOLYLINE
  5
3E6
100
AcDbEntity
  8
RACCORDO
100
AcDbPolyline
 62
7
  6
CONTINUOUS
 90
3
 70
0
 10
30.7524078843
 20
16.0222611302
 10
30.7667555264
 20
16.0229420862
 10
30.7803731319
 20
16.0253709559
  0
LWPOLYLINE
  5
3E7
100
AcDbEntity
  8
RACCORDO
100
AcDbPolyline
 62
253
  6
CONTINUOUS
 90
6
 70
0
 10
30.7091152773
 20
16.0523730296
 10
30.7184639657
 20
16.0518340305
 10
30.7278582101
 20
16.0526126619
 10
30.737091302
 20
16.0547456105
 10
30.7455431159
 20
16.0583429363
 10
30.75310894
 20
16.063581557
  0
LWPOLYLINE
  5
3E8
100
AcDbEntity
  8
RACCORDO
100
AcDbPolyline
 62
7
  6
CONTINUOUS
 90
4
 70
0
 10
29.730350171
 20
13.76795627
 10
29.7437004794
 20
13.7671792001
 10
29.7584739034
 20
13.7673178928
 10
29.7745343046
 20
13.7684218307
  0
LINE
  5
3E9
100
AcDbEntity
  8
RACCORDO
100
AcDbLine
 62
253
  6
CONTINUOUS
 10
30.9615796691
 20
16.8006078145
 11
31.0263664757
 21
16.7959514863
  0
LINE
  5
3EA
100
AcDbEntity
  8
RACCORDO
100
AcDbLine
 62
7
  6
CONTINUOUS
 10
30.7375068238
 20
16.0234345759
 11
30.7524078843
 21
16.0222611302
  0
LWPOLYLINE
  5
3EB
100
AcDbEntity
  8
RACCORDO
100
AcDbPolyline
 62
7
  6
CONTINUOUS
 90
5
 70
0
 10
30.9707987766
 20
16.8242002658
 10
30.9706195577
 20
16.8242178323
 10
30.9708580348
 20
16.8241482533
 10
30.9722511393
 20
16.8236324409
 10
30.9730697301
 20
16.8232570567
  0
LWPOLYLINE
  5
3EC
100
AcDbEntity
  8
RACCORDO
100
AcDbPolyline
 62
7
  6
CONTINUOUS
 90
11
 70
0
 10
29.6868766484
 20
11.2887110156
 10
29.6879750726
 20
11.2885298136
 10
29.690295373
 20
11.2889346747
 10
29.6936946036
 20
11.2900339674
 10
29.6981196318
 20
11.2916732127
 10
29.7035125894
 20
11.293872952
 10
29.7098083733
 20
11.2966698936
 10
29.716957727
 20
11.2999309258
 10
29.7249053538
 20
11.3036715272
 10
29.7335879982
 20
11.3079162549
 10
29.752935106
 20
11.3175182273
  0
LWPOLYLINE
  5
3ED
100
AcDbEntity
  8
RACCORDO
100
AcDbPolyline
 62
253
  6
CONTINUOUS
 90
32
 70
0
 10
29.1731826506
 20
15.2916309893
 10
29.1637512147
 20
15.2941606179
 10
29.1543803087
 20
15.2967893302
 10
29.1450910704
 20
15.299513221
 10
29.13590341
 20
15.3023298522
 10
29.1268389807
 20
15.3052329528
 10
29.1179208011
 20
15.3082122162
 10
29.109168034
 20
15.3112617403
 10
29.1006006273
 20
15.3143765435
 10
29.0922415472
 20
15.3175468582
 10
29.0841088432
 20
15.3207655902
 10
29.0762207455
 20
15.3240268445
 10
29.0685990593
 20
15.3273217965
 10
29.0612603746
 20
15.3306422916
 10
29.0542211764
 20
15.3339815023
 10
29.0475015301
 20
15.3373317843
 10
29.0411162065
 20
15.3406840598
 10
29.035079869
 20
15.3440305667
 10
29.0294106452
 20
15.3473648889
 10
29.0241213374
 20
15.3506770051
 10
29.0192241877
 20
15.3539584051
 10
29.014734512
 20
15.3572043018
 10
29.0106625104
 20
15.3604040756
 10
29.0070179237
 20
15.3635484474
 10
29.0038131644
 20
15.366634152
 10
29.0010542913
 20
15.3696512444
 10
28.9987493744
 20
15.3725888331
 10
28.9969094271
 20
15.3754419568
 10
28.9955361574
 20
15.3781991569
 10
28.9946304411
 20
15.3808510124
 10
28.9941955285
 20
15.3833958469
 10
28.9942268908
 20
15.3858188508
  0
LWPOLYLINE
  5
3EE
100
AcDbEntity
  8
RACCORDO
100
AcDbPolyline
 62
253
  6
CONTINUOUS
 90
10
 70
0
 10
30.8933041868
 20
14.4399716269
 10
30.8996527169
 20
14.4380761048
 10
30.9068249634
 20
14.4368141063
 10
30.9146172537
 20
14.4362214689
 10
30.9228083073
 20
14.4363150218
 10
30.9311655199
 20
14.4370921084
 10
30.939451569
 20
14.4385306615
 10
30.9474311526
 20
14.44058983
 10
30.9548776719
 20
14.443211139
 10
30.9615796652
 20
14.4463201502
  0
LWPOLYLINE
  5
3EF
100
AcDbEntity
  8
RACCORDO
100
AcDbPolyline
 62
253
  6
CONTINUOUS
 90
10
 70
0
 10
30.7758529985
 20
15.2769063221
 10
30.7822015124
 20
15.27501081
 10
30.7893737439
 20
15.2737488164
 10
30.7971660226
 20
15.2731561797
 10
30.8053570699
 20
15.2732497305
 10
30.8137142824
 20
15.2740268132
 10
30.8220003374
 20
15.2754653621
 10
30.8299799324
 20
15.2775245271
 10
30.8374264668
 20
15.280145834
 10
30.844128477
 20
15.2832548453
  0
LWPOLYLINE
  5
3F0
100
AcDbEntity
  8
RACCORDO
100
AcDbPolyline
 62
253
  6
CONTINUOUS
 90
8
 70
0
 10
31.4363114174
 20
15.0736118455
 10
31.4236471311
 20
15.0775601688
 10
31.4108530169
 20
15.0800827861
 10
31.3980935251
 20
15.0809955334
 10
31.3854593627
 20
15.0801090307
 10
31.3732682352
 20
15.0772383609
 10
31.3619846598
 20
15.07236145
 10
31.3562618354
 20
15.0688550105
  0
LWPOLYLINE
  5
3F1
100
AcDbEntity
  8
RACCORDO
100
AcDbPolyline
 62
7
  6
CONTINUOUS
 90
3
 70
0
 10
30.7078044454
 20
16.0310849181
 10
30.722283674
 20
16.0264921371
 10
30.7375068238
 20
16.0234345759
  0
LWPOLYLINE
  5
3F2
100
AcDbEntity
  8
RACCORDO
100
AcDbPolyline
 62
253
  6
CONTINUOUS
 90
12
 70
0
 10
31.4089374102
 20
15.0105783233
 10
31.3992664168
 20
15.0138259569
 10
31.3897565759
 20
15.0157192733
 10
31.3804078876
 20
15.0162582724
 10
31.3710136432
 20
15.015479641
 10
31.3617805513
 20
15.0133466924
 10
31.3533287374
 20
15.0097493666
 10
31.3457629133
 20
15.0045107459
 10
31.3389783671
 20
14.997807748
 10
31.3332810892
 20
14.9900610665
 10
31.3287730762
 20
14.9814109327
 10
31.3253523313
 20
14.9717171153
  0
LWPOLYLINE
  5
3F3
100
AcDbEntity
  8
RACCORDO
100
AcDbPolyline
 62
253
  6
CONTINUOUS
 90
3
 70
0
 10
30.6899344431
 20
16.0575139796
 10
30.6996054365
 20
16.054266346
 10
30.7091152773
 20
16.0523730296
  0
LWPOLYLINE
  5
3F4
100
AcDbEntity
  8
DRAFT
100
AcDbPolyline
 62
7
  6
CONTINUOUS
 90
3
 70
0
 10
31.3978107909
 20
17.9574566723
 10
31.3037063848
 20
17.9893841862
 10
31.2105533156
 20
18.0143990843
  0
LINE
  5
3F5
100
AcDbEntity
  8
RACCORDO
100
AcDbLine
 62
7
  6
CONTINUOUS
 10
30.0393923989
 20
16.2808555518
 11
30.0416190661
 21
16.2800977216
  0
LINE
  5
3F6
100
AcDbEntity
  8
RACCORDO
100
AcDbLine
 62
253
  6
CONTINUOUS
 10
32.0750361987
 20
14.7615978121
 11
31.4089374102
 21
15.0105783233
  0
LINE
  5
3F7
100
AcDbEntity
  8
RACCORDO
100
AcDbLine
 62
253
  6
CONTINUOUS
 10
32.1024102058
 20
14.8246313344
 11
31.4363114174
 21
15.0736118455
  0
LINE
  5
3F8
100
AcDbEntity
  8
RACCORDO
100
AcDbLine
 62
7
  6
CONTINUOUS
 10
30.0416845255
 20
16.2800731527
 11
30.7077833504
 21
16.0310926279
  0
LINE
  5
3F9
100
AcDbEntity
  8
RACCORDO
100
AcDbLine
 62
253
  6
CONTINUOUS
 10
30.0238356308
 20
16.3064944997
 11
30.6899344431
 21
16.0575139796
  0
LINE
  5
3FA
100
AcDbEntity
  8
DRAFT
100
AcDbLine
 62
7
  6
CONTINUOUS
 10
31.4087706676
 20
17.9529757367
 11
31.3978107909
 21
17.9574566723
  0
LWPOLYLINE
  5
3FB
100
AcDbEntity
  8
RACCORDO
100
AcDbPolyline
 62
253
  6
CONTINUOUS
 90
10
 70
0
 10
29.9565951972
 20
16.0610648322
 10
29.9609248873
 20
16.0592301666
 10
29.965674148
 20
16.0576963701
 10
29.9707787547
 20
16.0564841852
 10
29.9761696772
 20
16.0556100053
 10
29.981774013
 20
16.0550856528
 10
29.9875159724
 20
16.0549182196
 10
29.993317905
 20
16.0551099703
 10
29.9991013497
 20
16.0556583125
 10
30.0047880948
 20
16.0565558314
  0
LWPOLYLINE
  5
3FC
100
AcDbEntity
  8
RACCORDO
100
AcDbPolyline
 62
253
  6
CONTINUOUS
 90
19
 70
0
 10
30.0634715933
 20
16.0018889397
 10
30.0575614508
 20
16.0044564114
 10
30.0519369109
 20
16.0072191993
 10
30.0466023105
 20
16.0101395895
 10
30.0415503069
 20
16.0131773843
 10
30.036793596
 20
16.0163031069
 10
30.032365453
 20
16.0194993301
 10
30.0282681304
 20
16.0227474598
 10
30.0245006063
 20
16.0260125601
 10
30.0210897069
 20
16.0292563023
 10
30.018057428
 20
16.0324376724
 10
30.01537641
 20
16.0355579205
 10
30.0130001611
 20
16.0386454519
 10
30.0109233825
 20
16.0416713458
 10
30.0091484998
 20
16.0446379635
 10
30.0076470668
 20
16.0476185229
 10
30.0064134372
 20
16.0506243853
 10
30.0054596575
 20
16.0536095189
 10
30.0047880943
 20
16.0565558581
  0
LWPOLYLINE
  5
3FD
100
AcDbEntity
  8
0
100
AcDbPolyline
 62
7
  6
CONTINUOUS
 90
8
 70
0
 10
31.1818024122
 20
18.0256606442
 10
30.9531174489
 20
18.126836973
 10
30.72908187
 20
18.1948826785
 10
30.5127253724
 20
18.2288775593
 10
30.3069738064
 20
18.228361893
 10
30.1146096091
 20
18.193342653
 10
29.9382341762
 20
18.1242934146
 10
29.8968556517
 20
18.1017743316
  0
LWPOLYLINE
  5
3FE
100
AcDbEntity
  8
RACCORDO
100
AcDbPolyline
 62
253
  6
CONTINUOUS
 90
19
 70
0
 10
23.0806450652
 20
29.4791834169
 10
23.1128282258
 20
29.4643640664
 10
23.1470135962
 20
29.4511234898
 10
23.1829694665
 20
29.4395514323
 10
23.2204521263
 20
29.4297263299
 10
23.2592075166
 20
29.4217147773
 10
23.2989729517
 20
29.4155710774
 10
23.3394788999
 20
29.4113368723
 10
23.3804508101
 20
29.4090408616
 10
23.4216109731
 20
29.4086986079
 10
23.4626804036
 20
29.4103124308
 10
23.5033807312
 20
29.413871392
 10
23.5434360874
 20
29.4193513685
 10
23.5825749755
 20
29.4267152168
 10
23.6205321103
 20
29.4359130245
 10
23.6570502168
 20
29.4468824485
 10
23.6918817737
 20
29.4595491376
 10
23.7247906915
 20
29.4738272363
 10
23.7555539119
 20
29.4896199672
  0
LWPOLYLINE
  5
3FF
100
AcDbEntity
  8
RACCORDO
100
AcDbPolyline
 62
253
  6
CONTINUOUS
 90
6
 70
0
 10
31.3230188547
 20
15.7911859809
 10
31.3176743343
 20
15.7936611861
 10
31.3134855745
 20
15.7966457989
 10
31.3105715268
 20
15.800055065
 10
31.3090149444
 20
15.8037921711
 10
31.3088593886
 20
15.8046510364
  0
LWPOLYLINE
  5
400
100
AcDbEntity
  8
RACCORDO
100
AcDbPolyline
 62
253
  6
CONTINUOUS
 90
6
 70
0
 10
31.2055676623
 20
16.6281207059
 10
31.2002231301
 20
16.6305959238
 10
31.1960343664
 20
16.6335805479
 10
31.1931203209
 20
16.6369898227
 10
31.1915637448
 20
16.640726934
 10
31.191408194
 20
16.6415857775
  0
LINE
  5
401
100
AcDbEntity
  8
RACCORDO
100
AcDbLine
 62
7
  6
CONTINUOUS
 10
30.9730256132
 20
16.8232783292
 11
30.9730697554
 21
16.8232571105
  0
LWPOLYLINE
  5
402
100
AcDbEntity
  8
RACCORDO
100
AcDbPolyline
 62
253
  6
CONTINUOUS
 90
10
 70
0
 10
31.1394828299
 20
14.2201910681
 10
31.1194822764
 20
14.2300496225
 10
31.0994767359
 20
14.2403334374
 10
31.0794662085
 20
14.2510425128
 10
31.0594473348
 20
14.2621787918
 10
31.0394234741
 20
14.2737403314
 10
31.0194047049
 20
14.285721302
 10
30.9993943867
 20
14.2981197603
 10
30.97938916
 20
14.3109376497
 10
30.9593890248
 20
14.32417497
  0
LWPOLYLINE
  5
403
100
AcDbEntity
  8
RACCORDO
100
AcDbPolyline
 62
253
  6
CONTINUOUS
 90
10
 70
0
 10
31.1546461298
 20
14.2670845105
 10
31.1352247718
 20
14.2766564835
 10
31.115780681
 20
14.2866515214
 10
31.096320347
 20
14.2970662883
 10
31.0768502649
 20
14.3078973086
 10
31.0573769327
 20
14.319140967
 10
31.0379068487
 20
14.33079351
 10
31.0184465109
 20
14.3428510484
 10
30.9990024144
 20
14.3553095582
 10
30.9795810487
 20
14.3681648813
  0
LWPOLYLINE
  5
404
100
AcDbEntity
  8
RACCORDO
100
AcDbPolyline
 62
253
  6
CONTINUOUS
 90
4
 70
0
 10
30.9593890217
 20
16.8479012311
 10
30.9793895756
 20
16.8380426786
 10
30.9993951164
 20
16.827758865
 10
31.0194056442
 20
16.8170497904
  0
LWPOLYLINE
  5
405
100
AcDbEntity
  8
RACCORDO
100
AcDbPolyline
 62
7
  6
CONTINUOUS
 90
7
 70
0
 10
30.5396177524
 20
21.9240418396
 10
30.5046865775
 20
21.9420198747
 10
30.469774245
 20
21.9596742795
 10
30.4348807551
 20
21.9770050542
 10
30.4000061076
 20
21.9940121986
 10
30.3651503026
 20
22.0106957128
 10
30.33031334
 20
22.0270555968
  0
LWPOLYLINE
  5
406
100
AcDbEntity
  8
RACCORDO
100
AcDbPolyline
 62
253
  6
CONTINUOUS
 90
12
 70
0
 10
-25.2085181301
 20
58.1690344626
 10
-25.2354123125
 20
58.1828963363
 10
-25.2621204
 20
58.1944118258
 10
-25.2884926872
 20
58.2035165688
 10
-25.3143806414
 20
58.2101595711
 10
-25.3396399599
 20
58.2143040945
 10
-25.3641311835
 20
58.2159271452
 10
-25.3877194514
 20
58.215018942
 10
-25.4102695531
 20
58.2115838142
 10
-25.4316496763
 20
58.2056423721
 10
-25.4517369043
 20
58.1972312093
 10
-25.465330562
 20
58.1896771151
  0
LWPOLYLINE
  5
407
100
AcDbEntity
  8
RACCORDO
100
AcDbPolyline
 62
253
  6
CONTINUOUS
 90
16
 70
0
 10
30.5396177524
 20
30.3853757264
 10
30.5626823814
 20
30.3733707951
 10
30.5877727327
 20
30.3628067782
 10
30.6146199876
 20
30.353796864
 10
30.6429365004
 20
30.3464375908
 10
30.6724188864
 20
30.3408078106
 10
30.7027512736
 20
30.3369678455
 10
30.733608678
 20
30.3349588433
 10
30.7646604823
 20
30.3348023349
 10
30.795573986
 20
30.3365000026
 10
30.8260179738
 20
30.3400336626
 10
30.8556662532
 20
30.345365459
 10
30.8842011487
 20
30.3524382669
 10
30.9113169214
 20
30.3611763074
 10
30.9367230426
 20
30.3714859612
 10
30.9601472979
 20
30.3832567692
  0
LWPOLYLINE
  5
408
100
AcDbEntity
  8
RACCORDO
100
AcDbPolyline
 62
253
  6
CONTINUOUS
 90
19
 70
0
 10
28.3166576582
 20
32.3177475386
 10
28.2824302912
 20
32.3361317442
 10
28.2459955106
 20
32.3529920528
 10
28.2073533163
 20
32.3683284645
 10
28.1665082497
 20
32.382194413
 10
28.1234557694
 20
32.3945364646
 10
28.0781822514
 20
32.405194318
 10
28.0305946632
 20
32.4141961785
 10
27.9807860374
 20
32.4215138408
 10
27.9290218479
 20
32.4269023889
 10
27.8744892993
 20
32.4302145724
 10
27.818001187
 20
32.4315976417
 10
27.7622613716
 20
32.4312484313
 10
27.7074667316
 20
32.4288989828
 10
27.6534203886
 20
32.4248172546
 10
27.6022355683
 20
32.4200039565
 10
27.5548152126
 20
32.4145711133
 10
27.5102563797
 20
32.4084067001
 10
27.4277379497
 20
32.3960986157
  0
LINE
  5
409
100
AcDbEntity
  8
0
100
AcDbLine
 62
7
  6
CONTINUOUS
 10
31.2967319569
 20
17.9631695026
 11
31.1818024122
 21
18.0256606442
  0
LWPOLYLINE
  5
40A
100
AcDbEntity
  8
RACCORDO
100
AcDbPolyline
 62
253
  6
CONTINUOUS
 90
8
 70
0
 10
32.14227666
 20
15.0070274665
 10
32.1384250831
 20
15.0091381885
 10
32.1351037078
 20
15.0114964281
 10
32.132357451
 20
15.0140702947
 10
32.1302234524
 20
15.0168249817
 10
32.1287305719
 20
15.019723237
 10
32.1278989996
 20
15.0227258665
 10
32.1277489933
 20
15.0240224083
  0
LWPOLYLINE
  5
40B
100
AcDbEntity
  8
RACCORDO
100
AcDbPolyline
 62
7
  6
CONTINUOUS
 90
5
 70
0
 10
31.0501333857
 20
16.7828235326
 10
31.0308082485
 20
16.7935742675
 10
31.0115103675
 20
16.8039024154
 10
30.9922471384
 20
16.8138047296
 10
30.9730256132
 20
16.8232783292
  0
LWPOLYLINE
  5
40C
100
AcDbEntity
  8
RACCORDO
100
AcDbPolyline
 62
253
  6
CONTINUOUS
 90
3
 70
0
 10
31.0194056442
 20
16.8170497904
 10
31.0394245184
 20
16.8059135117
 10
31.0594483796
 20
16.7943519719
  0
LINE
  5
40D
100
AcDbEntity
  8
0
100
AcDbLine
 62
7
  6
CONTINUOUS
 10
31.6449293752
 20
17.7621635325
 11
31.2967319569
 21
17.9631695026
  0
LINE
  5
40E
100
AcDbEntity
  8
RACCORDO
100
AcDbLine
 62
253
  6
CONTINUOUS
 10
-22.9587002678
 20
61.4379032447
 11
-21.7293704178
 21
60.7280988836
  0
LINE
  5
40F
100
AcDbEntity
  8
RACCORDO
100
AcDbLine
 62
253
  6
CONTINUOUS
 10
30.3982179353
 20
30.6302873935
 11
28.1082284785
 21
31.9524964512
  0
LINE
  5
410
100
AcDbEntity
  8
RACCORDO
100
AcDbLine
 62
253
  6
CONTINUOUS
 10
-22.7502704479
 20
61.8031517878
 11
-21.5209397286
 21
61.0933511756
  0
LINE
  5
411
100
AcDbEntity
  8
RACCORDO
100
AcDbLine
 62
253
  6
CONTINUOUS
 10
30.6066477552
 20
30.9955359366
 11
28.3166576582
 21
32.3177475386
  0
LINE
  5
412
100
AcDbEntity
  8
RACCORDO
100
AcDbLine
 62
7
  6
CONTINUOUS
 10
-21.9129158321
 20
62.3209844428
 11
31.4737538432
 21
31.4961904643
  0
LINE
  5
413
100
AcDbEntity
  8
RACCORDO
100
AcDbLine
 62
7
  6
CONTINUOUS
 10
31.5530504898
 20
32.0120139259
 11
-21.409301269
 21
62.5918120573
  0
LINE
  5
414
100
AcDbEntity
  8
RACCORDO
100
AcDbLine
 62
7
  6
CONTINUOUS
 10
32.2724998658
 20
32.398910518
 11
32.6548529601
 21
32.1781446333
  0
LWPOLYLINE
  5
415
100
AcDbEntity
  8
0
100
AcDbPolyline
 62
7
  6
CONTINUOUS
 90
16
 70
0
 10
-25.7023477726
 20
54.3853982445
 10
-25.7657249863
 20
54.4225744233
 10
-25.8702437778
 20
54.4910542796
 10
-25.9677684847
 20
54.5625365419
 10
-26.0582349438
 20
54.637048755
 10
-26.1417073183
 20
54.714563374
 10
-26.2174221523
 20
54.7943714484
 10
-26.2853082783
 20
54.8764940192
 10
-26.3454368639
 20
54.9609100453
 10
-26.3972579558
 20
55.0468474536
 10
-26.4406953409
 20
55.1343202018
 10
-26.4758252323
 20
55.2233143322
 10
-26.5023263165
 20
55.3130158975
 10
-26.5201194322
 20
55.4034313886
 10
-26.5292837406
 20
55.4945543147
 10
-26.5306155918
 20
55.544348694
  0
LWPOLYLINE
  5
416
100
AcDbEntity
  8
RACCORDO
100
AcDbPolyline
 62
253
  6
CONTINUOUS
 90
5
 70
0
 10
31.0594483796
 20
16.7943519719
 10
31.0794671492
 20
16.7823710005
 10
31.0994774677
 20
16.7699725408
 10
31.1194826948
 20
16.7571546495
 10
31.1394828303
 20
16.7439173266
  0
LWPOLYLINE
  5
417
100
AcDbEntity
  8
RACCORDO
100
AcDbPolyline
 62
253
  6
CONTINUOUS
 90
28
 70
0
 10
27.3540846786
 20
32.383744339
 10
27.3768639219
 20
32.3700342047
 10
27.3995611395
 20
32.3546851111
 10
27.4220856283
 20
32.3377545805
 10
27.4444394732
 20
32.3192275473
 10
27.4664360496
 20
32.2992430429
 10
27.4877163139
 20
32.2781503971
 10
27.5081971384
 20
32.2560880146
 10
27.5278310877
 20
32.2331737561
 10
27.5463580538
 20
32.2098090502
 10
27.5636559907
 20
32.1862794333
 10
27.5798191276
 20
32.1625942999
 10
27.5949359017
 20
32.1387493004
 10
27.6089642046
 20
32.1149176343
 10
27.6219435458
 20
32.0911359978
 10
27.6340523892
 20
32.0671578852
 10
27.6452915627
 20
32.0430133553
 10
27.6556182661
 20
32.0188194419
 10
27.6650983641
 20
31.9944384817
 10
27.673707843
 20
31.9699130638
 10
27.6814035586
 20
31.9453394452
 10
27.6881902449
 20
31.9206595311
 10
27.6940090057
 20
31.8960296469
 10
27.6988424033
 20
31.8714445327
 10
27.7027003008
 20
31.8466221004
 10
27.70550957
 20
31.8215464098
 10
27.7071651035
 20
31.7964531592
 10
27.7075842213
 20
31.7714651712
  0
LWPOLYLINE
  5
418
100
AcDbEntity
  8
RACCORDO
100
AcDbPolyline
 62
253
  6
CONTINUOUS
 90
10
 70
0
 10
29.9565951942
 20
16.2690125523
 10
29.9609248953
 20
16.266399508
 10
29.965674166
 20
16.2640978611
 10
29.9707787808
 20
16.2621387374
 10
29.9761697083
 20
16.2605486311
 10
29.9817740457
 20
16.2593490456
 10
29.9875160035
 20
16.2585562034
 10
29.9933179317
 20
16.2581808265
 10
29.9991013689
 20
16.2582279913
 10
30.0047881039
 20
16.2586970602
  0
LWPOLYLINE
  5
419
100
AcDbEntity
  8
RACCORDO
100
AcDbPolyline
 62
253
  6
CONTINUOUS
 90
17
 70
0
 10
29.0467821909
 20
15.2559081335
 10
29.0396688601
 20
15.2602331136
 10
29.0329473269
 20
15.2647675523
 10
29.026636378
 20
15.2694997471
 10
29.0207537188
 20
15.2744174631
 10
29.0153160587
 20
15.2795078512
 10
29.010339025
 20
15.2847574667
 10
29.0058368495
 20
15.2901525877
 10
29.0018226765
 20
15.29567889
 10
28.9983085197
 20
15.3013213347
 10
28.9953040922
 20
15.3070662777
 10
28.9928193191
 20
15.3128970257
 10
28.9908631704
 20
15.3187932905
 10
28.9894396421
 20
15.3247441395
 10
28.9885541437
 20
15.3307284897
 10
28.9882090016
 20
15.3367102103
 10
28.9882035506
 20
15.3375416342
  0
LINE
  5
41A
100
AcDbEntity
  8
RACCORDO
100
AcDbLine
 62
253
  6
CONTINUOUS
 10
29.0396703815
 20
18.1291106938
 11
29.0467821909
 21
18.1247866878
  0
LWPOLYLINE
  5
41B
100
AcDbEntity
  8
RACCORDO
100
AcDbPolyline
 62
253
  6
CONTINUOUS
 90
19
 70
0
 10
29.7745343046
 20
11.3286936798
 10
29.9179576953
 20
11.2401257147
 10
30.0624492388
 20
11.1567954125
 10
30.2080089351
 20
11.0787027734
 10
30.3550394748
 20
11.00554304
 10
30.5031381673
 20
10.9376209696
 10
30.6510969409
 20
10.8758508339
 10
30.798874487
 20
10.8203657436
 10
30.9465121142
 20
10.771032588
 10
31.0929256757
 20
10.7283663064
 10
31.2380010172
 20
10.6924832225
 10
31.3818522931
 20
10.6632670127
 10
31.5237378197
 20
10.6408836449
 10
31.6635891557
 20
10.6253889009
 10
31.8014747424
 20
10.6167269989
 10
31.9368582207
 20
10.6148965619
 10
32.0695608043
 20
10.619897131
 10
32.1997612795
 20
10.6317291652
 10
32.3274596464
 20
10.6503926644
  0
LWPOLYLINE
  5
41C
100
AcDbEntity
  8
RACCORDO
100
AcDbPolyline
 62
253
  6
CONTINUOUS
 90
16
 70
0
 10
27.9766059238
 20
32.0446349147
 10
27.9487897003
 20
32.0618260385
 10
27.9190665111
 20
32.0797022938
 10
27.8866708932
 20
32.0999151337
 10
27.8509376598
 20
32.122532173
 10
27.812295345
 20
32.1466398655
 10
27.7714519526
 20
32.1724033726
 10
27.7277691318
 20
32.200463828
 10
27.681391152
 20
32.2295732142
 10
27.634349883
 20
32.2576194747
 10
27.5870047906
 20
32.2846276993
 10
27.5389136989
 20
32.3104136253
 10
27.4912909806
 20
32.3332650101
 10
27.4447063118
 20
32.3528254662
 10
27.3989215189
 20
32.3696579011
 10
27.3540847168
 20
32.3837418438
  0
LWPOLYLINE
  5
41D
100
AcDbEntity
  8
RACCORDO
100
AcDbPolyline
 62
253
  6
CONTINUOUS
 90
22
 70
0
 10
-21.5209397286
 20
61.0933511756
 10
-21.4890899612
 20
61.073632608
 10
-21.4597431588
 20
61.0525005129
 10
-21.4328993213
 20
61.0299548902
 10
-21.4084283933
 20
61.0059825612
 10
-21.3864604303
 20
60.9805967046
 10
-21.3673855988
 20
60.9538368566
 10
-21.3511930956
 20
60.9255727359
 10
-21.3378937239
 20
60.8959346239
 10
-21.3279100591
 20
60.8653529007
 10
-21.3215208378
 20
60.8335221775
 10
-21.3184473233
 20
60.8007478433
 10
-21.3182758814
 20
60.7683764452
 10
-21.3214101747
 20
60.7364538545
 10
-21.3274465406
 20
60.7049341999
 10
-21.3347603569
 20
60.6750264157
 10
-21.3431854035
 20
60.6472325175
 10
-21.3528879005
 20
60.6210504897
 10
-21.362741887
 20
60.5961832184
 10
-21.3723720427
 20
60.5725316659
 10
-21.3821536879
 20
60.55019487
 10
-21.3920868226
 20
60.5291728308
  0
LWPOLYLINE
  5
41E
100
AcDbEntity
  8
RACCORDO
100
AcDbPolyline
 62
7
  6
CONTINUOUS
 90
4
 70
0
 10
31.1082064601
 20
16.7480661542
 10
31.0888389212
 20
16.7600664079
 10
31.0694789844
 20
16.7716533027
 10
31.0501333857
 20
16.7828235326
  0
LINE
  5
41F
100
AcDbEntity
  8
RACCORDO
100
AcDbLine
 62
253
  6
CONTINUOUS
 10
-21.7284641972
 20
60.5545971463
 11
-21.7492562711
 21
60.5679145632
  0
LINE
  5
420
100
AcDbEntity
  8
RACCORDO
100
AcDbLine
 62
253
  6
CONTINUOUS
 10
31.117945569
 20
18.2144761889
 11
31.2407998128
 21
18.1357361207
  0
LWPOLYLINE
  5
421
100
AcDbEntity
  8
RACCORDO
100
AcDbPolyline
 62
253
  6
CONTINUOUS
 90
22
 70
0
 10
23.4020543692
 20
30.101899135
 10
23.4280600541
 20
30.0852172886
 10
23.4539538329
 20
30.0663611201
 10
23.4795905589
 20
30.0454365112
 10
23.5048258336
 20
30.0225616028
 10
23.5295189839
 20
29.9978641979
 10
23.5535336796
 20
29.97148054
 10
23.5767377094
 20
29.9435550521
 10
23.598998092
 20
29.9142469142
 10
23.6201846928
 20
29.8837279809
 10
23.6401756343
 20
29.8521761865
 10
23.6588638559
 20
29.8197630173
 10
23.6761509923
 20
29.7866593033
 10
23.6919448985
 20
29.7530382689
 10
23.7061500031
 20
29.7190998247
 10
23.7186774617
 20
29.6850589593
 10
23.7294620947
 20
29.651099529
 10
23.7384439204
 20
29.6174182348
 10
23.7455676247
 20
29.5842468294
 10
23.7508023449
 20
29.5517813233
 10
23.7541335649
 20
29.5201825984
 10
23.7555539119
 20
29.4896199672
  0
LWPOLYLINE
  5
422
100
AcDbEntity
  8
RACCORDO
100
AcDbPolyline
 62
253
  6
CONTINUOUS
 90
8
 70
0
 10
29.0467821909
 20
14.9357706996
 10
29.0313204702
 20
14.9458023526
 10
29.017980299
 20
14.9568025853
 10
29.0069420837
 20
14.9686226415
 10
28.9983551018
 20
14.9811026772
 10
28.9923354818
 20
14.9940739236
 10
28.9889646336
 20
15.0073609694
 10
28.9882035472
 20
15.0174256674
  0
LWPOLYLINE
  5
423
100
AcDbEntity
  8
RACCORDO
100
AcDbPolyline
 62
253
  6
CONTINUOUS
 90
8
 70
0
 10
29.0467821909
 20
18.444935939
 10
29.0313204142
 20
18.4549676179
 10
29.0179802127
 20
18.4659678781
 10
29.0069419898
 20
18.4777879602
 10
28.9983550185
 20
18.4902680177
 10
28.9923354228
 20
18.5032392793
 10
28.9889646076
 20
18.516526331
 10
28.9882036396
 20
18.5264798296
  0
LWPOLYLINE
  5
424
100
AcDbEntity
  8
RACCORDO
100
AcDbPolyline
 62
7
  6
CONTINUOUS
 90
19
 70
0
 10
29.6868770736
 20
11.2886908019
 10
29.8020384901
 20
11.2131188344
 10
29.9800663706
 20
11.1030255132
 10
30.1585856031
 20
11.0007919205
 10
30.3374076495
 20
10.9065600256
 10
30.5162368451
 20
10.8205224272
 10
30.6946790172
 20
10.7428942141
 10
30.8725444794
 20
10.6737791297
 10
31.0495494697
 20
10.6133118952
 10
31.2251762118
 20
10.5616735313
 10
31.3992214813
 20
10.5189123949
 10
31.5714354589
 20
10.4850813926
 10
31.7412532182
 20
10.4602582848
 10
31.9084312704
 20
10.4444192738
 10
32.0727888816
 20
10.4375236507
 10
32.233874512
 20
10.439516435
 10
32.3914057335
 20
10.4502937411
 10
32.5452623115
 20
10.469745908
 10
32.6921164966
 20
10.4970722468
  0
LWPOLYLINE
  5
425
100
AcDbEntity
  8
RACCORDO
100
AcDbPolyline
 62
253
  6
CONTINUOUS
 90
16
 70
0
 10
-25.5800931437
 20
57.5752837964
 10
-22.5563061254
 20
55.5768352943
 10
-19.4996831987
 20
53.5954363086
 10
-16.4104892429
 20
51.6312686599
 10
-13.2889277801
 20
49.684472708
 10
-10.1353328616
 20
47.7552682041
 10
-6.9501755327
 20
45.8439507353
 10
-3.7337384132
 20
43.9506934411
 10
-0.4863070821
 20
42.0756673519
 10
2.7916271811
 20
40.2191561182
 10
6.0997675189
 20
38.3813249837
 10
9.4378146802
 20
36.562336759
 10
12.8052586076
 20
34.7624623288
 10
16.2017193312
 20
32.9818942055
 10
19.6269531196
 20
31.220750257
 10
23.0806450652
 20
29.4791834169
  0
LWPOLYLINE
  5
426
100
AcDbEntity
  8
RACCORDO
100
AcDbPolyline
 62
253
  6
CONTINUOUS
 90
16
 70
0
 10
-25.2085181301
 20
58.1690344626
 10
-22.1874120945
 20
56.1723475501
 10
-19.1340350189
 20
54.1930520456
 10
-16.0483869034
 20
52.2311479493
 10
-12.9301255298
 20
50.286418997
 10
-9.7795931162
 20
48.3590814528
 10
-6.5978163175
 20
46.4497841086
 10
-3.3847799294
 20
44.5585368641
 10
-0.1404991561
 20
42.6853298196
 10
3.1339537343
 20
40.8307820683
 10
6.438594898
 20
38.9949029288
 10
9.7734081788
 20
37.1776830825
 10
13.13727284
 20
35.3797136662
 10
16.5298153027
 20
33.6011917257
 10
19.9514091458
 20
31.8419202153
 10
23.4020543692
 20
30.101899135
  0
LWPOLYLINE
  5
427
100
AcDbEntity
  8
RACCORDO
100
AcDbPolyline
 62
7
  6
CONTINUOUS
 90
3
 70
0
 10
31.1469350163
 20
16.7228411017
 10
31.12757419
 20
16.7356564281
 10
31.1082064601
 20
16.7480661542
  0
LWPOLYLINE
  5
428
100
AcDbEntity
  8
RACCORDO
100
AcDbPolyline
 62
253
  6
CONTINUOUS
 90
10
 70
0
 10
30.7758529985
 20
16.1071126886
 10
30.7822015286
 20
16.1028364789
 10
30.7893737752
 20
16.099261398
 10
30.7971660655
 20
16.0964889688
 10
30.805357119
 20
16.0945979209
 10
30.8137143317
 20
16.093641955
 10
30.8220003808
 20
16.093648218
 10
30.8299799644
 20
16.0946165322
 10
30.8374264836
 20
16.0965193998
 10
30.844128477
 20
16.0993027846
  0
LWPOLYLINE
  5
429
100
AcDbEntity
  8
RACCORDO
100
AcDbPolyline
 62
253
  6
CONTINUOUS
 90
10
 70
0
 10
30.8933041905
 20
16.8084177179
 10
30.8996526857
 20
16.8041415287
 10
30.9068249003
 20
16.800566456
 10
30.9146171669
 20
16.7977940249
 10
30.92280821
 20
16.7959029679
 10
30.9311654265
 20
16.7949469902
 10
30.9394514901
 20
16.7949532427
 10
30.9474310964
 20
16.7959215505
 10
30.9548776446
 20
16.797824419
 10
30.961579669
 20
16.8006078139
  0
LWPOLYLINE
  5
42A
100
AcDbEntity
  8
RACCORDO
100
AcDbPolyline
 62
253
  6
CONTINUOUS
 90
22
 70
0
 10
30.9593890248
 20
14.32417497
 10
30.9558820006
 20
14.3266244942
 10
30.9523357324
 20
14.3293708389
 10
30.9487502202
 20
14.332414004
 10
30.9451124853
 20
14.3357486899
 10
30.9414355063
 20
14.3393801962
 10
30.9377582189
 20
14.3433244218
 10
30.9340776907
 20
14.3475841577
 10
30.930396854
 20
14.3521566128
 10
30.9267634417
 20
14.3570493131
 10
30.9231773046
 20
14.3622565866
 10
30.9196385918
 20
14.3677841053
 10
30.9161954832
 20
14.373656411
 10
30.912832369
 20
14.3798945864
 10
30.909564859
 20
14.3864775489
 10
30.9064879632
 20
14.3933665924
 10
30.9035931785
 20
14.4005887972
 10
30.9008890079
 20
14.408117083
 10
30.8984959715
 20
14.4158315036
 10
30.8964542425
 20
14.4236920767
 10
30.8947236476
 20
14.4317387844
 10
30.8933041868
 20
14.4399716269
  0
LINE
  5
42B
100
AcDbEntity
  8
RACCORDO
100
AcDbLine
 62
253
  6
CONTINUOUS
 10
31.1394828303
 20
16.7439173266
 11
31.1429898538
 21
16.7414678009
  0
LINE
  5
42C
100
AcDbEntity
  8
RACCORDO
100
AcDbLine
 62
253
  6
CONTINUOUS
 10
31.2407998128
 20
18.1357361207
 11
31.3631286985
 21
18.0498459358
  0
LWPOLYLINE
  5
42D
100
AcDbEntity
  8
RACCORDO
100
AcDbPolyline
 62
7
  6
CONTINUOUS
 90
5
 70
0
 10
31.1470322413
 20
16.7227763592
 10
31.1494481356
 20
16.7210267183
 10
31.155084881
 20
16.7161216685
 10
31.1613978401
 20
16.7093259603
 10
31.1678697093
 20
16.7008462122
  0
LWPOLYLINE
  5
42E
100
AcDbEntity
  8
RACCORDO
100
AcDbPolyline
 62
253
  6
CONTINUOUS
 90
9
 70
0
 10
32.1422766636
 20
14.7990797501
 10
32.1384250791
 20
14.8019688504
 10
32.1351037
 20
14.8050949421
 10
32.1323574427
 20
14.80841575
 10
32.1302234457
 20
14.811886366
 10
32.1287305679
 20
14.8154598561
 10
32.1278989983
 20
14.8190878947
 10
32.1277399826
 20
14.822721419
 10
32.1277698858
 20
14.823204576
  0
LWPOLYLINE
  5
42F
100
AcDbEntity
  8
RACCORDO
100
AcDbPolyline
 62
253
  6
CONTINUOUS
 90
3
 70
0
 10
31.3631286985
 20
18.0498459358
 10
31.4849361448
 20
17.9568637958
 10
31.6052285203
 20
17.857548156
  0
LWPOLYLINE
  5
430
100
AcDbEntity
  8
RACCORDO
100
AcDbPolyline
 62
253
  6
CONTINUOUS
 90
15
 70
0
 10
31.1429898538
 20
16.7414678009
 10
31.1465361213
 20
16.7387214555
 10
31.150121633
 20
16.7356782904
 10
31.1537593674
 20
16.7323436054
 10
31.1574363459
 20
16.7287121007
 10
31.161113633
 20
16.7247678768
 10
31.164794161
 20
16.7205081424
 10
31.1684749976
 20
16.7159356887
 10
31.1721084099
 20
16.71104299
 10
31.1756945469
 20
16.7058357182
 10
31.1792332597
 20
16.7003082013
 10
31.1826763682
 20
16.6944358976
 10
31.1860394822
 20
16.6881977246
 10
31.189306992
 20
16.6816147647
 10
31.1923838874
 20
16.6747257239
  0
LINE
  5
431
100
AcDbEntity
  8
RACCORDO
100
AcDbLine
 62
253
  6
CONTINUOUS
 10
30.6899344431
 20
15.4257216253
 11
30.0238356334
 21
15.9459353153
  0
LINE
  5
432
100
AcDbEntity
  8
RACCORDO
100
AcDbLine
 62
253
  6
CONTINUOUS
 10
30.729570403
 20
15.4816752497
 11
30.0634715927
 21
16.0018889401
  0
LINE
  5
433
100
AcDbEntity
  8
RACCORDO
100
AcDbLine
 62
7
  6
CONTINUOUS
 10
31.4135170135
 20
15.6233781376
 11
32.0796158177
 21
15.1031644519
  0
LINE
  5
434
100
AcDbEntity
  8
RACCORDO
100
AcDbLine
 62
253
  6
CONTINUOUS
 10
31.4089374102
 20
15.6423706776
 11
32.0750362141
 21
15.1221569921
  0
LWPOLYLINE
  5
435
100
AcDbEntity
  8
RACCORDO
100
AcDbPolyline
 62
253
  6
CONTINUOUS
 90
6
 70
0
 10
28.1082288876
 20
31.9524940986
 10
28.0901017378
 20
31.9669558334
 10
28.0703752646
 20
31.9819965734
 10
28.0491022862
 20
31.9974413171
 10
28.0265226062
 20
32.0126968351
 10
27.9766059238
 20
32.0446349147
  0
LWPOLYLINE
  5
436
100
AcDbEntity
  8
RACCORDO
100
AcDbPolyline
 62
7
  6
CONTINUOUS
 90
4
 70
0
 10
32.0798218405
 20
15.1030073709
 10
32.0826318457
 20
15.1007268946
 10
32.0925881026
 20
15.0914229113
 10
32.1016242113
 20
15.081122952
  0
LINE
  5
437
100
AcDbEntity
  8
RACCORDO
100
AcDbLine
 62
7
  6
CONTINUOUS
 10
31.4060104495
 20
15.629496054
 11
31.4135629787
 21
15.6233442274
  0
LWPOLYLINE
  5
438
100
AcDbEntity
  8
RACCORDO
100
AcDbPolyline
 62
253
  6
CONTINUOUS
 90
19
 70
0
 10
30.0238356334
 20
15.9459353153
 10
30.0168821401
 20
15.951752562
 10
30.0102877613
 20
15.9577900658
 10
30.0040524969
 20
15.9640478267
 10
29.9981632377
 20
15.9705797848
 10
29.9926330929
 20
15.977332
 10
29.9875013903
 20
15.9841426517
 10
29.9827729737
 20
15.9910154973
 10
29.9784429992
 20
15.9979467794
 10
29.9745362623
 20
16.004763405
 10
29.9710811921
 20
16.0114095777
 10
29.9680493596
 20
16.0179410939
 10
29.9653802736
 20
16.0243522503
 10
29.9630636687
 20
16.030612086
 10
29.9611098102
 20
16.0367515619
 10
29.9594890034
 20
16.0428578567
 10
29.9581913498
 20
16.0489600297
 10
29.9572267477
 20
16.0550290216
 10
29.9565951972
 20
16.0610648322
  0
LWPOLYLINE
  5
439
100
AcDbEntity
  8
RACCORDO
100
AcDbPolyline
 62
253
  6
CONTINUOUS
 90
11
 70
0
 10
32.0750362141
 20
15.1221569921
 10
32.0819897082
 20
15.1163397449
 10
32.0885840879
 20
15.1103022405
 10
32.0948193532
 20
15.1040444791
 10
32.1007086133
 20
15.0975125206
 10
32.106238759
 20
15.090760305
 10
32.1113704627
 20
15.0839496526
 10
32.1160988805
 20
15.0770768061
 10
32.1204288564
 20
15.0701455229
 10
32.1243355945
 20
15.0633288959
 10
32.127790666
 20
15.0566827216
  0
LWPOLYLINE
  5
43A
100
AcDbEntity
  8
RACCORDO
100
AcDbPolyline
 62
253
  6
CONTINUOUS
 90
22
 70
0
 10
30.9795810694
 20
14.368164849
 10
30.9779712117
 20
14.3695754491
 10
30.9763843614
 20
14.3712004064
 10
30.9748234286
 20
14.3730406015
 10
30.9732887142
 20
14.3750904028
 10
30.9717879561
 20
14.3773557221
 10
30.9703363006
 20
14.3798541622
 10
30.968941243
 20
14.3825846076
 10
30.9676081952
 20
14.3855452562
 10
30.9663504917
 20
14.3887521598
 10
30.9651798695
 20
14.3921959125
 10
30.9641034106
 20
14.3958788639
 10
30.9631298373
 20
14.3998344639
 10
30.9622728147
 20
14.4040676419
 10
30.9615473986
 20
14.4085614122
 10
30.9609680066
 20
14.4133151015
 10
30.9605585741
 20
14.4183329153
 10
30.9603354125
 20
14.4235890001
 10
30.9603038237
 20
14.4290351606
 10
30.9604812441
 20
14.4346447576
 10
30.9608979594
 20
14.4404125697
 10
30.9615796652
 20
14.4463201502
  0
LWPOLYLINE
  5
43B
100
AcDbEntity
  8
RACCORDO
100
AcDbPolyline
 62
253
  6
CONTINUOUS
 90
3
 70
0
 10
31.6052285203
 20
17.857548156
 10
31.723993328
 20
17.7518472939
 10
31.8412430651
 20
17.6398129318
  0
LWPOLYLINE
  5
43C
100
AcDbEntity
  8
RACCORDO
100
AcDbPolyline
 62
253
  6
CONTINUOUS
 90
7
 70
0
 10
31.2055676638
 20
14.2596745911
 10
31.2002231562
 20
14.2645304702
 10
31.1960343996
 20
14.2698281541
 10
31.1931203477
 20
14.2754172053
 10
31.1915637567
 20
14.2811389118
 10
31.1914088358
 20
14.2868307921
 10
31.1915980341
 20
14.2882761826
  0
LWPOLYLINE
  5
43D
100
AcDbEntity
  8
RACCORDO
100
AcDbPolyline
 62
253
  6
CONTINUOUS
 90
7
 70
0
 10
31.3230188547
 20
14.9609796143
 10
31.3176743225
 20
14.9658355198
 10
31.3134855588
 20
14.9711332263
 10
31.3105715133
 20
14.9767222929
 10
31.3090149373
 20
14.982444005
 10
31.3088600332
 20
14.9881358811
 10
31.3090609784
 20
14.989652084
  0
LWPOLYLINE
  5
43E
100
AcDbEntity
  8
RACCORDO
100
AcDbPolyline
 62
253
  6
CONTINUOUS
 90
3
 70
0
 10
-21.694563117
 20
60.524608659
 10
-21.7101678038
 20
60.5401101033
 10
-21.7284641972
 20
60.5545971463
  0
LINE
  5
43F
100
AcDbEntity
  8
RACCORDO
100
AcDbLine
 62
253
  6
CONTINUOUS
 10
31.8412430651
 20
17.6398129318
 11
31.9560215912
 21
17.522358692
  0
LWPOLYLINE
  5
440
100
AcDbEntity
  8
RACCORDO
100
AcDbPolyline
 62
7
  6
CONTINUOUS
 90
6
 70
0
 10
29.6903893729
 20
13.7827365516
 10
29.6937056799
 20
13.7793387086
 10
29.7001238849
 20
13.7751665709
 10
29.7084473357
 20
13.771863974
 10
29.7185592112
 20
13.7695139956
 10
29.730350171
 20
13.76795627
  0
LINE
  5
441
100
AcDbEntity
  8
RACCORDO
100
AcDbLine
 62
253
  6
CONTINUOUS
 10
31.9560215912
 20
17.522358692
 11
32.0683087276
 21
17.399440229
  0
LWPOLYLINE
  5
442
100
AcDbEntity
  8
RACCORDO
100
AcDbPolyline
 62
7
  6
CONTINUOUS
 90
17
 70
0
 10
32.3274596464
 20
10.6503926644
 10
32.3450059154
 20
10.6303700414
 10
32.363948853
 20
10.6112634594
 10
32.3841962975
 20
10.5931502844
 10
32.405633669
 20
10.5760367801
 10
32.4281500584
 20
10.5600604892
 10
32.4516418462
 20
10.5454937193
 10
32.4759664795
 20
10.5323979766
 10
32.5009674904
 20
10.5208343047
 10
32.5265048074
 20
10.511073182
 10
32.5523984893
 20
10.5031631994
 10
32.5784548599
 20
10.4971423179
 10
32.6044958516
 20
10.4932601079
 10
32.6303075978
 20
10.4915459604
 10
32.6556637316
 20
10.4920039298
 10
32.6803510679
 20
10.4948352891
 10
32.6921221945
 20
10.4971165515
  0
LWPOLYLINE
  5
443
100
AcDbEntity
  8
0
100
AcDbPolyline
 62
7
  6
CONTINUOUS
 90
6
 70
0
 10
32.1347219722
 20
17.2612743156
 10
32.0811212277
 20
17.323305449
 10
31.8647647301
 20
17.5391536286
 10
31.6407291512
 20
17.7298185939
 10
31.4120441879
 20
17.8927219285
 10
31.2967319569
 20
17.9631695026
  0
LWPOLYLINE
  5
444
100
AcDbEntity
  8
RACCORDO
100
AcDbPolyline
 62
253
  6
CONTINUOUS
 90
15
 70
0
 10
32.0683087276
 20
17.399440229
 10
32.1781246532
 20
17.2711018882
 10
32.2845737642
 20
17.1383903278
 10
32.3876285249
 20
17.0012697865
 10
32.4873164711
 20
16.8597760256
 10
32.582824607
 20
16.7150629871
 10
32.6741187456
 20
16.5671043571
 10
32.7612330738
 20
16.4159264495
 10
32.8434571574
 20
16.2627621484
 10
32.9207510128
 20
16.1075951991
 10
32.9931546235
 20
15.9504418563
 10
33.0600775054
 20
15.7925837686
 10
33.1214748439
 20
15.6340151413
 10
33.1773914535
 20
15.4747417691
 10
33.2273712932
 20
15.3160626843
  0
LWPOLYLINE
  5
445
100
AcDbEntity
  8
RACCORDO
100
AcDbPolyline
 62
253
  6
CONTINUOUS
 90
10
 70
0
 10
29.0467821909
 20
18.124786472
 10
29.0577931995
 20
18.1115488138
 10
29.0697970812
 20
18.0990325864
 10
29.0827026281
 20
18.0873331457
 10
29.0964121238
 20
18.0765393895
 10
29.1108209935
 20
18.0667339241
 10
29.1258184264
 20
18.0579921655
 10
29.1412897993
 20
18.0503807316
 10
29.1571177152
 20
18.0439572087
 10
29.1731816892
 20
18.0387703709
  0
LINE
  5
446
100
AcDbEntity
  8
RACCORDO
100
AcDbLine
 62
253
  6
CONTINUOUS
 10
29.7745343046
 20
13.7684218307
 11
29.7090435368
 21
13.8520719003
  0
LWPOLYLINE
  5
447
100
AcDbEntity
  8
RACCORDO
100
AcDbPolyline
 62
253
  6
CONTINUOUS
 90
12
 70
0
 10
32.3274596464
 20
17.2957430601
 10
32.4272949335
 20
17.1663133531
 10
32.523724625
 20
17.0339321184
 10
32.616748721
 20
16.898599356
 10
32.7065522006
 20
16.7600111669
 10
32.7929500846
 20
16.6184714502
 10
32.8753874352
 20
16.4748919031
 10
32.9538393565
 20
16.3292598067
 10
33.0283307444
 20
16.18158788
 10
33.098381348
 20
16.0328259768
 10
33.1639645775
 20
15.8829625659
 10
33.2251070227
 20
15.7320091785
  0
LWPOLYLINE
  5
448
100
AcDbEntity
  8
RACCORDO
100
AcDbPolyline
 62
253
  6
CONTINUOUS
 90
19
 70
0
 10
32.3274596464
 20
18.9418698817
 10
32.2004079902
 20
19.1070439157
 10
32.0714119902
 20
19.2678220175
 10
31.9404716461
 20
19.4242041869
 10
31.8072909104
 20
19.5764325237
 10
31.6721658306
 20
19.7242649282
 10
31.5359845503
 20
19.8669751018
 10
31.3991843812
 20
20.0041463422
 10
31.2613280115
 20
20.1361953517
 10
31.1219916491
 20
20.2636459387
 10
30.9813577457
 20
20.3865138575
 10
30.8392438497
 20
20.5047833537
 10
30.6946788135
 20
20.6189309732
 10
30.5473144045
 20
20.7293595389
 10
30.3974988553
 20
20.8356662278
 10
30.2453057157
 20
20.9371191167
 10
30.0907595023
 20
21.0334742311
 10
29.9338356986
 20
21.1249755454
 10
29.7745343046
 20
21.2116230597
  0
LINE
  5
449
100
AcDbEntity
  8
RACCORDO
100
AcDbLine
 62
7
  6
CONTINUOUS
 10
29.6364985449
 20
13.8538562399
 11
29.6903884463
 21
13.7827505968
  0
LWPOLYLINE
  5
44A
100
AcDbEntity
  8
RACCORDO
100
AcDbPolyline
 62
253
  6
CONTINUOUS
 90
11
 70
0
 10
29.7090435368
 20
13.8520719003
 10
29.6441195625
 20
13.9384737858
 10
29.5797623814
 20
14.0276274871
 10
29.5157814884
 20
14.1196803153
 10
29.4523673888
 20
14.2144849594
 10
29.3900915984
 20
14.3115994861
 10
29.3289484076
 20
14.411103972
 10
29.2689435261
 20
14.5129183405
 10
29.2106655991
 20
14.6163604287
 10
29.1543108418
 20
14.7212028489
 10
29.0996830391
 20
14.8276729886
  0
LWPOLYLINE
  5
44B
100
AcDbEntity
  8
RACCORDO
100
AcDbPolyline
 62
253
  6
CONTINUOUS
 90
19
 70
0
 10
32.7479891919
 20
19.070444669
 10
32.6031610469
 20
19.2645442438
 10
32.4550170235
 20
19.4538424399
 10
32.3037956592
 20
19.6380829201
 10
32.1495179116
 20
19.8172688662
 10
31.9926392961
 20
19.9908993182
 10
31.8340885404
 20
20.1580452166
 10
31.6747385194
 20
20.3179803844
 10
31.5142783895
 20
20.4712065668
 10
31.3518478729
 20
20.6186086789
 10
31.188155208
 20
20.7595614663
 10
31.0229540662
 20
20.8942943167
 10
30.8538562564
 20
21.0245628224
 10
30.6799544909
 20
21.1506208887
 10
30.5025608271
 20
21.2710668449
 10
30.3226004986
 20
21.3849389231
 10
30.1405757105
 20
21.491645064
 10
29.9565580111
 20
21.5908662898
 10
29.7708643988
 20
21.682135459
  0
LWPOLYLINE
  5
44C
100
AcDbEntity
  8
RACCORDO
100
AcDbPolyline
 62
253
  6
CONTINUOUS
 90
39
 70
0
 10
32.7479891919
 20
17.4297331859
 10
32.8551745283
 20
17.2827750215
 10
32.9587212095
 20
17.1321134236
 10
33.058393787
 20
16.9780916059
 10
33.1539641663
 20
16.8210629195
 10
33.2452167385
 20
16.6613825444
 10
33.3319481673
 20
16.4994062788
 10
33.4139602561
 20
16.3355035709
 10
33.4910664781
 20
16.1700464623
 10
33.5630954475
 20
16.00340066
 10
33.6298857739
 20
15.8359348904
 10
33.6912792924
 20
15.6680406943
 10
33.7471282535
 20
15.5001208303
 10
33.7973080049
 20
15.3325506428
 10
33.8417023164
 20
15.1657188887
 10
33.8802017968
 20
15.000046528
 10
33.9127196814
 20
14.8359324164
 10
33.9391928746
 20
14.6737251417
 10
33.9595692753
 20
14.5137646003
 10
33.9738028508
 20
14.356438116
 10
33.9818670148
 20
14.2020766917
 10
33.9837447245
 20
14.050933647
 10
33.9794207172
 20
13.9033366631
 10
33.9688941997
 20
13.7596503579
 10
33.9521752959
 20
13.6201811962
 10
33.929258455
 20
13.4851034202
 10
33.9001985302
 20
13.3549017328
 10
33.8651737703
 20
13.2302865816
 10
33.8242855511
 20
13.1114364449
 10
33.7776897601
 20
12.9986490419
 10
33.725810206
 20
12.8926506192
 10
33.6690705573
 20
12.7938322357
 10
33.6075687093
 20
12.7019387719
 10
33.5412706783
 20
12.6166828133
 10
33.4704795216
 20
12.538287566
 10
33.3953027597
 20
12.4667175908
 10
33.3152421603
 20
12.4015200195
 10
33.2298283238
 20
12.3425711073
 10
33.161595683
 20
12.3023099217
  0
LWPOLYLINE
  5
44D
100
AcDbEntity
  8
RACCORDO
100
AcDbPolyline
 62
7
  6
CONTINUOUS
 90
3
 70
0
 10
32.1016242113
 20
15.081122952
 10
32.1094484029
 20
15.0703613842
 10
32.1161146583
 20
15.0592091858
  0
LWPOLYLINE
  5
44E
100
AcDbEntity
  8
DRAFT
100
AcDbPolyline
 62
7
  6
CONTINUOUS
 90
37
 70
0
 10
33.3273155295
 20
17.7589578919
 10
33.4419541454
 20
17.6010290571
 10
33.5519107559
 20
17.4397183507
 10
33.657185361
 20
17.2750257728
 10
33.7580527897
 20
17.106454526
 10
33.8542382131
 20
16.9345014076
 10
33.9449171435
 20
16.76065681
 10
34.0299821149
 20
16.5850487682
 10
34.1095405934
 20
16.4075492473
 10
34.18309049
 20
16.2292645345
 10
34.2506589618
 20
16.0499892203
 10
34.3122188518
 20
15.8699287143
 10
34.3671866002
 20
15.6908055324
 10
34.4154457255
 20
15.5128667938
 10
34.4571127092
 20
15.3358653794
 10
34.491953436
 20
15.1607824475
 10
34.5199600232
 20
14.9873719374
 10
34.5411403535
 20
14.8158799099
 10
34.5552839591
 20
14.648025706
 10
34.5623206839
 20
14.4840990439
 10
34.5623206839
 20
14.3238102055
 10
34.5552839591
 20
14.1680093769
 10
34.5411403535
 20
14.0164878542
 10
34.5199600232
 20
13.8694543412
 10
34.491953436
 20
13.728385136
 10
34.4571127092
 20
13.5935354021
 10
34.4154457255
 20
13.464649976
 10
34.3671866002
 20
13.3424396657
 10
34.3122188518
 20
13.2267918619
 10
34.2506589618
 20
13.1178191737
 10
34.18309049
 20
13.0165702371
 10
34.1095405934
 20
12.9232191014
 10
34.0299821149
 20
12.8375917172
 10
33.9449171435
 20
12.7602145721
 10
33.8542382131
 20
12.6910837304
 10
33.7580527897
 20
12.630203128
 10
33.7379017725
 20
12.618885208
  0
LWPOLYLINE
  5
44F
100
AcDbEntity
  8
RACCORDO
100
AcDbPolyline
 62
7
  6
CONTINUOUS
 90
4
 70
0
 10
31.3514705108
 20
15.6928531558
 10
31.367924286
 20
15.669530074
 10
31.3861752445
 20
15.6482992399
 10
31.4060104495
 20
15.629496054
  0
LWPOLYLINE
  5
450
100
AcDbEntity
  8
RACCORDO
100
AcDbPolyline
 62
7
  6
CONTINUOUS
 90
3
 70
0
 10
31.1678697093
 20
16.7008462122
 10
31.1740448674
 20
16.6910538051
 10
31.1795288217
 20
16.6804908948
  0
LWPOLYLINE
  5
451
100
AcDbEntity
  8
RACCORDO
100
AcDbPolyline
 62
253
  6
CONTINUOUS
 90
7
 70
0
 10
31.351543799
 20
15.7105067398
 10
31.3598640015
 20
15.6969667794
 10
31.3690617559
 20
15.6838222445
 10
31.3786197093
 20
15.6717251641
 10
31.3883654106
 20
15.6608928809
 10
31.3984713109
 20
15.6511080521
 10
31.4089374102
 20
15.6423706776
  0
LWPOLYLINE
  5
452
100
AcDbEntity
  8
RACCORDO
100
AcDbPolyline
 62
7
  6
CONTINUOUS
 90
15
 70
0
 10
29.7745343046
 20
21.2116230597
 10
29.7634823809
 20
21.2308825291
 10
29.752935106
 20
21.2505866318
 10
29.7429503078
 20
21.2707274039
 10
29.7335879982
 20
21.2913376527
 10
29.7249053538
 20
21.3123608235
 10
29.716957727
 20
21.3336513567
 10
29.7098083733
 20
21.3551880302
 10
29.7035125894
 20
21.3769520302
 10
29.6981196318
 20
21.3987985333
 10
29.6936946036
 20
21.4206991157
 10
29.690295373
 20
21.4426249514
 10
29.6879750726
 20
21.4644277306
 10
29.6868025866
 20
21.4860761602
 10
29.686666339
 20
21.4961969636
  0
LINE
  5
453
100
AcDbEntity
  8
RACCORDO
100
AcDbLine
 62
7
  6
CONTINUOUS
 10
31.3371622771
 20
15.7178239462
 11
31.3514705108
 21
15.6928531558
  0
LWPOLYLINE
  5
454
100
AcDbEntity
  8
RACCORDO
100
AcDbPolyline
 62
7
  6
CONTINUOUS
 90
8
 70
0
 10
29.019426268
 20
14.8643720482
 10
29.0361800213
 20
14.8304605276
 10
29.1240829194
 20
14.6602791653
 10
29.2171446645
 20
14.4925556865
 10
29.315136925
 20
14.3276901928
 10
29.4178524921
 20
14.1660308147
 10
29.5250598247
 20
14.0079529575
 10
29.6364985449
 20
13.8538562399
  0
LINE
  5
455
100
AcDbEntity
  8
RACCORDO
100
AcDbLine
 62
253
  6
CONTINUOUS
 10
29.0996830391
 20
14.8276729886
 11
29.0467821909
 21
14.935770848
  0
LINE
  5
456
100
AcDbEntity
  8
RACCORDO
100
AcDbLine
 62
7
  6
CONTINUOUS
 10
29.0194034286
 20
14.8644189273
 11
29.0194279414
 21
14.8643686356
  0
LWPOLYLINE
  5
457
100
AcDbEntity
  8
RACCORDO
100
AcDbPolyline
 62
7
  6
CONTINUOUS
 90
4
 70
0
 10
32.1161146583
 20
15.0592091858
 10
32.1214591259
 20
15.0479798962
 10
32.1251817485
 20
15.037478455
 10
32.1272228742
 20
15.0285457049
  0
LINE
  5
458
100
AcDbEntity
  8
RACCORDO
100
AcDbLine
 62
7
  6
CONTINUOUS
 10
29.0161836779
 20
14.8712363244
 11
29.0194013496
 21
14.8644221742
  0
LWPOLYLINE
  5
459
100
AcDbEntity
  8
RACCORDO
100
AcDbPolyline
 62
253
  6
CONTINUOUS
 90
7
 70
0
 10
29.1731817115
 20
18.0387703993
 10
29.2082050424
 20
17.9633675896
 10
29.2408397476
 20
17.8876735039
 10
29.2709809033
 20
17.8115942377
 10
29.2984213387
 20
17.7349882798
 10
29.3231892354
 20
17.6577436204
 10
29.3264986355
 20
17.6462005438
  0
LWPOLYLINE
  5
45A
100
AcDbEntity
  8
RACCORDO
100
AcDbPolyline
 62
253
  6
CONTINUOUS
 90
8
 70
0
 10
32.127790666
 20
15.0566827216
 10
32.1308224997
 20
15.0501512036
 10
32.1334915866
 20
15.0437400458
 10
32.1358081922
 20
15.0374802091
 10
32.137762051
 20
15.0313407326
 10
32.1393828577
 20
15.025234438
 10
32.1406805106
 20
15.0191322657
 10
32.1416451114
 20
15.0130632752
  0
LWPOLYLINE
  5
45B
100
AcDbEntity
  8
RACCORDO
100
AcDbPolyline
 62
253
  6
CONTINUOUS
 90
25
 70
0
 10
29.0057145656
 20
18.1246017352
 10
29.0069925948
 20
18.1218413191
 10
29.0106093306
 20
18.1148203925
 10
29.0146491572
 20
18.1080242677
 10
29.0191029089
 20
18.1014667693
 10
29.0239608244
 20
18.0951608375
 10
29.0292099451
 20
18.0891237555
 10
29.0348392504
 20
18.0833675444
 10
29.0408365447
 20
18.0779040136
 10
29.047185772
 20
18.0727489442
 10
29.0538737119
 20
18.0679129735
 10
29.0608861604
 20
18.0634061314
 10
29.0682040033
 20
18.0592418505
 10
29.0758117018
 20
18.055429315
 10
29.08369332
 20
18.0519765942
 10
29.0918275007
 20
18.0488938211
 10
29.1001966343
 20
18.0461884985
 10
29.1087831158
 20
18.0438667974
 10
29.1175640375
 20
18.0419351321
 10
29.1265200133
 20
18.0403991425
 10
29.1356317846
 20
18.0392630777
 10
29.1448752089
 20
18.0385294628
 10
29.1542281545
 20
18.0382008094
 10
29.163670921
 20
18.0382802066
 10
29.1731820844
 20
18.0387696708
  0
LINE
  5
45C
100
AcDbEntity
  8
RACCORDO
100
AcDbLine
 62
7
  6
CONTINUOUS
 10
31.3253527194
 20
15.7437657337
 11
31.3371622771
 21
15.7178239462
  0
LINE
  5
45D
100
AcDbEntity
  8
RACCORDO
100
AcDbLine
 62
7
  6
CONTINUOUS
 10
29.0056218148
 20
18.124808867
 11
29.0057145656
 21
18.1246017352
  0
LWPOLYLINE
  5
45E
100
AcDbEntity
  8
RACCORDO
100
AcDbPolyline
 62
7
  6
CONTINUOUS
 90
3
 70
0
 10
29.686666339
 20
11.2890774608
 10
29.6868025866
 20
11.2887656289
 10
29.6868766484
 20
11.2887110156
  0
LWPOLYLINE
  5
45F
100
AcDbEntity
  8
RACCORDO
100
AcDbPolyline
 62
7
  6
CONTINUOUS
 90
9
 70
0
 10
29.0056220734
 20
18.1248080083
 10
29.0280592681
 20
18.0732256981
 10
29.0660861095
 20
17.9778695623
 10
29.1004823184
 20
17.8803010304
 10
29.1310909687
 20
17.7806059581
 10
29.1578249362
 20
17.6787671765
 10
29.180647499
 20
17.5746653782
 10
29.1995029185
 20
17.4684573636
 10
29.2055183411
 20
17.4247250345
  0
LWPOLYLINE
  5
460
100
AcDbEntity
  8
RACCORDO
100
AcDbPolyline
 62
7
  6
CONTINUOUS
 90
5
 70
0
 10
31.1795288217
 20
16.6804908948
 10
31.184222308
 20
16.6693186283
 10
31.1880785003
 20
16.6574394792
 10
31.190834795
 20
16.6452421108
 10
31.1913803433
 20
16.6417991014
  0
LINE
  5
461
100
AcDbEntity
  8
RACCORDO
100
AcDbLine
 62
7
  6
CONTINUOUS
 10
29.0072684292
 20
14.893398179
 11
29.0161836779
 21
14.8712363244
  0
LWPOLYLINE
  5
462
100
AcDbEntity
  8
RACCORDO
100
AcDbPolyline
 62
253
  6
CONTINUOUS
 90
6
 70
0
 10
31.1923838874
 20
-48.6428964196
 10
31.195278672
 20
-48.6501186217
 10
31.1979828424
 20
-48.6576469048
 10
31.2003758786
 20
-48.6653613226
 10
31.2024176073
 20
-48.6732218929
 10
31.2041482019
 20
-48.6812685979
  0
LWPOLYLINE
  5
463
100
AcDbEntity
  8
RACCORDO
100
AcDbPolyline
 62
253
  6
CONTINUOUS
 90
6
 70
0
 10
31.1923838874
 20
16.6747257239
 10
31.195278672
 20
16.6675035218
 10
31.1979828424
 20
16.6599752386
 10
31.2003758786
 20
16.6522608208
 10
31.2024176073
 20
16.6444002505
 10
31.2041482019
 20
16.6363535455
  0
LWPOLYLINE
  5
464
100
AcDbEntity
  8
DRAFT
100
AcDbPolyline
 62
7
  6
CONTINUOUS
 90
26
 70
0
 10
37.0219265265
 20
-47.3126756908
 10
36.9270060881
 20
-47.0587881675
 10
36.8243988914
 20
-46.8051086011
 10
36.7142566391
 20
-46.5519051263
 10
36.5973994387
 20
-46.3010563978
 10
36.4739307374
 20
-46.0528672911
 10
36.343747088
 20
-45.8070329307
 10
36.207358257
 20
-45.5645173438
 10
36.0645611302
 20
-45.3250500811
 10
35.9155588218
 20
-45.0889015921
 10
35.7614704413
 20
-44.8578472519
 10
35.6024479969
 20
-44.6321830877
 10
35.4383394805
 20
-44.4116130724
 10
35.2698079767
 20
-44.1970245005
 10
35.0966488764
 20
-43.9882246891
 10
34.9190667888
 20
-43.7854063211
 10
34.7383386259
 20
-43.5900347389
 10
34.5546060531
 20
-43.402327079
 10
34.3677274049
 20
-43.2220662049
 10
34.178554597
 20
-43.0500660496
 10
33.986952776
 20
-42.8862581254
 10
33.7930567953
 20
-42.7307109201
 10
33.5981231301
 20
-42.5844438299
 10
33.4025706055
 20
-42.4477966537
 10
33.2059803964
 20
-42.3204295925
 10
33.0083525028
 20
-42.2023426465
  0
LWPOLYLINE
  5
465
100
AcDbEntity
  8
DRAFT
100
AcDbPolyline
 62
7
  6
CONTINUOUS
 90
26
 70
0
 10
37.0219265265
 20
18.0049464527
 10
36.9270060881
 20
18.2588339759
 10
36.8243988914
 20
18.5125135423
 10
36.7142566391
 20
18.7657170171
 10
36.5973994387
 20
19.0165657457
 10
36.4739307374
 20
19.2647548523
 10
36.343747088
 20
19.5105892127
 10
36.207358257
 20
19.7531047996
 10
36.0645611302
 20
19.9925720623
 10
35.9155588218
 20
20.2287205514
 10
35.7614704413
 20
20.4597748915
 10
35.6024479969
 20
20.6854390557
 10
35.4383394805
 20
20.906009071
 10
35.2698079767
 20
21.120597643
 10
35.0966488764
 20
21.3293974543
 10
34.9190667888
 20
21.5322158223
 10
34.7383386259
 20
21.7275874045
 10
34.5546060531
 20
21.9152950644
 10
34.3677274049
 20
22.0955559386
 10
34.178554597
 20
22.2675560938
 10
33.986952776
 20
22.431364018
 10
33.7930567953
 20
22.5869112233
 10
33.5981231301
 20
22.7331783135
 10
33.4025706055
 20
22.8698254898
 10
33.2059803964
 20
22.9971925509
 10
33.0083525028
 20
23.1152794969
  0
LINE
  5
466
100
AcDbEntity
  8
RACCORDO
100
AcDbLine
 62
253
  6
CONTINUOUS
 10
33.2250557124
 20
-49.5854809768
 11
33.2813568041
 21
-49.7365276932
  0
LINE
  5
467
100
AcDbEntity
  8
RACCORDO
100
AcDbLine
 62
253
  6
CONTINUOUS
 10
33.2251070227
 20
15.7320091785
 11
33.2814082028
 21
15.5809502625
  0
LWPOLYLINE
  5
468
100
AcDbEntity
  8
RACCORDO
100
AcDbPolyline
 62
253
  6
CONTINUOUS
 90
34
 70
0
 10
33.2813568041
 20
-49.7365276932
 10
33.3327868765
 20
-49.8876897894
 10
33.3793765659
 20
-50.0389577242
 10
33.4208173719
 20
-50.1893186728
 10
33.4570710002
 20
-50.3387583562
 10
33.488175745
 20
-50.4872910535
 10
33.513937988
 20
-50.6339467766
 10
33.5343230891
 20
-50.7786902877
 10
33.5493656884
 20
-50.9215568246
 10
33.5589760884
 20
-51.0616821129
 10
33.5631293223
 20
-51.1990497337
 10
33.5618503568
 20
-51.3336761058
 10
33.5551243946
 20
-51.464746211
 10
33.5429046316
 20
-51.5923043448
 10
33.5252378719
 20
-51.7163062117
 10
33.5022497303
 20
-51.8358039072
 10
33.4738237562
 20
-51.9508375055
 10
33.4400764002
 20
-52.0613669324
 10
33.401482629
 20
-52.166324061
 10
33.3579797405
 20
-52.2655269811
 10
33.3096304368
 20
-52.3591576028
 10
33.2570977908
 20
-52.4466935293
 10
33.2005617953
 20
-52.5278862046
 10
33.1398424575
 20
-52.6029841847
 10
33.0750628717
 20
-52.6722107409
 10
33.0062331633
 20
-52.7357069655
 10
32.9333432068
 20
-52.7933317661
 10
32.8564857203
 20
-52.8448851372
 10
32.7751267376
 20
-52.8904931019
 10
32.6898002249
 20
-52.9300296372
 10
32.6022007978
 20
-52.9629166678
 10
32.5128933283
 20
-52.9889615023
 10
32.4213129445
 20
-53.0083568321
 10
32.3274596464
 20
-53.0211026574
  0
LWPOLYLINE
  5
469
100
AcDbEntity
  8
RACCORDO
100
AcDbPolyline
 62
253
  6
CONTINUOUS
 90
34
 70
0
 10
33.2814082028
 20
15.5809502625
 10
33.3328374681
 20
15.4297762827
 10
33.3794254682
 20
15.2784967744
 10
33.4208636714
 20
15.128124791
 10
33.457113772
 20
14.9786746239
 10
33.4882140756
 20
14.8301319817
 10
33.5139709677
 20
14.6834670436
 10
33.5343498025
 20
14.5387150616
 10
33.5493852257
 20
14.3958407837
 10
33.55898756
 20
14.2557086324
 10
33.5631318282
 20
14.1183349868
 10
33.5618430075
 20
13.9837034679
 10
33.5551063517
 20
13.8526293606
 10
33.5428750011
 20
13.7250683329
 10
33.5251958154
 20
13.6010647168
 10
33.5021946282
 20
13.4815667935
 10
33.4737549562
 20
13.3665346362
 10
33.4399932827
 20
13.2560081717
 10
33.4013848911
 20
13.1510554622
 10
33.357867215
 20
13.0518585841
 10
33.3095028209
 20
12.9582354609
 10
33.2569546923
 20
12.8707079255
 10
33.2004029128
 20
12.7895243431
 10
33.1396673987
 20
12.7144363485
 10
33.0748708821
 20
12.6452206784
 10
33.0060210706
 20
12.5817353267
 10
32.9331102566
 20
12.5241222995
 10
32.8562380487
 20
12.4725843525
 10
32.7748656169
 20
12.4269971963
 10
32.6895317913
 20
12.3874851203
 10
32.6019526715
 20
12.3546237489
 10
32.5127002906
 20
12.3286049567
 10
32.4212026156
 20
12.3092368691
 10
32.3274596464
 20
12.296519486
  0
LWPOLYLINE
  5
46A
100
AcDbEntity
  8
RACCORDO
100
AcDbPolyline
 62
253
  6
CONTINUOUS
 90
3
 70
0
 10
29.0379698998
 20
-46.8469445081
 10
29.0421554313
 20
-46.8598065125
 10
29.0467821909
 20
-46.8726862044
  0
LWPOLYLINE
  5
46B
100
AcDbEntity
  8
RACCORDO
100
AcDbPolyline
 62
253
  6
CONTINUOUS
 90
3
 70
0
 10
29.0379698998
 20
18.4706776353
 10
29.0421554313
 20
18.457815631
 10
29.0467821909
 20
18.444935939
  0
LWPOLYLINE
  5
46C
100
AcDbEntity
  8
RACCORDO
100
AcDbPolyline
 62
253
  6
CONTINUOUS
 90
5
 70
0
 10
31.328157862
 20
-49.5515507671
 10
31.332365856
 20
-49.5647749978
 10
31.3377377684
 20
-49.5787238623
 10
31.3442020078
 20
-49.5931173458
 10
31.351543799
 20
-49.6071154037
  0
LWPOLYLINE
  5
46D
100
AcDbEntity
  8
RACCORDO
100
AcDbPolyline
 62
253
  6
CONTINUOUS
 90
5
 70
0
 10
31.328157862
 20
15.7660713763
 10
31.332365856
 20
15.7528471456
 10
31.3377377684
 20
15.7388982811
 10
31.3442020078
 20
15.7245047976
 10
31.351543799
 20
15.7105067398
  0
LINE
  5
46E
100
AcDbEntity
  8
RACCORDO
100
AcDbLine
 62
253
  6
CONTINUOUS
 10
29.0342179066
 20
-46.8341281643
 11
29.0379698998
 21
-46.8469445081
  0
LINE
  5
46F
100
AcDbEntity
  8
RACCORDO
100
AcDbLine
 62
253
  6
CONTINUOUS
 10
29.0342179066
 20
18.4834939791
 11
29.0379698998
 21
18.4706776353
  0
LWPOLYLINE
  5
470
100
AcDbEntity
  8
RACCORDO
100
AcDbPolyline
 62
253
  6
CONTINUOUS
 90
20
 70
0
 10
33.2273712932
 20
-50.0015594591
 10
33.2713657854
 20
-50.1596391942
 10
33.3094235076
 20
-50.3171246418
 10
33.3412341524
 20
-50.4727319566
 10
33.3667467083
 20
-50.6264459755
 10
33.3860121866
 20
-50.7782818615
 10
33.3988733135
 20
-50.9270012584
 10
33.4052776643
 20
-51.0725789163
 10
33.4052776637
 20
-51.2150400851
 10
33.3988733115
 20
-51.3532221585
 10
33.3860121829
 20
-51.4870898486
 10
33.3667467028
 20
-51.6166784433
 10
33.3412341457
 20
-51.7409312008
 10
33.3094235007
 20
-51.8598043764
 10
33.2713657788
 20
-51.9733417147
 10
33.2273712868
 20
-52.0806177085
 10
33.1773914471
 20
-52.1815813247
 10
33.1214748373
 20
-52.2762835962
 10
33.0600774983
 20
-52.363952115
 10
32.9931546152
 20
-52.4445293359
  0
LWPOLYLINE
  5
471
100
AcDbEntity
  8
RACCORDO
100
AcDbPolyline
 62
253
  6
CONTINUOUS
 90
20
 70
0
 10
33.2273712932
 20
15.3160626843
 10
33.2713657854
 20
15.1579829493
 10
33.3094235076
 20
15.0004975016
 10
33.3412341524
 20
14.8448901868
 10
33.3667467083
 20
14.691176168
 10
33.3860121866
 20
14.5393402819
 10
33.3988733135
 20
14.390620885
 10
33.4052776643
 20
14.2450432271
 10
33.4052776637
 20
14.1025820584
 10
33.3988733115
 20
13.9643999849
 10
33.3860121829
 20
13.8305322949
 10
33.3667467028
 20
13.7009437001
 10
33.3412341457
 20
13.5766909426
 10
33.3094235007
 20
13.4578177671
 10
33.2713657788
 20
13.3442804287
 10
33.2273712868
 20
13.2370044349
 10
33.1773914471
 20
13.1360408188
 10
33.1214748373
 20
13.0413385472
 10
33.0600774983
 20
12.9536700284
 10
32.9931546152
 20
12.8730928075
  0
LWPOLYLINE
  5
472
100
AcDbEntity
  8
RACCORDO
100
AcDbPolyline
 62
253
  6
CONTINUOUS
 90
16
 70
0
 10
34.8590606715
 20
-49.5667703882
 10
34.801077801
 20
-49.338904615
 10
34.736072073
 20
-49.1095849577
 10
34.6643782693
 20
-48.8799944593
 10
34.5859605062
 20
-48.6501299037
 10
34.5008546672
 20
-48.4199945069
 10
34.4095031851
 20
-48.1907809609
 10
34.3118764131
 20
-47.9625003256
 10
34.2080039979
 20
-47.7351415409
 10
34.0984173124
 20
-47.5098641187
 10
33.9830951376
 20
-47.2866890325
 10
33.8620586925
 20
-47.0655953088
 10
33.7359030062
 20
-46.8476795382
 10
33.6048264218
 20
-46.6333072509
 10
33.4686305962
 20
-46.4221129167
 10
33.3273155295
 20
-46.2140965357
  0
LWPOLYLINE
  5
473
100
AcDbEntity
  8
RACCORDO
100
AcDbPolyline
 62
253
  6
CONTINUOUS
 90
16
 70
0
 10
34.8590606715
 20
15.7508517552
 10
34.801077801
 20
15.9787175285
 10
34.736072073
 20
16.2080371857
 10
34.6643782693
 20
16.4376276841
 10
34.5859605062
 20
16.6674922398
 10
34.5008546672
 20
16.8976276365
 10
34.4095031851
 20
17.1268411825
 10
34.3118764131
 20
17.3551218179
 10
34.2080039979
 20
17.5824806025
 10
34.0984173124
 20
17.8077580247
 10
33.9830951376
 20
18.0309331109
 10
33.8620586925
 20
18.2520268346
 10
33.7359030062
 20
18.4699426052
 10
33.6048264218
 20
18.6843148925
 10
33.4686305962
 20
18.8955092267
 10
33.3273155295
 20
19.1035256078
  0
LWPOLYLINE
  5
474
100
AcDbEntity
  8
RACCORDO
100
AcDbPolyline
 62
253
  6
CONTINUOUS
 90
7
 70
0
 10
30.0238356308
 20
-49.0111276438
 10
30.0253685309
 20
-49.0181838004
 10
30.0278618987
 20
-49.0244598851
 10
30.031244929
 20
-49.0297776737
 10
30.0354215528
 20
-49.0339861551
 10
30.040273165
 20
-49.0369658196
 10
30.041619072
 20
-49.0375244083
  0
LWPOLYLINE
  5
475
100
AcDbEntity
  8
RACCORDO
100
AcDbPolyline
 62
253
  6
CONTINUOUS
 90
7
 70
0
 10
30.6899344431
 20
-49.2601081638
 10
30.6914673437
 20
-49.2671643072
 10
30.6939607082
 20
-49.2734403855
 10
30.6973437334
 20
-49.2787581738
 10
30.7015203522
 20
-49.2829666596
 10
30.7063719611
 20
-49.2859463312
 10
30.7077833504
 20
-49.2865295155
  0
LWPOLYLINE
  5
476
100
AcDbEntity
  8
RACCORDO
100
AcDbPolyline
 62
253
  6
CONTINUOUS
 90
7
 70
0
 10
30.0238356308
 20
16.3064944997
 10
30.0253685309
 20
16.299438343
 10
30.0278618987
 20
16.2931622583
 10
30.031244929
 20
16.2878444697
 10
30.0354215528
 20
16.2836359883
 10
30.040273165
 20
16.2806563239
 10
30.041619072
 20
16.2800977352
  0
LWPOLYLINE
  5
477
100
AcDbEntity
  8
RACCORDO
100
AcDbPolyline
 62
253
  6
CONTINUOUS
 90
7
 70
0
 10
30.6899344431
 20
16.0575139796
 10
30.6914673437
 20
16.0504578362
 10
30.6939607082
 20
16.0441817579
 10
30.6973437334
 20
16.0388639697
 10
30.7015203522
 20
16.0346554839
 10
30.7063719611
 20
16.0316758122
 10
30.7077833504
 20
16.0310926279
  0
LWPOLYLINE
  5
478
100
AcDbEntity
  8
RACCORDO
100
AcDbPolyline
 62
253
  6
CONTINUOUS
 90
15
 70
0
 10
30.961579669
 20
-48.5170143295
 10
30.9608480295
 20
-48.5133514827
 10
30.9604283509
 20
-48.5099996153
 10
30.9602901407
 20
-48.5069660864
 10
30.9603949152
 20
-48.5042557369
 10
30.9607234941
 20
-48.5018660988
 10
30.961277422
 20
-48.4997900486
 10
30.9620417216
 20
-48.4980194453
 10
30.9629856263
 20
-48.4965520707
 10
30.9640893546
 20
-48.495384243
 10
30.9653283846
 20
-48.4945061459
 10
30.9666901183
 20
-48.4938934364
 10
30.9681759092
 20
-48.4935246255
 10
30.9697580615
 20
-48.493390746
 10
30.9707895
 20
-48.4934208869
  0
LWPOLYLINE
  5
479
100
AcDbEntity
  8
RACCORDO
100
AcDbPolyline
 62
253
  6
CONTINUOUS
 90
15
 70
0
 10
30.961579669
 20
16.8006078139
 10
30.9608480295
 20
16.8042706608
 10
30.9604283509
 20
16.8076225281
 10
30.9602901407
 20
16.810656057
 10
30.9603949152
 20
16.8133664066
 10
30.9607234941
 20
16.8157560446
 10
30.961277422
 20
16.8178320948
 10
30.9620417216
 20
16.8196026982
 10
30.9629856263
 20
16.8210700727
 10
30.9640893546
 20
16.8222379005
 10
30.9653283846
 20
16.8231159975
 10
30.9666901183
 20
16.823728707
 10
30.9681759092
 20
16.8240975179
 10
30.9697580615
 20
16.8242313974
 10
30.9707895
 20
16.8242012565
  0
LWPOLYLINE
  5
47A
100
AcDbEntity
  8
RACCORDO
100
AcDbPolyline
 62
253
  6
CONTINUOUS
 90
7
 70
0
 10
28.1082284785
 20
31.9524964512
 10
28.1141392775
 20
31.9222054594
 10
28.1190114428
 20
31.8918208484
 10
28.1228449744
 20
31.8613426183
 10
28.1256398722
 20
31.8307707692
 10
28.1273961364
 20
31.8001053009
 10
28.1281137668
 20
31.7693462136
  0
LWPOLYLINE
  5
47B
100
AcDbEntity
  8
RACCORDO
100
AcDbPolyline
 62
253
  6
CONTINUOUS
 90
13
 70
0
 10
30.844128477
 20
-50.0343672981
 10
30.8412151896
 20
-50.0182840325
 10
30.8370022448
 20
-50.0013084248
 10
30.8314123791
 20
-49.9835604948
 10
30.8243269355
 20
-49.9650402873
 10
30.8157446331
 20
-49.9460948852
 10
30.8058786366
 20
-49.9274003868
 10
30.794802053
 20
-49.9091759805
 10
30.7826310323
 20
-49.8916451503
 10
30.769814013
 20
-49.8754135072
 10
30.7566417814
 20
-49.8607279823
 10
30.7431755915
 20
-49.8475492102
 10
30.729570403
 20
-49.8359468938
  0
LWPOLYLINE
  5
47C
100
AcDbEntity
  8
RACCORDO
100
AcDbPolyline
 62
253
  6
CONTINUOUS
 90
13
 70
0
 10
30.844128477
 20
15.2832548454
 10
30.8412151896
 20
15.2993381109
 10
30.8370022448
 20
15.3163137186
 10
30.8314123791
 20
15.3340616486
 10
30.8243269355
 20
15.3525818561
 10
30.8157446331
 20
15.3715272582
 10
30.8058786366
 20
15.3902217566
 10
30.794802053
 20
15.4084461629
 10
30.7826310323
 20
15.4259769931
 10
30.769814013
 20
15.4422086362
 10
30.7566417814
 20
15.4568941611
 10
30.7431755915
 20
15.4700729332
 10
30.729570403
 20
15.4816752497
  0
LINE
  5
47D
100
AcDbEntity
  8
RACCORDO
100
AcDbLine
 62
253
  6
CONTINUOUS
 10
31.2041482019
 20
-48.6812685979
 11
31.2055676623
 21
-48.6895014376
  0
LINE
  5
47E
100
AcDbEntity
  8
RACCORDO
100
AcDbLine
 62
253
  6
CONTINUOUS
 10
31.2041482019
 20
16.6363535455
 11
31.2055676623
 21
16.6281207059
  0
LWPOLYLINE
  5
47F
100
AcDbEntity
  8
RACCORDO
100
AcDbPolyline
 62
253
  6
CONTINUOUS
 90
13
 70
0
 10
30.7758529985
 20
-50.0407158214
 10
30.7738296583
 20
-50.0283808286
 10
30.7707139912
 20
-50.0156012168
 10
30.7665059973
 20
-50.0023769861
 10
30.7611340848
 20
-49.9884281216
 10
30.7546698455
 20
-49.9740346382
 10
30.7473280543
 20
-49.9600365803
 10
30.7390078518
 20
-49.9464966199
 10
30.7298100974
 20
-49.9333520851
 10
30.720252144
 20
-49.9212550046
 10
30.7105064427
 20
-49.9104227214
 10
30.7004005424
 20
-49.9006378926
 10
30.6899344431
 20
-49.8919005181
  0
LWPOLYLINE
  5
480
100
AcDbEntity
  8
RACCORDO
100
AcDbPolyline
 62
253
  6
CONTINUOUS
 90
3
 70
0
 10
31.3230188547
 20
-49.5264361626
 10
31.3250421949
 20
-49.5387711554
 10
31.328157862
 20
-49.5515507671
  0
LWPOLYLINE
  5
481
100
AcDbEntity
  8
RACCORDO
100
AcDbPolyline
 62
253
  6
CONTINUOUS
 90
13
 70
0
 10
30.7758529985
 20
15.2769063221
 10
30.7738296583
 20
15.2892413148
 10
30.7707139912
 20
15.3020209266
 10
30.7665059973
 20
15.3152451573
 10
30.7611340848
 20
15.3291940218
 10
30.7546698455
 20
15.3435875053
 10
30.7473280543
 20
15.3575855632
 10
30.7390078518
 20
15.3711255236
 10
30.7298100974
 20
15.3842700584
 10
30.720252144
 20
15.3963671388
 10
30.7105064427
 20
15.407199422
 10
30.7004005424
 20
15.4169842508
 10
30.6899344431
 20
15.4257216253
  0
LWPOLYLINE
  5
482
100
AcDbEntity
  8
RACCORDO
100
AcDbPolyline
 62
253
  6
CONTINUOUS
 90
3
 70
0
 10
31.3230188547
 20
15.7911859809
 10
31.3250421949
 20
15.7788509881
 10
31.328157862
 20
15.7660713763
  0
LWPOLYLINE
  5
483
100
AcDbEntity
  8
RACCORDO
100
AcDbPolyline
 62
7
  6
CONTINUOUS
 90
4
 70
0
 10
31.3088506337
 20
-49.5129065181
 10
31.3101208809
 20
-49.520942845
 10
31.3162847559
 20
-49.5474639742
 10
31.3253527194
 20
-49.5738564097
  0
LWPOLYLINE
  5
484
100
AcDbEntity
  8
RACCORDO
100
AcDbPolyline
 62
7
  6
CONTINUOUS
 90
4
 70
0
 10
31.3088506337
 20
15.8047156253
 10
31.3101208809
 20
15.7966792984
 10
31.3162847559
 20
15.7701581692
 10
31.3253527194
 20
15.7437657337
  0
LINE
  5
485
100
AcDbEntity
  8
RACCORDO
100
AcDbLine
 62
253
  6
CONTINUOUS
 10
30.8933041868
 20
-50.8776505165
 11
30.7758529985
 21
-50.0407158214
  0
LINE
  5
486
100
AcDbEntity
  8
RACCORDO
100
AcDbLine
 62
253
  6
CONTINUOUS
 10
30.9615796652
 20
-50.871301993
 11
30.844128477
 21
-50.0343672981
  0
LINE
  5
487
100
AcDbEntity
  8
RACCORDO
100
AcDbLine
 62
7
  6
CONTINUOUS
 10
31.191408194
 20
-48.6760363659
 11
31.3088593886
 21
-49.512971107
  0
LINE
  5
488
100
AcDbEntity
  8
RACCORDO
100
AcDbLine
 62
253
  6
CONTINUOUS
 10
31.2055676623
 20
-48.6895014376
 11
31.3230188547
 21
-49.5264361626
  0
LINE
  5
489
100
AcDbEntity
  8
RACCORDO
100
AcDbLine
 62
253
  6
CONTINUOUS
 10
30.8933041868
 20
14.4399716269
 11
30.7758529985
 21
15.2769063221
  0
LINE
  5
48A
100
AcDbEntity
  8
RACCORDO
100
AcDbLine
 62
253
  6
CONTINUOUS
 10
30.9615796652
 20
14.4463201504
 11
30.844128477
 21
15.2832548454
  0
LINE
  5
48B
100
AcDbEntity
  8
RACCORDO
100
AcDbLine
 62
7
  6
CONTINUOUS
 10
31.191408194
 20
16.6415857775
 11
31.3088593886
 21
15.8046510364
  0
LINE
  5
48C
100
AcDbEntity
  8
RACCORDO
100
AcDbLine
 62
253
  6
CONTINUOUS
 10
31.2055676623
 20
16.6281207059
 11
31.3230188547
 21
15.7911859809
  0
LWPOLYLINE
  5
48D
100
AcDbEntity
  8
RACCORDO
100
AcDbPolyline
 62
253
  6
CONTINUOUS
 90
9
 70
0
 10
30.9593890217
 20
-48.4697209123
 10
30.9599651347
 20
-48.4745008004
 10
30.961011576
 20
-48.4789399926
 10
30.9625141953
 20
-48.4829784559
 10
30.9644526733
 20
-48.4865615764
 10
30.9668007961
 20
-48.4896408973
 10
30.9695268099
 20
-48.4921747747
 10
30.9725938502
 20
-48.4941289412
 10
30.9730256132
 20
-48.4943438142
  0
LWPOLYLINE
  5
48E
100
AcDbEntity
  8
RACCORDO
100
AcDbPolyline
 62
253
  6
CONTINUOUS
 90
9
 70
0
 10
30.9593890217
 20
16.8479012311
 10
30.9599651347
 20
16.8431213431
 10
30.961011576
 20
16.8386821509
 10
30.9625141953
 20
16.8346436876
 10
30.9644526733
 20
16.8310605671
 10
30.9668007961
 20
16.8279812461
 10
30.9695268099
 20
16.8254473687
 10
30.9725938502
 20
16.8234932022
 10
30.9730256132
 20
16.8232783292
  0
LINE
  5
48F
100
AcDbEntity
  8
RACCORDO
100
AcDbLine
 62
7
  6
CONTINUOUS
 10
32.1272228742
 20
-50.2890764385
 11
32.1277411987
 21
-50.2934785179
  0
LINE
  5
490
100
AcDbEntity
  8
RACCORDO
100
AcDbLine
 62
7
  6
CONTINUOUS
 10
32.1272228742
 20
15.0285457049
 11
32.1277411987
 21
15.0241436255
  0
LINE
  5
491
100
AcDbEntity
  8
RACCORDO
100
AcDbLine
 62
253
  6
CONTINUOUS
 10
32.1024102058
 20
-50.492990809
 11
32.1307774828
 21
-50.4345287273
  0
LINE
  5
492
100
AcDbEntity
  8
RACCORDO
100
AcDbLine
 62
7
  6
CONTINUOUS
 10
32.1274647758
 20
-50.4967859227
 11
32.1274255009
 21
-50.4968659532
  0
LWPOLYLINE
  5
493
100
AcDbEntity
  8
RACCORDO
100
AcDbPolyline
 62
253
  6
CONTINUOUS
 90
17
 70
0
 10
32.1274255009
 20
-50.4968659532
 10
32.1272436691
 20
-50.4972199554
 10
32.1265171747
 20
-50.4984112562
 10
32.125674344
 20
-50.4994637787
 10
32.1247119786
 20
-50.500360279
 10
32.1236280201
 20
-50.5010860162
 10
32.1224169071
 20
-50.5016296021
 10
32.1210672406
 20
-50.5019743823
 10
32.1195724416
 20
-50.5021007793
 10
32.1179313657
 20
-50.5019907487
 10
32.1161389928
 20
-50.5016247443
 10
32.1141955977
 20
-50.5009752864
 10
32.1121045204
 20
-50.50002547
 10
32.1098691524
 20
-50.4987711334
 10
32.1074985573
 20
-50.497197377
 10
32.1050067843
 20
-50.4952773412
 10
32.1024102059
 20
-50.4929908091
  0
LINE
  5
494
100
AcDbEntity
  8
RACCORDO
100
AcDbLine
 62
7
  6
CONTINUOUS
 10
31.1897373561
 20
-51.0360636075
 11
31.1892446705
 21
-51.0370147411
  0
LINE
  5
495
100
AcDbEntity
  8
RACCORDO
100
AcDbLine
 62
253
  6
CONTINUOUS
 10
31.1997737876
 20
-51.0774451062
 11
31.1970616779
 21
-51.0826792808
  0
LWPOLYLINE
  5
496
100
AcDbEntity
  8
RACCORDO
100
AcDbPolyline
 62
253
  6
CONTINUOUS
 90
3
 70
0
 10
30.7655907641
 20
-49.239590907
 10
30.7700987771
 20
-49.2309407732
 10
30.7735195219
 20
-49.2212469558
  0
LWPOLYLINE
  5
497
100
AcDbEntity
  8
RACCORDO
100
AcDbPolyline
 62
253
  6
CONTINUOUS
 90
17
 70
0
 10
29.0467821909
 20
-50.3818514439
 10
29.0416177592
 20
-50.3897798357
 10
29.0370464984
 20
-50.3971779934
 10
29.0330441785
 20
-50.4040579705
 10
29.0295885739
 20
-50.4104234194
 10
29.0266456096
 20
-50.4162972667
 10
29.0241764909
 20
-50.4217185835
 10
29.0221549349
 20
-50.4266987394
 10
29.0205561024
 20
-50.4312492281
 10
29.0193527561
 20
-50.4354049521
 10
29.0185214275
 20
-50.4391773482
 10
29.0180398236
 20
-50.4425748978
 10
29.0178892698
 20
-50.4456251002
 10
29.0180483076
 20
-50.4483389439
 10
29.0184961681
 20
-50.4507236307
 10
29.019217025
 20
-50.4528003317
 10
29.0194034286
 20
-50.4532032161
  0
LWPOLYLINE
  5
498
100
AcDbEntity
  8
RACCORDO
100
AcDbPolyline
 62
253
  6
CONTINUOUS
 90
15
 70
0
 10
31.1970616779
 20
-51.0826792808
 10
31.1939792394
 20
-51.0872849759
 10
31.1906469513
 20
-51.0912863447
 10
31.1870591372
 20
-51.0946745166
 10
31.1832214736
 20
-51.0974583621
 10
31.1792714692
 20
-51.0996886463
 10
31.1752432306
 20
-51.1013522362
 10
31.1711026512
 20
-51.1024622648
 10
31.1668849193
 20
-51.1031088961
 10
31.1626219818
 20
-51.1033224289
 10
31.1582818917
 20
-51.1030725644
 10
31.1538039968
 20
-51.1023585701
 10
31.1491680794
 20
-51.1011802017
 10
31.1443943571
 20
-51.0995377034
 10
31.1394828299
 20
-51.0974310753
  0
LINE
  5
499
100
AcDbEntity
  8
RACCORDO
100
AcDbLine
 62
253
  6
CONTINUOUS
 10
32.1346599495
 20
-50.5433706676
 11
32.1325405558
 21
-50.5463970834
  0
LINE
  5
49A
100
AcDbEntity
  8
RACCORDO
100
AcDbLine
 62
253
  6
CONTINUOUS
 10
31.630841712
 20
-50.0601813253
 11
31.7211022539
 21
-49.9344637008
  0
LWPOLYLINE
  5
49B
100
AcDbEntity
  8
RACCORDO
100
AcDbPolyline
 62
253
  6
CONTINUOUS
 90
3
 70
0
 10
31.4887791108
 20
-50.1577521036
 10
31.5112168574
 20
-50.1271597736
 10
31.6769871847
 20
-49.9000104596
  0
LINE
  5
49C
100
AcDbEntity
  8
RACCORDO
100
AcDbLine
 62
253
  6
CONTINUOUS
 10
30.9795810487
 20
-50.9494572622
 11
31.2712555907
 21
-50.5537073043
  0
LINE
  5
49D
100
AcDbEntity
  8
RACCORDO
100
AcDbLine
 62
253
  6
CONTINUOUS
 10
30.9615796652
 20
-50.871301993
 11
31.2930288058
 21
-50.4236987028
  0
LINE
  5
49E
100
AcDbEntity
  8
RACCORDO
100
AcDbLine
 62
7
  6
CONTINUOUS
 10
31.1892446705
 20
-51.0370147411
 11
31.1894221538
 21
-51.0367937916
  0
LWPOLYLINE
  5
49F
100
AcDbEntity
  8
RACCORDO
100
AcDbPolyline
 62
7
  6
CONTINUOUS
 90
6
 70
0
 10
31.3405663364
 20
-50.2620682389
 10
31.3317905683
 20
-50.2724359821
 10
31.3241268542
 20
-50.2842287642
 10
31.3177300929
 20
-50.297344962
 10
31.3127400961
 20
-50.3116334865
 10
31.3090671485
 20
-50.3279439037
  0
LWPOLYLINE
  5
4A0
100
AcDbEntity
  8
RACCORDO
100
AcDbPolyline
 62
253
  6
CONTINUOUS
 90
21
 70
0
 10
29.0467821909
 20
-47.1928356714
 10
29.1143018358
 20
-47.1131511425
 10
29.1867949443
 20
-47.040990989
 10
29.2642615165
 20
-46.976355211
 10
29.3469825223
 20
-46.9190631039
 10
29.4346769918
 20
-46.8692953723
 10
29.5265020146
 20
-46.8275941298
 10
29.622437238
 20
-46.7940750015
 10
29.7225030147
 20
-46.7686223624
 10
29.8259174923
 20
-46.7514314509
 10
29.9327256595
 20
-46.7425645361
 10
30.0428825277
 20
-46.741959349
 10
30.1554712791
 20
-46.7496243207
 10
30.2705034021
 20
-46.7656281392
 10
30.3879674083
 20
-46.7899021165
 10
30.5069120145
 20
-46.8222486199
 10
30.6273523438
 20
-46.8627339719
 10
30.7492732732
 20
-46.9112918501
 10
30.8716781501
 20
-46.9675256542
 10
30.9945698858
 20
-47.0314978413
 10
31.117945569
 20
-47.1031459545
  0
LWPOLYLINE
  5
4A1
100
AcDbEntity
  8
RACCORDO
100
AcDbPolyline
 62
253
  6
CONTINUOUS
 90
20
 70
0
 10
29.1731821703
 20
-47.2788510234
 10
29.240024763
 20
-47.2001976783
 10
29.3122410927
 20
-47.1289696989
 10
29.3896221033
 20
-47.06537457
 10
29.4719448465
 20
-47.009596972
 10
29.5589698467
 20
-46.9618005039
 10
29.6504411845
 20
-46.9221261351
 10
29.7460919647
 20
-46.8906892397
 10
29.8456456437
 20
-46.8675803513
 10
29.9488131232
 20
-46.8528664024
 10
30.0552944138
 20
-46.8465899456
 10
30.1647808111
 20
-46.8487689521
 10
30.2769558558
 20
-46.8593971127
 10
30.3914947954
 20
-46.8784438831
 10
30.5080644261
 20
-46.9058540751
 10
30.6263253842
 20
-46.9415479228
 10
30.7459338718
 20
-46.9854215418
 10
30.8665431943
 20
-47.0373476441
 10
30.9878037551
 20
-47.0971756965
 10
31.0906391912
 20
-47.1538332307
  0
LINE
  5
4A2
100
AcDbEntity
  8
RACCORDO
100
AcDbLine
 62
253
  6
CONTINUOUS
 10
31.1546461298
 20
-51.0505376329
 11
31.1961060712
 21
-51.0024276204
  0
LWPOLYLINE
  5
4A3
100
AcDbEntity
  8
RACCORDO
100
AcDbPolyline
 62
253
  6
CONTINUOUS
 90
14
 70
0
 10
32.1325405558
 20
-50.5463970834
 10
32.1301200983
 20
-50.5491949096
 10
32.1274035637
 20
-50.5517671976
 10
32.1243859653
 20
-50.554110896
 10
32.1210219562
 20
-50.5561441905
 10
32.1173010834
 20
-50.55787907
 10
32.1132337999
 20
-50.5593035454
 10
32.1088061175
 20
-50.5602998358
 10
32.1039988355
 20
-50.5608666733
 10
32.0988311546
 20
-50.5610053257
 10
32.0933466891
 20
-50.5606018155
 10
32.0875599769
 20
-50.55961815
 10
32.0814564801
 20
-50.558092322
 10
32.0750361987
 20
-50.5560243313
  0
LWPOLYLINE
  5
4A4
100
AcDbEntity
  8
RACCORDO
100
AcDbPolyline
 62
253
  6
CONTINUOUS
 90
14
 70
0
 10
31.189419984
 20
-51.0367960632
 10
31.1882650509
 20
-51.0381053584
 10
31.185319157
 20
-51.0411355885
 10
31.1823506478
 20
-51.0437719457
 10
31.1793994271
 20
-51.0460064935
 10
31.1765082509
 20
-51.04783852
 10
31.1736771411
 20
-51.0492996297
 10
31.1708775412
 20
-51.0504270179
 10
31.1681257656
 20
-51.0512362237
 10
31.165432009
 20
-51.0517303318
 10
31.1627412426
 20
-51.0519104144
 10
31.1600329201
 20
-51.0517711288
 10
31.157332732
 20
-51.0513133991
 10
31.1546461586
 20
-51.0505376576
  0
LWPOLYLINE
  5
4A5
100
AcDbEntity
  8
RACCORDO
100
AcDbPolyline
 62
253
  6
CONTINUOUS
 90
22
 70
0
 10
29.0969393194
 20
-46.4927281005
 10
29.0917736317
 20
-46.4980581653
 10
29.0865644575
 20
-46.5038417335
 10
29.0813213759
 20
-46.510116945
 10
29.0760927635
 20
-46.5168780238
 10
29.0709060393
 20
-46.5241329786
 10
29.0657826976
 20
-46.5319051398
 10
29.0607633409
 20
-46.5401923409
 10
29.0558971473
 20
-46.5489553442
 10
29.0512063914
 20
-46.5582020972
 10
29.0467232776
 20
-46.5679267266
 10
29.0424971174
 20
-46.5780566134
 10
29.0385433682
 20
-46.5885873545
 10
29.0348844979
 20
-46.599505972
 10
29.0315610527
 20
-46.61071514
 10
29.0285819451
 20
-46.622186677
 10
29.0259526321
 20
-46.6339162403
 10
29.023692031
 20
-46.6458351004
 10
29.0218018583
 20
-46.6579100072
 10
29.020279876
 20
-46.6701366863
 10
29.0191322173
 20
-46.6824880305
 10
29.0183570411
 20
-46.6949421552
  0
LWPOLYLINE
  5
4A6
100
AcDbEntity
  8
RACCORDO
100
AcDbPolyline
 62
253
  6
CONTINUOUS
 90
39
 70
0
 10
32.9931546152
 20
-52.4445293359
 10
32.9207510029
 20
-52.5180728039
 10
32.8434571463
 20
-52.5839827461
 10
32.7612330626
 20
-52.6421967353
 10
32.6741187347
 20
-52.6927771987
 10
32.5828245962
 20
-52.7353116445
 10
32.4873164598
 20
-52.7697342805
 10
32.3876285128
 20
-52.7961108991
 10
32.2845737515
 20
-52.8142263851
 10
32.1781246401
 20
-52.8240131793
 10
32.0683087143
 20
-52.8255388409
 10
31.9560215776
 20
-52.8187909323
 10
31.841243051
 20
-52.8037018061
 10
31.7239933135
 20
-52.7803391097
 10
31.6052285052
 20
-52.7488933477
 10
31.4849361292
 20
-52.7092983664
 10
31.3631286825
 20
-52.6616203195
 10
31.2407997964
 20
-52.6062481723
 10
31.1179455523
 20
-52.5431192381
 10
30.9945698687
 20
-52.4722962036
 10
30.8716781328
 20
-52.3943560935
 10
30.7492732559
 20
-52.309239813
 10
30.6273523266
 20
-52.2170064569
 10
30.5069119974
 20
-52.1184103345
 10
30.3879673915
 20
-52.0134025873
 10
30.2705033857
 20
-51.9020320739
 10
30.1554712631
 20
-51.7851996794
 10
30.0428825121
 20
-51.6628499825
 10
29.9327256443
 20
-51.5350384045
 10
29.8259174775
 20
-51.4028320948
 10
29.7225030001
 20
-51.2662207356
 10
29.6224372236
 20
-51.1252146447
 10
29.5265020006
 20
-50.9809119245
 10
29.4346769785
 20
-50.8331734468
 10
29.3469825099
 20
-50.6821383398
 10
29.2642615058
 20
-50.5293220906
 10
29.1867949364
 20
-50.3752298615
 10
29.1143018314
 20
-50.2193564903
 10
29.0467821909
 20
-50.0617019768
  0
LWPOLYLINE
  5
4A7
100
AcDbEntity
  8
RACCORDO
100
AcDbPolyline
 62
253
  6
CONTINUOUS
 90
3
 70
0
 10
30.75310894
 20
-49.2540405864
 10
30.7598934861
 20
-49.2473375885
 10
30.7655907641
 20
-49.239590907
  0
LWPOLYLINE
  5
4A8
100
AcDbEntity
  8
0
100
AcDbPolyline
 62
7
  6
CONTINUOUS
 90
3
 70
0
 10
32.7025904896
 20
-51.9949996718
 10
32.5661265438
 20
-52.128781683
 10
32.4492312392
 20
-52.2079345351
  0
LINE
  5
4A9
100
AcDbEntity
  8
RACCORDO
100
AcDbLine
 62
253
  6
CONTINUOUS
 10
29.1020973935
 20
-46.487779427
 11
29.0969393194
 21
-46.4927281005
  0
LWPOLYLINE
  5
4AA
100
AcDbEntity
  8
RACCORDO
100
AcDbPolyline
 62
253
  6
CONTINUOUS
 90
13
 70
0
 10
29.0467821909
 20
-46.8726863924
 10
29.0972354306
 20
-46.8275864439
 10
29.1496422242
 20
-46.7856783069
 10
29.2040025717
 20
-46.7469619817
 10
29.2603796929
 20
-46.7114009312
 10
29.318710368
 20
-46.6790316923
 10
29.3788049377
 20
-46.649963876
 10
29.4406557571
 20
-46.6242110132
 10
29.504270471
 20
-46.6017595728
 10
29.5694823552
 20
-46.582678573
 10
29.6362358348
 20
-46.5669910197
 10
29.7045864846
 20
-46.5546739069
 10
29.7745343046
 20
-46.5457272346
  0
LINE
  5
4AB
100
AcDbEntity
  8
RACCORDO
100
AcDbLine
 62
253
  6
CONTINUOUS
 10
29.1073228109
 20
-46.4831188949
 11
29.1020973935
 21
-46.487779427
  0
LWPOLYLINE
  5
4AC
100
AcDbEntity
  8
RACCORDO
100
AcDbPolyline
 62
7
  6
CONTINUOUS
 90
15
 70
0
 10
29.1075751769
 20
-46.4829031269
 10
29.1017384877
 20
-46.4880579354
 10
29.0858508804
 20
-46.5037924716
 10
29.0711298902
 20
-46.5209662667
 10
29.0574840905
 20
-46.5396570283
 10
29.0449427751
 20
-46.5598287907
 10
29.0335871605
 20
-46.5813241397
 10
29.0234272417
 20
-46.6040724526
 10
29.0144260419
 20
-46.6281478559
 10
29.0066413576
 20
-46.653434402
 10
29.0002114509
 20
-46.6794368189
 10
28.9951210509
 20
-46.7061153355
 10
28.9913741191
 20
-46.7335364832
 10
28.9890555199
 20
-46.761298063
 10
28.9882034831
 20
-46.7911423141
  0
LINE
  5
4AD
100
AcDbEntity
  8
RACCORDO
100
AcDbLine
 62
7
  6
CONTINUOUS
 10
29.1075806847
 20
-46.4828976587
 11
29.1073228109
 21
-46.4831188949
  0
LWPOLYLINE
  5
4AE
100
AcDbEntity
  8
RACCORDO
100
AcDbPolyline
 62
7
  6
CONTINUOUS
 90
3
 70
0
 10
31.356230232
 20
-50.248790455
 10
31.3503243981
 20
-50.2531651192
 10
31.3405663364
 20
-50.2620682389
  0
LINE
  5
4AF
100
AcDbEntity
  8
RACCORDO
100
AcDbLine
 62
7
  6
CONTINUOUS
 10
31.764517738
 20
-49.9683705759
 11
31.3561666913
 21
-50.2488323517
  0
LINE
  5
4B0
100
AcDbEntity
  8
RACCORDO
100
AcDbLine
 62
253
  6
CONTINUOUS
 10
31.7987339371
 20
-49.9950929405
 11
31.4363114174
 21
-50.2440102979
  0
LWPOLYLINE
  5
4B1
100
AcDbEntity
  8
0
100
AcDbPolyline
 62
7
  6
CONTINUOUS
 90
8
 70
0
 10
29.6496406141
 20
-47.3592174488
 10
29.5327453095
 20
-47.4383703009
 10
29.3962813636
 20
-47.5721523121
 10
29.2801435592
 20
-47.7373639253
 10
29.1889394583
 20
-47.9274506616
 10
29.1242049151
 20
-48.1402276948
 10
29.0844040754
 20
-48.3778798512
 10
29.0695369393
 20
-48.6404071307
  0
LWPOLYLINE
  5
4B2
100
AcDbEntity
  8
RACCORDO
100
AcDbPolyline
 62
7
  6
CONTINUOUS
 90
4
 70
0
 10
29.3065579144
 20
-46.3386211113
 10
29.2101405892
 20
-46.402321642
 10
29.117986089
 20
-46.4740527569
 10
29.1073193265
 20
-46.4831218846
  0
LWPOLYLINE
  5
4B3
100
AcDbEntity
  8
DRAFT
100
AcDbPolyline
 62
7
  6
CONTINUOUS
 90
30
 70
0
 10
36.2537243521
 20
-52.9092515284
 10
36.343747088
 20
-52.8515338706
 10
36.4739307374
 20
-52.7560323252
 10
36.5973994387
 20
-52.6504217801
 10
36.7142566391
 20
-52.5345168174
 10
36.8243988914
 20
-52.4085028548
 10
36.9270060881
 20
-52.2733115072
 10
37.0219265265
 20
-52.1290357269
 10
37.1093119093
 20
-51.9755825617
 10
37.1887972369
 20
-51.813604769
 10
37.2604100719
 20
-51.642909288
 10
37.3241228516
 20
-51.4636891797
 10
37.3794878884
 20
-51.2771763845
 10
37.4264168503
 20
-51.0834478939
 10
37.4649980692
 20
-50.8824267164
 10
37.4950488531
 20
-50.6751138183
 10
37.516537941
 20
-50.4614045153
 10
37.5294965939
 20
-50.2414034917
 10
37.5338359024
 20
-50.0164257668
 10
37.5294965939
 20
-49.786437117
 10
37.516537941
 20
-49.5514717659
 10
37.4950488531
 20
-49.3129474029
 10
37.4649980692
 20
-49.0709326128
 10
37.4264168503
 20
-48.8253588108
 10
37.3794878884
 20
-48.5774379313
 10
37.3241228516
 20
-48.3269909794
 10
37.2604100719
 20
-48.07419695
 10
37.1887972369
 20
-47.8208047622
 10
37.1093119093
 20
-47.5670393057
 10
37.0219265265
 20
-47.3126756908
  0
LWPOLYLINE
  5
4B4
100
AcDbEntity
  8
DRAFT
100
AcDbPolyline
 62
7
  6
CONTINUOUS
 90
53
 70
0
 10
35.0666567561
 20
-53.6288988569
 10
35.1348904928
 20
-53.585747785
 10
35.2719222613
 20
-53.4875018598
 10
35.4017407102
 20
-53.3782075783
 10
35.5242623582
 20
-53.2579335741
 10
35.6393270848
 20
-53.1267692268
 10
35.7465530219
 20
-52.9850774333
 10
35.8455523433
 20
-52.833372432
 10
35.936047386
 20
-52.6721700602
 10
36.0179808843
 20
-52.5016708712
 10
36.0913177891
 20
-52.3219462326
 10
36.1559515183
 20
-52.1331297798
 10
36.2116383703
 20
-51.9357882463
 10
36.2581680053
 20
-51.7306687162
 10
36.2954299197
 20
-51.5184666197
 10
36.323429974
 20
-51.2994078268
 10
36.3421592061
 20
-51.0735609255
 10
36.3515597103
 20
-50.8411006175
 10
36.3515597103
 20
-50.6027552387
 10
36.3421592061
 20
-50.3594394641
 10
36.323429974
 20
-50.1119645152
 10
36.2954299197
 20
-49.8605719613
 10
36.2581680053
 20
-49.60534074
 10
36.2116383703
 20
-49.3464899538
 10
36.1559515183
 20
-49.0848426394
 10
36.0913177891
 20
-48.8213887763
 10
36.0179808843
 20
-48.5569765183
 10
35.936047386
 20
-48.2918625792
 10
35.8455523433
 20
-48.0261588003
 10
35.7465530219
 20
-47.7601318643
 10
35.6393270848
 20
-47.4946182463
 10
35.5242623582
 20
-47.2305800369
 10
35.4017407102
 20
-46.9688211047
 10
35.2719222613
 20
-46.7096157325
 10
35.1348904928
 20
-46.4531289557
 10
34.990781481
 20
-46.1996707779
 10
34.8400013425
 20
-45.9500081988
 10
34.6830551438
 20
-45.7049793783
 10
34.5204114699
 20
-45.4652733407
 10
34.3522949127
 20
-45.2311801308
 10
34.1788678299
 20
-45.0029240387
 10
34.0003602021
 20
-44.7808402838
 10
33.8172499459
 20
-44.5655551143
 10
33.6300818907
 20
-44.3577111429
 10
33.4393507397
 20
-44.1578340823
 10
33.2453580835
 20
-43.9662168222
 10
33.0483746406
 20
-43.7831247764
 10
32.848732395
 20
-43.6088822853
 10
32.6469151175
 20
-43.4439271461
 10
32.4434261322
 20
-43.2886730728
 10
32.2387170163
 20
-43.1434576399
 10
32.033184033
 20
-43.0085550297
 10
31.8272533859
 20
-42.8842403879
  0
LINE
  5
4B5
100
AcDbEntity
  8
RACCORDO
100
AcDbLine
 62
253
  6
CONTINUOUS
 10
33.0083525028
 20
-61.055180061
 11
31.8272533859
 21
-61.7855894718
  0
LINE
  5
4B6
100
AcDbEntity
  8
RACCORDO
100
AcDbLine
 62
7
  6
CONTINUOUS
 10
32.9091567762
 20
-61.2814408359
 11
31.7280576593
 21
-62.0118502467
  0
LINE
  5
4B7
100
AcDbEntity
  8
RACCORDO
100
AcDbLine
 62
7
  6
CONTINUOUS
 10
30.33031334
 20
-43.2905665467
 11
29.7708643988
 21
-43.6354866845
  0
LINE
  5
4B8
100
AcDbEntity
  8
DRAFT
100
AcDbLine
 62
7
  6
CONTINUOUS
 10
29.6866663389
 20
-46.1081802319
 11
29.3065579144
 21
-46.3386211113
  0
LINE
  5
4B9
100
AcDbEntity
  8
DRAFT
100
AcDbLine
 62
7
  6
CONTINUOUS
 10
36.2537187852
 20
-52.9092420427
 11
35.0666567561
 21
-53.6288988569
  0
LWPOLYLINE
  5
4BA
100
AcDbEntity
  8
RACCORDO
100
AcDbPolyline
 62
253
  6
CONTINUOUS
 90
42
 70
0
 10
34.1250528067
 20
-54.1482786598
 10
34.2709777469
 20
-54.0603479561
 10
34.4001243037
 20
-53.968272162
 10
34.5229561604
 20
-53.8663033403
 10
34.6392483443
 20
-53.7546281308
 10
34.748783203
 20
-53.6334558165
 10
34.8513577823
 20
-53.5030123139
 10
34.9467850766
 20
-53.3635369315
 10
35.0348908653
 20
-53.2152850597
 10
35.1155129543
 20
-53.0585299296
 10
35.1885027619
 20
-52.893560775
 10
35.2537265771
 20
-52.7206797928
 10
35.3110642874
 20
-52.540204651
 10
35.3604097428
 20
-52.3524686706
 10
35.4016717481
 20
-52.15781829
 10
35.4347742072
 20
-51.9566119435
 10
35.4596559543
 20
-51.7492207386
 10
35.4762709558
 20
-51.536028416
 10
35.4845886694
 20
-51.317428407
 10
35.4845938913
 20
-51.0938233487
 10
35.4762867258
 20
-50.8656258643
 10
35.4596827185
 20
-50.6332577589
 10
35.4348125899
 20
-50.3971463417
 10
35.4017218549
 20
-50.1577238899
 10
35.3604713268
 20
-49.9154315974
 10
35.3111368786
 20
-49.6707160719
 10
35.2538085628
 20
-49.4240254506
 10
35.1885905861
 20
-49.1758106838
 10
35.1156035304
 20
-48.9265329267
 10
35.0349842885
 20
-48.676659891
 10
34.9468811536
 20
-48.4266504662
 10
34.8514573989
 20
-48.1769673
 10
34.7488949683
 20
-47.928084057
 10
34.6393894914
 20
-47.6804705189
 10
34.5231396471
 20
-47.4345713083
 10
34.4003505593
 20
-47.1908190321
 10
34.2712545822
 20
-46.949674508
 10
34.1360835163
 20
-46.7115703129
 10
33.9950533936
 20
-46.4768922818
 10
33.8484087138
 20
-46.2460583472
 10
33.6964265092
 20
-46.0195152465
 10
33.5393835054
 20
-45.7976843613
  0
LWPOLYLINE
  5
4BB
100
AcDbEntity
  8
RACCORDO
100
AcDbPolyline
 62
253
  6
CONTINUOUS
 90
12
 70
0
 10
23.6450377188
 20
-63.2048474361
 10
23.6588638572
 20
-63.1965259496
 10
23.6761509936
 20
-63.1832706147
 10
23.6919448999
 20
-63.1676613344
 10
23.7061500046
 20
-63.1497888997
 10
23.718677463
 20
-63.1297679145
 10
23.7294620958
 20
-63.1077095349
 10
23.7384439212
 20
-63.0837445539
 10
23.7455676252
 20
-63.0580457668
 10
23.7508023451
 20
-63.0307787018
 10
23.7541335649
 20
-63.0020923886
 10
23.7555539119
 20
-62.972153289
  0
LWPOLYLINE
  5
4BC
100
AcDbEntity
  8
RACCORDO
100
AcDbPolyline
 62
253
  6
CONTINUOUS
 90
12
 70
0
 10
30.850824646
 20
-62.4839432593
 10
30.8642311915
 20
-62.4758818257
 10
30.8815037224
 20
-62.4626859275
 10
30.8972600191
 20
-62.4471584092
 10
30.9114120824
 20
-62.4293860167
 10
30.9238814455
 20
-62.409467719
 10
30.9345976389
 20
-62.3875152381
 10
30.9435005107
 20
-62.3636514069
 10
30.950541551
 20
-62.3380089333
 10
30.9556812838
 20
-62.3107312073
 10
30.9588894908
 20
-62.2819714972
 10
30.9601472979
 20
-62.2518910653
  0
LWPOLYLINE
  5
4BD
100
AcDbEntity
  8
RACCORDO
100
AcDbPolyline
 62
253
  6
CONTINUOUS
 90
7
 70
0
 10
29.3065579144
 20
-46.3386211113
 10
29.3246669128
 20
-46.3278445391
 10
29.3935525876
 20
-46.2903816342
 10
29.4647514163
 20
-46.2571033334
 10
29.538174515
 20
-46.2280511482
 10
29.6137305595
 20
-46.2032611055
 10
29.6866663389
 20
-46.1839946746
  0
LINE
  5
4BE
100
AcDbEntity
  8
DRAFT
100
AcDbLine
 62
7
  6
CONTINUOUS
 10
33.0083525028
 20
-42.2023426465
 11
31.8272533859
 21
-42.8842403879
  0
LINE
  5
4BF
100
AcDbEntity
  8
RACCORDO
100
AcDbLine
 62
7
  6
CONTINUOUS
 10
31.8272533859
 20
-42.8842403879
 11
30.9601472979
 21
-43.3849232392
  0
LINE
  5
4C0
100
AcDbEntity
  8
0
100
AcDbLine
 62
7
  6
CONTINUOUS
 10
29.8968556517
 20
-47.2158478118
 11
29.6493682782
 21
-47.3587439194
  0
LINE
  5
4C1
100
AcDbEntity
  8
RACCORDO
100
AcDbLine
 62
253
  6
CONTINUOUS
 10
31.3038815016
 20
-49.5043496372
 11
30.729570403
 21
-49.8359468938
  0
LINE
  5
4C2
100
AcDbEntity
  8
RACCORDO
100
AcDbLine
 62
253
  6
CONTINUOUS
 10
31.4184595317
 20
-49.7027585192
 11
30.844128477
 21
-50.0343672981
  0
LINE
  5
4C3
100
AcDbEntity
  8
0
100
AcDbLine
 62
7
  6
CONTINUOUS
 10
32.6969909484
 20
-52.0655119568
 11
32.449503575
 21
-52.2084080645
  0
LINE
  5
4C4
100
AcDbEntity
  8
DRAFT
100
AcDbLine
 62
7
  6
CONTINUOUS
 10
34.9876717836
 20
-53.6745037901
 11
35.0666567561
 21
-53.6288988569
  0
LINE
  5
4C5
100
AcDbEntity
  8
RACCORDO
100
AcDbLine
 62
7
  6
CONTINUOUS
 10
31.728058876
 20
-62.0118494942
 11
31.7193361734
 21
-62.016885873
  0
LINE
  5
4C6
100
AcDbEntity
  8
RACCORDO
100
AcDbLine
 62
253
  6
CONTINUOUS
 10
27.6095144899
 20
-61.0725685205
 11
27.6013420887
 21
-61.0772749153
  0
LINE
  5
4C7
100
AcDbEntity
  8
RACCORDO
100
AcDbLine
 62
7
  6
CONTINUOUS
 10
33.3273155295
 20
-47.5586642515
 11
32.7479891919
 21
-47.8878889575
  0
LINE
  5
4C8
100
AcDbEntity
  8
RACCORDO
100
AcDbLine
 62
7
  6
CONTINUOUS
 10
32.7479891919
 20
-46.2471774744
 11
33.5393835054
 21
-45.7976843613
  0
LWPOLYLINE
  5
4C9
100
AcDbEntity
  8
RACCORDO
100
AcDbPolyline
 62
7
  6
CONTINUOUS
 90
19
 70
0
 10
32.7479891919
 20
-47.8878889575
 10
32.7265890642
 20
-47.8996569575
 10
32.7037851624
 20
-47.9111342607
 10
32.6798333886
 20
-47.9222811511
 10
32.6549939225
 20
-47.933141461
 10
32.6295077599
 20
-47.9436396401
 10
32.6035919532
 20
-47.953575996
 10
32.577476431
 20
-47.9629710755
 10
32.5513777691
 20
-47.9718461027
 10
32.5254745511
 20
-47.9800126349
 10
32.499960347
 20
-47.9875141118
 10
32.4750139805
 20
-47.9944018444
 10
32.4507728511
 20
-48.0005038003
 10
32.4273902844
 20
-48.0058785706
 10
32.4050047066
 20
-48.0105966983
 10
32.3837144013
 20
-48.0145045786
 10
32.363624722
 20
-48.0175990779
 10
32.3448445175
 20
-48.0200310508
 10
32.3274596464
 20
-48.0218790833
  0
LINE
  5
4CA
100
AcDbEntity
  8
DRAFT
100
AcDbLine
 62
7
  6
CONTINUOUS
 10
33.7379241157
 20
-52.6987762593
 11
33.161595683
 21
-53.0153122218
  0
LINE
  5
4CB
100
AcDbEntity
  8
DRAFT
100
AcDbLine
 62
7
  6
CONTINUOUS
 10
34.9876717836
 20
-53.6745037901
 11
34.1250528067
 21
-54.1482786598
  0
LWPOLYLINE
  5
4CC
100
AcDbEntity
  8
RACCORDO
100
AcDbPolyline
 62
7
  6
CONTINUOUS
 90
19
 70
0
 10
32.7479891919
 20
-46.2471774744
 10
32.7267631323
 20
-46.2588233015
 10
32.7041348162
 20
-46.2701655572
 10
32.6803510679
 20
-46.2811622346
 10
32.6556637316
 20
-46.2918506775
 10
32.6303075978
 20
-46.3021551956
 10
32.6044958516
 20
-46.3118826896
 10
32.5784548599
 20
-46.3210504897
 10
32.5523984893
 20
-46.3296747109
 10
32.5265048074
 20
-46.3375707233
 10
32.5009674904
 20
-46.3447784189
 10
32.4759664795
 20
-46.3513444577
 10
32.4516418462
 20
-46.357099324
 10
32.4281500584
 20
-46.3620985323
 10
32.405633669
 20
-46.3664091178
 10
32.3841962975
 20
-46.3698799828
 10
32.363948853
 20
-46.3725075347
 10
32.3450059154
 20
-46.3744391723
 10
32.3274596464
 20
-46.3757522617
  0
LINE
  5
4CD
100
AcDbEntity
  8
RACCORDO
100
AcDbLine
 62
7
  6
CONTINUOUS
 10
33.5156126182
 20
-54.3800164946
 11
32.7479891919
 21
-54.8000421814
  0
LWPOLYLINE
  5
4CE
100
AcDbEntity
  8
0
100
AcDbPolyline
 62
7
  6
CONTINUOUS
 90
22
 70
0
 10
32.4492312392
 20
-52.2079345351
 10
32.4085192457
 20
-52.2298704676
 10
32.2305858063
 20
-52.2995296502
 10
32.0393854203
 20
-52.3349956258
 10
31.8343846912
 20
-52.3348936593
 10
31.6161170156
 20
-52.3005984859
 10
31.3932417777
 20
-52.2334707058
 10
31.1655737311
 20
-52.1321902869
 10
30.9332981222
 20
-51.9980772615
 10
30.7056300755
 20
-51.8364523268
 10
30.4827548377
 20
-51.6462093687
 10
30.2644871621
 20
-51.4284545014
 10
30.059486433
 20
-51.1918267645
 10
29.868286047
 20
-50.9355673757
 10
29.6903526075
 20
-50.6604351173
 10
29.5327453095
 20
-50.3773453755
 10
29.3962813636
 20
-50.0859782203
 10
29.2801435592
 20
-49.7866535816
 10
29.1889394583
 20
-49.4912466357
 10
29.1242049151
 20
-49.2037157746
 10
29.0844040754
 20
-48.9201026063
 10
29.0695369393
 20
-48.6404071307
  0
LINE
  5
4CF
100
AcDbEntity
  8
RACCORDO
100
AcDbLine
 62
253
  6
CONTINUOUS
 10
27.7075842213
 20
-60.8468792813
 11
23.7555539119
 21
-62.972153289
  0
LINE
  5
4D0
100
AcDbEntity
  8
RACCORDO
100
AcDbLine
 62
7
  6
CONTINUOUS
 10
27.6013420887
 20
-61.0772749153
 11
23.6450377188
 21
-63.2048474361
  0
LINE
  5
4D1
100
AcDbEntity
  8
RACCORDO
100
AcDbLine
 62
253
  6
CONTINUOUS
 10
31.8272533859
 20
-61.7855894718
 11
30.9601472979
 21
-62.2518910653
  0
LINE
  5
4D2
100
AcDbEntity
  8
RACCORDO
100
AcDbLine
 62
7
  6
CONTINUOUS
 10
31.7193349555
 20
-62.0168866262
 11
30.8506701672
 21
-62.4840264383
  0
LWPOLYLINE
  5
4D3
100
AcDbEntity
  8
RACCORDO
100
AcDbPolyline
 62
7
  6
CONTINUOUS
 90
19
 70
0
 10
30.9601472979
 20
-43.3849232392
 10
30.9409047212
 20
-43.395134642
 10
30.9201864976
 20
-43.4044018869
 10
30.8981299943
 20
-43.412646679
 10
30.87481881
 20
-43.4198108031
 10
30.8504777905
 20
-43.4258088727
 10
30.8254957315
 20
-43.430563348
 10
30.800171418
 20
-43.4340450083
 10
30.7746023191
 20
-43.4362710906
 10
30.7488925409
 20
-43.4372666639
 10
30.7232544279
 20
-43.4370332546
 10
30.6978522581
 20
-43.4355818569
 10
30.6727188641
 20
-43.4329296557
 10
30.6479252766
 20
-43.4290641619
 10
30.6237963028
 20
-43.4240069905
 10
30.6007293025
 20
-43.4178507195
 10
30.5789492439
 20
-43.4106871366
 10
30.5585338537
 20
-43.4025706031
 10
30.5396177524
 20
-43.3935803038
  0
LWPOLYLINE
  5
4D4
100
AcDbEntity
  8
RACCORDO
100
AcDbPolyline
 62
253
  6
CONTINUOUS
 90
8
 70
0
 10
30.800269574
 20
-49.2851194798
 10
30.8030827208
 20
-49.2836708226
 10
30.8133272006
 20
-49.2767852268
 10
30.8224237322
 20
-49.2679058614
 10
30.830072065
 20
-49.2573711942
 10
30.8362037514
 20
-49.2454953419
 10
30.8408835147
 20
-49.2324085369
 10
30.844128477
 20
-49.2183193588
  0
LWPOLYLINE
  5
4D5
100
AcDbEntity
  8
RACCORDO
100
AcDbPolyline
 62
253
  6
CONTINUOUS
 90
19
 70
0
 10
23.7555539119
 20
-62.972153289
 10
23.7247906915
 20
-62.9879460199
 10
23.6918817737
 20
-63.0022241186
 10
23.6570502168
 20
-63.0148908077
 10
23.6205321103
 20
-63.0258602317
 10
23.5825749755
 20
-63.0350580394
 10
23.5434360874
 20
-63.0424218878
 10
23.5033807312
 20
-63.0479018642
 10
23.4626804036
 20
-63.0514608254
 10
23.4216109731
 20
-63.0530746483
 10
23.3804508101
 20
-63.0527323946
 10
23.3394788999
 20
-63.0504363839
 10
23.2989729517
 20
-63.0462021788
 10
23.2592075166
 20
-63.0400584789
 10
23.2204521263
 20
-63.0320469264
 10
23.1829694665
 20
-63.0222218239
 10
23.1470135962
 20
-63.0106497664
 10
23.1128282258
 20
-62.9974091898
 10
23.0806450652
 20
-62.9825898393
  0
LWPOLYLINE
  5
4D6
100
AcDbEntity
  8
RACCORDO
100
AcDbPolyline
 62
7
  6
CONTINUOUS
 90
3
 70
0
 10
29.752935106
 20
-54.0001039161
 10
29.7634823809
 20
-53.9947229241
 10
29.7745343046
 20
-53.9889284636
  0
LWPOLYLINE
  5
4D7
100
AcDbEntity
  8
RACCORDO
100
AcDbPolyline
 62
253
  6
CONTINUOUS
 90
16
 70
0
 10
27.7075842213
 20
-60.8468792813
 10
27.731008068
 20
-60.83510866
 10
27.7564137642
 20
-60.8247991255
 10
27.7835291173
 20
-60.8160611401
 10
27.8120636093
 20
-60.8089883306
 10
27.8417115281
 20
-60.8036564796
 10
27.8721552449
 20
-60.8001227178
 10
27.9030685849
 20
-60.7984249164
 10
27.9341203354
 20
-60.7985812762
 10
27.9649778142
 20
-60.8005901335
 10
27.995310404
 20
-60.8044299776
 10
28.0247931033
 20
-60.8100596794
 10
28.0531100225
 20
-60.8174189342
 10
28.0799577529
 20
-60.8264289051
 10
28.1050486186
 20
-60.8369930664
 10
28.1281137668
 20
-60.8489982389
  0
LWPOLYLINE
  5
4D8
100
AcDbEntity
  8
RACCORDO
100
AcDbPolyline
 62
7
  6
CONTINUOUS
 90
13
 70
0
 10
23.6450327226
 20
-63.2048501228
 10
23.6178775542
 20
-63.2184069577
 10
23.5803286487
 20
-63.2339311346
 10
23.5415355282
 20
-63.2463850398
 10
23.5017316116
 20
-63.2556630425
 10
23.4611921228
 20
-63.2616709357
 10
23.4201765494
 20
-63.2643415299
 10
23.3789564011
 20
-63.2636270264
 10
23.337816421
 20
-63.2595022449
 10
23.297043606
 20
-63.2519664559
 10
23.2569086977
 20
-63.2410381282
 10
23.2177129859
 20
-63.2267670765
 10
23.183752958
 20
-63.2112644597
  0
LINE
  5
4D9
100
AcDbEntity
  8
RACCORDO
100
AcDbLine
 62
253
  6
CONTINUOUS
 10
31.2409239974
 20
-49.0288765073
 11
30.844128477
 21
-49.2183193588
  0
LINE
  5
4DA
100
AcDbEntity
  8
RACCORDO
100
AcDbLine
 62
7
  6
CONTINUOUS
 10
31.2469558969
 20
-49.0718586693
 11
30.7998856465
 21
-49.2853042823
  0
LWPOLYLINE
  5
4DB
100
AcDbEntity
  8
0
100
AcDbPolyline
 62
7
  6
CONTINUOUS
 90
3
 70
0
 10
29.868286047
 20
-47.2676223337
 10
29.6903526075
 20
-47.3372815163
 10
29.6496406141
 20
-47.3592174488
  0
LWPOLYLINE
  5
4DC
100
AcDbEntity
  8
RACCORDO
100
AcDbPolyline
 62
253
  6
CONTINUOUS
 90
31
 70
0
 10
33.3273155295
 20
-54.187085506
 10
33.4685675891
 20
-54.1422894788
 10
33.604725871
 20
-54.0883904057
 10
33.7357903751
 20
-54.0253882866
 10
33.8619696273
 20
-53.9531431924
 10
33.9830551017
 20
-53.8717950522
 10
34.0984212213
 20
-53.7817636533
 10
34.2080378876
 20
-53.6830035648
 10
34.3119351991
 20
-53.5755602178
 10
34.4095778737
 20
-53.4599896925
 10
34.5009323823
 20
-53.3362516201
 10
34.5860322539
 20
-53.2043863695
 10
34.6644427941
 20
-53.0650711285
 10
34.7361300143
 20
-52.9182677796
 10
34.801127903
 20
-52.7640144403
 10
34.8591037315
 20
-52.6031026517
 10
34.9100217
 20
-52.4354977151
 10
34.9539176083
 20
-52.2612343292
 10
34.9905661263
 20
-52.0812081308
 10
35.019929934
 20
-51.8953891957
 10
35.0420463515
 20
-51.703807448
 10
35.0568020092
 20
-51.5074482978
 10
35.0641589654
 20
-51.3062875259
 10
35.0641551617
 20
-51.1003493514
 10
35.0567910535
 20
-50.8906918409
 10
35.0420290238
 20
-50.677296812
 10
35.0199066896
 20
-50.4601824472
 10
34.9905373567
 20
-50.240461361
 10
34.9538840799
 20
-50.0181201457
 10
34.9099838044
 20
-49.7931722089
 10
34.8590606715
 20
-49.5667703882
  0
LWPOLYLINE
  5
4DD
100
AcDbEntity
  8
RACCORDO
100
AcDbPolyline
 62
7
  6
CONTINUOUS
 90
3
 70
0
 10
30.7803731319
 20
-49.2922511875
 10
30.7931704131
 20
-49.2881976525
 10
30.8003232884
 20
-49.2850812814
  0
LWPOLYLINE
  5
4DE
100
AcDbEntity
  8
RACCORDO
100
AcDbPolyline
 62
7
  6
CONTINUOUS
 90
10
 70
0
 10
-22.1331841877
 20
62.3592514418
 10
-22.1119836584
 20
62.3650619391
 10
-22.0897473333
 20
62.3683551088
 10
-22.0664726137
 20
62.3691324729
 10
-22.042200134
 20
62.3673603295
 10
-22.0171340115
 20
62.3630218412
 10
-21.9915168855
 20
62.3561522443
 10
-21.9655292848
 20
62.3468149442
 10
-21.9392806236
 20
62.3350667795
 10
-21.9129158321
 20
62.3209844428
  0
LWPOLYLINE
  5
4DF
100
AcDbEntity
  8
RACCORDO
100
AcDbPolyline
 62
253
  6
CONTINUOUS
 90
22
 70
0
 10
-21.7293721684
 20
60.7280942802
 10
-21.7124692938
 20
60.7222990952
 10
-21.6962725084
 20
60.7166152147
 10
-21.6808643135
 20
60.7109219008
 10
-21.6664650149
 20
60.704848839
 10
-21.6529969278
 20
60.6985965594
 10
-21.640085082
 20
60.6927415716
 10
-21.6278086516
 20
60.6868300686
 10
-21.6161930048
 20
60.6808454533
 10
-21.6046296613
 20
60.6756077812
 10
-21.5927788989
 20
60.6706936249
 10
-21.5806537728
 20
60.6654946209
 10
-21.5677481875
 20
60.6602356953
 10
-21.5530831618
 20
60.6545981864
 10
-21.5365935257
 20
60.6474297094
 10
-21.5189762216
 20
60.638179066
 10
-21.4997904764
 20
60.6267744367
 10
-21.4788064639
 20
60.6126533194
 10
-21.4573777202
 20
60.5956204631
 10
-21.436022198
 20
60.5759545645
 10
-21.4142450691
 20
60.5537766807
 10
-21.3920867858
 20
60.5291704088
  0
ELLIPSE
  5
4E0
100
AcDbEntity
  8
0
100
AcDbEllipse
 62
7
  6
CONTINUOUS
 10
340.8329167645
 20
198.0501989611
 30
0.0
 11
481.0527661201
 21
383.954395032
 31
0.0
 40
0.1239193198
 41
2.2725246336
 42
2.2732823011
  0
ELLIPSE
  5
4E1
100
AcDbEntity
  8
0
100
AcDbEllipse
 62
7
  6
CONTINUOUS
 10
340.8329167645
 20
198.0482895249
 30
0.0
 11
481.0546066545
 21
383.9135462289
 31
0.0
 40
0.1238840241
 41
2.2701335696
 42
2.270914019
  0
ELLIPSE
  5
4E2
100
AcDbEntity
  8
0
100
AcDbEllipse
 62
7
  6
CONTINUOUS
 10
340.8329167645
 20
198.0393064603
 30
0.0
 11
481.0821126924
 21
383.3012452967
 31
0.0
 40
0.1233539376
 41
2.2682240564
 42
2.2690272903
  0
ELLIPSE
  5
4E3
100
AcDbEntity
  8
0
100
AcDbEllipse
 62
7
  6
CONTINUOUS
 10
340.8329167645
 20
198.043269653
 30
0.0
 11
481.0660585995
 21
383.6590376038
 31
0.0
 40
0.1236639217
 41
2.2651475927
 42
2.2660755299
  0
ELLIPSE
  5
4E4
100
AcDbEntity
  8
0
100
AcDbEllipse
 62
7
  6
CONTINUOUS
 10
340.8329167645
 20
194.6740647711
 30
0.0
 11
481.095510196
 21
383.0017529274
 31
0.0
 40
0.1230939587
 41
2.2617651721
 42
2.2695509305
  0
ELLIPSE
  5
4E5
100
AcDbEntity
  8
0
100
AcDbEllipse
 62
7
  6
CONTINUOUS
 10
340.8329167645
 20
196.2117932893
 30
0.0
 11
-322.7055126675
 21
737.6929546002
 31
0.0
 40
0.4878887444
 41
-4.6563900967
 42
-4.6452815093
  0
ELLIPSE
  5
4E6
100
AcDbEntity
  8
0
100
AcDbEllipse
 62
7
  6
CONTINUOUS
 10
340.8329167645
 20
197.6494641747
 30
0.0
 11
-322.7353938899
 21
737.3304492895
 31
0.0
 40
0.488092273
 41
-4.6487416565
 42
-4.647937003
  0
ELLIPSE
  5
4E7
100
AcDbEntity
  8
0
100
AcDbEllipse
 62
7
  6
CONTINUOUS
 10
340.8329167645
 20
197.6536469605
 30
0.0
 11
-322.6954031954
 21
737.8157831046
 31
0.0
 40
0.4878198078
 41
-4.651368032
 42
-4.6504400998
  0
ELLIPSE
  5
4E8
100
AcDbEntity
  8
0
100
AcDbEllipse
 62
7
  6
CONTINUOUS
 10
340.8329167645
 20
196.5870871279
 30
0.0
 11
481.1037186556
 21
382.8178472434
 31
0.0
 40
0.1229340884
 41
2.2619394372
 42
2.2720479934
  0
ELLIPSE
  5
4E9
100
AcDbEntity
  8
0
100
AcDbEllipse
 62
7
  6
CONTINUOUS
 10
340.8329167645
 20
197.6582889616
 30
0.0
 11
-322.6723567052
 21
738.0961452173
 31
0.0
 40
0.4876625049
 41
-4.6436429729
 42
-4.6428838879
  0
ELLIPSE
  5
4EA
100
AcDbEntity
  8
0
100
AcDbEllipse
 62
7
  6
CONTINUOUS
 10
340.8329167645
 20
194.298603888
 30
0.0
 11
-322.6864465135
 21
737.9246837411
 31
0.0
 40
0.4877586989
 41
-4.6567953772
 42
-4.6475513144
  0
ELLIPSE
  5
4EB
100
AcDbEntity
  8
0
100
AcDbEllipse
 62
7
  6
CONTINUOUS
 10
340.8329167645
 20
197.657207589
 30
0.0
 11
-322.6741097454
 21
738.074802196
 31
0.0
 40
0.4876744775
 41
-4.6460797133
 42
-4.6452978455
  0
ELLIPSE
  5
4EC
100
AcDbEntity
  8
RACCORDO
100
AcDbEllipse
 62
7
  6
CONTINUOUS
 10
-21.409193565
 20
62.1834525463
 30
0.0
 11
-0.2500882309
 21
0.4331376414
 31
0.0
 40
0.5771558487
 41
-0.7852941622
 42
-0.0174471532
  0
ELLIPSE
  5
4ED
100
AcDbEntity
  8
RACCORDO
100
AcDbEllipse
 62
7
  6
CONTINUOUS
 10
32.6547452561
 20
31.7699094962
 30
0.0
 11
-0.2500120911
 21
0.4330057209
 31
0.0
 40
0.5775075436
 41
-2.3560905478
 42
-0.7855988075
  0
ELLIPSE
  5
4EE
100
AcDbEntity
  8
RACCORDO
100
AcDbEllipse
 62
7
  6
CONTINUOUS
 10
32.6547452561
 20
-60.8508873067
 30
0.0
 11
-0.2500882309
 21
0.4331376414
 31
0.0
 40
0.5771558487
 41
-3.1241455003
 42
-2.3563950755
  0
ENDSEC
  0
SECTION
  2
OBJECTS
  0
DICTIONARY
  5
C
100
AcDbDictionary
280
0
281
1
  3
ACAD_GROUP
350
D
  3
ACAD_MLINESTYLE
350
17
  3
ACAD_LAYOUT
350
1A
  3
ACAD_PLOTSETTINGS
350
19
  3
ACAD_PLOTSTYLENAME
350
E
  0
DICTIONARY
  5
D
102
{ACAD_REACTORS
330
C
102
}
100
AcDbDictionary
280
0
281
1
  0
ACDBDICTIONARYWDFLT
  5
E
102
{ACAD_REACTORS
330
C
102
}
100
AcDbDictionary
281
1
  3
Normal
350
F
100
AcDbDictionaryWithDefault
340
F
  0
DICTIONARY
  5
17
102
{ACAD_REACTORS
330
C
102
}
100
AcDbDictionary
280
0
281
1
  3
Standard
350
18
  0
DICTIONARY
  5
19
102
{ACAD_REACTORS
330
C
102
}
100
AcDbDictionary
281
1
  0
DICTIONARY
  5
1A
102
{ACAD_REACTORS
330
C
102
}
100
AcDbDictionary
281
1
  3
Model
350
4EF
  3
Layout1
350
4F0
  0
ACDBPLACEHOLDER
  5
F
102
{ACAD_REACTORS
330
E
102
}
  0
MLINESTYLE
  5
18
102
{ACAD_REACTORS
330
17
102
}
100
AcDbMlineStyle
  2
STANDARD
 70
0
  3

 62
256
 51
90.0
 52
90.0
 71
2
 49
0.5
 62
256
  6
BYLAYER
 49
-0.5
 62
256
  6
BYLAYER
  0
LAYOUT
  5
4EF
102
{ACAD_REACTORS
330
1A
102
}
100
AcDbPlotSettings
  1

  2
none_device
  4
ISO_A4_(297.00_x_210.00_MM)
  6

 40
0.0
 41
0.0
 42
0.0
 43
0.0
 44
297.0
 45
210.0
 46
0.0
 47
0.0
 48
0.0
 49
0.0
140
0.0
141
0.0
142
1.0
143
1.0
 70
1024
 72
1
 73
0
 74
0
  7

 75
0
147
1.0
148
0.0
149
0.0
100
AcDbLayout
  1
Model
 70
0
 71
0
 10
0.0
 20
0.0
 11
297.0
 21
210.0
 12
0.0
 22
0.0
 32
0.0
 14
0.0
 24
0.0
 34
0.0
 15
0.0
 25
0.0
 35
0.0
146
0.0
 13
0.0
 23
0.0
 33
0.0
 16
1.0
 26
0.0
 36
0.0
 17
0.0
 27
1.0
 37
0.0
 76
0
330
212
345
0
346
0
  0
LAYOUT
  5
4F0
102
{ACAD_REACTORS
330
1A
102
}
100
AcDbPlotSettings
  1

  2
none_device
  4
ISO_A4_(297.00_x_210.00_MM)
  6

 40
0.0
 41
0.0
 42
0.0
 43
0.0
 44
297.0
 45
210.0
 46
0.0
 47
0.0
 48
0.0
 49
0.0
140
0.0
141
0.0
142
1.0
143
1.0
 70
0
 72
1
 73
0
 74
0
  7

 75
0
147
1.0
148
0.0
149
0.0
100
AcDbLayout
  1
Layout1
 70
0
 71
1
 10
0.0
 20
0.0
 11
297.0
 21
210.0
 12
0.0
 22
0.0
 32
0.0
 14
0.0
 24
0.0
 34
0.0
 15
0.0
 25
0.0
 35
0.0
146
0.0
 13
0.0
 23
0.0
 33
0.0
 16
1.0
 26
0.0
 36
0.0
 17
0.0
 27
1.0
 37
0.0
 76
0
330
213
345
0
346
0
  0
ENDSEC
  0
EOF
