  0
SECTION
  2
HEADER
  9
$ACADVER
  1
AC1015
  9
$DWGCODEPAGE
  3
ANSI_1252
  9
$EXTMAX
 10
297.0
 20
210.0
 30
0.0
  9
$EXTMIN
 10
0.0
 20
0.0
 30
0.0
  9
$LIMMIN
 10
0.0
 20
0.0
  9
$LIMMAX
 10
297.0
 20
210.0
  9
$VIEWCTR
 10
148.5
 20
105.0
  9
$VIEWSIZE
 40
210.0
  9
$CLAYER
  8
0
  9
$LTSCALE
 40
16.335
  9
$CELTYPE
  6
BYLAYER
  9
$DIMSCALE
 40
1.0
  9
$DIMASZ
 40
3.0
  9
$DIMEXO
 40
0.5
  9
$DIMDLI
 40
11.286
  9
$DIMEXE
 40
1.5
  9
$DIMCEN
 40
2.673
  9
$DIMLFAC
 40
1.0
  9
$DIMBLK
  1
_FILLED
  9
$DIMALT
 70
0
  9
$DIMALTF
 40
0.0393700787
  9
$DIMTXT
 40
3.0
  9
$DIMTOL
 70
1
  9
$DIMLIM
 70
0
  9
$DIMTFAC
 40
1.0
  9
$DIMTP
 40
0.01
  9
$DIMTM
 40
0.01
  9
$DIMGAP
 40
0.625
  9
$DIMDSEP
 70
44
  9
$AUNITS
 70
0
  9
$PDMODE
 70
3
  9
$PDSIZE
 40
3.0
  9
$HANDSEED
  5
348
  9
$TILEMODE
 70
1
  9
$MEASUREMENT
 70
1
  9
$INSUNITS
 70
4
  0
ENDSEC
  0
SECTION
  2
CLASSES
  0
CLASS
  1
ACDBDICTIONARYWDFLT
  2
AcDbDictionaryWithDefault
  3
AutoCAD 2000
 90
0
280
0
281
0
  0
CLASS
  1
ACDBPLACEHOLDER
  2
AcDbPlaceHolder
  3
AutoCAD 2000
 90
0
280
0
281
0
  0
CLASS
  1
LAYOUT
  2
AcDbLayout
  3
AutoCAD 2000
 90
0
280
0
281
0
  0
ENDSEC
  0
SECTION
  2
TABLES
  0
TABLE
  2
VPORT
  5
8
100
AcDbSymbolTable
 70
2
  0
VPORT
  5
1F4
100
AcDbSymbolTableRecord
100
AcDbViewportTableRecord
  2
*ACTIVE
 70
0
 10
0.0
 20
0.0
 11
1.0
 21
1.0
 12
148.5
 22
105.0
 13
0.0
 23
0.0
 14
1.0
 24
1.0
 15
0.0
 25
0.0
 16
0.0
 26
0.0
 36
1.0
 17
0.0
 27
0.0
 37
0.0
 40
210.0
 41
1.4142857143
 42
50.0
 43
0.0
 44
0.0
 50
0.0
 51
0.0
 71
0
 72
100
 73
1
 74
1
 75
0
 76
0
 77
0
 78
0
  0
ENDTAB
  0
TABLE
  2
LTYPE
  5
5
100
AcDbSymbolTable
 70
6
  0
LTYPE
  5
14
100
AcDbSymbolTableRecord
100
AcDbLinetypeTableRecord
  2
BYBLOCK
 70
0
  3

 72
65
 73
0
 40
0.0
  0
LTYPE
  5
15
100
AcDbSymbolTableRecord
100
AcDbLinetypeTableRecord
  2
BYLAYER
 70
0
  3

 72
65
 73
0
 40
0.0
  0
LTYPE
  5
16
100
AcDbSymbolTableRecord
100
AcDbLinetypeTableRecord
  2
CONTINUOUS
 70
64
  3
Solid line
 72
65
 73
0
 40
0.0
  0
LTYPE
  5
1F5
100
AcDbSymbolTableRecord
100
AcDbLinetypeTableRecord
  2
CENTER
 70
64
  3
____ _ ____ _ ____ _ ____ _ ____ _ ____ _ ____
 72
65
 73
4
 40
0.6
 49
0.375
 74
0
 49
-0.075
 74
0
 49
0.075
 74
0
 49
-0.075
 74
0
  0
LTYPE
  5
1F6
100
AcDbSymbolTableRecord
100
AcDbLinetypeTableRecord
  2
HIDDEN
 70
64
  3
- - - - - - - - - - - - - - - - - - - -
 72
65
 73
2
 40
0.2
 49
0.1
 74
0
 49
-0.1
 74
0
  0
LTYPE
  5
1F7
100
AcDbSymbolTableRecord
100
AcDbLinetypeTableRecord
  2
PHANTOM
 70
64
  3
_____ _ _ _____ _ _ _____ _ _ _____
 72
65
 73
6
 40
0.8
 49
0.45
 74
0
 49
-0.05
 74
0
 49
0.1
 74
0
 49
-0.05
 74
0
 49
0.1
 74
0
 49
-0.05
 74
0
  0
LTYPE
  5
1F8
100
AcDbSymbolTableRecord
100
AcDbLinetypeTableRecord
  2
DOT
 70
64
  3
. . . . . . . . . . . . . . . . . . . .
 72
65
 73
2
 40
0.2
 49
0.1
 74
0
 49
-0.1
 74
0
  0
LTYPE
  5
1F9
100
AcDbSymbolTableRecord
100
AcDbLinetypeTableRecord
  2
DASHED
 70
64
  3
- - - - - - - - - - - - - - - - - - - -
 72
65
 73
2
 40
0.2
 49
0.1
 74
0
 49
-0.1
 74
0
  0
ENDTAB
  0
TABLE
  2
LAYER
  5
2
100
AcDbSymbolTable
 70
36
  0
LAYER
  5
10
100
AcDbSymbolTableRecord
100
AcDbLayerTableRecord
  2
0
 70
0
 62
7
  6
CONTINUOUS
370
-3
390
F
  0
LAYER
  5
1FA
100
AcDbSymbolTableRecord
100
AcDbLayerTableRecord
  2
DEFAULT_1
 70
0
 62
7
  6
CENTER
370
-3
390
F
  0
LAYER
  5
1FB
100
AcDbSymbolTableRecord
100
AcDbLayerTableRecord
  2
DEFAULT_2
 70
0
 62
7
  6
HIDDEN
370
-3
390
F
  0
LAYER
  5
1FC
100
AcDbSymbolTableRecord
100
AcDbLayerTableRecord
  2
DEFAULT_3
 70
0
 62
7
  6
PHANTOM
370
-3
390
F
  0
LAYER
  5
1FD
100
AcDbSymbolTableRecord
100
AcDbLayerTableRecord
  2
ASSI
 70
0
 62
7
  6
CONTINUOUS
370
-3
390
F
  0
LAYER
  5
1FE
100
AcDbSymbolTableRecord
100
AcDbLayerTableRecord
  2
COORDINATE
 70
0
 62
7
  6
CONTINUOUS
370
-3
390
F
  0
LAYER
  5
1FF
100
AcDbSymbolTableRecord
100
AcDbLayerTableRecord
  2
COPY_PUBLISH
 70
0
 62
7
  6
CONTINUOUS
370
-3
390
F
  0
LAYER
  5
200
100
AcDbSymbolTableRecord
100
AcDbLayerTableRecord
  2
COSMETICI
 70
0
 62
7
  6
CONTINUOUS
370
-3
390
F
  0
LAYER
  5
201
100
AcDbSymbolTableRecord
100
AcDbLayerTableRecord
  2
CURVE
 70
0
 62
7
  6
CONTINUOUS
370
-3
390
F
  0
LAYER
  5
202
100
AcDbSymbolTableRecord
100
AcDbLayerTableRecord
  2
DRAFT
 70
0
 62
7
  6
CONTINUOUS
370
-3
390
F
  0
LAYER
  5
203
100
AcDbSymbolTableRecord
100
AcDbLayerTableRecord
  2
IMPORT_IGES
 70
0
 62
7
  6
CONTINUOUS
370
-3
390
F
  0
LAYER
  5
204
100
AcDbSymbolTableRecord
100
AcDbLayerTableRecord
  2
INTF_11
 70
0
 62
7
  6
CONTINUOUS
370
-3
390
F
  0
LAYER
  5
205
100
AcDbSymbolTableRecord
100
AcDbLayerTableRecord
  2
INTF_7
 70
0
 62
7
  6
CONTINUOUS
370
-3
390
F
  0
LAYER
  5
206
100
AcDbSymbolTableRecord
100
AcDbLayerTableRecord
  2
INTF_RED
 70
0
 62
7
  6
CONTINUOUS
370
-3
390
F
  0
LAYER
  5
207
100
AcDbSymbolTableRecord
100
AcDbLayerTableRecord
  2
NOTE
 70
0
 62
7
  6
CONTINUOUS
370
-3
390
F
  0
LAYER
  5
208
100
AcDbSymbolTableRecord
100
AcDbLayerTableRecord
  2
PIANI
 70
0
 62
7
  6
CONTINUOUS
370
-3
390
F
  0
LAYER
  5
209
100
AcDbSymbolTableRecord
100
AcDbLayerTableRecord
  2
PUNTI
 70
0
 62
7
  6
CONTINUOUS
370
-3
390
F
  0
LAYER
  5
20A
100
AcDbSymbolTableRecord
100
AcDbLayerTableRecord
  2
RACCORDO
 70
0
 62
7
  6
CONTINUOUS
370
-3
390
F
  0
LAYER
  5
20B
100
AcDbSymbolTableRecord
100
AcDbLayerTableRecord
  2
SIMBOLI
 70
0
 62
7
  6
CONTINUOUS
370
-3
390
F
  0
LAYER
  5
20C
100
AcDbSymbolTableRecord
100
AcDbLayerTableRecord
  2
SMUSSO
 70
0
 62
7
  6
CONTINUOUS
370
-3
390
F
  0
LAYER
  5
20D
100
AcDbSymbolTableRecord
100
AcDbLayerTableRecord
  2
SNAPLINE
 70
0
 62
7
  6
CONTINUOUS
370
-3
390
F
  0
LAYER
  5
20E
100
AcDbSymbolTableRecord
100
AcDbLayerTableRecord
  2
SUPERFICI
 70
0
 62
7
  6
CONTINUOUS
370
-3
390
F
  0
LAYER
  5
20F
100
AcDbSymbolTableRecord
100
AcDbLayerTableRecord
  2
TRASH
 70
0
 62
7
  6
CONTINUOUS
370
-3
390
F
  0
ENDTAB
  0
TABLE
  2
STYLE
  5
3
100
AcDbSymbolTable
 70
1
  0
STYLE
  5
11
100
AcDbSymbolTableRecord
100
AcDbTextStyleTableRecord
  2
STANDARD
 70
0
 40
0.0
 41
0.8
 50
0.0
 71
0
 42
0.2
  3
txt
  4

  0
STYLE
  5
210
100
AcDbSymbolTableRecord
100
AcDbTextStyleTableRecord
  2
TEXTSTYLE_1
 70
0
 40
0.0
 41
0.8
 50
0.0
 71
0
 42
0.2
  3
gdt
  4

  0
ENDTAB
  0
TABLE
  2
VIEW
  5
6
100
AcDbSymbolTable
 70
0
  0
ENDTAB
  0
TABLE
  2
UCS
  5
7
100
AcDbSymbolTable
 70
0
  0
ENDTAB
  0
TABLE
  2
APPID
  5
9
100
AcDbSymbolTable
 70
1
  0
APPID
  5
211
100
AcDbSymbolTableRecord
100
AcDbRegAppTableRecord
  2
ACAD
 70
0
  0
ENDTAB
  0
TABLE
  2
BLOCK_RECORD
  5
1
100
AcDbSymbolTable
 70
0
  0
BLOCK_RECORD
  5
212
100
AcDbSymbolTableRecord
100
AcDbBlockTableRecord
  2
*Model_Space
  0
BLOCK_RECORD
  5
213
100
AcDbSymbolTableRecord
100
AcDbBlockTableRecord
  2
*Paper_Space
  0
ENDTAB
  0
TABLE
  2
DIMSTYLE
  5
A
100
AcDbSymbolTable
 70
1
100
AcDbDimStyleTable
 71
0
  0
DIMSTYLE
105
214
100
AcDbSymbolTableRecord
100
AcDbDimStyleTableRecord
  2
STANDARD
 70
0
  3

  4

 40
1.0
 41
3.0
 42
0.5
 43
0.38
 44
1.5
 45
0.0
 46
0.0
 47
0.01
 48
0.01
140
3.0
141
0.09
142
0.0
143
25.4
144
1.0
145
0.0
146
1.0
147
0.625
 71
1.0
 72
0.0
 73
0
 74
0
 75
0
 76
0
 77
1
 78
8
170
0
171
2
172
0
173
0
174
0
175
0
176
0
177
0
178
0
270
2
271
2
272
2
273
2
274
2
275
0
280
0
281
0
282
0
283
1
284
8
285
0
286
0
287
3
288
0
340
11
278
44
  0
ENDTAB
  0
ENDSEC
  0
SECTION
  2
BLOCKS
  0
BLOCK
  5
20
100
AcDbEntity
  8
0
100
AcDbBlockBegin
  2
*Model_Space
 70
0
 10
0.0
 20
0.0
 30
0.0
  3
*Model_Space
  1

  0
ENDBLK
  5
21
100
AcDbEntity
  8
0
100
AcDbBlockEnd
  0
BLOCK
  5
1C
100
AcDbEntity
  8
0
100
AcDbBlockBegin
  2
*Paper_Space
 70
0
 10
0.0
 20
0.0
 30
0.0
  3
*Paper_Space
  1

  0
ENDBLK
  5
1D
100
AcDbEntity
  8
0
100
AcDbBlockEnd
  0
ENDSEC
  0
SECTION
  2
ENTITIES
  0
LINE
  5
215
100
AcDbEntity
  8
RACCORDO
100
AcDbLine
 62
7
  6
CONTINUOUS
 10
-19.7784934558
 20
43.1883420214
 11
-20.3000053255
 21
42.8658312583
  0
LINE
  5
216
100
AcDbEntity
  8
RACCORDO
100
AcDbLine
 62
7
  6
CONTINUOUS
 10
-19.3958646675
 20
43.8054674188
 11
-20.1091418061
 21
43.3792542349
  0
LINE
  5
217
100
AcDbEntity
  8
0
100
AcDbLine
 62
7
  6
CONTINUOUS
 10
-23.4185126979
 20
41.4011316464
 11
-20.6423993781
 21
43.0571797961
  0
LINE
  5
218
100
AcDbEntity
  8
0
100
AcDbLine
 62
7
  6
CONTINUOUS
 10
-23.0592404444
 20
41.2003506461
 11
-20.2831271246
 21
42.8563987958
  0
LINE
  5
219
100
AcDbEntity
  8
RACCORDO
100
AcDbLine
 62
7
  6
CONTINUOUS
 10
-18.1535342201
 20
42.9249011373
 11
-21.0695984256
 21
41.1215632907
  0
LINE
  5
21A
100
AcDbEntity
  8
RACCORDO
100
AcDbLine
 62
253
  6
CONTINUOUS
 10
-20.5757903573
 20
40.6337749517
 11
-18.1535342201
 21
42.0323600895
  0
LINE
  5
21B
100
AcDbEntity
  8
RACCORDO
100
AcDbLine
 62
253
  6
CONTINUOUS
 10
-20.3112155546
 20
40.4599832218
 11
-18.012134403
 21
41.7874484224
  0
LINE
  5
21C
100
AcDbEntity
  8
0
100
AcDbLine
 62
253
  6
CONTINUOUS
 10
-23.0592404444
 20
41.2003506461
 11
-23.4369703163
 21
41.011199936
  0
LWPOLYLINE
  5
21D
100
AcDbEntity
  8
RACCORDO
100
AcDbPolyline
 62
253
  6
CONTINUOUS
 90
19
 70
0
 10
-15.5161482643
 20
38.6558714437
 10
-15.5392895634
 20
38.6412051033
 10
-15.5598308582
 20
38.6257034149
 10
-15.5777721486
 20
38.6093663785
 10
-15.593203216
 20
38.5920636238
 10
-15.6060342791
 20
38.573925521
 10
-15.6159959937
 20
38.5553431814
 10
-15.6230291766
 20
38.5363039829
 10
-15.6271930109
 20
38.5168205475
 10
-15.6283957016
 20
38.4973218526
 10
-15.6265667802
 20
38.4778023699
 10
-15.6217767151
 20
38.4582676279
 10
-15.6141451167
 20
38.4391631889
 10
-15.6036254661
 20
38.4205166899
 10
-15.5902642824
 20
38.4023004939
 10
-15.5743207328
 20
38.3848772536
 10
-15.5558812065
 20
38.368367853
 10
-15.5348593145
 20
38.3526514081
 10
-15.5112550566
 20
38.3377279188
  0
LINE
  5
21E
100
AcDbEntity
  8
RACCORDO
100
AcDbLine
 62
253
  6
CONTINUOUS
 10
-14.05229335
 20
39.5010858269
 11
-15.5161482643
 21
38.6558714437
  0
LWPOLYLINE
  5
21F
100
AcDbEntity
  8
RACCORDO
100
AcDbPolyline
 62
7
  6
CONTINUOUS
 90
15
 70
0
 10
-20.4303486947
 20
42.9386742675
 10
-20.4240618616
 20
42.9600479951
 10
-20.4101809242
 20
42.9993223613
 10
-20.3939743582
 20
43.0384099078
 10
-20.3754927089
 20
43.0773146948
 10
-20.3551435633
 20
43.1151787317
 10
-20.3328854314
 20
43.1519788962
 10
-20.3087598031
 20
43.1877383105
 10
-20.2832987356
 20
43.2216683507
 10
-20.2564725595
 20
43.2537283737
 10
-20.2283109441
 20
43.2839590226
 10
-20.1994349546
 20
43.3116936027
 10
-20.1700516126
 20
43.3367098823
 10
-20.1399538964
 20
43.359230093
 10
-20.1091418061
 20
43.3792542349
  0
LWPOLYLINE
  5
220
100
AcDbEntity
  8
RACCORDO
100
AcDbPolyline
 62
7
  6
CONTINUOUS
 90
8
 70
0
 10
-13.9496057048
 20
38.4257932119
 10
-13.9352439048
 20
38.4355567749
 10
-13.9195041438
 20
38.4485897614
 10
-13.9051704589
 20
38.463167609
 10
-13.8923637163
 20
38.4791828701
 10
-13.8812707887
 20
38.4964138167
 10
-13.8719912133
 20
38.5147077023
 10
-13.8645790774
 20
38.5340252147
  0
LINE
  5
221
100
AcDbEntity
  8
RACCORDO
100
AcDbLine
 62
253
  6
CONTINUOUS
 10
-13.945769885
 20
38.4283491105
 11
-13.9495683773
 21
38.4258162788
  0
LWPOLYLINE
  5
222
100
AcDbEntity
  8
RACCORDO
100
AcDbPolyline
 62
253
  6
CONTINUOUS
 90
9
 70
0
 10
-13.9108935329
 20
38.5157000425
 10
-13.8973027803
 20
38.5247165291
 10
-13.8853990752
 20
38.5344958748
 10
-13.8753099552
 20
38.544933301
 10
-13.8671435205
 20
38.5559169713
 10
-13.8609872591
 20
38.5673292112
 10
-13.8569071227
 20
38.5790477714
 10
-13.8549468374
 20
38.5909471059
 10
-13.854761493
 20
38.5959174499
  0
LINE
  5
223
100
AcDbEntity
  8
RACCORDO
100
AcDbLine
 62
253
  6
CONTINUOUS
 10
-14.7782410636
 20
37.9793193191
 11
-13.9108935329
 21
38.5157000425
  0
LINE
  5
224
100
AcDbEntity
  8
RACCORDO
100
AcDbLine
 62
7
  6
CONTINUOUS
 10
-14.7230758824
 20
37.9474676348
 11
-13.9495683773
 21
38.4258162788
  0
LWPOLYLINE
  5
225
100
AcDbEntity
  8
RACCORDO
100
AcDbPolyline
 62
253
  6
CONTINUOUS
 90
8
 70
0
 10
-15.3747484472
 20
38.4109597766
 10
-15.3862188595
 20
38.403977235
 10
-15.3965178887
 20
38.3964457564
 10
-15.4055717724
 20
38.3884266159
 10
-15.4133147985
 20
38.3799896415
 10
-15.4196950245
 20
38.3711970268
 10
-15.4246715636
 20
38.36210211
 10
-15.4273271478
 20
38.3550992048
  0
LINE
  5
226
100
AcDbEntity
  8
RACCORDO
100
AcDbLine
 62
253
  6
CONTINUOUS
 10
-13.9108935329
 20
39.2561741598
 11
-15.3747484472
 21
38.4109597766
  0
LINE
  5
227
100
AcDbEntity
  8
DRAFT
100
AcDbLine
 62
7
  6
CONTINUOUS
 10
-12.4662182119
 20
38.4163769337
 11
-14.0274928733
 21
37.545846723
  0
LINE
  5
228
100
AcDbEntity
  8
RACCORDO
100
AcDbLine
 62
7
  6
CONTINUOUS
 10
-12.4230508397
 20
38.8763322904
 11
-12.2570933518
 21
38.9655788568
  0
LINE
  5
229
100
AcDbEntity
  8
RACCORDO
100
AcDbLine
 62
253
  6
CONTINUOUS
 10
-12.3248183948
 20
38.8654401313
 11
-12.159900012
 21
38.9541279006
  0
LWPOLYLINE
  5
22A
100
AcDbEntity
  8
RACCORDO
100
AcDbPolyline
 62
253
  6
CONTINUOUS
 90
9
 70
0
 10
-12.159900012
 20
38.9541279006
 10
-12.1484371415
 20
38.9599770828
 10
-12.1370661051
 20
38.9647020311
 10
-12.1258618616
 20
38.9682715986
 10
-12.1148982699
 20
38.9706622542
 10
-12.104247603
 20
38.9718582387
 10
-12.0939800706
 20
38.9718516681
 10
-12.084163357
 20
38.9706425856
 10
-12.0748621747
 20
38.9682389617
  0
LINE
  5
22B
100
AcDbEntity
  8
RACCORDO
100
AcDbLine
 62
253
  6
CONTINUOUS
 10
-12.2570933518
 20
38.9655788568
 11
-12.2534202266
 21
38.9674106719
  0
LINE
  5
22C
100
AcDbEntity
  8
RACCORDO
100
AcDbLine
 62
7
  6
CONTINUOUS
 10
-12.2387748671
 20
38.974263331
 11
-12.2572160215
 21
38.9655127235
  0
LWPOLYLINE
  5
22D
100
AcDbEntity
  8
RACCORDO
100
AcDbPolyline
 62
253
  6
CONTINUOUS
 90
8
 70
0
 10
-12.2534202266
 20
38.9674106719
 10
-12.2419421441
 20
38.9714943012
 10
-12.2295948268
 20
38.973580462
 10
-12.2165144754
 20
38.9736480249
 10
-12.2028515678
 20
38.9716994459
 10
-12.1887590166
 20
38.9677614434
 10
-12.1743894465
 20
38.9618814184
 10
-12.159900012
 20
38.9541279006
  0
LWPOLYLINE
  5
22E
100
AcDbEntity
  8
RACCORDO
100
AcDbPolyline
 62
253
  6
CONTINUOUS
 90
3
 70
0
 10
-15.4751377972
 20
38.3524109717
 10
-15.493023244
 20
38.3465208993
 10
-15.5112550566
 20
38.3377279188
  0
LWPOLYLINE
  5
22F
100
AcDbEntity
  8
0
100
AcDbPolyline
 62
7
  6
CONTINUOUS
 90
9
 70
0
 10
-23.5591562377
 20
41.2003506044
 10
-23.5576841134
 20
41.2225837168
 10
-23.5515446552
 20
41.2508070567
 10
-23.5404856455
 20
41.2785261903
 10
-23.5246463352
 20
41.3057553894
 10
-23.5044836888
 20
41.3317090909
 10
-23.4801500279
 20
41.3561254403
 10
-23.4514930309
 20
41.3792662922
 10
-23.4185126979
 20
41.4011316464
  0
LWPOLYLINE
  5
230
100
AcDbEntity
  8
RACCORDO
100
AcDbPolyline
 62
253
  6
CONTINUOUS
 90
9
 70
0
 10
-8.8674226422
 20
36.9233594151
 10
-8.8538318292
 20
36.9323759463
 10
-8.8419280777
 20
36.9421553455
 10
-8.8318389284
 20
36.9525928333
 10
-8.8236724793
 20
36.9635765792
 10
-8.8175162285
 20
36.9749889
 10
-8.8134361357
 20
36.9867075206
 10
-8.8114759165
 20
36.998606884
 10
-8.8112906023
 20
37.0035768225
  0
LINE
  5
231
100
AcDbEntity
  8
RACCORDO
100
AcDbLine
 62
7
  6
CONTINUOUS
 10
-10.087882771
 20
35.2715027693
 11
-8.8674226422
 21
36.0262536202
  0
LINE
  5
232
100
AcDbEntity
  8
DRAFT
100
AcDbLine
 62
7
  6
CONTINUOUS
 10
-9.4256590528
 20
36.6607961823
 11
-10.9333644677
 21
35.7593357602
  0
LINE
  5
233
100
AcDbEntity
  8
RACCORDO
100
AcDbLine
 62
253
  6
CONTINUOUS
 10
-9.4077990388
 20
37.3650992907
 11
-9.5670588698
 21
37.2731443445
  0
LINE
  5
234
100
AcDbEntity
  8
RACCORDO
100
AcDbLine
 62
253
  6
CONTINUOUS
 10
-9.2663992217
 20
37.1201876235
 11
-9.4256590528
 21
37.0282326774
  0
LINE
  5
235
100
AcDbEntity
  8
RACCORDO
100
AcDbLine
 62
7
  6
CONTINUOUS
 10
-9.7305498196
 20
35.2706721522
 11
-8.2146836809
 21
36.0858559063
  0
LWPOLYLINE
  5
236
100
AcDbEntity
  8
RACCORDO
100
AcDbPolyline
 62
7
  6
CONTINUOUS
 90
11
 70
0
 10
-8.2146821188
 20
36.0858567463
 10
-8.2099399633
 20
36.0883257328
 10
-8.1912711016
 20
36.0965649399
 10
-8.1718152058
 20
36.1028709358
 10
-8.151739969
 20
36.1071693879
 10
-8.131242052
 20
36.1093921394
 10
-8.1105462811
 20
36.1094890937
 10
-8.0898720564
 20
36.1074347579
 10
-8.069435199
 20
36.1032239914
 10
-8.0494732929
 20
36.0968786305
 10
-8.0302380245
 20
36.0884569886
  0
LWPOLYLINE
  5
237
100
AcDbEntity
  8
RACCORDO
100
AcDbPolyline
 62
7
  6
CONTINUOUS
 90
21
 70
0
 10
-9.7305639311
 20
35.2706641308
 10
-9.7387351222
 20
35.266515135
 10
-9.7514385664
 20
35.2608789482
 10
-9.7662801372
 20
35.2552787437
 10
-9.7833133182
 20
35.2498975094
 10
-9.8023480198
 20
35.2449839448
 10
-9.8229256332
 20
35.2407923205
 10
-9.8448007089
 20
35.2374625218
 10
-9.8677488216
 20
35.2351087649
 10
-9.8912662683
 20
35.2338347689
 10
-9.9150383581
 20
35.2336733599
 10
-9.9387922559
 20
35.2346300207
 10
-9.9620809479
 20
35.2366743482
 10
-9.9846043873
 20
35.2397387269
 10
-10.0061188778
 20
35.2437323985
 10
-10.0262870437
 20
35.2485211616
 10
-10.0449110451
 20
35.2539650502
 10
-10.0617962856
 20
35.2598932015
 10
-10.0766529145
 20
35.266055717
 10
-10.0894162814
 20
35.2722466
 10
-10.0965083753
 20
35.2761452655
  0
LWPOLYLINE
  5
238
100
AcDbEntity
  8
RACCORDO
100
AcDbPolyline
 62
253
  6
CONTINUOUS
 90
9
 70
0
 10
-8.2146821188
 20
36.0858567463
 10
-8.2114530699
 20
36.0874818153
 10
-8.1999204996
 20
36.0916696997
 10
-8.1875442835
 20
36.093826273
 10
-8.1744412432
 20
36.0939481331
 10
-8.1607337474
 20
36.0920379928
 10
-8.1465639575
 20
36.0881123246
 10
-8.1320962275
 20
36.0822134285
 10
-8.1174903411
 20
36.0744049501
  0
LWPOLYLINE
  5
239
100
AcDbEntity
  8
RACCORDO
100
AcDbPolyline
 62
253
  6
CONTINUOUS
 90
7
 70
0
 10
-9.7305498196
 20
35.2706721522
 10
-9.7184290395
 20
35.2757298307
 10
-9.7031410229
 20
35.2786661079
 10
-9.68670165
 20
35.2784529329
 10
-9.6693920942
 20
35.2750939516
 10
-9.651508412
 20
35.268646615
 10
-9.6333564798
 20
35.259221196
  0
LINE
  5
23A
100
AcDbEntity
  8
DRAFT
100
AcDbLine
 62
7
  6
CONTINUOUS
 10
28.6007913482
 20
-15.7085990387
 11
27.2363504848
 21
-16.0086576244
  0
LINE
  5
23B
100
AcDbEntity
  8
0
100
AcDbLine
 62
7
  6
CONTINUOUS
 10
-23.5592404444
 20
41.2003506461
 11
-23.5592404444
 21
4.050953052
  0
LINE
  5
23C
100
AcDbEntity
  8
0
100
AcDbLine
 62
253
  6
CONTINUOUS
 10
-23.4369703163
 20
41.011199936
 11
-23.4369703163
 21
3.861802342
  0
LINE
  5
23D
100
AcDbEntity
  8
RACCORDO
100
AcDbLine
 62
7
  6
CONTINUOUS
 10
-22.8070758572
 20
41.1255402767
 11
-22.8070758572
 21
41.0340701303
  0
LWPOLYLINE
  5
23E
100
AcDbEntity
  8
RACCORDO
100
AcDbPolyline
 62
7
  6
CONTINUOUS
 90
9
 70
0
 10
-8.8674226422
 20
36.0262536202
 10
-8.852835916
 20
36.0377655442
 10
-8.8406615748
 20
36.0510890106
 10
-8.8308174191
 20
36.0660173029
 10
-8.8232103252
 20
36.0824960856
 10
-8.8176385545
 20
36.1002341597
 10
-8.8138813495
 20
36.1187179222
 10
-8.811814403
 20
36.137790229
 10
-8.8112906023
 20
36.1542738289
  0
LINE
  5
23F
100
AcDbEntity
  8
RACCORDO
100
AcDbLine
 62
253
  6
CONTINUOUS
 10
-9.6333564798
 20
35.259221196
 11
-8.1174903411
 21
36.0744049501
  0
LINE
  5
240
100
AcDbEntity
  8
DRAFT
100
AcDbLine
 62
7
  6
CONTINUOUS
 10
28.6007913482
 20
-12.2572361531
 11
27.3179971648
 21
-12.5756754148
  0
LINE
  5
241
100
AcDbEntity
  8
RACCORDO
100
AcDbLine
 62
253
  6
CONTINUOUS
 10
-21.0695984256
 20
40.9626167029
 11
-21.0695984256
 21
41.1215632907
  0
LWPOLYLINE
  5
242
100
AcDbEntity
  8
RACCORDO
100
AcDbPolyline
 62
253
  6
CONTINUOUS
 90
7
 70
0
 10
-18.0974021842
 20
42.1125541411
 10
-18.0988576975
 20
42.0986711055
 10
-18.1036277848
 20
42.083989623
 10
-18.1116402434
 20
42.0697864907
 10
-18.1227610042
 20
42.0562993663
 10
-18.1368039885
 20
42.043753926
 10
-18.1535342201
 20
42.0323600895
  0
LWPOLYLINE
  5
243
100
AcDbEntity
  8
RACCORDO
100
AcDbPolyline
 62
7
  6
CONTINUOUS
 90
4
 70
0
 10
-13.8645790774
 20
38.5340252147
 10
-13.8591612026
 20
38.5541982416
 10
-13.8558670567
 20
38.5749186658
 10
-13.854761493
 20
38.5959174499
  0
LWPOLYLINE
  5
244
100
AcDbEntity
  8
RACCORDO
100
AcDbPolyline
 62
253
  6
CONTINUOUS
 90
16
 70
0
 10
-9.2663992217
 20
37.1201876235
 10
-9.2574778378
 20
37.1386461875
 10
-9.2501378174
 20
37.1578258826
 10
-9.244475282
 20
37.1775297999
 10
-9.2405669506
 20
37.1975712375
 10
-9.2384811982
 20
37.2177168657
 10
-9.238258899
 20
37.2376897021
 10
-9.2399050098
 20
37.2572596076
 10
-9.243405098
 20
37.2762259135
 10
-9.2487192762
 20
37.2943637156
 10
-9.2557873149
 20
37.3114735295
 10
-9.2645321013
 20
37.3273732581
 10
-9.2748526489
 20
37.3418847748
 10
-9.2866321253
 20
37.3548516888
 10
-9.2997416274
 20
37.3661390012
 10
-9.3140368645
 20
37.3756280311
  0
LINE
  5
245
100
AcDbEntity
  8
RACCORDO
100
AcDbLine
 62
253
  6
CONTINUOUS
 10
-18.1535342201
 20
42.9249011373
 11
-18.1535342201
 21
42.0323600895
  0
LINE
  5
246
100
AcDbEntity
  8
RACCORDO
100
AcDbLine
 62
7
  6
CONTINUOUS
 10
-18.0974021801
 20
43.0070842723
 11
-18.0974021801
 21
42.1125774968
  0
LINE
  5
247
100
AcDbEntity
  8
RACCORDO
100
AcDbLine
 62
253
  6
CONTINUOUS
 10
-8.8584810549
 20
36.9418647345
 11
-8.8674226422
 21
36.9233594151
  0
LWPOLYLINE
  5
248
100
AcDbEntity
  8
0
100
AcDbPolyline
 62
7
  6
CONTINUOUS
 90
16
 70
0
 10
25.1913978896
 20
-24.2156080035
 10
25.2310122419
 20
-24.2334276981
 10
25.2725962354
 20
-24.2486852101
 10
25.3161498703
 20
-24.2613805396
 10
25.3621343053
 20
-24.2715872009
 10
25.4100883817
 20
-24.2792316796
 10
25.4586286229
 20
-24.2840934323
 10
25.5077721041
 20
-24.2860913977
 10
25.5575017502
 20
-24.2853066371
 10
25.6063828596
 20
-24.2817617909
 10
25.6543907142
 20
-24.2753764573
 10
25.7015500321
 20
-24.266231038
 10
25.7465002656
 20
-24.2545893787
 10
25.7887878989
 20
-24.2405394278
 10
25.8288664478
 20
-24.223993237
 10
25.8667359123
 20
-24.204950806
  0
LWPOLYLINE
  5
249
100
AcDbEntity
  8
0
100
AcDbPolyline
 62
7
  6
CONTINUOUS
 90
9
 70
0
 10
-23.4369703163
 20
3.861802342
 10
-23.4678329442
 20
3.8846751725
 10
-23.4942580277
 20
3.9086852492
 10
-23.5162455667
 20
3.9338325721
 10
-23.5339228837
 20
3.9603834086
 10
-23.5471626562
 20
3.9880714912
 10
-23.5555829164
 20
4.0160980182
 10
-23.5590432711
 20
4.0444728483
 10
-23.5591562377
 20
4.0509530104
  0
LWPOLYLINE
  5
24A
100
AcDbEntity
  8
RACCORDO
100
AcDbPolyline
 62
253
  6
CONTINUOUS
 90
19
 70
0
 10
-18.1535342201
 20
42.0323600895
 10
-18.1527894735
 20
42.0179304771
 10
-18.1509976268
 20
42.0029816675
 10
-18.1481708169
 20
41.9876295121
 10
-18.1443285036
 20
41.9719965283
 10
-18.1395002714
 20
41.9561989551
 10
-18.1337236284
 20
41.940345673
 10
-18.1270391516
 20
41.9245518017
 10
-18.1194968256
 20
41.9089441099
 10
-18.1111586024
 20
41.8936475284
 10
-18.1020921009
 20
41.8787814953
 10
-18.0923635301
 20
41.8644546666
 10
-18.0820418756
 20
41.8507707506
 10
-18.0712110949
 20
41.8378371251
 10
-18.0599499863
 20
41.8257470404
 10
-18.04832358
 20
41.8145790419
 10
-18.0364133606
 20
41.8044180204
 10
-18.0243187227
 20
41.7953500182
 10
-18.012134403
 20
41.7874484224
  0
LWPOLYLINE
  5
24B
100
AcDbEntity
  8
RACCORDO
100
AcDbPolyline
 62
253
  6
CONTINUOUS
 90
13
 70
0
 10
-15.3747484472
 20
38.4109597766
 10
-15.3756624043
 20
38.4331417413
 10
-15.379021397
 20
38.4563163248
 10
-15.3847679746
 20
38.4800871573
 10
-15.39280385
 20
38.5040476711
 10
-15.4029915805
 20
38.5277880535
 10
-15.4151569181
 20
38.5509022555
 10
-15.4290917907
 20
38.5729949397
 10
-15.4445578611
 20
38.5936882406
 10
-15.4612906017
 20
38.6126282263
 10
-15.4790038208
 20
38.6294909538
 10
-15.4973945579
 20
38.6439880103
 10
-15.5161482643
 20
38.6558714437
  0
LINE
  5
24C
100
AcDbEntity
  8
RACCORDO
100
AcDbLine
 62
253
  6
CONTINUOUS
 10
-15.3747484472
 20
38.4109597766
 11
-15.3747484472
 21
38.3237352063
  0
LWPOLYLINE
  5
24D
100
AcDbEntity
  8
RACCORDO
100
AcDbPolyline
 62
253
  6
CONTINUOUS
 90
8
 70
0
 10
-13.9108935329
 20
38.5157000425
 10
-13.9114000798
 20
38.4995696581
 10
-13.9134247413
 20
38.4843738596
 10
-13.916969522
 20
38.4702908417
 10
-13.9220233473
 20
38.4574832097
 10
-13.9285521761
 20
38.4461213542
 10
-13.9364895679
 20
38.4363709848
 10
-13.9454892207
 20
38.4285917157
  0
LWPOLYLINE
  5
24E
100
AcDbEntity
  8
RACCORDO
100
AcDbPolyline
 62
253
  6
CONTINUOUS
 90
9
 70
0
 10
-13.854761493
 20
39.3363915672
 10
-13.8549467787
 20
39.3314220099
 10
-13.8569069372
 20
39.3195226142
 10
-13.8609869878
 20
39.3078039415
 10
-13.8671432236
 20
39.2963915529
 10
-13.8753096808
 20
39.2854077402
 10
-13.8853988565
 20
39.2749701931
 10
-13.8973026545
 20
39.2651907392
 10
-13.9108935329
 20
39.2561741598
  0
LWPOLYLINE
  5
24F
100
AcDbEntity
  8
RACCORDO
100
AcDbPolyline
 62
7
  6
CONTINUOUS
 90
10
 70
0
 10
29.0737809221
 20
-22.301054931
 10
29.0938785736
 20
-22.3108838171
 10
29.1180042018
 20
-22.3187835607
 10
29.1434652693
 20
-22.3233117983
 10
29.1702914454
 20
-22.3243936256
 10
29.1984530608
 20
-22.322103947
 10
29.2273290504
 20
-22.3164932581
 10
29.2567123923
 20
-22.3075783909
 10
29.2868101085
 20
-22.2953425134
 10
29.3176221988
 20
-22.2797856257
  0
LWPOLYLINE
  5
250
100
AcDbEntity
  8
0
100
AcDbPolyline
 62
7
  6
CONTINUOUS
 90
16
 70
0
 10
-23.4369703163
 20
3.861802342
 10
-20.4137441048
 20
1.8682465467
 10
-17.3585441081
 20
-0.1083566229
 10
-14.2713703259
 20
-2.0680071669
 10
-11.15194072
 20
-4.0108774474
 10
-8.0005373286
 20
-5.9367951023
 10
-4.8180062674
 20
-7.8452430449
 10
-1.6043391781
 20
-9.7362165844
 10
1.6404555811
 20
-11.6097204115
 10
4.9155068202
 20
-13.4652515121
 10
8.2208226635
 20
-15.3028050604
 10
11.5563949867
 20
-17.1223858822
 10
14.9213282272
 20
-18.923505441
 10
18.3153238641
 20
-20.7060008915
 10
21.7386804182
 20
-22.470035079
 10
25.1913978896
 20
-24.2156080035
  0
LWPOLYLINE
  5
251
100
AcDbEntity
  8
RACCORDO
100
AcDbPolyline
 62
253
  6
CONTINUOUS
 90
16
 70
0
 10
-13.9108935329
 20
39.2561741598
 10
-13.9114000798
 20
39.2734424519
 10
-13.9134247413
 20
39.2914660119
 10
-13.9169695221
 20
39.3100626979
 10
-13.9220233474
 20
39.3290516619
 10
-13.9285521761
 20
39.3482179409
 10
-13.9364895678
 20
39.367314655
 10
-13.9457698848
 20
39.3861462364
 10
-13.956295291
 20
39.4044817137
 10
-13.9679025268
 20
39.4220302321
 10
-13.9804295476
 20
39.4385656225
 10
-13.9937575958
 20
39.4539484619
 10
-14.0077620846
 20
39.4680388743
 10
-14.0222978734
 20
39.4806874474
 10
-14.0371964607
 20
39.491744295
 10
-14.05229335
 20
39.5010858269
  0
LINE
  5
252
100
AcDbEntity
  8
RACCORDO
100
AcDbLine
 62
253
  6
CONTINUOUS
 10
-13.9108935329
 20
39.2561741598
 11
-13.9108935329
 21
38.5157000425
  0
LINE
  5
253
100
AcDbEntity
  8
RACCORDO
100
AcDbLine
 62
7
  6
CONTINUOUS
 10
-13.854761493
 20
39.3363915672
 11
-13.854761493
 21
38.5959174499
  0
LINE
  5
254
100
AcDbEntity
  8
RACCORDO
100
AcDbLine
 62
7
  6
CONTINUOUS
 10
-12.4662182119
 20
38.7838134287
 11
-12.4662182119
 21
38.4163769337
  0
LINE
  5
255
100
AcDbEntity
  8
RACCORDO
100
AcDbLine
 62
7
  6
CONTINUOUS
 10
29.0737804762
 20
-22.3010557037
 11
28.7388758528
 21
-22.1076859715
  0
LINE
  5
256
100
AcDbEntity
  8
RACCORDO
100
AcDbLine
 62
253
  6
CONTINUOUS
 10
28.9702391657
 20
-22.0721872731
 11
28.734910655
 21
-21.9363115404
  0
LINE
  5
257
100
AcDbEntity
  8
RACCORDO
100
AcDbLine
 62
253
  6
CONTINUOUS
 10
28.9702391657
 20
-21.8558736448
 11
28.734910655
 21
-21.7199979121
  0
LINE
  5
258
100
AcDbEntity
  8
RACCORDO
100
AcDbLine
 62
7
  6
CONTINUOUS
 10
-9.4256590528
 20
37.0282326774
 11
-9.4256590528
 21
36.6607961823
  0
LINE
  5
259
100
AcDbEntity
  8
RACCORDO
100
AcDbLine
 62
253
  6
CONTINUOUS
 10
-8.8674226422
 20
36.0262536202
 11
-8.8674226422
 21
36.9233594151
  0
LINE
  5
25A
100
AcDbEntity
  8
RACCORDO
100
AcDbLine
 62
7
  6
CONTINUOUS
 10
-8.8112906023
 20
36.1542738786
 11
-8.8112906023
 21
37.0035768225
  0
LINE
  5
25B
100
AcDbEntity
  8
RACCORDO
100
AcDbLine
 62
253
  6
CONTINUOUS
 10
29.3176221988
 20
-21.247126073
 11
29.1456299726
 21
-21.1478199171
  0
LINE
  5
25C
100
AcDbEntity
  8
DRAFT
100
AcDbLine
 62
7
  6
CONTINUOUS
 10
30.0308993375
 20
-20.820912889
 11
29.8187307007
 21
-20.6984093773
  0
LWPOLYLINE
  5
25D
100
AcDbEntity
  8
RACCORDO
100
AcDbPolyline
 62
7
  6
CONTINUOUS
 90
5
 70
0
 10
-8.8112906023
 20
37.0035768225
 10
-8.8126762165
 20
37.0270754061
 10
-8.8168650651
 20
37.0504662504
 10
-8.8238525201
 20
37.0733404616
 10
-8.8335474329
 20
37.0952684836
  0
LINE
  5
25E
100
AcDbEntity
  8
DRAFT
100
AcDbLine
 62
7
  6
CONTINUOUS
 10
28.6007913482
 20
3.8866876043
 11
27.2363504848
 21
3.5866290186
  0
LINE
  5
25F
100
AcDbEntity
  8
0
100
AcDbLine
 62
7
  6
CONTINUOUS
 10
28.6031930587
 20
-15.7045729357
 11
28.806774663
 21
-15.8260164433
  0
LINE
  5
260
100
AcDbEntity
  8
DRAFT
100
AcDbLine
 62
7
  6
CONTINUOUS
 10
28.6007913482
 20
7.3380504899
 11
27.3179971648
 21
7.0196112283
  0
LINE
  5
261
100
AcDbEntity
  8
DRAFT
100
AcDbLine
 62
7
  6
CONTINUOUS
 10
28.4592786064
 20
-11.9378648762
 11
28.8066011388
 21
-12.1384045535
  0
LWPOLYLINE
  5
262
100
AcDbEntity
  8
RACCORDO
100
AcDbPolyline
 62
253
  6
CONTINUOUS
 90
8
 70
0
 10
-8.844438656
 20
37.0794403552
 10
-8.8409367653
 20
37.060493756
 10
-8.8392851961
 20
37.0409409734
 10
-8.8394991439
 20
37.0209841259
 10
-8.8415743332
 20
37.0008506095
 10
-8.8454735981
 20
36.980805855
 10
-8.8511337296
 20
36.9610799428
 10
-8.8584810549
 20
36.9418647345
  0
LWPOLYLINE
  5
263
100
AcDbEntity
  8
RACCORDO
100
AcDbPolyline
 62
253
  6
CONTINUOUS
 90
8
 70
0
 10
20.273491708
 20
20.1867793788
 10
20.2849697905
 20
20.1908630081
 10
20.2973171078
 20
20.192949169
 10
20.3103974592
 20
20.1930167318
 10
20.3240603668
 20
20.1910681529
 10
20.3381529179
 20
20.1871301503
 10
20.3525224881
 20
20.1812501253
 10
20.3670119226
 20
20.1734966076
  0
LWPOLYLINE
  5
264
100
AcDbEntity
  8
RACCORDO
100
AcDbPolyline
 62
253
  6
CONTINUOUS
 90
3
 70
0
 10
17.0517741373
 20
19.5717796786
 10
17.0338886906
 20
19.5658896062
 10
17.015656878
 20
19.5570966257
  0
LINE
  5
265
100
AcDbEntity
  8
RACCORDO
100
AcDbLine
 62
253
  6
CONTINUOUS
 10
-8.8497515863
 20
37.0975608048
 11
-8.844438656
 21
37.0794403552
  0
LINE
  5
266
100
AcDbEntity
  8
RACCORDO
100
AcDbLine
 62
7
  6
CONTINUOUS
 10
18.5909897821
 20
19.6544222046
 11
18.5772972375
 21
19.6451563671
  0
LINE
  5
267
100
AcDbEntity
  8
RACCORDO
100
AcDbLine
 62
253
  6
CONTINUOUS
 10
18.5773435573
 20
19.6451849858
 11
18.5811420498
 21
19.6477178175
  0
LWPOLYLINE
  5
268
100
AcDbEntity
  8
RACCORDO
100
AcDbPolyline
 62
253
  6
CONTINUOUS
 90
19
 70
0
 10
17.0107636703
 20
19.8752401506
 10
16.9876440317
 20
19.8605871964
 10
16.967119104
 20
19.8451007352
 10
16.9491888872
 20
19.8287807671
 10
16.9337638522
 20
19.8114981357
 10
16.9209335281
 20
19.7933819974
 10
16.9109665017
 20
19.7748198214
 10
16.9039195745
 20
19.7558007013
 10
16.8997359451
 20
19.7363355435
 10
16.8985137964
 20
19.7168445357
 10
16.9003244663
 20
19.6973154839
 10
16.905096617
 20
19.6777605821
 10
16.9127144186
 20
19.6586366002
 10
16.9232241262
 20
19.6399757556
 10
16.9365794846
 20
19.6217458308
 10
16.9525258986
 20
19.6043069437
 10
16.9709785029
 20
19.5877791334
 10
16.9920221627
 20
19.5720423607
 10
17.015656878
 20
19.5570966257
  0
LINE
  5
269
100
AcDbEntity
  8
RACCORDO
100
AcDbLine
 62
253
  6
CONTINUOUS
 10
18.6160184016
 20
19.7350687494
 11
17.748670871
 21
19.198688026
  0
LINE
  5
26A
100
AcDbEntity
  8
RACCORDO
100
AcDbLine
 62
7
  6
CONTINUOUS
 10
18.5773435573
 20
19.6451849858
 11
17.8038360522
 21
19.1668363417
  0
LWPOLYLINE
  5
26B
100
AcDbEntity
  8
RACCORDO
100
AcDbPolyline
 62
253
  6
CONTINUOUS
 90
8
 70
0
 10
17.1521634874
 20
19.6303284835
 10
17.1406974327
 20
19.6233489194
 10
17.1304012484
 20
19.6158203445
 10
17.1213488288
 20
19.6078038821
 10
17.113606055
 20
19.5993691999
 10
17.1072250688
 20
19.5905784024
 10
17.1022469809
 20
19.5814848126
 10
17.0995848168
 20
19.574469267
  0
LINE
  5
26C
100
AcDbEntity
  8
RACCORDO
100
AcDbLine
 62
253
  6
CONTINUOUS
 10
18.4746185846
 20
20.7204545338
 11
17.0107636703
 21
19.8752401506
  0
LINE
  5
26D
100
AcDbEntity
  8
RACCORDO
100
AcDbLine
 62
253
  6
CONTINUOUS
 10
18.6160184016
 20
20.4755428667
 11
17.1521634874
 21
19.6303284835
  0
LINE
  5
26E
100
AcDbEntity
  8
DRAFT
100
AcDbLine
 62
7
  6
CONTINUOUS
 10
20.0606937227
 20
19.6357456406
 11
18.4994190613
 21
18.76521543
  0
LINE
  5
26F
100
AcDbEntity
  8
RACCORDO
100
AcDbLine
 62
7
  6
CONTINUOUS
 10
20.1038610949
 20
20.0957009974
 11
20.2698185828
 21
20.1849475638
  0
LINE
  5
270
100
AcDbEntity
  8
RACCORDO
100
AcDbLine
 62
253
  6
CONTINUOUS
 10
20.2020935398
 20
20.0848088383
 11
20.3670119226
 21
20.1734966076
  0
LWPOLYLINE
  5
271
100
AcDbEntity
  8
RACCORDO
100
AcDbPolyline
 62
253
  6
CONTINUOUS
 90
9
 70
0
 10
20.3670119226
 20
20.1734966076
 10
20.3784747931
 20
20.1793457897
 10
20.3898458295
 20
20.1840707381
 10
20.401050073
 20
20.1876403055
 10
20.4120136646
 20
20.1900309611
 10
20.4226643316
 20
20.1912269456
 10
20.432931864
 20
20.191220375
 10
20.4427485776
 20
20.1900112925
 10
20.4520497599
 20
20.1876076686
  0
LINE
  5
272
100
AcDbEntity
  8
RACCORDO
100
AcDbLine
 62
253
  6
CONTINUOUS
 10
20.2698185828
 20
20.1849475638
 11
20.273491708
 21
20.1867793788
  0
LINE
  5
273
100
AcDbEntity
  8
RACCORDO
100
AcDbLine
 62
7
  6
CONTINUOUS
 10
20.2881370675
 20
20.193632038
 11
20.2696959131
 21
20.1848814305
  0
LINE
  5
274
100
AcDbEntity
  8
RACCORDO
100
AcDbLine
 62
7
  6
CONTINUOUS
 10
27.6181751524
 20
-5.1800390773
 11
27.2999771009
 21
-4.9963155103
  0
LINE
  5
275
100
AcDbEntity
  8
RACCORDO
100
AcDbLine
 62
253
  6
CONTINUOUS
 10
27.5128265216
 20
-4.9501271226
 11
27.2976304966
 21
-4.8258756349
  0
LINE
  5
276
100
AcDbEntity
  8
RACCORDO
100
AcDbLine
 62
253
  6
CONTINUOUS
 10
27.2976304966
 20
-4.3489092298
 11
27.5128265216
 21
-4.4731607176
  0
LWPOLYLINE
  5
277
100
AcDbEntity
  8
RACCORDO
100
AcDbPolyline
 62
253
  6
CONTINUOUS
 90
8
 70
0
 10
18.5811420498
 20
19.6477178175
 10
18.5904223667
 20
19.6557396918
 10
18.5983597584
 20
19.6654900611
 10
18.6048885871
 20
19.6768519164
 10
18.6099424125
 20
19.6896595483
 10
18.6134871932
 20
19.7037425661
 10
18.6155118548
 20
19.7189383647
 10
18.6160184016
 20
19.7350687494
  0
LINE
  5
278
100
AcDbEntity
  8
DRAFT
100
AcDbLine
 62
7
  6
CONTINUOUS
 10
23.1012528818
 20
17.8801648893
 11
21.5935474669
 21
16.9787044671
  0
LINE
  5
279
100
AcDbEntity
  8
RACCORDO
100
AcDbLine
 62
253
  6
CONTINUOUS
 10
23.1191128958
 20
18.5844679976
 11
22.9598530647
 21
18.4925130514
  0
LINE
  5
27A
100
AcDbEntity
  8
RACCORDO
100
AcDbLine
 62
253
  6
CONTINUOUS
 10
23.2605127128
 20
18.3395563305
 11
23.1012528818
 21
18.2476013843
  0
LINE
  5
27B
100
AcDbEntity
  8
RACCORDO
100
AcDbLine
 62
7
  6
CONTINUOUS
 10
22.796362115
 20
16.4900408591
 11
24.3122282537
 21
17.3052246132
  0
LWPOLYLINE
  5
27C
100
AcDbEntity
  8
RACCORDO
100
AcDbPolyline
 62
7
  6
CONTINUOUS
 90
11
 70
0
 10
24.3122298158
 20
17.3052254532
 10
24.3169719712
 20
17.3076944397
 10
24.335640833
 20
17.3159336468
 10
24.3550967288
 20
17.3222396427
 10
24.3751719656
 20
17.3265380948
 10
24.3956698826
 20
17.3287608463
 10
24.4163656535
 20
17.3288578006
 10
24.4370398782
 20
17.3268034648
 10
24.4574767356
 20
17.3225926983
 10
24.4774386417
 20
17.3162473374
 10
24.4966739101
 20
17.3078256955
  0
LWPOLYLINE
  5
27D
100
AcDbEntity
  8
RACCORDO
100
AcDbPolyline
 62
7
  6
CONTINUOUS
 90
21
 70
0
 10
22.7963480034
 20
16.4900328377
 10
22.7881768123
 20
16.4858838419
 10
22.7754733682
 20
16.4802476551
 10
22.7606317974
 20
16.4746474507
 10
22.7435986164
 20
16.4692662163
 10
22.7245639147
 20
16.4643526517
 10
22.7039863014
 20
16.4601610274
 10
22.6821112257
 20
16.4568312287
 10
22.659163113
 20
16.4544774718
 10
22.6356456662
 20
16.4532034759
 10
22.6118735765
 20
16.4530420668
 10
22.5881196786
 20
16.4539987276
 10
22.5648309866
 20
16.4560430551
 10
22.5423075473
 20
16.4591074338
 10
22.5207930568
 20
16.4631011054
 10
22.5006248908
 20
16.4678898685
 10
22.4820008895
 20
16.4733337571
 10
22.465115649
 20
16.4792619084
 10
22.4502590201
 20
16.4854244239
 10
22.4374956531
 20
16.4916153069
 10
22.4304035593
 20
16.4955139724
  0
LWPOLYLINE
  5
27E
100
AcDbEntity
  8
RACCORDO
100
AcDbPolyline
 62
253
  6
CONTINUOUS
 90
9
 70
0
 10
24.3122298158
 20
17.3052254532
 10
24.3154588647
 20
17.3068505223
 10
24.3269914349
 20
17.3110384066
 10
24.3393676511
 20
17.3131949799
 10
24.3524706914
 20
17.31331684
 10
24.3661781872
 20
17.3114066997
 10
24.3803479771
 20
17.3074810315
 10
24.3948157071
 20
17.3015821355
 10
24.4094215935
 20
17.293773657
  0
LWPOLYLINE
  5
27F
100
AcDbEntity
  8
RACCORDO
100
AcDbPolyline
 62
253
  6
CONTINUOUS
 90
7
 70
0
 10
22.796362115
 20
16.4900408591
 10
22.8084828951
 20
16.4950985377
 10
22.8237709117
 20
16.4980348149
 10
22.8402102845
 20
16.4978216398
 10
22.8575198404
 20
16.4944626586
 10
22.8754035226
 20
16.4880153219
 10
22.8935554548
 20
16.478589903
  0
LINE
  5
280
100
AcDbEntity
  8
RACCORDO
100
AcDbLine
 62
253
  6
CONTINUOUS
 10
27.7022916726
 20
-3.7879727028
 11
27.853724674
 21
-3.8754082199
  0
LINE
  5
281
100
AcDbEntity
  8
DRAFT
100
AcDbLine
 62
7
  6
CONTINUOUS
 10
29.8187307007
 20
-2.4094751771
 11
30.0308993375
 21
-2.5319786889
  0
LINE
  5
282
100
AcDbEntity
  8
0
100
AcDbLine
 62
7
  6
CONTINUOUS
 10
29.7738047479
 20
-4.2113313892
 11
29.8187307007
 21
-4.2381312826
  0
LWPOLYLINE
  5
283
100
AcDbEntity
  8
RACCORDO
100
AcDbPolyline
 62
7
  6
CONTINUOUS
 90
14
 70
0
 10
-17.9969910009
 20
41.8695903297
 10
-18.0111547994
 20
41.8877369036
 10
-18.0247397755
 20
41.9070664746
 10
-18.0375413487
 20
41.9273321014
 10
-18.0493906726
 20
41.9482912764
 10
-18.0600944898
 20
41.9695990289
 10
-18.0695410112
 20
41.9909761706
 10
-18.0776417236
 20
42.0121216323
 10
-18.0843058671
 20
42.0326306855
 10
-18.0895376022
 20
42.0522355326
 10
-18.093367028
 20
42.0706349032
 10
-18.0958435908
 20
42.0873709524
 10
-18.097120549
 20
42.1022558244
 10
-18.0974021875
 20
42.112554141
  0
LWPOLYLINE
  5
284
100
AcDbEntity
  8
RACCORDO
100
AcDbPolyline
 62
253
  6
CONTINUOUS
 90
3
 70
0
 10
-8.8655549924
 20
37.1305442053
 10
-8.8568159064
 20
37.1146561141
 10
-8.8497515863
 20
37.0975608048
  0
LWPOLYLINE
  5
285
100
AcDbEntity
  8
RACCORDO
100
AcDbPolyline
 62
7
  6
CONTINUOUS
 90
4
 70
0
 10
18.6350187315
 20
19.6992089405
 10
18.6219276923
 20
19.6827464642
 10
18.6071603405
 20
19.6677316694
 10
18.5909897821
 20
19.6544222046
  0
LWPOLYLINE
  5
286
100
AcDbEntity
  8
RACCORDO
100
AcDbPolyline
 62
253
  6
CONTINUOUS
 90
9
 70
0
 10
23.6594892923
 20
18.142728122
 10
23.6730801054
 20
18.1517446532
 10
23.6849838569
 20
18.1615240525
 10
23.6950730062
 20
18.1719615402
 10
23.7032394552
 20
18.1829452861
 10
23.7093957061
 20
18.1943576069
 10
23.7134757989
 20
18.2060762275
 10
23.7154360181
 20
18.2179755909
 10
23.7156213323
 20
18.2229455294
  0
LINE
  5
287
100
AcDbEntity
  8
RACCORDO
100
AcDbLine
 62
7
  6
CONTINUOUS
 10
22.4390291636
 20
16.4908714762
 11
23.6594892923
 21
17.2456223271
  0
LINE
  5
288
100
AcDbEntity
  8
RACCORDO
100
AcDbLine
 62
253
  6
CONTINUOUS
 10
22.8935554548
 20
16.478589903
 11
24.4094215935
 21
17.293773657
  0
LWPOLYLINE
  5
289
100
AcDbEntity
  8
RACCORDO
100
AcDbPolyline
 62
7
  6
CONTINUOUS
 90
3
 70
0
 10
20.3248642684
 20
20.2048266711
 10
20.3062988575
 20
20.2001332809
 10
20.2881370675
 20
20.193632038
  0
LWPOLYLINE
  5
28A
100
AcDbEntity
  8
RACCORDO
100
AcDbPolyline
 62
253
  6
CONTINUOUS
 90
7
 70
0
 10
22.714781949
 20
16.4237773186
 10
22.7476466595
 20
16.4290888717
 10
22.7797531566
 20
16.4360283509
 10
22.8104612988
 20
16.4444616084
 10
22.8395577057
 20
16.4543439283
 10
22.8672557577
 20
16.4657200265
 10
22.8935554548
 20
16.478589903
  0
LWPOLYLINE
  5
28B
100
AcDbEntity
  8
RACCORDO
100
AcDbPolyline
 62
7
  6
CONTINUOUS
 90
6
 70
0
 10
-8.8335474329
 20
37.0952684836
 10
-8.8458028759
 20
37.1158880221
 10
-8.8604755564
 20
37.1349344334
 10
-8.8773865943
 20
37.1521353063
 10
-8.896268939
 20
37.1671918436
 10
-8.9113785245
 20
37.1768325693
  0
LWPOLYLINE
  5
28C
100
AcDbEntity
  8
RACCORDO
100
AcDbPolyline
 62
7
  6
CONTINUOUS
 90
9
 70
0
 10
23.6594892923
 20
17.2456223271
 10
23.6740760186
 20
17.2571342512
 10
23.6862503598
 20
17.2704577175
 10
23.6960945155
 20
17.2853860098
 10
23.7037016093
 20
17.3018647925
 10
23.7092733801
 20
17.3196028667
 10
23.7130305851
 20
17.3380866292
 10
23.7150975316
 20
17.357158936
 10
23.7156213323
 20
17.3736425358
  0
LINE
  5
28D
100
AcDbEntity
  8
RACCORDO
100
AcDbLine
 62
7
  6
CONTINUOUS
 10
30.0308993375
 20
15.2670733452
 11
29.3176221988
 21
14.8408601613
  0
LINE
  5
28E
100
AcDbEntity
  8
RACCORDO
100
AcDbLine
 62
7
  6
CONTINUOUS
 10
28.5106624635
 20
15.9815788119
 11
25.4909895818
 21
14.2380633165
  0
LINE
  5
28F
100
AcDbEntity
  8
RACCORDO
100
AcDbLine
 62
7
  6
CONTINUOUS
 10
28.4462241974
 20
14.7195513386
 11
28.9869738485
 21
15.0317723747
  0
LINE
  5
290
100
AcDbEntity
  8
0
100
AcDbLine
 62
7
  6
CONTINUOUS
 10
25.5189954231
 20
13.1518860845
 11
28.3871701658
 21
14.7547791225
  0
LINE
  5
291
100
AcDbEntity
  8
0
100
AcDbLine
 62
7
  6
CONTINUOUS
 10
25.8667359123
 20
12.944446788
 11
28.734910655
 21
14.547339826
  0
LINE
  5
292
100
AcDbEntity
  8
RACCORDO
100
AcDbLine
 62
7
  6
CONTINUOUS
 10
29.3176221988
 20
13.8082006085
 11
30.0308993375
 21
14.2056619854
  0
LINE
  5
293
100
AcDbEntity
  8
0
100
AcDbLine
 62
7
  6
CONTINUOUS
 10
28.6031930587
 20
3.8907137073
 11
28.806774663
 21
3.7692701997
  0
LINE
  5
294
100
AcDbEntity
  8
0
100
AcDbLine
 62
253
  6
CONTINUOUS
 10
25.5189954231
 20
13.1518860845
 11
25.1913978896
 21
12.9337895905
  0
LWPOLYLINE
  5
295
100
AcDbEntity
  8
RACCORDO
100
AcDbPolyline
 62
7
  6
CONTINUOUS
 90
19
 70
0
 10
29.3176221988
 20
14.8408601613
 10
29.2868101085
 20
14.8208360194
 10
29.2567123923
 20
14.7983158087
 10
29.2273290504
 20
14.7732995291
 10
29.1984530608
 20
14.745564949
 10
29.1702914454
 20
14.7153343001
 10
29.1434652693
 20
14.6832742771
 10
29.1180042018
 20
14.6493442369
 10
29.0938785736
 20
14.6135848226
 10
29.0716204416
 20
14.5767846581
 10
29.051271296
 20
14.5389206212
 10
29.0327896467
 20
14.5000158341
 10
29.0165830807
 20
14.4609282877
 10
29.0027021434
 20
14.4216539215
 10
28.9910962893
 20
14.3821967959
 10
28.9820214694
 20
14.3434270827
 10
28.9755630006
 20
14.3056348392
 10
28.971635566
 20
14.2685300081
 10
28.9702391657
 20
14.2321125895
  0
LINE
  5
296
100
AcDbEntity
  8
0
100
AcDbLine
 62
7
  6
CONTINUOUS
 10
29.8187307007
 20
13.9283323761
 11
28.734910655
 21
13.3226344108
  0
LWPOLYLINE
  5
297
100
AcDbEntity
  8
RACCORDO
100
AcDbPolyline
 62
7
  6
CONTINUOUS
 90
3
 70
0
 10
20.3626083827
 20
20.2087929795
 10
20.3437201195
 20
20.2077153318
 10
20.3248642684
 20
20.2048266711
  0
LWPOLYLINE
  5
298
100
AcDbEntity
  8
RACCORDO
100
AcDbPolyline
 62
253
  6
CONTINUOUS
 90
7
 70
0
 10
22.5100224943
 20
16.4268278692
 10
22.5435766769
 20
16.4221655419
 10
22.5779139506
 20
16.419115149
 10
22.6122786783
 20
16.417744363
 10
22.6466808703
 20
16.4180929682
 10
22.6811105164
 20
16.4201211804
 10
22.714781949
 20
16.4237773186
  0
LINE
  5
299
100
AcDbEntity
  8
DRAFT
100
AcDbLine
 62
7
  6
CONTINUOUS
 10
28.4594670864
 20
7.6575270997
 11
28.8066011388
 21
7.4568820896
  0
LWPOLYLINE
  5
29A
100
AcDbEntity
  8
0
100
AcDbPolyline
 62
7
  6
CONTINUOUS
 90
16
 70
0
 10
-23.4369703163
 20
41.011199936
 10
-20.4137441048
 20
39.0176441408
 10
-17.3585441081
 20
37.0410409711
 10
-14.2713703259
 20
35.0813904272
 10
-11.15194072
 20
33.1385201466
 10
-8.0005373286
 20
31.2126024917
 10
-4.8180062674
 20
29.3041545491
 10
-1.6043391781
 20
27.4131810097
 10
1.6404555811
 20
25.5396771826
 10
4.9155068202
 20
23.6841460819
 10
8.2208226635
 20
21.8465925337
 10
11.5563949867
 20
20.0270117119
 10
14.9213282272
 20
18.225892153
 10
18.3153238641
 20
16.4433967026
 10
21.7386804182
 20
14.6793625151
 10
25.1913978896
 20
12.9337895905
  0
LWPOLYLINE
  5
29B
100
AcDbEntity
  8
0
100
AcDbPolyline
 62
7
  6
CONTINUOUS
 90
9
 70
0
 10
-23.4369703163
 20
41.011199936
 10
-23.4678329442
 20
41.0340727665
 10
-23.4942580277
 20
41.0580828433
 10
-23.5162455667
 20
41.0832301662
 10
-23.5339228837
 20
41.1097810026
 10
-23.5471626562
 20
41.1374690853
 10
-23.5555829164
 20
41.1654956122
 10
-23.5590432711
 20
41.1938704424
 10
-23.5591562377
 20
41.2003506044
  0
LWPOLYLINE
  5
29C
100
AcDbEntity
  8
RACCORDO
100
AcDbPolyline
 62
253
  6
CONTINUOUS
 90
13
 70
0
 10
17.1521634874
 20
19.6303284835
 10
17.1512495394
 20
19.6525103514
 10
17.1478905736
 20
19.6756848461
 10
17.1421440353
 20
19.6994556036
 10
17.1341082068
 20
19.7234160584
 10
17.1239205247
 20
19.747156403
 10
17.1117552278
 20
19.7702705967
 10
17.0978203809
 20
19.7923633018
 10
17.0823543171
 20
19.8130566478
 10
17.0656215575
 20
19.8319966999
 10
17.0479082906
 20
19.8488595073
 10
17.0295174779
 20
19.8633566454
 10
17.0107636704
 20
19.8752401507
  0
LINE
  5
29D
100
AcDbEntity
  8
RACCORDO
100
AcDbLine
 62
253
  6
CONTINUOUS
 10
17.1521634874
 20
19.5431039133
 11
17.1521634874
 21
19.6303284835
  0
LWPOLYLINE
  5
29E
100
AcDbEntity
  8
RACCORDO
100
AcDbPolyline
 62
253
  6
CONTINUOUS
 90
8
 70
0
 10
18.6719651533
 20
19.8103165646
 10
18.6700049975
 20
19.7984172041
 10
18.6659249481
 20
19.7866985342
 10
18.6597687059
 20
19.7752861345
 10
18.6516022411
 20
19.7643023151
 10
18.6415130646
 20
19.7538647703
 10
18.6296092703
 20
19.7440853216
 10
18.6160184016
 20
19.7350687494
  0
LINE
  5
29F
100
AcDbEntity
  8
RACCORDO
100
AcDbLine
 62
253
  6
CONTINUOUS
 10
23.6684308797
 20
18.1612334414
 11
23.6594892923
 21
18.142728122
  0
LWPOLYLINE
  5
2A0
100
AcDbEntity
  8
RACCORDO
100
AcDbPolyline
 62
253
  6
CONTINUOUS
 90
16
 70
0
 10
23.2605127128
 20
18.3395563305
 10
23.2694340968
 20
18.3580148944
 10
23.2767741172
 20
18.3771945895
 10
23.2824366526
 20
18.3968985068
 10
23.286344984
 20
18.4169399444
 10
23.2884307363
 20
18.4370855726
 10
23.2886530356
 20
18.457058409
 10
23.2870069248
 20
18.4766283145
 10
23.2835068366
 20
18.4955946204
 10
23.2781926583
 20
18.5137324225
 10
23.2711246196
 20
18.5308422364
 10
23.2623798333
 20
18.546741965
 10
23.2520592857
 20
18.5612534817
 10
23.2402798093
 20
18.5742203957
 10
23.2271703072
 20
18.5855077082
 10
23.2128750701
 20
18.594996738
  0
LINE
  5
2A1
100
AcDbEntity
  8
DRAFT
100
AcDbLine
 62
7
  6
CONTINUOUS
 10
28.8066011388
 20
7.4568820896
 11
28.6007913482
 21
7.3380504899
  0
LINE
  5
2A2
100
AcDbEntity
  8
0
100
AcDbLine
 62
7
  6
CONTINUOUS
 10
27.1179704768
 20
6.9078253664
 11
28.806774663
 21
7.8516215837
  0
LWPOLYLINE
  5
2A3
100
AcDbEntity
  8
RACCORDO
100
AcDbPolyline
 62
7
  6
CONTINUOUS
 90
4
 70
0
 10
20.4183785049
 20
20.2014206085
 10
20.3999891511
 20
20.2056363531
 10
20.3813563225
 20
20.2080944359
 10
20.3626083827
 20
20.2087929795
  0
LWPOLYLINE
  5
2A4
100
AcDbEntity
  8
RACCORDO
100
AcDbPolyline
 62
253
  6
CONTINUOUS
 90
7
 70
0
 10
22.4303860838
 20
16.4955243378
 10
22.4176109224
 20
16.5012184833
 10
22.4025121616
 20
16.5044267762
 10
22.3862064574
 20
16.5045879667
 10
22.3689666487
 20
16.5016993584
 10
22.3510812038
 20
16.495809286
 10
22.3328493941
 20
16.4870163069
  0
LWPOLYLINE
  5
2A5
100
AcDbEntity
  8
RACCORDO
100
AcDbPolyline
 62
253
  6
CONTINUOUS
 90
5
 70
0
 10
17.113193567
 20
19.5656046569
 10
17.1004184088
 20
19.5712988014
 10
17.0853196498
 20
19.5745070947
 10
17.0690139465
 20
19.5746682862
 10
17.0517741373
 20
19.5717796786
  0
LWPOLYLINE
  5
2A6
100
AcDbEntity
  8
0
100
AcDbPolyline
 62
7
  6
CONTINUOUS
 90
16
 70
0
 10
25.1913978896
 20
12.9337895905
 10
25.2310122419
 20
12.9159698959
 10
25.2725962354
 20
12.9007123839
 10
25.3161498703
 20
12.8880170545
 10
25.3621343053
 20
12.8778103932
 10
25.4100883817
 20
12.8701659145
 10
25.4586286229
 20
12.8653041618
 10
25.5077721041
 20
12.8633061964
 10
25.5575017502
 20
12.864090957
 10
25.6063828596
 20
12.8676358032
 10
25.6543907142
 20
12.8740211368
 10
25.7015500321
 20
12.8831665561
 10
25.7465002656
 20
12.8948082154
 10
25.7887878989
 20
12.9088581662
 10
25.8288664478
 20
12.9254043571
 10
25.8667359123
 20
12.944446788
  0
LINE
  5
2A7
100
AcDbEntity
  8
0
100
AcDbLine
 62
253
  6
CONTINUOUS
 10
-23.4185126979
 20
41.4011316464
 11
-23.0592404444
 21
41.2003506461
  0
LINE
  5
2A8
100
AcDbEntity
  8
0
100
AcDbLine
 62
253
  6
CONTINUOUS
 10
25.8667359123
 20
12.944446788
 11
25.5189954231
 21
13.1518860845
  0
LWPOLYLINE
  5
2A9
100
AcDbEntity
  8
0
100
AcDbPolyline
 62
7
  6
CONTINUOUS
 90
16
 70
0
 10
-23.0592404444
 20
41.2003506461
 10
-20.0390765187
 20
39.2088163836
 10
-16.9870030811
 20
37.2342364047
 10
-13.9030201314
 20
35.2766107096
 10
-10.7868749715
 20
33.3357844585
 10
-7.6388202995
 20
31.4119124912
 10
-4.459614211
 20
29.5054593262
 10
-1.249181701
 20
27.6163905913
 10
1.9924022255
 20
25.7447406587
 10
5.264154459
 20
23.8910771636
 10
8.5660154688
 20
22.0554434129
 10
11.8980447855
 20
20.2377960997
 10
15.2594378911
 20
18.4385729388
 10
18.6499266129
 20
16.6579198351
 10
22.0697791235
 20
14.8956908836
 10
25.5189954231
 20
13.1518860845
  0
LWPOLYLINE
  5
2AA
100
AcDbEntity
  8
RACCORDO
100
AcDbPolyline
 62
253
  6
CONTINUOUS
 90
16
 70
0
 10
18.6160184016
 20
20.4755428667
 10
18.6155118548
 20
20.4928111589
 10
18.6134871932
 20
20.5108347188
 10
18.6099424124
 20
20.5294314048
 10
18.6048885871
 20
20.5484203688
 10
18.5983597584
 20
20.5675866478
 10
18.5904223667
 20
20.586683362
 10
18.5811420498
 20
20.6055149433
 10
18.5706166436
 20
20.6238504206
 10
18.5590094078
 20
20.6413989391
 10
18.546482387
 20
20.6579343294
 10
18.5331543388
 20
20.6733171688
 10
18.51914985
 20
20.6874075812
 10
18.5046140612
 20
20.7000561543
 10
18.4897154738
 20
20.7111130019
 10
18.4746185846
 20
20.7204545338
  0
LINE
  5
2AB
100
AcDbEntity
  8
RACCORDO
100
AcDbLine
 62
253
  6
CONTINUOUS
 10
18.6160184016
 20
20.4755428667
 11
18.6160184016
 21
19.7350687494
  0
LINE
  5
2AC
100
AcDbEntity
  8
RACCORDO
100
AcDbLine
 62
7
  6
CONTINUOUS
 10
18.6721504416
 20
20.5557602741
 11
18.6721504416
 21
19.8152861568
  0
LINE
  5
2AD
100
AcDbEntity
  8
RACCORDO
100
AcDbLine
 62
7
  6
CONTINUOUS
 10
20.0606937227
 20
20.0031821356
 11
20.0606937227
 21
19.6357456406
  0
LWPOLYLINE
  5
2AE
100
AcDbEntity
  8
RACCORDO
100
AcDbPolyline
 62
253
  6
CONTINUOUS
 90
9
 70
0
 10
18.6721504416
 20
20.5557602741
 10
18.6719651559
 20
20.5507907168
 10
18.6700049974
 20
20.5388913211
 10
18.6659249468
 20
20.5271726485
 10
18.659768711
 20
20.5157602598
 10
18.6516022538
 20
20.5047764471
 10
18.6415130781
 20
20.4943389
 10
18.6296092801
 20
20.4845594461
 10
18.6160184016
 20
20.4755428667
  0
LINE
  5
2AF
100
AcDbEntity
  8
RACCORDO
100
AcDbLine
 62
253
  6
CONTINUOUS
 10
18.6721504416
 20
19.8152861568
 11
18.6719651533
 21
19.8103165646
  0
LWPOLYLINE
  5
2B0
100
AcDbEntity
  8
RACCORDO
100
AcDbPolyline
 62
7
  6
CONTINUOUS
 90
7
 70
0
 10
18.6721504416
 20
19.8152861568
 10
18.6711271714
 20
19.7950822022
 10
18.6680237092
 20
19.7748680524
 10
18.6628190358
 20
19.754908287
 10
18.6555386454
 20
19.735481617
 10
18.6462458839
 20
19.7168444293
 10
18.6350187315
 20
19.6992089405
  0
LINE
  5
2B1
100
AcDbEntity
  8
0
100
AcDbLine
 62
7
  6
CONTINUOUS
 10
28.806774663
 20
3.7692701997
 11
27.1179704768
 21
2.8254739825
  0
LINE
  5
2B2
100
AcDbEntity
  8
DRAFT
100
AcDbLine
 62
7
  6
CONTINUOUS
 10
28.8066011388
 20
3.9973654495
 11
28.6007913482
 21
3.8866876043
  0
LWPOLYLINE
  5
2B3
100
AcDbEntity
  8
RACCORDO
100
AcDbPolyline
 62
253
  6
CONTINUOUS
 90
10
 70
0
 10
23.2128750701
 20
18.594996738
 10
23.2041304385
 20
18.5985857946
 10
23.1948066223
 20
18.6009907817
 10
23.1849653808
 20
18.6021958203
 10
23.1746642218
 20
18.602192533
 10
23.1639784795
 20
18.6009796667
 10
23.1530034176
 20
18.5985719042
 10
23.1418215978
 20
18.5949960587
 10
23.1304998162
 20
18.5902819842
 10
23.1191128958
 20
18.5844679976
  0
LINE
  5
2B4
100
AcDbEntity
  8
RACCORDO
100
AcDbLine
 62
253
  6
CONTINUOUS
 10
20.4520497599
 20
20.1876076686
 11
20.4607740969
 21
20.184025348
  0
LWPOLYLINE
  5
2B5
100
AcDbEntity
  8
RACCORDO
100
AcDbPolyline
 62
7
  6
CONTINUOUS
 90
3
 70
0
 10
20.4533981771
 20
20.1879807395
 10
20.4362460737
 20
20.1955072959
 10
20.4183785049
 20
20.2014206085
  0
LWPOLYLINE
  5
2B6
100
AcDbEntity
  8
RACCORDO
100
AcDbPolyline
 62
7
  6
CONTINUOUS
 90
10
 70
0
 10
29.0737809221
 20
13.7869313032
 10
29.0938785736
 20
13.7771024171
 10
29.1180042018
 20
13.7692026736
 10
29.1434652693
 20
13.7646744359
 10
29.1702914454
 20
13.7635926086
 10
29.1984530608
 20
13.7658822873
 10
29.2273290504
 20
13.7714929762
 10
29.2567123923
 20
13.7804078434
 10
29.2868101085
 20
13.7926437208
 10
29.3176221988
 20
13.8082006085
  0
LINE
  5
2B7
100
AcDbEntity
  8
RACCORDO
100
AcDbLine
 62
253
  6
CONTINUOUS
 10
23.6594892923
 20
18.142728122
 11
23.2605127128
 21
18.3395563305
  0
LINE
  5
2B8
100
AcDbEntity
  8
RACCORDO
100
AcDbLine
 62
253
  6
CONTINUOUS
 10
23.6118516496
 20
18.3981685296
 11
23.2128750701
 21
18.594996738
  0
LINE
  5
2B9
100
AcDbEntity
  8
RACCORDO
100
AcDbLine
 62
253
  6
CONTINUOUS
 10
20.8665961989
 20
19.9829449636
 11
20.8739264395
 21
19.9790122317
  0
LINE
  5
2BA
100
AcDbEntity
  8
RACCORDO
100
AcDbLine
 62
7
  6
CONTINUOUS
 10
20.4534438563
 20
20.18795808
 11
20.8665961989
 21
19.9829449636
  0
LWPOLYLINE
  5
2BB
100
AcDbEntity
  8
RACCORDO
100
AcDbPolyline
 62
7
  6
CONTINUOUS
 90
8
 70
0
 10
20.8678750959
 20
19.9823046446
 10
20.8691501943
 20
19.9816547782
 10
20.8704213786
 20
19.9809954019
 10
20.8716887345
 20
19.9803264481
 10
20.8729519407
 20
19.9796480642
 10
20.8742102831
 20
19.978960624
 10
20.8754634599
 20
19.9782642947
 10
20.8767115667
 20
19.9775590268
  0
LWPOLYLINE
  5
2BC
100
AcDbEntity
  8
RACCORDO
100
AcDbPolyline
 62
253
  6
CONTINUOUS
 90
7
 70
0
 10
22.3328493941
 20
16.4870163069
 10
22.3586994585
 20
16.4733719542
 10
22.3860210371
 20
16.4611727801
 10
22.4148141299
 20
16.4504187845
 10
22.4453082115
 20
16.4410543822
 10
22.4772738074
 20
16.4331351585
 10
22.5100224943
 20
16.4268278692
  0
LWPOLYLINE
  5
2BD
100
AcDbEntity
  8
RACCORDO
100
AcDbPolyline
 62
253
  6
CONTINUOUS
 90
7
 70
0
 10
-10.1940625404
 20
35.2676476
 10
-10.1682124761
 20
35.2540032473
 10
-10.1408908975
 20
35.2418040731
 10
-10.1120978046
 20
35.2310500776
 10
-10.081603723
 20
35.2216856753
 10
-10.0496381272
 20
35.2137664516
 10
-10.0168894402
 20
35.2074591623
  0
LWPOLYLINE
  5
2BE
100
AcDbEntity
  8
RACCORDO
100
AcDbPolyline
 62
253
  6
CONTINUOUS
 90
9
 70
0
 10
18.5721236296
 20
20.7289808242
 10
18.5681289355
 20
20.73110722
 10
18.55677692
 20
20.7354533844
 10
18.544549215
 20
20.7378358026
 10
18.5315586098
 20
20.7382491123
 10
18.5179235513
 20
20.7366933283
 10
18.5037821833
 20
20.7331810277
 10
18.4892950303
 20
20.7277490047
 10
18.4746185846
 20
20.7204545338
  0
LWPOLYLINE
  5
2BF
100
AcDbEntity
  8
RACCORDO
100
AcDbPolyline
 62
253
  6
CONTINUOUS
 90
9
 70
0
 10
24.5069582825
 20
17.3022816882
 10
24.5029319471
 20
17.3044263419
 10
24.4915799318
 20
17.3087725068
 10
24.4793522257
 20
17.3111549256
 10
24.4663616185
 20
17.3115682354
 10
24.4527265585
 20
17.3100124511
 10
24.4385851903
 20
17.3065001503
 10
24.4240980378
 20
17.3010681273
 10
24.4094215935
 20
17.293773657
  0
LINE
  5
2C0
100
AcDbEntity
  8
RACCORDO
100
AcDbLine
 62
253
  6
CONTINUOUS
 10
23.6155334101
 20
18.3962012762
 11
23.6118516496
 21
18.3981685296
  0
LINE
  5
2C1
100
AcDbEntity
  8
RACCORDO
100
AcDbLine
 62
253
  6
CONTINUOUS
 10
20.4607740969
 20
20.184025348
 11
20.4534438563
 21
20.18795808
  0
LINE
  5
2C2
100
AcDbEntity
  8
RACCORDO
100
AcDbLine
 62
253
  6
CONTINUOUS
 10
20.8665961989
 20
19.9829449636
 11
20.8716887345
 21
19.9803264481
  0
LINE
  5
2C3
100
AcDbEntity
  8
RACCORDO
100
AcDbLine
 62
253
  6
CONTINUOUS
 10
20.8729519407
 20
19.9796480642
 11
20.8777009542
 21
19.9769915224
  0
LINE
  5
2C4
100
AcDbEntity
  8
RACCORDO
100
AcDbLine
 62
7
  6
CONTINUOUS
 10
24.4966739101
 20
17.3078256955
 11
24.5069618435
 21
17.302279632
  0
LINE
  5
2C5
100
AcDbEntity
  8
0
100
AcDbLine
 62
7
  6
CONTINUOUS
 10
-20.2831271246
 20
42.8563987958
 11
-20.6423993781
 21
43.0571797961
  0
LINE
  5
2C6
100
AcDbEntity
  8
RACCORDO
100
AcDbLine
 62
253
  6
CONTINUOUS
 10
-15.5112550566
 20
38.3377279188
 11
-10.1940625404
 21
35.2676476
  0
LINE
  5
2C7
100
AcDbEntity
  8
RACCORDO
100
AcDbLine
 62
253
  6
CONTINUOUS
 10
17.015656878
 20
19.5570966257
 11
22.3328493941
 21
16.4870163069
  0
LINE
  5
2C8
100
AcDbEntity
  8
RACCORDO
100
AcDbLine
 62
7
  6
CONTINUOUS
 10
-15.4137183676
 20
38.34623595
 11
-10.0965258508
 21
35.2761556308
  0
LINE
  5
2C9
100
AcDbEntity
  8
RACCORDO
100
AcDbLine
 62
7
  6
CONTINUOUS
 10
17.113193567
 20
19.5656046569
 11
22.4303860838
 21
16.4955243378
  0
LINE
  5
2CA
100
AcDbEntity
  8
RACCORDO
100
AcDbLine
 62
7
  6
CONTINUOUS
 10
28.7388758528
 20
13.9803002628
 11
29.0737804762
 21
13.7869305306
  0
LINE
  5
2CB
100
AcDbEntity
  8
RACCORDO
100
AcDbLine
 62
253
  6
CONTINUOUS
 10
28.734910655
 20
14.1516746938
 11
28.9702391657
 21
14.0157989611
  0
LINE
  5
2CC
100
AcDbEntity
  8
RACCORDO
100
AcDbLine
 62
253
  6
CONTINUOUS
 10
28.734910655
 20
14.3679883221
 11
28.9702391657
 21
14.2321125895
  0
LINE
  5
2CD
100
AcDbEntity
  8
DRAFT
100
AcDbLine
 62
7
  6
CONTINUOUS
 10
-12.4662182119
 20
38.4163769337
 11
-9.4256590528
 21
36.6607961823
  0
LINE
  5
2CE
100
AcDbEntity
  8
DRAFT
100
AcDbLine
 62
7
  6
CONTINUOUS
 10
23.1012528818
 20
17.8801648893
 11
20.0606937227
 21
19.6357456406
  0
LINE
  5
2CF
100
AcDbEntity
  8
RACCORDO
100
AcDbLine
 62
253
  6
CONTINUOUS
 10
-18.012134403
 20
41.7874484224
 11
-14.05229335
 21
39.5010858269
  0
LINE
  5
2D0
100
AcDbEntity
  8
RACCORDO
100
AcDbLine
 62
253
  6
CONTINUOUS
 10
-8.1174903411
 20
36.0744049501
 11
18.4746185846
 21
20.7204545338
  0
LINE
  5
2D1
100
AcDbEntity
  8
RACCORDO
100
AcDbLine
 62
253
  6
CONTINUOUS
 10
24.4094215935
 20
17.293773657
 11
27.5963613717
 21
15.4536745708
  0
LINE
  5
2D2
100
AcDbEntity
  8
RACCORDO
100
AcDbLine
 62
7
  6
CONTINUOUS
 10
-17.9145977139
 20
41.7959564536
 11
-13.954756661
 21
39.5095938581
  0
LINE
  5
2D3
100
AcDbEntity
  8
RACCORDO
100
AcDbLine
 62
7
  6
CONTINUOUS
 10
-8.0199536521
 20
36.0829129813
 11
18.5721552736
 21
20.728962565
  0
LINE
  5
2D4
100
AcDbEntity
  8
RACCORDO
100
AcDbLine
 62
7
  6
CONTINUOUS
 10
24.5069582825
 20
17.3022816882
 11
27.6524975058
 21
15.4860867636
  0
LINE
  5
2D5
100
AcDbEntity
  8
RACCORDO
100
AcDbLine
 62
7
  6
CONTINUOUS
 10
-12.3248183948
 20
38.8654401313
 11
-9.5670588698
 21
37.2731443445
  0
LINE
  5
2D6
100
AcDbEntity
  8
RACCORDO
100
AcDbLine
 62
7
  6
CONTINUOUS
 10
22.9598530647
 20
18.4925130514
 11
20.2020935398
 21
20.0848088383
  0
LINE
  5
2D7
100
AcDbEntity
  8
RACCORDO
100
AcDbLine
 62
253
  6
CONTINUOUS
 10
-20.1091418061
 20
43.3792542349
 11
-19.7784934558
 21
43.1883420214
  0
LINE
  5
2D8
100
AcDbEntity
  8
RACCORDO
100
AcDbLine
 62
253
  6
CONTINUOUS
 10
28.9869738485
 20
15.0317723747
 11
29.3176221988
 21
14.8408601613
  0
LWPOLYLINE
  5
2D9
100
AcDbEntity
  8
RACCORDO
100
AcDbPolyline
 62
7
  6
CONTINUOUS
 90
8
 70
0
 10
-17.9146087031
 20
41.7959624893
 10
-17.9161432442
 20
41.7968587964
 10
-17.9276260911
 20
41.8041828725
 10
-17.9402936001
 20
41.8134483817
 10
-17.9538679691
 20
41.8246896226
 10
-17.9680993933
 20
41.8379232877
 10
-17.9825612391
 20
41.8529363966
 10
-17.9969910009
 20
41.8695903297
  0
LWPOLYLINE
  5
2DA
100
AcDbEntity
  8
RACCORDO
100
AcDbPolyline
 62
7
  6
CONTINUOUS
 90
6
 70
0
 10
17.1132012129
 20
19.5655999213
 10
17.1094922868
 20
19.5678013436
 10
17.1012015065
 20
19.5732394978
 10
17.0950867403
 20
19.5778908237
 10
17.0910378312
 20
19.5814765336
 10
17.0893123408
 20
19.5832354331
  0
LWPOLYLINE
  5
2DB
100
AcDbEntity
  8
RACCORDO
100
AcDbPolyline
 62
7
  6
CONTINUOUS
 90
6
 70
0
 10
-15.4137101461
 20
38.3462307754
 10
-15.4174862862
 20
38.348473327
 10
-15.4257618974
 20
38.3539073113
 10
-15.4318597817
 20
38.3585506761
 10
-15.4358932061
 20
38.3621268391
 10
-15.437610793
 20
38.3638793575
  0
LINE
  5
2DC
100
AcDbEntity
  8
0
100
AcDbLine
 62
7
  6
CONTINUOUS
 10
28.3871701658
 20
14.7547791225
 11
28.734910655
 21
14.547339826
  0
LINE
  5
2DD
100
AcDbEntity
  8
0
100
AcDbLine
 62
7
  6
CONTINUOUS
 10
29.6808326454
 20
14.0105933622
 11
29.8187307007
 21
13.9283323761
  0
LWPOLYLINE
  5
2DE
100
AcDbEntity
  8
RACCORDO
100
AcDbPolyline
 62
253
  6
CONTINUOUS
 90
16
 70
0
 10
-9.4077990388
 20
37.3650992907
 10
-9.3927772408
 20
37.3558088025
 10
-9.3779469919
 20
37.3448163378
 10
-9.3634707127
 20
37.3322422855
 10
-9.3495069467
 20
37.3182243563
 10
-9.3362086246
 20
37.3029160741
 10
-9.3237213893
 20
37.2864850945
 10
-9.3121820004
 20
37.269111369
 10
-9.3017168369
 20
37.2509851743
 10
-9.292440513
 20
37.2323050275
 10
-9.2844546226
 20
37.2132755132
 10
-9.2778466269
 20
37.1941050417
 10
-9.2726888964
 20
37.1750035675
 10
-9.2690379184
 20
37.1561802893
 10
-9.2669336784
 20
37.1378413589
 10
-9.2663992217
 20
37.1201876235
  0
LWPOLYLINE
  5
2DF
100
AcDbEntity
  8
RACCORDO
100
AcDbPolyline
 62
7
  6
CONTINUOUS
 90
11
 70
0
 10
-13.9547883049
 20
39.5096121173
 10
-13.9363292685
 20
39.4975554843
 10
-13.9204086675
 20
39.4845445842
 10
-13.9058999521
 20
39.469958926
 10
-13.8929242829
 20
39.4539020663
 10
-13.8816755973
 20
39.4365977053
 10
-13.8722606545
 20
39.4182050262
 10
-13.8647356232
 20
39.3987627848
 10
-13.8592321555
 20
39.3784420431
 10
-13.8558849912
 20
39.3575594725
 10
-13.854761493
 20
39.3363915672
  0
LWPOLYLINE
  5
2E0
100
AcDbEntity
  8
RACCORDO
100
AcDbPolyline
 62
7
  6
CONTINUOUS
 90
11
 70
0
 10
18.5721236296
 20
20.7289808242
 10
18.5905826661
 20
20.7169241912
 10
18.6065032671
 20
20.7039132911
 10
18.6210119825
 20
20.6893276329
 10
18.6339876517
 20
20.6732707733
 10
18.6452363373
 20
20.6559664122
 10
18.6546512801
 20
20.6375737331
 10
18.6621763114
 20
20.6181314918
 10
18.6676797791
 20
20.59781075
 10
18.6710269434
 20
20.5769281795
 10
18.6721504416
 20
20.5557602741
  0
LWPOLYLINE
  5
2E1
100
AcDbEntity
  8
RACCORDO
100
AcDbPolyline
 62
253
  6
CONTINUOUS
 90
5
 70
0
 10
-8.915060285
 20
37.1787998227
 10
-8.9007590757
 20
37.1693062653
 10
-8.8876480668
 20
37.1580161922
 10
-8.8758705894
 20
37.1450497529
 10
-8.8655549924
 20
37.1305442053
  0
LWPOLYLINE
  5
2E2
100
AcDbEntity
  8
RACCORDO
100
AcDbPolyline
 62
7
  6
CONTINUOUS
 90
8
 70
0
 10
28.9820214694
 20
-22.1698958574
 10
28.9910962893
 20
-22.198186196
 10
29.0027021434
 20
-22.2242411722
 10
29.0165830807
 20
-22.2474861799
 10
29.0327896467
 20
-22.2678587902
 10
29.051271296
 20
-22.2854214319
 10
29.0716204416
 20
-22.2997867855
 10
29.0737809221
 20
-22.301054931
  0
LINE
  5
2E3
100
AcDbEntity
  8
RACCORDO
100
AcDbLine
 62
7
  6
CONTINUOUS
 10
23.1012528818
 20
18.2476013843
 11
23.1012528818
 21
17.8801648893
  0
LINE
  5
2E4
100
AcDbEntity
  8
RACCORDO
100
AcDbLine
 62
253
  6
CONTINUOUS
 10
23.6594892923
 20
17.2456223271
 11
23.6594892923
 21
18.142728122
  0
LINE
  5
2E5
100
AcDbEntity
  8
RACCORDO
100
AcDbLine
 62
7
  6
CONTINUOUS
 10
23.7156213323
 20
17.3736425855
 11
23.7156213323
 21
18.2229455294
  0
LWPOLYLINE
  5
2E6
100
AcDbEntity
  8
RACCORDO
100
AcDbPolyline
 62
253
  6
CONTINUOUS
 90
7
 70
0
 10
-10.0965258508
 20
35.2761556308
 10
-10.1093010121
 20
35.2818497764
 10
-10.124399773
 20
35.2850580693
 10
-10.1407054772
 20
35.2852192598
 10
-10.1579452859
 20
35.2823306515
 10
-10.1758307308
 20
35.2764405791
 10
-10.1940625405
 20
35.2676476
  0
LWPOLYLINE
  5
2E7
100
AcDbEntity
  8
RACCORDO
100
AcDbPolyline
 62
253
  6
CONTINUOUS
 90
5
 70
0
 10
-15.4137183676
 20
38.34623595
 10
-15.4264935258
 20
38.3519300945
 10
-15.4415922848
 20
38.3551383878
 10
-15.4578979881
 20
38.3552995793
 10
-15.4751377972
 20
38.3524109717
  0
LINE
  5
2E8
100
AcDbEntity
  8
RACCORDO
100
AcDbLine
 62
253
  6
CONTINUOUS
 10
-8.8674226422
 20
36.9233594151
 11
-9.2663992217
 21
37.1201876235
  0
LINE
  5
2E9
100
AcDbEntity
  8
RACCORDO
100
AcDbLine
 62
253
  6
CONTINUOUS
 10
-8.915060285
 20
37.1787998227
 11
-9.3140368645
 21
37.3756280311
  0
LINE
  5
2EA
100
AcDbEntity
  8
RACCORDO
100
AcDbLine
 62
253
  6
CONTINUOUS
 10
-11.6603157357
 20
38.7635762567
 11
-11.6529854951
 21
38.7596435247
  0
LINE
  5
2EB
100
AcDbEntity
  8
RACCORDO
100
AcDbLine
 62
7
  6
CONTINUOUS
 10
-12.0734680782
 20
38.9685893731
 11
-11.6603157357
 21
38.7635762567
  0
LWPOLYLINE
  5
2EC
100
AcDbEntity
  8
RACCORDO
100
AcDbPolyline
 62
7
  6
CONTINUOUS
 90
8
 70
0
 10
-11.6590368387
 20
38.7629359377
 10
-11.6577617403
 20
38.7622860713
 10
-11.656490556
 20
38.761626695
 10
-11.6552232001
 20
38.7609577412
 10
-11.6539599939
 20
38.7602793573
 10
-11.6527016515
 20
38.759591917
 10
-11.6514484747
 20
38.7588955878
 10
-11.6502003679
 20
38.7581903198
  0
LWPOLYLINE
  5
2ED
100
AcDbEntity
  8
RACCORDO
100
AcDbPolyline
 62
253
  6
CONTINUOUS
 90
9
 70
0
 10
-13.9547883049
 20
39.5096121173
 10
-13.958782999
 20
39.5117385131
 10
-13.9701350146
 20
39.5160846775
 10
-13.9823627196
 20
39.5184670957
 10
-13.9953533247
 20
39.5188804053
 10
-14.0089883833
 20
39.5173246213
 10
-14.0231297512
 20
39.5138123208
 10
-14.0376169043
 20
39.5083802978
 10
-14.05229335
 20
39.5010858269
  0
LWPOLYLINE
  5
2EE
100
AcDbEntity
  8
RACCORDO
100
AcDbPolyline
 62
253
  6
CONTINUOUS
 90
9
 70
0
 10
-8.0199536521
 20
36.0829129813
 10
-8.0239799875
 20
36.085057635
 10
-8.0353320028
 20
36.0894037998
 10
-8.0475597089
 20
36.0917862187
 10
-8.0605503161
 20
36.0921995285
 10
-8.074185376
 20
36.0906437442
 10
-8.0883267442
 20
36.0871314433
 10
-8.1028138968
 20
36.0816994204
 10
-8.1174903411
 20
36.0744049501
  0
LINE
  5
2EF
100
AcDbEntity
  8
RACCORDO
100
AcDbLine
 62
253
  6
CONTINUOUS
 10
-8.9113785245
 20
37.1768325693
 11
-8.915060285
 21
37.1787998227
  0
LINE
  5
2F0
100
AcDbEntity
  8
RACCORDO
100
AcDbLine
 62
253
  6
CONTINUOUS
 10
-12.0661378377
 20
38.9646566411
 11
-12.0734680782
 21
38.9685893731
  0
LINE
  5
2F1
100
AcDbEntity
  8
RACCORDO
100
AcDbLine
 62
253
  6
CONTINUOUS
 10
-11.6603157357
 20
38.7635762567
 11
-11.6552232001
 21
38.7609577412
  0
LINE
  5
2F2
100
AcDbEntity
  8
RACCORDO
100
AcDbLine
 62
253
  6
CONTINUOUS
 10
-11.6539599939
 20
38.7602793573
 11
-11.6492109804
 21
38.7576228155
  0
LINE
  5
2F3
100
AcDbEntity
  8
RACCORDO
100
AcDbLine
 62
7
  6
CONTINUOUS
 10
-8.0302380245
 20
36.0884569886
 11
-8.0199500911
 21
36.0829109251
  0
LINE
  5
2F4
100
AcDbEntity
  8
RACCORDO
100
AcDbLine
 62
253
  6
CONTINUOUS
 10
23.1191128958
 20
18.5844679976
 11
20.3670119226
 21
20.1734966076
  0
LINE
  5
2F5
100
AcDbEntity
  8
RACCORDO
100
AcDbLine
 62
253
  6
CONTINUOUS
 10
-9.4077990388
 20
37.3650992907
 11
-12.159900012
 21
38.9541279006
  0
LINE
  5
2F6
100
AcDbEntity
  8
RACCORDO
100
AcDbLine
 62
253
  6
CONTINUOUS
 10
23.2128750701
 20
18.594996738
 11
20.4607740969
 21
20.184025348
  0
LINE
  5
2F7
100
AcDbEntity
  8
RACCORDO
100
AcDbLine
 62
253
  6
CONTINUOUS
 10
-9.3140368645
 20
37.3756280311
 11
-12.0661378377
 21
38.9646566411
  0
LINE
  5
2F8
100
AcDbEntity
  8
RACCORDO
100
AcDbLine
 62
253
  6
CONTINUOUS
 10
20.8777009542
 20
19.9769915224
 11
20.8739264395
 21
19.9790122317
  0
LINE
  5
2F9
100
AcDbEntity
  8
RACCORDO
100
AcDbLine
 62
253
  6
CONTINUOUS
 10
-11.6492109804
 20
38.7576228155
 11
-11.6529854951
 21
38.7596435247
  0
LINE
  5
2FA
100
AcDbEntity
  8
RACCORDO
100
AcDbLine
 62
7
  6
CONTINUOUS
 10
23.6156261643
 20
18.3961478203
 11
20.8777009542
 21
19.9769915224
  0
LINE
  5
2FB
100
AcDbEntity
  8
RACCORDO
100
AcDbLine
 62
7
  6
CONTINUOUS
 10
-8.9112857703
 20
37.1767791134
 11
-11.6492109804
 21
38.7576228155
  0
LINE
  5
2FC
100
AcDbEntity
  8
RACCORDO
100
AcDbLine
 62
7
  6
CONTINUOUS
 10
-19.3958646675
 20
43.8054674188
 11
-18.1559808239
 21
43.0895740269
  0
LINE
  5
2FD
100
AcDbEntity
  8
RACCORDO
100
AcDbLine
 62
7
  6
CONTINUOUS
 10
28.7910154939
 20
15.9829667371
 11
30.0308993375
 21
15.2670733452
  0
LWPOLYLINE
  5
2FE
100
AcDbEntity
  8
RACCORDO
100
AcDbPolyline
 62
253
  6
CONTINUOUS
 90
16
 70
0
 10
23.1191128958
 20
18.5844679976
 10
23.1341346938
 20
18.5751775095
 10
23.1489649427
 20
18.5641850447
 10
23.1634412219
 20
18.5516109925
 10
23.1774049879
 20
18.5375930633
 10
23.19070331
 20
18.522284781
 10
23.2031905453
 20
18.5058538014
 10
23.2147299342
 20
18.488480076
 10
23.2251950976
 20
18.4703538812
 10
23.2344714216
 20
18.4516737344
 10
23.242457312
 20
18.4326442201
 10
23.2490653077
 20
18.4134737486
 10
23.2542230382
 20
18.3943722745
 10
23.2578740161
 20
18.3755489962
 10
23.2599782562
 20
18.3572100658
 10
23.2605127128
 20
18.3395563305
  0
LWPOLYLINE
  5
2FF
100
AcDbEntity
  8
RACCORDO
100
AcDbPolyline
 62
253
  6
CONTINUOUS
 90
5
 70
0
 10
23.6118516496
 20
18.3981685296
 10
23.6261528588
 20
18.3886749722
 10
23.6392638678
 20
18.3773848991
 10
23.6510413452
 20
18.3644184599
 10
23.6613569422
 20
18.3499129123
  0
LWPOLYLINE
  5
300
100
AcDbEntity
  8
RACCORDO
100
AcDbPolyline
 62
7
  6
CONTINUOUS
 90
5
 70
0
 10
23.7156213323
 20
18.2229455294
 10
23.7142357181
 20
18.246444113
 10
23.7100468695
 20
18.2698349573
 10
23.7030594145
 20
18.2927091686
 10
23.6933645017
 20
18.3146371905
  0
LINE
  5
301
100
AcDbEntity
  8
0
100
AcDbLine
 62
253
  6
CONTINUOUS
 10
25.1913978896
 20
-24.2156080035
 11
25.1913978896
 21
12.9337895905
  0
LINE
  5
302
100
AcDbEntity
  8
0
100
AcDbLine
 62
253
  6
CONTINUOUS
 10
25.8667359123
 20
-24.204950806
 11
25.8667359123
 21
12.944446788
  0
LWPOLYLINE
  5
303
100
AcDbEntity
  8
RACCORDO
100
AcDbPolyline
 62
253
  6
CONTINUOUS
 90
7
 70
0
 10
-10.0168894402
 20
35.2074591623
 10
-9.9833352576
 20
35.202796835
 10
-9.948997984
 20
35.1997464421
 10
-9.9146332562
 20
35.198375656
 10
-9.8802310642
 20
35.1987242613
 10
-9.8458014182
 20
35.2007524735
 10
-9.8121299856
 20
35.2044086116
  0
LWPOLYLINE
  5
304
100
AcDbEntity
  8
RACCORDO
100
AcDbPolyline
 62
253
  6
CONTINUOUS
 90
10
 70
0
 10
-9.3140368645
 20
37.3756280311
 10
-9.3227814961
 20
37.3792170877
 10
-9.3321053123
 20
37.3816220748
 10
-9.3419465537
 20
37.3828271134
 10
-9.3522477128
 20
37.3828238261
 10
-9.362933455
 20
37.3816109598
 10
-9.373908517
 20
37.3792031973
 10
-9.3850903368
 20
37.3756273517
 10
-9.3964121183
 20
37.3709132773
 10
-9.4077990388
 20
37.3650992907
  0
LINE
  5
305
100
AcDbEntity
  8
RACCORDO
100
AcDbLine
 62
253
  6
CONTINUOUS
 10
-12.0748621747
 20
38.9682389617
 11
-12.0661378377
 21
38.9646566411
  0
LWPOLYLINE
  5
306
100
AcDbEntity
  8
RACCORDO
100
AcDbPolyline
 62
7
  6
CONTINUOUS
 90
3
 70
0
 10
-12.0735137575
 20
38.9686120326
 10
-12.0906658609
 20
38.976138589
 10
-12.1085334297
 20
38.9820519016
  0
LWPOLYLINE
  5
307
100
AcDbEntity
  8
RACCORDO
100
AcDbPolyline
 62
253
  6
CONTINUOUS
 90
7
 70
0
 10
-17.9146085699
 20
41.7959627203
 10
-17.9273728721
 20
41.8016505981
 10
-17.9424716312
 20
41.8048588914
 10
-17.9587773344
 20
41.8050200829
 10
-17.9760171436
 20
41.8021314753
 10
-17.9939025903
 20
41.7962414029
 10
-18.012134403
 20
41.7874484224
  0
LWPOLYLINE
  5
308
100
AcDbEntity
  8
RACCORDO
100
AcDbPolyline
 62
7
  6
CONTINUOUS
 90
6
 70
0
 10
23.6933645017
 20
18.3146371905
 10
23.6811090587
 20
18.335256729
 10
23.6664363782
 20
18.3543031403
 10
23.6495253403
 20
18.3715040133
 10
23.6306429956
 20
18.3865605506
 10
23.6155334101
 20
18.3962012762
  0
LWPOLYLINE
  5
309
100
AcDbEntity
  8
RACCORDO
100
AcDbPolyline
 62
253
  6
CONTINUOUS
 90
3
 70
0
 10
23.6613569422
 20
18.3499129123
 10
23.6700960282
 20
18.334024821
 10
23.6771603482
 20
18.3169295117
  0
LINE
  5
30A
100
AcDbEntity
  8
RACCORDO
100
AcDbLine
 62
253
  6
CONTINUOUS
 10
23.6771603482
 20
18.3169295117
 11
23.6824732786
 21
18.2988090621
  0
LWPOLYLINE
  5
30B
100
AcDbEntity
  8
RACCORDO
100
AcDbPolyline
 62
253
  6
CONTINUOUS
 90
8
 70
0
 10
23.6824732786
 20
18.2988090621
 10
23.6859751693
 20
18.2798624629
 10
23.6876267385
 20
18.2603096803
 10
23.6874127906
 20
18.2403528329
 10
23.6853376014
 20
18.2202193164
 10
23.6814383365
 20
18.200174562
 10
23.675778205
 20
18.1804486497
 10
23.6684308797
 20
18.1612334414
  0
LWPOLYLINE
  5
30C
100
AcDbEntity
  8
RACCORDO
100
AcDbPolyline
 62
7
  6
CONTINUOUS
 90
4
 70
0
 10
28.9702391657
 20
-22.0721872731
 10
28.971635566
 20
-22.1069921636
 10
28.9755630006
 20
-22.1395616917
 10
28.9820214694
 20
-22.1698958574
  0
LWPOLYLINE
  5
30D
100
AcDbEntity
  8
RACCORDO
100
AcDbPolyline
 62
7
  6
CONTINUOUS
 90
11
 70
0
 10
28.9702391657
 20
14.0157989611
 10
28.971635566
 20
13.9809940706
 10
28.9755630006
 20
13.9484245425
 10
28.9820214694
 20
13.9180903768
 10
28.9910962893
 20
13.8898000382
 10
29.0027021434
 20
13.863745062
 10
29.0165830807
 20
13.8405000544
 10
29.0327896467
 20
13.8201274441
 10
29.051271296
 20
13.8025648024
 10
29.0716204416
 20
13.7881994487
 10
29.0737809221
 20
13.7869313032
  0
LINE
  5
30E
100
AcDbEntity
  8
0
100
AcDbLine
 62
7
  6
CONTINUOUS
 10
27.1179704768
 20
-16.7698126606
 11
27.1179704768
 21
-12.6874612766
  0
LINE
  5
30F
100
AcDbEntity
  8
0
100
AcDbLine
 62
7
  6
CONTINUOUS
 10
27.1179704768
 20
2.8254739825
 11
27.1179704768
 21
6.9078253664
  0
LINE
  5
310
100
AcDbEntity
  8
DRAFT
100
AcDbLine
 62
7
  6
CONTINUOUS
 10
27.2363504848
 20
6.9739825945
 11
27.2363504848
 21
3.5866290186
  0
LINE
  5
311
100
AcDbEntity
  8
DRAFT
100
AcDbLine
 62
7
  6
CONTINUOUS
 10
27.2363504848
 20
-12.6213040485
 11
27.2363504848
 21
-16.0086576244
  0
LINE
  5
312
100
AcDbEntity
  8
0
100
AcDbLine
 62
7
  6
CONTINUOUS
 10
27.2976304966
 20
-5.647060071
 11
27.2976304966
 21
-4.0141195174
  0
LINE
  5
313
100
AcDbEntity
  8
RACCORDO
100
AcDbLine
 62
7
  6
CONTINUOUS
 10
27.5128265216
 20
-4.4731607176
 11
27.5128265216
 21
-4.9501271226
  0
LINE
  5
314
100
AcDbEntity
  8
DRAFT
100
AcDbLine
 62
7
  6
CONTINUOUS
 10
28.6007913482
 20
7.3380504899
 11
28.6007913482
 21
3.8866876043
  0
LINE
  5
315
100
AcDbEntity
  8
DRAFT
100
AcDbLine
 62
7
  6
CONTINUOUS
 10
28.6007913482
 20
-12.2572361531
 11
28.6007913482
 21
-15.7085990387
  0
LINE
  5
316
100
AcDbEntity
  8
0
100
AcDbLine
 62
7
  6
CONTINUOUS
 10
28.734910655
 20
14.547339826
 11
28.734910655
 21
13.3226344108
  0
LINE
  5
317
100
AcDbEntity
  8
0
100
AcDbLine
 62
7
  6
CONTINUOUS
 10
28.734910655
 20
-22.602057768
 11
28.734910655
 21
-21.3773523529
  0
LINE
  5
318
100
AcDbEntity
  8
DRAFT
100
AcDbLine
 62
7
  6
CONTINUOUS
 10
28.8066011388
 20
7.4568820896
 11
28.8066011388
 21
3.9973654495
  0
LINE
  5
319
100
AcDbEntity
  8
DRAFT
100
AcDbLine
 62
7
  6
CONTINUOUS
 10
28.8066011388
 20
-12.1384045535
 11
28.8066011388
 21
-15.5979211936
  0
LINE
  5
31A
100
AcDbEntity
  8
0
100
AcDbLine
 62
7
  6
CONTINUOUS
 10
28.806774663
 20
7.8516215837
 11
28.806774663
 21
7.4568820896
  0
LINE
  5
31B
100
AcDbEntity
  8
0
100
AcDbLine
 62
7
  6
CONTINUOUS
 10
28.806774663
 20
3.9973654495
 11
28.806774663
 21
3.7692701997
  0
LINE
  5
31C
100
AcDbEntity
  8
0
100
AcDbLine
 62
7
  6
CONTINUOUS
 10
28.806774663
 20
-11.7436650594
 11
28.806774663
 21
-12.1384045535
  0
LINE
  5
31D
100
AcDbEntity
  8
0
100
AcDbLine
 62
7
  6
CONTINUOUS
 10
28.806774663
 20
-15.5979211936
 11
28.806774663
 21
-15.8260164433
  0
LINE
  5
31E
100
AcDbEntity
  8
RACCORDO
100
AcDbLine
 62
7
  6
CONTINUOUS
 10
28.9702391657
 20
14.2321125895
 11
28.9702391657
 21
14.0157989611
  0
LINE
  5
31F
100
AcDbEntity
  8
RACCORDO
100
AcDbLine
 62
7
  6
CONTINUOUS
 10
28.9702391657
 20
-21.8558736448
 11
28.9702391657
 21
-22.0721872731
  0
LINE
  5
320
100
AcDbEntity
  8
RACCORDO
100
AcDbLine
 62
7
  6
CONTINUOUS
 10
30.0308993375
 20
-2.5319786889
 11
27.853724674
 21
-3.8754082199
  0
LINE
  5
321
100
AcDbEntity
  8
0
100
AcDbLine
 62
7
  6
CONTINUOUS
 10
29.8187307007
 20
-2.605190729
 11
27.2976304966
 21
-4.0141195174
  0
LINE
  5
322
100
AcDbEntity
  8
0
100
AcDbLine
 62
7
  6
CONTINUOUS
 10
29.8187307007
 20
-4.2381312826
 11
27.2976304966
 21
-5.647060071
  0
LINE
  5
323
100
AcDbEntity
  8
RACCORDO
100
AcDbLine
 62
7
  6
CONTINUOUS
 10
30.0308993375
 20
-4.0832722148
 11
27.853724674
 21
-5.1677259577
  0
LWPOLYLINE
  5
324
100
AcDbEntity
  8
RACCORDO
100
AcDbPolyline
 62
7
  6
CONTINUOUS
 90
4
 70
0
 10
-12.1085334297
 20
38.9820519016
 10
-12.1269227835
 20
38.9862676462
 10
-12.145555612
 20
38.988725729
 10
-12.1643035519
 20
38.9894242726
  0
LINE
  5
325
100
AcDbEntity
  8
DRAFT
100
AcDbLine
 62
7
  6
CONTINUOUS
 10
29.7127012859
 20
13.9915826097
 11
29.7127012859
 21
14.0283516121
  0
LINE
  5
326
100
AcDbEntity
  8
0
100
AcDbLine
 62
7
  6
CONTINUOUS
 10
29.8187307007
 20
-20.7716543876
 11
29.8187307007
 21
-4.2381312826
  0
LINE
  5
327
100
AcDbEntity
  8
0
100
AcDbLine
 62
7
  6
CONTINUOUS
 10
29.8187307007
 20
-2.605190729
 11
29.8187307007
 21
13.9283323761
  0
LINE
  5
328
100
AcDbEntity
  8
DRAFT
100
AcDbLine
 62
7
  6
CONTINUOUS
 10
30.0308993375
 20
15.2670733452
 11
30.0308993375
 21
14.2056619854
  0
LINE
  5
329
100
AcDbEntity
  8
DRAFT
100
AcDbLine
 62
7
  6
CONTINUOUS
 10
30.0308993375
 20
-2.5319786889
 11
30.0308993375
 21
-4.0832722148
  0
LINE
  5
32A
100
AcDbEntity
  8
DRAFT
100
AcDbLine
 62
7
  6
CONTINUOUS
 10
30.0308993375
 20
-20.820912889
 11
30.0308993375
 21
-21.8823242489
  0
LWPOLYLINE
  5
32B
100
AcDbEntity
  8
RACCORDO
100
AcDbPolyline
 62
253
  6
CONTINUOUS
 90
7
 70
0
 10
-9.8121299856
 20
35.2044086116
 10
-9.7792652751
 20
35.2097201648
 10
-9.747158778
 20
35.216659644
 10
-9.7164506358
 20
35.2250929015
 10
-9.6873542289
 20
35.2349752214
 10
-9.6596561769
 20
35.2463513196
 10
-9.6333564798
 20
35.259221196
  0
LINE
  5
32C
100
AcDbEntity
  8
DRAFT
100
AcDbLine
 62
7
  6
CONTINUOUS
 10
28.8066011388
 20
-12.1384045535
 11
28.6007913482
 21
-12.2572361531
  0
LINE
  5
32D
100
AcDbEntity
  8
0
100
AcDbLine
 62
7
  6
CONTINUOUS
 10
27.1179704768
 20
-12.6874612766
 11
28.806774663
 21
-11.7436650594
  0
LWPOLYLINE
  5
32E
100
AcDbEntity
  8
RACCORDO
100
AcDbPolyline
 62
7
  6
CONTINUOUS
 90
3
 70
0
 10
-12.2020476662
 20
38.9854579642
 10
-12.2206130771
 20
38.9807645739
 10
-12.2387748671
 20
38.974263331
  0
LWPOLYLINE
  5
32F
100
AcDbEntity
  8
RACCORDO
100
AcDbPolyline
 62
7
  6
CONTINUOUS
 90
3
 70
0
 10
-12.1643035519
 20
38.9894242726
 10
-12.183191815
 20
38.9883466249
 10
-12.2020476662
 20
38.9854579642
  0
LINE
  5
330
100
AcDbEntity
  8
0
100
AcDbLine
 62
7
  6
CONTINUOUS
 10
28.806774663
 20
-15.8260164433
 11
27.1179704768
 21
-16.7698126606
  0
LINE
  5
331
100
AcDbEntity
  8
DRAFT
100
AcDbLine
 62
7
  6
CONTINUOUS
 10
28.8066011388
 20
-15.5979211936
 11
28.6007913482
 21
-15.7085990387
  0
LWPOLYLINE
  5
332
100
AcDbEntity
  8
RACCORDO
100
AcDbPolyline
 62
7
  6
CONTINUOUS
 90
19
 70
0
 10
29.3176221988
 20
-21.247126073
 10
29.2868101085
 20
-21.2671502148
 10
29.2567123923
 20
-21.2896704256
 10
29.2273290504
 20
-21.3146867052
 10
29.1984530608
 20
-21.3424212852
 10
29.1702914454
 20
-21.3726519341
 10
29.1434652693
 20
-21.4047119571
 10
29.1180042018
 20
-21.4386419973
 10
29.0938785736
 20
-21.4744014117
 10
29.0716204416
 20
-21.5112015761
 10
29.051271296
 20
-21.549065613
 10
29.0327896467
 20
-21.5879704001
 10
29.0165830807
 20
-21.6270579465
 10
29.0027021434
 20
-21.6663323128
 10
28.9910962893
 20
-21.7057894384
 10
28.9820214694
 20
-21.7445591515
 10
28.9755630006
 20
-21.782351395
 10
28.971635566
 20
-21.8194562261
 10
28.9702391657
 20
-21.8558736448
  0
LINE
  5
333
100
AcDbEntity
  8
RACCORDO
100
AcDbLine
 62
7
  6
CONTINUOUS
 10
29.3176221988
 20
-21.247126073
 11
30.0308993375
 21
-20.820912889
  0
LINE
  5
334
100
AcDbEntity
  8
0
100
AcDbLine
 62
7
  6
CONTINUOUS
 10
29.8187307007
 20
-20.7716543876
 11
28.734910655
 21
-21.3773523529
  0
LINE
  5
335
100
AcDbEntity
  8
0
100
AcDbLine
 62
7
  6
CONTINUOUS
 10
25.8667359123
 20
-24.204950806
 11
28.734910655
 21
-22.602057768
  0
LINE
  5
336
100
AcDbEntity
  8
RACCORDO
100
AcDbLine
 62
7
  6
CONTINUOUS
 10
30.0308993375
 20
-21.8823242489
 11
29.3176221988
 21
-22.2797856257
  0
LINE
  5
337
100
AcDbEntity
  8
RACCORDO
100
AcDbLine
 62
7
  6
CONTINUOUS
 10
28.8416476677
 20
-22.1670251294
 11
28.734910655
 21
-22.2244248406
  0
ELLIPSE
  5
338
100
AcDbEntity
  8
RACCORDO
100
AcDbEllipse
 62
7
  6
CONTINUOUS
 10
342.9610053516
 20
231.2924998546
 30
0.0
 11
483.180267053
 21
7.4345633423
 31
0.0
 40
0.5873737521
 41
-2.4330341237
 42
-2.2974298849
  0
ELLIPSE
  5
339
100
AcDbEntity
  8
RACCORDO
100
AcDbEllipse
 62
7
  6
CONTINUOUS
 10
28.6495941376
 20
15.8984615101
 30
0.0
 11
0.1999918324
 21
0.0030772199
 31
0.0
 40
0.5873737521
 41
0.7763606493
 42
2.3297036836
  0
ELLIPSE
  5
33A
100
AcDbEntity
  8
RACCORDO
100
AcDbEllipse
 62
7
  6
CONTINUOUS
 10
25.3520579077
 20
14.3211806183
 30
0.0
 11
0.1999918324
 21
0.0030772199
 31
0.0
 40
0.5873737521
 41
-2.2974298849
 42
-0.81188897
  0
ELLIPSE
  5
33B
100
AcDbEntity
  8
RACCORDO
100
AcDbEllipse
 62
7
  6
CONTINUOUS
 10
-22.0070758572
 20
41.1336021661
 30
0.0
 11
0.7999673296
 21
0.0123088797
 31
0.0
 40
0.5873737521
 41
3.1325551291
 42
3.3582221017
  0
ELLIPSE
  5
33C
100
AcDbEntity
  8
RACCORDO
100
AcDbEllipse
 62
7
  6
CONTINUOUS
 10
-20.9257304655
 20
41.041395628
 30
0.0
 11
0.1999918324
 21
0.0030772199
 31
0.0
 40
0.5873737521
 41
2.3646102686
 42
3.8501511835
  0
ELLIPSE
  5
33D
100
AcDbEntity
  8
RACCORDO
100
AcDbEllipse
 62
7
  6
CONTINUOUS
 10
-9.5671019514
 20
37.1098502896
 30
0.0
 11
-0.1000048364
 21
0.1732022883
 31
0.0
 40
0.5775075436
 41
-2.3560905478
 42
-0.7855988075
  0
ELLIPSE
  5
33E
100
AcDbEntity
  8
RACCORDO
100
AcDbEllipse
 62
7
  6
CONTINUOUS
 10
-12.3247753132
 20
38.7020963269
 30
0.0
 11
-0.1000352924
 21
0.1732550566
 31
0.0
 40
0.5771558487
 41
-0.7852941622
 42
0.7851975781
  0
ELLIPSE
  5
33F
100
AcDbEntity
  8
RACCORDO
100
AcDbEllipse
 62
7
  6
CONTINUOUS
 10
25.5275639834
 20
13.6876968711
 30
0.0
 11
0.7999673296
 21
0.0123088797
 31
0.0
 40
0.5873737521
 41
-1.7734551362
 42
-1.4265013831
  0
ELLIPSE
  5
340
100
AcDbEntity
  8
RACCORDO
100
AcDbEllipse
 62
7
  6
CONTINUOUS
 10
-18.2974021801
 20
43.0050687999
 30
0.0
 11
0.1999918324
 21
0.0030772199
 31
0.0
 40
0.5873737521
 41
-0.776982385
 42
0.7763606493
  0
ELLIPSE
  5
341
100
AcDbEntity
  8
RACCORDO
100
AcDbEllipse
 62
7
  6
CONTINUOUS
 10
22.9598099831
 20
18.3292189966
 30
0.0
 11
-0.1000048364
 21
0.1732022883
 31
0.0
 40
0.5775075436
 41
-2.3560905478
 42
-0.7855988075
  0
ELLIPSE
  5
342
100
AcDbEntity
  8
RACCORDO
100
AcDbEllipse
 62
7
  6
CONTINUOUS
 10
20.2021366214
 20
19.9214650339
 30
0.0
 11
-0.1000352924
 21
0.1732550566
 31
0.0
 40
0.5771558487
 41
-0.7852941622
 42
0.7851975781
  0
ELLIPSE
  5
343
100
AcDbEntity
  8
RACCORDO
100
AcDbEllipse
 62
7
  6
CONTINUOUS
 10
28.99325191
 20
14.6270999127
 30
0.0
 11
0.2566641185
 21
0.42914135
 31
0.0
 40
0.5873179545
 41
0.8119364019
 42
1.9852365205
  0
ELLIPSE
  5
344
100
AcDbEntity
  8
RACCORDO
100
AcDbEllipse
 62
7
  6
CONTINUOUS
 10
27.8725512096
 20
-4.7495530557
 30
0.0
 11
0.2566641185
 21
0.42914135
 31
0.0
 40
0.5873179545
 41
-3.917905871
 42
-2.3994694217
  0
ELLIPSE
  5
345
100
AcDbEntity
  8
RACCORDO
100
AcDbEllipse
 62
7
  6
CONTINUOUS
 10
27.8725512096
 20
-4.2725866507
 30
0.0
 11
0.2566641185
 21
0.42914135
 31
0.0
 40
0.5873179545
 41
0.846842987
 42
2.3652794362
  0
ENDSEC
  0
SECTION
  2
OBJECTS
  0
DICTIONARY
  5
C
100
AcDbDictionary
280
0
281
1
  3
ACAD_GROUP
350
D
  3
ACAD_MLINESTYLE
350
17
  3
ACAD_LAYOUT
350
1A
  3
ACAD_PLOTSETTINGS
350
19
  3
ACAD_PLOTSTYLENAME
350
E
  0
DICTIONARY
  5
D
102
{ACAD_REACTORS
330
C
102
}
100
AcDbDictionary
280
0
281
1
  0
ACDBDICTIONARYWDFLT
  5
E
102
{ACAD_REACTORS
330
C
102
}
100
AcDbDictionary
281
1
  3
Normal
350
F
100
AcDbDictionaryWithDefault
340
F
  0
DICTIONARY
  5
17
102
{ACAD_REACTORS
330
C
102
}
100
AcDbDictionary
280
0
281
1
  3
Standard
350
18
  0
DICTIONARY
  5
19
102
{ACAD_REACTORS
330
C
102
}
100
AcDbDictionary
281
1
  0
DICTIONARY
  5
1A
102
{ACAD_REACTORS
330
C
102
}
100
AcDbDictionary
281
1
  3
Model
350
346
  3
Layout1
350
347
  0
ACDBPLACEHOLDER
  5
F
102
{ACAD_REACTORS
330
E
102
}
  0
MLINESTYLE
  5
18
102
{ACAD_REACTORS
330
17
102
}
100
AcDbMlineStyle
  2
STANDARD
 70
0
  3

 62
256
 51
90.0
 52
90.0
 71
2
 49
0.5
 62
256
  6
BYLAYER
 49
-0.5
 62
256
  6
BYLAYER
  0
LAYOUT
  5
346
102
{ACAD_REACTORS
330
1A
102
}
100
AcDbPlotSettings
  1

  2
none_device
  4
ISO_A4_(297.00_x_210.00_MM)
  6

 40
0.0
 41
0.0
 42
0.0
 43
0.0
 44
297.0
 45
210.0
 46
0.0
 47
0.0
 48
0.0
 49
0.0
140
0.0
141
0.0
142
1.0
143
1.0
 70
1024
 72
1
 73
0
 74
0
  7

 75
0
147
1.0
148
0.0
149
0.0
100
AcDbLayout
  1
Model
 70
0
 71
0
 10
0.0
 20
0.0
 11
297.0
 21
210.0
 12
0.0
 22
0.0
 32
0.0
 14
0.0
 24
0.0
 34
0.0
 15
0.0
 25
0.0
 35
0.0
146
0.0
 13
0.0
 23
0.0
 33
0.0
 16
1.0
 26
0.0
 36
0.0
 17
0.0
 27
1.0
 37
0.0
 76
0
330
212
345
0
346
0
  0
LAYOUT
  5
347
102
{ACAD_REACTORS
330
1A
102
}
100
AcDbPlotSettings
  1

  2
none_device
  4
ISO_A4_(297.00_x_210.00_MM)
  6

 40
0.0
 41
0.0
 42
0.0
 43
0.0
 44
297.0
 45
210.0
 46
0.0
 47
0.0
 48
0.0
 49
0.0
140
0.0
141
0.0
142
1.0
143
1.0
 70
0
 72
1
 73
0
 74
0
  7

 75
0
147
1.0
148
0.0
149
0.0
100
AcDbLayout
  1
Layout1
 70
0
 71
1
 10
0.0
 20
0.0
 11
297.0
 21
210.0
 12
0.0
 22
0.0
 32
0.0
 14
0.0
 24
0.0
 34
0.0
 15
0.0
 25
0.0
 35
0.0
146
0.0
 13
0.0
 23
0.0
 33
0.0
 16
1.0
 26
0.0
 36
0.0
 17
0.0
 27
1.0
 37
0.0
 76
0
330
213
345
0
346
0
  0
ENDSEC
  0
EOF
