  0
SECTION
  2
HEADER
  9
$ACADVER
  1
AC1024
  9
$DWGCODEPAGE
  3
ANSI_1252
  9
$EXTMAX
 10
297.0
 20
210.0
 30
0.0
  9
$EXTMIN
 10
0.0
 20
0.0
 30
0.0
  9
$LIMMIN
 10
0.0
 20
0.0
  9
$LIMMAX
 10
297.0
 20
210.0
  9
$VIEWCTR
 10
148.5
 20
105.0
  9
$VIEWSIZE
 40
210.0
  9
$CLAYER
  8
0
  9
$LTSCALE
 40
16.335
  9
$CELTYPE
  6
BYLAYER
  9
$DIMSCALE
 40
1.0
  9
$DIMASZ
 40
3.0
  9
$DIMEXO
 40
0.5
  9
$DIMDLI
 40
11.286
  9
$DIMEXE
 40
1.5
  9
$DIMCEN
 40
2.673
  9
$DIMLFAC
 40
1.0
  9
$DIMBLK
  1
_FILLED
  9
$DIMALT
 70
0
  9
$DIMALTF
 40
0.0393700787
  9
$DIMTXT
 40
3.0
  9
$DIMTOL
 70
1
  9
$DIMLIM
 70
0
  9
$DIMTFAC
 40
1.0
  9
$DIMTP
 40
0.01
  9
$DIMTM
 40
0.01
  9
$DIMGAP
 40
0.625
  9
$DIMDSEP
 70
44
  9
$AUNITS
 70
0
  9
$PDMODE
 70
3
  9
$PDSIZE
 40
3.0
  9
$HANDSEED
  5
515
  9
$TILEMODE
 70
1
  9
$MEASUREMENT
 70
1
  9
$INSUNITS
 70
4
  0
ENDSEC
  0
SECTION
  2
CLASSES
  0
CLASS
  1
ACDBDICTIONARYWDFLT
  2
AcDbDictionaryWithDefault
  3
AutoCAD 2000
 90
0
 91
1
280
0
281
0
  0
CLASS
  1
ACDBPLACEHOLDER
  2
AcDbPlaceHolder
  3
AutoCAD 2000
 90
0
 91
1
280
0
281
0
  0
CLASS
  1
LAYOUT
  2
AcDbLayout
  3
AutoCAD 2000
 90
0
 91
0
280
0
281
0
  0
ENDSEC
  0
SECTION
  2
TABLES
  0
TABLE
  2
VPORT
  5
8
100
AcDbSymbolTable
 70
2
  0
VPORT
  5
1F4
100
AcDbSymbolTableRecord
100
AcDbViewportTableRecord
  2
*ACTIVE
 70
0
 10
0.0
 20
0.0
 11
1.0
 21
1.0
 12
148.5
 22
105.0
 13
0.0
 23
0.0
 14
1.0
 24
1.0
 15
0.0
 25
0.0
 16
0.0
 26
0.0
 36
1.0
 17
0.0
 27
0.0
 37
0.0
 40
210.0
 41
1.4142857143
 42
50.0
 43
0.0
 44
0.0
 50
0.0
 51
0.0
 71
0
 72
100
 73
1
 74
1
 75
0
 76
0
 77
0
 78
0
  0
ENDTAB
  0
TABLE
  2
LTYPE
  5
5
100
AcDbSymbolTable
 70
6
  0
LTYPE
  5
14
100
AcDbSymbolTableRecord
100
AcDbLinetypeTableRecord
  2
BYBLOCK
 70
0
  3

 72
65
 73
0
 40
0.0
  0
LTYPE
  5
15
100
AcDbSymbolTableRecord
100
AcDbLinetypeTableRecord
  2
BYLAYER
 70
0
  3

 72
65
 73
0
 40
0.0
  0
LTYPE
  5
16
100
AcDbSymbolTableRecord
100
AcDbLinetypeTableRecord
  2
CONTINUOUS
 70
64
  3
Solid line
 72
65
 73
0
 40
0.0
  0
LTYPE
  5
1F5
100
AcDbSymbolTableRecord
100
AcDbLinetypeTableRecord
  2
CENTER
 70
64
  3
____ _ ____ _ ____ _ ____ _ ____ _ ____ _ ____
 72
65
 73
4
 40
0.6
 49
0.375
 74
0
 49
-0.075
 74
0
 49
0.075
 74
0
 49
-0.075
 74
0
  0
LTYPE
  5
1F6
100
AcDbSymbolTableRecord
100
AcDbLinetypeTableRecord
  2
HIDDEN
 70
64
  3
- - - - - - - - - - - - - - - - - - - -
 72
65
 73
2
 40
0.2
 49
0.1
 74
0
 49
-0.1
 74
0
  0
LTYPE
  5
1F7
100
AcDbSymbolTableRecord
100
AcDbLinetypeTableRecord
  2
PHANTOM
 70
64
  3
_____ _ _ _____ _ _ _____ _ _ _____
 72
65
 73
6
 40
0.8
 49
0.45
 74
0
 49
-0.05
 74
0
 49
0.1
 74
0
 49
-0.05
 74
0
 49
0.1
 74
0
 49
-0.05
 74
0
  0
LTYPE
  5
1F8
100
AcDbSymbolTableRecord
100
AcDbLinetypeTableRecord
  2
DOT
 70
64
  3
. . . . . . . . . . . . . . . . . . . .
 72
65
 73
2
 40
0.2
 49
0.1
 74
0
 49
-0.1
 74
0
  0
LTYPE
  5
1F9
100
AcDbSymbolTableRecord
100
AcDbLinetypeTableRecord
  2
DASHED
 70
64
  3
- - - - - - - - - - - - - - - - - - - -
 72
65
 73
2
 40
0.2
 49
0.1
 74
0
 49
-0.1
 74
0
  0
ENDTAB
  0
TABLE
  2
LAYER
  5
2
100
AcDbSymbolTable
 70
36
  0
LAYER
  5
10
100
AcDbSymbolTableRecord
100
AcDbLayerTableRecord
  2
0
 70
0
 62
7
  6
CONTINUOUS
370
-3
390
F
  0
LAYER
  5
1FA
100
AcDbSymbolTableRecord
100
AcDbLayerTableRecord
  2
DEFAULT_1
 70
0
 62
7
  6
CENTER
370
-3
390
F
  0
LAYER
  5
1FB
100
AcDbSymbolTableRecord
100
AcDbLayerTableRecord
  2
DEFAULT_2
 70
0
 62
7
  6
HIDDEN
370
-3
390
F
  0
LAYER
  5
1FC
100
AcDbSymbolTableRecord
100
AcDbLayerTableRecord
  2
DEFAULT_3
 70
0
 62
7
  6
PHANTOM
370
-3
390
F
  0
LAYER
  5
1FD
100
AcDbSymbolTableRecord
100
AcDbLayerTableRecord
  2
ASSI
 70
0
 62
7
  6
CONTINUOUS
370
-3
390
F
  0
LAYER
  5
1FE
100
AcDbSymbolTableRecord
100
AcDbLayerTableRecord
  2
COLOR5
 70
0
 62
7
  6
CONTINUOUS
370
-3
390
F
  0
LAYER
  5
1FF
100
AcDbSymbolTableRecord
100
AcDbLayerTableRecord
  2
COORDINATE
 70
0
 62
7
  6
CONTINUOUS
370
-3
390
F
  0
LAYER
  5
200
100
AcDbSymbolTableRecord
100
AcDbLayerTableRecord
  2
COORD_ORIGINE
 70
0
 62
7
  6
CONTINUOUS
370
-3
390
F
  0
LAYER
  5
201
100
AcDbSymbolTableRecord
100
AcDbLayerTableRecord
  2
COPY_PUBLISH
 70
0
 62
7
  6
CONTINUOUS
370
-3
390
F
  0
LAYER
  5
202
100
AcDbSymbolTableRecord
100
AcDbLayerTableRecord
  2
COSMETICI
 70
0
 62
7
  6
CONTINUOUS
370
-3
390
F
  0
LAYER
  5
203
100
AcDbSymbolTableRecord
100
AcDbLayerTableRecord
  2
CURVE
 70
0
 62
7
  6
CONTINUOUS
370
-3
390
F
  0
LAYER
  5
204
100
AcDbSymbolTableRecord
100
AcDbLayerTableRecord
  2
DRAFT
 70
0
 62
7
  6
CONTINUOUS
370
-3
390
F
  0
LAYER
  5
205
100
AcDbSymbolTableRecord
100
AcDbLayerTableRecord
  2
IMPORT_IGES
 70
0
 62
7
  6
CONTINUOUS
370
-3
390
F
  0
LAYER
  5
206
100
AcDbSymbolTableRecord
100
AcDbLayerTableRecord
  2
NOTE
 70
0
 62
7
  6
CONTINUOUS
370
-3
390
F
  0
LAYER
  5
207
100
AcDbSymbolTableRecord
100
AcDbLayerTableRecord
  2
PIANI
 70
0
 62
7
  6
CONTINUOUS
370
-3
390
F
  0
LAYER
  5
208
100
AcDbSymbolTableRecord
100
AcDbLayerTableRecord
  2
PIANI_ORIGINE
 70
0
 62
7
  6
CONTINUOUS
370
-3
390
F
  0
LAYER
  5
209
100
AcDbSymbolTableRecord
100
AcDbLayerTableRecord
  2
PUNTI
 70
0
 62
7
  6
CONTINUOUS
370
-3
390
F
  0
LAYER
  5
20A
100
AcDbSymbolTableRecord
100
AcDbLayerTableRecord
  2
RACCORDO
 70
0
 62
7
  6
CONTINUOUS
370
-3
390
F
  0
LAYER
  5
20B
100
AcDbSymbolTableRecord
100
AcDbLayerTableRecord
  2
SIMBOLI
 70
0
 62
7
  6
CONTINUOUS
370
-3
390
F
  0
LAYER
  5
20C
100
AcDbSymbolTableRecord
100
AcDbLayerTableRecord
  2
SMUSSO
 70
0
 62
7
  6
CONTINUOUS
370
-3
390
F
  0
LAYER
  5
20D
100
AcDbSymbolTableRecord
100
AcDbLayerTableRecord
  2
SNAPLINE
 70
0
 62
7
  6
CONTINUOUS
370
-3
390
F
  0
LAYER
  5
20E
100
AcDbSymbolTableRecord
100
AcDbLayerTableRecord
  2
SUPERFICI
 70
0
 62
7
  6
CONTINUOUS
370
-3
390
F
  0
LAYER
  5
20F
100
AcDbSymbolTableRecord
100
AcDbLayerTableRecord
  2
TRASH
 70
0
 62
7
  6
CONTINUOUS
370
-3
390
F
  0
LAYER
  5
210
100
AcDbSymbolTableRecord
100
AcDbLayerTableRecord
  2
XSEC_DATUMS
 70
0
 62
7
  6
CONTINUOUS
370
-3
390
F
  0
ENDTAB
  0
TABLE
  2
STYLE
  5
3
100
AcDbSymbolTable
 70
1
  0
STYLE
  5
11
100
AcDbSymbolTableRecord
100
AcDbTextStyleTableRecord
  2
STANDARD
 70
0
 40
0.0
 41
0.8
 50
0.0
 71
0
 42
0.2
  3
txt
  4

  0
STYLE
  5
211
100
AcDbSymbolTableRecord
100
AcDbTextStyleTableRecord
  2
TEXTSTYLE_1
 70
0
 40
0.0
 41
0.8
 50
0.0
 71
0
 42
0.2
  3
gdt
  4

  0
ENDTAB
  0
TABLE
  2
VIEW
  5
6
100
AcDbSymbolTable
 70
0
  0
ENDTAB
  0
TABLE
  2
UCS
  5
7
100
AcDbSymbolTable
 70
0
  0
ENDTAB
  0
TABLE
  2
APPID
  5
9
100
AcDbSymbolTable
 70
1
  0
APPID
  5
212
100
AcDbSymbolTableRecord
100
AcDbRegAppTableRecord
  2
ACAD
 70
0
  0
ENDTAB
  0
TABLE
  2
BLOCK_RECORD
  5
1
100
AcDbSymbolTable
 70
0
  0
BLOCK_RECORD
  5
213
100
AcDbSymbolTableRecord
100
AcDbBlockTableRecord
  2
*Model_Space
  0
BLOCK_RECORD
  5
214
100
AcDbSymbolTableRecord
100
AcDbBlockTableRecord
  2
*Paper_Space
  0
BLOCK_RECORD
  5
215
100
AcDbSymbolTableRecord
100
AcDbBlockTableRecord
  2
_FILLED
  0
ENDTAB
  0
TABLE
  2
DIMSTYLE
  5
A
100
AcDbSymbolTable
 70
1
100
AcDbDimStyleTable
 71
0
  0
DIMSTYLE
105
216
100
AcDbSymbolTableRecord
100
AcDbDimStyleTableRecord
  2
STANDARD
 70
0
  3

  4

 40
1.0
 41
3.0
 42
0.5
 43
0.38
 44
1.5
 45
0.0
 46
0.0
 47
0.01
 48
0.01
140
3.0
141
0.09
142
0.0
143
25.4
144
1.0
145
0.0
146
1.0
147
0.625
 71
1
 72
0
 73
0
 74
0
 75
0
 76
0
 77
1
 78
8
 79
2
170
0
171
1
172
0
173
0
174
0
175
0
176
0
177
0
178
0
270
2
179
2
271
2
272
2
273
2
274
2
275
0
280
0
281
0
282
0
283
1
284
8
285
0
286
0
287
3
288
0
340
11
278
44
341
215
342
215
343
215
344
215
  0
ENDTAB
  0
ENDSEC
  0
SECTION
  2
BLOCKS
  0
BLOCK
  5
20
100
AcDbEntity
  8
0
100
AcDbBlockBegin
  2
*Model_Space
 70
0
 10
0.0
 20
0.0
 30
0.0
  3
*Model_Space
  1

  0
ENDBLK
  5
21
100
AcDbEntity
  8
0
100
AcDbBlockEnd
  0
BLOCK
  5
1C
100
AcDbEntity
  8
0
100
AcDbBlockBegin
  2
*Paper_Space
 70
0
 10
0.0
 20
0.0
 30
0.0
  3
*Paper_Space
  1

  0
ENDBLK
  5
1D
100
AcDbEntity
  8
0
100
AcDbBlockEnd
  0
BLOCK
  5
217
100
AcDbEntity
  8
0
100
AcDbBlockBegin
  2
_FILLED
 70
64
 10
0.0
 20
0.0
  3
_FILLED
  1

  0
SOLID
  5
218
100
AcDbEntity
  8
0
  6
BYBLOCK
 62
0
100
AcDbTrace
 10
0.0
 20
0.0
 11
-1.0
 21
0.3166666667
 12
-1.0
 22
-0.3166666667
 13
-1.0
 23
-0.3166666667
  0
ENDBLK
  5
219
100
AcDbEntity
  8
0
  6
BYBLOCK
 62
0
100
AcDbBlockEnd
  0
ENDSEC
  0
SECTION
  2
ENTITIES
  0
LINE
  5
21A
100
AcDbEntity
  8
ASSI
100
AcDbLine
 62
7
  6
CONTINUOUS
 10
-89.9928750328
 20
-29.2248484967
 11
-89.9928750328
 21
-30.507230406
  0
LINE
  5
21B
100
AcDbEntity
  8
0
100
AcDbLine
 62
7
  6
CONTINUOUS
 10
-89.9928750328
 20
-29.2248484967
 11
-89.9928750328
 21
-30.507230406
  0
LINE
  5
21C
100
AcDbEntity
  8
ASSI
100
AcDbLine
 62
250
  6
CONTINUOUS
 10
-89.7249124878
 20
-30.0003411028
 11
-89.7249124878
 21
-30.0431056641
  0
LINE
  5
21D
100
AcDbEntity
  8
0
100
AcDbLine
 62
250
  6
CONTINUOUS
 10
-89.7249124878
 20
-30.0003411028
 11
-89.7249124878
 21
-30.0431056641
  0
LINE
  5
21E
100
AcDbEntity
  8
ASSI
100
AcDbLine
 62
7
  6
CONTINUOUS
 10
-14.6336519861
 20
-88.3354237156
 11
5.5579702274
 21
-93.1801861755
  0
LINE
  5
21F
100
AcDbEntity
  8
0
100
AcDbLine
 62
7
  6
CONTINUOUS
 10
-14.6336519861
 20
-88.3354237156
 11
5.5579702274
 21
-93.1801861755
  0
LINE
  5
220
100
AcDbEntity
  8
ASSI
100
AcDbLine
 62
7
  6
CONTINUOUS
 10
-27.2150117512
 20
-89.5274692217
 11
-90.854622058
 21
-52.7827558222
  0
LINE
  5
221
100
AcDbEntity
  8
0
100
AcDbLine
 62
7
  6
CONTINUOUS
 10
-27.2150117512
 20
-89.5274692217
 11
-90.854622058
 21
-52.7827558222
  0
LINE
  5
222
100
AcDbEntity
  8
ASSI
100
AcDbLine
 62
7
  6
CONTINUOUS
 10
-89.7249124878
 20
-30.0003411028
 11
-89.7112123544
 21
-30.019376337
  0
LINE
  5
223
100
AcDbEntity
  8
0
100
AcDbLine
 62
7
  6
CONTINUOUS
 10
-89.7249124878
 20
-30.0003411028
 11
-89.7112123544
 21
-30.019376337
  0
LINE
  5
224
100
AcDbEntity
  8
0
100
AcDbLine
 62
7
  6
CONTINUOUS
 10
-38.5098335743
 20
72.3100919158
 11
-38.5292003952
 21
72.298409341
  0
LINE
  5
225
100
AcDbEntity
  8
ASSI
100
AcDbLine
 62
7
  6
CONTINUOUS
 10
-14.6336519861
 20
-80.1707209476
 11
5.5579702274
 21
-85.0154834076
  0
LINE
  5
226
100
AcDbEntity
  8
0
100
AcDbLine
 62
7
  6
CONTINUOUS
 10
-14.6336519861
 20
-80.1707209476
 11
5.5579702274
 21
-85.0154834076
  0
LINE
  5
227
100
AcDbEntity
  8
0
100
AcDbLine
 62
7
  6
CONTINUOUS
 10
-74.8467948401
 20
9.3944906975
 11
-74.8472358876
 21
9.3715254382
  0
LINE
  5
228
100
AcDbEntity
  8
ASSI
100
AcDbLine
 62
7
  6
CONTINUOUS
 10
-30.6209440017
 20
92.7407138697
 11
-88.6209440017
 21
-7.718232865
  0
LINE
  5
229
100
AcDbEntity
  8
0
100
AcDbLine
 62
7
  6
CONTINUOUS
 10
-30.6209440017
 20
92.7407138697
 11
-88.6209440017
 21
-7.718232865
  0
LINE
  5
22A
100
AcDbEntity
  8
ASSI
100
AcDbLine
 62
7
  6
CONTINUOUS
 10
-29.9388372205
 20
92.3468711732
 11
-87.9388372205
 21
-8.1120755616
  0
LINE
  5
22B
100
AcDbEntity
  8
0
100
AcDbLine
 62
7
  6
CONTINUOUS
 10
-38.3753767793
 20
72.4753397958
 11
-38.5098335743
 21
72.3100919158
  0
LINE
  5
22C
100
AcDbEntity
  8
ASSI
100
AcDbLine
 62
250
  6
CONTINUOUS
 10
-18.2031975975
 20
-80.4775955042
 11
-23.8707834532
 21
-77.2052024627
  0
LINE
  5
22D
100
AcDbEntity
  8
0
100
AcDbLine
 62
250
  6
CONTINUOUS
 10
-18.2031975975
 20
-80.4775955042
 11
-23.8707834532
 21
-77.2052024627
  0
LINE
  5
22E
100
AcDbEntity
  8
ASSI
100
AcDbLine
 62
250
  6
CONTINUOUS
 10
-90.8541871755
 20
-31.9990667968
 11
-22.2145768687
 21
-71.6301595546
  0
LINE
  5
22F
100
AcDbEntity
  8
0
100
AcDbLine
 62
250
  6
CONTINUOUS
 10
-90.8541871755
 20
-31.9990667968
 11
-22.2145768687
 21
-71.6301595546
  0
LINE
  5
230
100
AcDbEntity
  8
0
100
AcDbLine
 62
7
  6
CONTINUOUS
 10
-38.0277373357
 20
73.6848656821
 11
-39.0454427058
 21
71.9221482758
  0
LINE
  5
231
100
AcDbEntity
  8
0
100
AcDbLine
 62
7
  6
CONTINUOUS
 10
-39.6040573271
 20
70.9545993708
 11
-40.6217625123
 21
69.1918822848
  0
LINE
  5
232
100
AcDbEntity
  8
0
100
AcDbLine
 62
7
  6
CONTINUOUS
 10
-73.2027373357
 20
12.7599785891
 11
-74.2204427058
 21
10.9972611828
  0
LINE
  5
233
100
AcDbEntity
  8
0
100
AcDbLine
 62
7
  6
CONTINUOUS
 10
-74.7790573271
 20
10.0297122778
 11
-75.7967625123
 21
8.2669951918
  0
LINE
  5
234
100
AcDbEntity
  8
0
100
AcDbLine
 62
7
  6
CONTINUOUS
 10
-74.6022367326
 20
7.4324321827
 11
-74.5970732266
 21
7.4413756374
  0
LINE
  5
235
100
AcDbEntity
  8
0
100
AcDbLine
 62
7
  6
CONTINUOUS
 10
-71.8878773648
 20
12.1338405128
 11
-71.8827095744
 21
12.1427913884
  0
LINE
  5
236
100
AcDbEntity
  8
0
100
AcDbLine
 62
7
  6
CONTINUOUS
 10
-39.4272367326
 20
68.3573192757
 11
-39.4220732266
 21
68.3662627304
  0
LINE
  5
237
100
AcDbEntity
  8
0
100
AcDbLine
 62
7
  6
CONTINUOUS
 10
-36.7128773648
 20
73.0587276059
 11
-36.7077095744
 21
73.0676784814
  0
LINE
  5
238
100
AcDbEntity
  8
ASSI
100
AcDbLine
 62
7
  6
CONTINUOUS
 10
-90.8541871755
 20
-31.9990667968
 11
-83.2821092369
 21
-18.8838431018
  0
LINE
  5
239
100
AcDbEntity
  8
0
100
AcDbLine
 62
7
  6
CONTINUOUS
 10
-90.8541871755
 20
-31.9990667968
 11
-83.2821092369
 21
-18.8838431018
  0
LINE
  5
23A
100
AcDbEntity
  8
0
100
AcDbLine
 62
7
  6
CONTINUOUS
 10
-73.5503767793
 20
11.5504527028
 11
-73.6848335743
 21
11.3852048228
  0
LINE
  5
23B
100
AcDbEntity
  8
0
100
AcDbLine
 62
7
  6
CONTINUOUS
 10
-73.5204304061
 20
11.4622512944
 11
-73.5503767793
 21
11.5504527028
  0
LINE
  5
23C
100
AcDbEntity
  8
ASSI
100
AcDbLine
 62
250
  6
CONTINUOUS
 10
-19.6424989301
 20
-55.6285565013
 11
-14.6424989301
 21
-58.5149358596
  0
LINE
  5
23D
100
AcDbEntity
  8
0
100
AcDbLine
 62
250
  6
CONTINUOUS
 10
-19.6424989301
 20
-55.6285565013
 11
-14.6424989301
 21
-58.5149358596
  0
LINE
  5
23E
100
AcDbEntity
  8
0
100
AcDbLine
 62
7
  6
CONTINUOUS
 10
-6.5285378994
 20
-59.1583182895
 11
-11.5285378994
 21
-56.2719389312
  0
LINE
  5
23F
100
AcDbEntity
  8
ASSI
100
AcDbLine
 62
7
  6
CONTINUOUS
 10
-87.8960702675
 20
-12.1782828518
 11
-84.006982971
 21
-14.4237931151
  0
LINE
  5
240
100
AcDbEntity
  8
0
100
AcDbLine
 62
7
  6
CONTINUOUS
 10
-87.8960702675
 20
-12.1782828518
 11
-84.006982971
 21
-14.4237931151
  0
LINE
  5
241
100
AcDbEntity
  8
ASSI
100
AcDbLine
 62
7
  6
CONTINUOUS
 10
-6.5285378994
 20
-59.1583182895
 11
-15.4176251959
 21
-54.0264286679
  0
LINE
  5
242
100
AcDbEntity
  8
0
100
AcDbLine
 62
7
  6
CONTINUOUS
 10
-11.5285378994
 20
-56.2719389312
 11
-15.4176251959
 21
-54.0264286679
  0
LINE
  5
243
100
AcDbEntity
  8
ASSI
100
AcDbLine
 62
7
  6
CONTINUOUS
 10
-87.4210702675
 20
-11.2978255521
 11
-11.0535378994
 21
-55.3914816315
  0
LINE
  5
244
100
AcDbEntity
  8
0
100
AcDbLine
 62
7
  6
CONTINUOUS
 10
-73.6848335743
 20
11.3852048228
 11
-73.7042003952
 21
11.373522248
  0
LINE
  5
245
100
AcDbEntity
  8
ASSI
100
AcDbLine
 62
250
  6
CONTINUOUS
 10
-2.3036641652
 20
-57.556190456
 11
-7.3036641652
 21
-54.6698110977
  0
LINE
  5
246
100
AcDbEntity
  8
0
100
AcDbLine
 62
250
  6
CONTINUOUS
 10
-2.3036641652
 20
-57.556190456
 11
-7.3036641652
 21
-54.6698110977
  0
LINE
  5
247
100
AcDbEntity
  8
ASSI
100
AcDbLine
 62
250
  6
CONTINUOUS
 10
-8.0107709464
 20
-54.2615365044
 11
-8.0357709464
 21
-54.2471046076
  0
LINE
  5
248
100
AcDbEntity
  8
0
100
AcDbLine
 62
7
  6
CONTINUOUS
 10
-39.6717948401
 20
70.3193777905
 11
-39.6722358876
 21
70.2964125312
  0
LINE
  5
249
100
AcDbEntity
  8
ASSI
100
AcDbLine
 62
7
  6
CONTINUOUS
 10
11.4221908992
 20
-56.6738092774
 11
1.5100415186
 21
-50.9506584534
  0
LINE
  5
24A
100
AcDbEntity
  8
0
100
AcDbLine
 62
7
  6
CONTINUOUS
 10
11.4221908992
 20
-56.6738092774
 11
1.5100415186
 21
-50.9506584534
  0
LINE
  5
24B
100
AcDbEntity
  8
ASSI
100
AcDbLine
 62
7
  6
CONTINUOUS
 10
5.7532289004
 20
-43.6012423296
 11
23.2698601476
 21
-53.7151256768
  0
LINE
  5
24C
100
AcDbEntity
  8
0
100
AcDbLine
 62
7
  6
CONTINUOUS
 10
5.7532289004
 20
-43.6012423296
 11
23.2698601476
 21
-53.7151256768
  0
LINE
  5
24D
100
AcDbEntity
  8
0
100
AcDbLine
 62
7
  6
CONTINUOUS
 10
-74.5045238761
 20
10.7920434152
 11
-75.2693131836
 21
11.3972243317
  0
LINE
  5
24E
100
AcDbEntity
  8
0
100
AcDbLine
 62
7
  6
CONTINUOUS
 10
-75.6293458407
 20
8.1148483649
 11
-75.1804048283
 21
7.7554418892
  0
LINE
  5
24F
100
AcDbEntity
  8
ASSI
100
AcDbLine
 62
7
  6
CONTINUOUS
 10
-87.9590141296
 20
-26.9844799899
 11
-89.2938378201
 21
-28.0130763718
  0
LINE
  5
250
100
AcDbEntity
  8
0
100
AcDbLine
 62
7
  6
CONTINUOUS
 10
-87.9590141296
 20
-26.9844799899
 11
-89.2938378201
 21
-28.0130763718
  0
LINE
  5
251
100
AcDbEntity
  8
0
100
AcDbLine
 62
7
  6
CONTINUOUS
 10
-3.5554025662
 20
-31.9631060906
 11
-3.6467819029
 21
-31.9812400911
  0
LINE
  5
252
100
AcDbEntity
  8
0
100
AcDbLine
 62
7
  6
CONTINUOUS
 10
-1.7111864682
 20
-28.4629163384
 11
-1.1754374925
 21
-28.6719476338
  0
LINE
  5
253
100
AcDbEntity
  8
0
100
AcDbLine
 62
7
  6
CONTINUOUS
 10
-4.3735287685
 20
-30.4160369268
 11
-3.4669827142
 21
-30.7756880812
  0
LINE
  5
254
100
AcDbEntity
  8
0
100
AcDbLine
 62
7
  6
CONTINUOUS
 10
-3.4835280384
 20
-31.8025778169
 11
-3.5704312964
 21
-31.75958831
  0
LINE
  5
255
100
AcDbEntity
  8
0
100
AcDbLine
 62
7
  6
CONTINUOUS
 10
-3.4922581201
 20
-31.8217698023
 11
-3.570872344
 21
-31.7825535692
  0
LINE
  5
256
100
AcDbEntity
  8
0
100
AcDbLine
 62
7
  6
CONTINUOUS
 10
-3.5239894357
 20
-33.642432761
 11
-3.6739894181
 21
-33.5558413905
  0
LINE
  5
257
100
AcDbEntity
  8
0
100
AcDbLine
 62
7
  6
CONTINUOUS
 10
-74.8003529793
 20
7.5116462464
 11
-74.9503529617
 21
7.598237617
  0
LINE
  5
258
100
AcDbEntity
  8
0
100
AcDbLine
 62
7
  6
CONTINUOUS
 10
-0.813707994
 20
-33.1863519952
 11
-0.6814290727
 21
-33.2627134248
  0
LINE
  5
259
100
AcDbEntity
  8
0
100
AcDbLine
 62
7
  6
CONTINUOUS
 10
-72.0900715377
 20
7.9677270122
 11
-71.9577926163
 21
7.8913655826
  0
LINE
  5
25A
100
AcDbEntity
  8
ASSI
100
AcDbLine
 62
7
  6
CONTINUOUS
 10
9.2885919643
 20
-37.4778138862
 11
28.4987327967
 21
-48.5695084433
  0
LINE
  5
25B
100
AcDbEntity
  8
0
100
AcDbLine
 62
7
  6
CONTINUOUS
 10
9.2885919643
 20
-37.4778138862
 11
28.4987327967
 21
-48.5695084433
  0
LINE
  5
25C
100
AcDbEntity
  8
0
100
AcDbLine
 62
7
  6
CONTINUOUS
 10
-73.6848335743
 20
11.3852048228
 11
-73.6114657541
 21
11.3366111301
  0
LINE
  5
25D
100
AcDbEntity
  8
0
100
AcDbLine
 62
7
  6
CONTINUOUS
 10
-2.4084700307
 20
-29.7688741846
 11
-2.3351008676
 21
-29.8174670466
  0
LINE
  5
25E
100
AcDbEntity
  8
0
100
AcDbLine
 62
7
  6
CONTINUOUS
 10
-73.7042003952
 20
11.373522248
 11
-73.6235047525
 21
11.3197579648
  0
LINE
  5
25F
100
AcDbEntity
  8
0
100
AcDbLine
 62
7
  6
CONTINUOUS
 10
-2.4278368516
 20
-29.7805567595
 11
-2.3471412089
 21
-29.8343210427
  0
LINE
  5
260
100
AcDbEntity
  8
0
100
AcDbLine
 62
7
  6
CONTINUOUS
 10
-3.2281603325
 20
-30.3620355922
 11
-3.99294964
 21
-29.7568546758
  0
LINE
  5
261
100
AcDbEntity
  8
0
100
AcDbLine
 62
7
  6
CONTINUOUS
 10
-4.3529822971
 20
-33.0392306425
 11
-3.9040412847
 21
-33.3986371182
  0
LINE
  5
262
100
AcDbEntity
  8
ASSI
100
AcDbLine
 62
7
  6
CONTINUOUS
 10
-18.2031975975
 20
-88.6422982721
 11
-18.2031975975
 21
-80.4775955042
  0
LINE
  5
263
100
AcDbEntity
  8
0
100
AcDbLine
 62
7
  6
CONTINUOUS
 10
-18.2031975975
 20
-88.6422982721
 11
-18.2031975975
 21
-80.4775955042
  0
LINE
  5
264
100
AcDbEntity
  8
0
100
AcDbLine
 62
7
  6
CONTINUOUS
 10
-13.3368691984
 20
21.1532285559
 11
-15.1547046287
 21
20.5954062576
  0
LINE
  5
265
100
AcDbEntity
  8
0
100
AcDbLine
 62
250
  6
CONTINUOUS
 10
-15.1547046287
 20
20.5954062576
 11
-15.1546736353
 21
20.5954157682
  0
LINE
  5
266
100
AcDbEntity
  8
0
100
AcDbLine
 62
7
  6
CONTINUOUS
 10
-12.3008774171
 20
19.2513631506
 11
-13.8266344975
 21
18.7831682265
  0
LINE
  5
267
100
AcDbEntity
  8
0
100
AcDbLine
 62
7
  6
CONTINUOUS
 10
-75.6498923121
 20
10.7380420806
 11
-74.7433462578
 21
10.3783909262
  0
LINE
  5
268
100
AcDbEntity
  8
0
100
AcDbLine
 62
7
  6
CONTINUOUS
 10
-74.759891582
 20
9.3515011905
 11
-74.8467948401
 21
9.3944906975
  0
LINE
  5
269
100
AcDbEntity
  8
0
100
AcDbLine
 62
7
  6
CONTINUOUS
 10
-74.7686216745
 20
9.3323088529
 11
-74.8472358876
 21
9.3715254382
  0
LINE
  5
26A
100
AcDbEntity
  8
0
100
AcDbLine
 62
7
  6
CONTINUOUS
 10
-0.7742552229
 20
-28.8791395978
 11
-0.9242552053
 21
-28.7925482272
  0
LINE
  5
26B
100
AcDbEntity
  8
0
100
AcDbLine
 62
7
  6
CONTINUOUS
 10
-72.0506187665
 20
12.2749394097
 11
-72.2006187489
 21
12.3615307802
  0
LINE
  5
26C
100
AcDbEntity
  8
0
100
AcDbLine
 62
250
  6
CONTINUOUS
 10
-20.6087972287
 20
11.1474232954
 11
-20.608790237
 21
11.1473928837
  0
LINE
  5
26D
100
AcDbEntity
  8
0
100
AcDbLine
 62
7
  6
CONTINUOUS
 10
-20.18276098
 20
9.2942680178
 11
-20.6087972287
 21
11.1474232954
  0
LINE
  5
26E
100
AcDbEntity
  8
ASSI
100
AcDbLine
 62
250
  6
CONTINUOUS
 10
-14.6336519861
 20
-88.3354237156
 11
-14.6336519861
 21
-80.1707209476
  0
LINE
  5
26F
100
AcDbEntity
  8
0
100
AcDbLine
 62
250
  6
CONTINUOUS
 10
-14.6336519861
 20
-88.3354237156
 11
-14.6336519861
 21
-80.1707209476
  0
LINE
  5
270
100
AcDbEntity
  8
ASSI
100
AcDbLine
 62
250
  6
CONTINUOUS
 10
-18.5960766109
 20
-88.849398001
 11
-18.3841323097
 21
-80.56598969
  0
LINE
  5
271
100
AcDbEntity
  8
0
100
AcDbLine
 62
250
  6
CONTINUOUS
 10
-18.5960766109
 20
-88.849398001
 11
-18.3841323097
 21
-80.56598969
  0
LINE
  5
272
100
AcDbEntity
  8
0
100
AcDbLine
 62
7
  6
CONTINUOUS
 10
-72.9875500118
 20
12.6911626691
 11
-72.4518010361
 21
12.4821313737
  0
LINE
  5
273
100
AcDbEntity
  8
0
100
AcDbLine
 62
7
  6
CONTINUOUS
 10
-21.8897546609
 20
3.1745151863
 11
-22.3616758591
 21
3.4469439074
  0
LINE
  5
274
100
AcDbEntity
  8
0
100
AcDbLine
 62
250
  6
CONTINUOUS
 10
-19.5171973823
 20
10.357288278
 11
-19.5171794215
 21
10.3572473124
  0
LINE
  5
275
100
AcDbEntity
  8
0
100
AcDbLine
 62
250
  6
CONTINUOUS
 10
-17.5414970675
 20
10.2131746157
 11
-17.5414394421
 21
10.2130431774
  0
LINE
  5
276
100
AcDbEntity
  8
0
100
AcDbLine
 62
7
  6
CONTINUOUS
 10
-38.3454304061
 20
72.3871383874
 11
-38.3753767793
 21
72.4753397958
  0
LINE
  5
277
100
AcDbEntity
  8
0
100
AcDbLine
 62
7
  6
CONTINUOUS
 10
-2.2440658176
 20
-29.691827016
 11
-2.2740132357
 21
-29.6036263046
  0
LINE
  5
278
100
AcDbEntity
  8
0
100
AcDbLine
 62
7
  6
CONTINUOUS
 10
-18.0177073444
 20
9.3482471398
 11
-18.3752907713
 21
10.9036490969
  0
LINE
  5
279
100
AcDbEntity
  8
0
100
AcDbLine
 62
7
  6
CONTINUOUS
 10
-3.5704312964
 20
-31.75958831
 11
-3.570872344
 21
-31.7825535692
  0
LINE
  5
27A
100
AcDbEntity
  8
ASSI
100
AcDbLine
 62
250
  6
CONTINUOUS
 10
5.5579702274
 20
-85.0154834076
 11
5.5579702274
 21
-93.1801861755
  0
LINE
  5
27B
100
AcDbEntity
  8
0
100
AcDbLine
 62
250
  6
CONTINUOUS
 10
5.5579702274
 20
-85.0154834076
 11
5.5579702274
 21
-93.1801861755
  0
LINE
  5
27C
100
AcDbEntity
  8
ASSI
100
AcDbLine
 62
250
  6
CONTINUOUS
 10
8.9997919577
 20
-84.766586297
 11
8.9997919577
 21
-92.931289065
  0
LINE
  5
27D
100
AcDbEntity
  8
0
100
AcDbLine
 62
250
  6
CONTINUOUS
 10
8.9997919577
 20
-84.766586297
 11
8.9997919577
 21
-92.931289065
  0
LINE
  5
27E
100
AcDbEntity
  8
ASSI
100
AcDbLine
 62
7
  6
CONTINUOUS
 10
93.5525566659
 20
-45.3033116967
 11
26.9671157045
 21
-6.8577125971
  0
LINE
  5
27F
100
AcDbEntity
  8
0
100
AcDbLine
 62
7
  6
CONTINUOUS
 10
93.5525566659
 20
-45.3033116967
 11
26.9671157045
 21
-6.8577125971
  0
LINE
  5
280
100
AcDbEntity
  8
ASSI
100
AcDbLine
 62
7
  6
CONTINUOUS
 10
-27.2145768687
 20
-68.7437801963
 11
-19.6424989301
 21
-55.6285565013
  0
LINE
  5
281
100
AcDbEntity
  8
0
100
AcDbLine
 62
7
  6
CONTINUOUS
 10
-27.2145768687
 20
-68.7437801963
 11
-19.6424989301
 21
-55.6285565013
  0
LINE
  5
282
100
AcDbEntity
  8
0
100
AcDbLine
 62
7
  6
CONTINUOUS
 10
-1.9263737921
 20
-28.3941004184
 11
-2.9440791622
 21
-30.1568178247
  0
LINE
  5
283
100
AcDbEntity
  8
0
100
AcDbLine
 62
7
  6
CONTINUOUS
 10
-3.5026937835
 20
-31.1243667297
 11
-4.5203989687
 21
-32.8870838157
  0
LINE
  5
284
100
AcDbEntity
  8
0
100
AcDbLine
 62
7
  6
CONTINUOUS
 10
34.5686539692
 20
31.913599474
 11
34.5634861481
 21
31.9046485452
  0
LINE
  5
285
100
AcDbEntity
  8
0
100
AcDbLine
 62
7
  6
CONTINUOUS
 10
31.8542903477
 20
27.2121837762
 11
31.849126811
 21
27.2032402683
  0
LINE
  5
286
100
AcDbEntity
  8
0
100
AcDbLine
 62
7
  6
CONTINUOUS
 10
-3.325873189
 20
-33.7216468247
 11
-3.320709683
 21
-33.7127033701
  0
LINE
  5
287
100
AcDbEntity
  8
0
100
AcDbLine
 62
7
  6
CONTINUOUS
 10
-0.6115138212
 20
-29.0202384946
 11
-0.6063460308
 21
-29.011287619
  0
LINE
  5
288
100
AcDbEntity
  8
ASSI
100
AcDbLine
 62
7
  6
CONTINUOUS
 10
-22.2145768687
 20
-71.6301595546
 11
-14.6424989301
 21
-58.5149358596
  0
LINE
  5
289
100
AcDbEntity
  8
0
100
AcDbLine
 62
7
  6
CONTINUOUS
 10
-22.2145768687
 20
-71.6301595546
 11
-14.6424989301
 21
-58.5149358596
  0
LINE
  5
28A
100
AcDbEntity
  8
0
100
AcDbLine
 62
7
  6
CONTINUOUS
 10
-2.2740132357
 20
-29.6036263046
 11
-2.4084700307
 21
-29.7688741846
  0
LINE
  5
28B
100
AcDbEntity
  8
0
100
AcDbLine
 62
7
  6
CONTINUOUS
 10
-8.8910334018
 20
25.6919139177
 11
-9.3629323078
 21
25.96432977
  0
LINE
  5
28C
100
AcDbEntity
  8
ASSI
100
AcDbLine
 62
7
  6
CONTINUOUS
 10
-8.0357709464
 20
-54.2471046076
 11
49.9642290536
 21
46.2118421271
  0
LINE
  5
28D
100
AcDbEntity
  8
ASSI
100
AcDbLine
 62
7
  6
CONTINUOUS
 10
-8.0107709464
 20
-54.2615365044
 11
49.9892290536
 21
46.1974102303
  0
LINE
  5
28E
100
AcDbEntity
  8
ASSI
100
AcDbLine
 62
7
  6
CONTINUOUS
 10
-7.3036641652
 20
-54.6698110977
 11
50.6963358348
 21
45.789135637
  0
LINE
  5
28F
100
AcDbEntity
  8
0
100
AcDbLine
 62
7
  6
CONTINUOUS
 10
-7.3036641652
 20
-54.6698110977
 11
50.6963358348
 21
45.789135637
  0
LINE
  5
290
100
AcDbEntity
  8
ASSI
100
AcDbLine
 62
7
  6
CONTINUOUS
 10
-2.3036641652
 20
-57.556190456
 11
53.9463358348
 21
39.8716673686
  0
LINE
  5
291
100
AcDbEntity
  8
0
100
AcDbLine
 62
7
  6
CONTINUOUS
 10
-2.3036641652
 20
-57.556190456
 11
53.9463358348
 21
39.8716673686
  0
LINE
  5
292
100
AcDbEntity
  8
0
100
AcDbLine
 62
7
  6
CONTINUOUS
 10
-2.4084700307
 20
-29.7688741846
 11
-2.4278368516
 21
-29.7805567595
  0
LINE
  5
293
100
AcDbEntity
  8
0
100
AcDbLine
 62
7
  6
CONTINUOUS
 10
-74.8317661098
 20
9.1909729168
 11
-74.9231454465
 21
9.1728389164
  0
LINE
  5
294
100
AcDbEntity
  8
0
100
AcDbLine
 62
7
  6
CONTINUOUS
 10
31.3193207939
 20
28.9024150994
 11
30.8159675523
 21
28.8039101896
  0
LINE
  5
295
100
AcDbEntity
  8
0
100
AcDbLine
 62
7
  6
CONTINUOUS
 10
33.0423842099
 20
29.3278745414
 11
33.0634008418
 21
29.3314385137
  0
LINE
  5
296
100
AcDbEntity
  8
0
100
AcDbLine
 62
7
  6
CONTINUOUS
 10
31.7093711668
 20
30.7507858986
 11
31.6883545246
 21
30.7472219245
  0
LINE
  5
297
100
AcDbEntity
  8
0
100
AcDbLine
 62
250
  6
CONTINUOUS
 10
-12.811699494
 20
18.4064352694
 11
-12.8115845144
 21
18.4064480293
  0
LINE
  5
298
100
AcDbEntity
  8
0
100
AcDbLine
 62
250
  6
CONTINUOUS
 10
-13.924586571
 20
20.0452555994
 11
-13.9245218468
 21
20.0452627817
  0
LINE
  5
299
100
AcDbEntity
  8
ASSI
100
AcDbLine
 62
7
  6
CONTINUOUS
 10
-12.0867752171
 20
31.0001527446
 11
-12.0623040835
 21
30.9866019458
  0
LINE
  5
29A
100
AcDbEntity
  8
0
100
AcDbLine
 62
7
  6
CONTINUOUS
 10
-12.0867752171
 20
31.0001527446
 11
-12.0623040835
 21
30.9866019458
  0
LINE
  5
29B
100
AcDbEntity
  8
ASSI
100
AcDbLine
 62
7
  6
CONTINUOUS
 10
-12.086543771
 20
31.0005552461
 11
-12.0623040835
 21
30.9866019458
  0
LINE
  5
29C
100
AcDbEntity
  8
0
100
AcDbLine
 62
7
  6
CONTINUOUS
 10
-12.086543771
 20
31.0005552461
 11
-12.0623040835
 21
30.9866019458
  0
LINE
  5
29D
100
AcDbEntity
  8
ASSI
100
AcDbLine
 62
250
  6
CONTINUOUS
 10
28.4987327967
 20
-51.426831028
 11
28.4987327967
 21
-48.5695084433
  0
LINE
  5
29E
100
AcDbEntity
  8
0
100
AcDbLine
 62
250
  6
CONTINUOUS
 10
28.4987327967
 20
-51.426831028
 11
28.4987327967
 21
-48.5695084433
  0
LINE
  5
29F
100
AcDbEntity
  8
0
100
AcDbLine
 62
7
  6
CONTINUOUS
 10
-39.3295238761
 20
71.7169305082
 11
-40.0943131836
 21
72.3221114247
  0
LINE
  5
2A0
100
AcDbEntity
  8
0
100
AcDbLine
 62
7
  6
CONTINUOUS
 10
-40.4543458407
 20
69.0397354579
 11
-40.0054048283
 21
68.6803289822
  0
LINE
  5
2A1
100
AcDbEntity
  8
0
100
AcDbLine
 62
7
  6
CONTINUOUS
 10
33.1558053154
 20
32.5821452382
 11
33.9995625075
 21
32.2529394592
  0
LINE
  5
2A2
100
AcDbEntity
  8
0
100
AcDbLine
 62
7
  6
CONTINUOUS
 10
31.4265117217
 20
30.2608591199
 11
31.7080172858
 21
30.1491990118
  0
LINE
  5
2A3
100
AcDbEntity
  8
0
100
AcDbLine
 62
7
  6
CONTINUOUS
 10
31.6923220864
 20
29.7742620338
 11
31.6851065702
 21
29.7773806457
  0
LINE
  5
2A4
100
AcDbEntity
  8
0
100
AcDbLine
 62
7
  6
CONTINUOUS
 10
31.5401382325
 20
29.197136806
 11
30.9687271211
 21
29.4797474452
  0
LINE
  5
2A5
100
AcDbEntity
  8
0
100
AcDbLine
 62
7
  6
CONTINUOUS
 10
-39.584891582
 20
70.2763882835
 11
-39.6717948401
 21
70.3193777905
  0
LINE
  5
2A6
100
AcDbEntity
  8
0
100
AcDbLine
 62
7
  6
CONTINUOUS
 10
-39.5936216745
 20
70.2571959459
 11
-39.6722358876
 21
70.2964125312
  0
LINE
  5
2A7
100
AcDbEntity
  8
0
100
AcDbLine
 62
7
  6
CONTINUOUS
 10
31.5231609223
 20
29.1827184356
 11
31.5071886285
 21
29.1906912958
  0
LINE
  5
2A8
100
AcDbEntity
  8
0
100
AcDbLine
 62
7
  6
CONTINUOUS
 10
31.6510105643
 20
27.282454332
 11
31.5010105819
 21
27.3690457025
  0
LINE
  5
2A9
100
AcDbEntity
  8
0
100
AcDbLine
 62
7
  6
CONTINUOUS
 10
-39.6253529793
 20
68.4365333394
 11
-39.7753529617
 21
68.52312471
  0
LINE
  5
2AA
100
AcDbEntity
  8
0
100
AcDbLine
 62
7
  6
CONTINUOUS
 10
-36.9150715377
 20
68.8926141052
 11
-36.7827926163
 21
68.8162526756
  0
LINE
  5
2AB
100
AcDbEntity
  8
0
100
AcDbLine
 62
7
  6
CONTINUOUS
 10
33.9101304813
 20
28.4606404042
 11
32.0534987684
 21
29.5325731368
  0
LINE
  5
2AC
100
AcDbEntity
  8
0
100
AcDbLine
 62
7
  6
CONTINUOUS
 10
32.6535001809
 20
30.5718028048
 11
34.5101304813
 21
29.4998708877
  0
LINE
  5
2AD
100
AcDbEntity
  8
0
100
AcDbLine
 62
7
  6
CONTINUOUS
 10
34.4007447771
 20
32.0457474952
 11
34.2507447947
 21
32.1323388658
  0
LINE
  5
2AE
100
AcDbEntity
  8
0
100
AcDbLine
 62
7
  6
CONTINUOUS
 10
-36.8756187665
 20
73.1998265027
 11
-37.0256187489
 21
73.2864178732
  0
LINE
  5
2AF
100
AcDbEntity
  8
0
100
AcDbLine
 62
7
  6
CONTINUOUS
 10
31.6808776323
 20
29.7477830601
 11
29.9677810008
 21
30.7368661557
  0
LINE
  5
2B0
100
AcDbEntity
  8
0
100
AcDbLine
 62
7
  6
CONTINUOUS
 10
30.5677801183
 20
31.7760971488
 11
32.2808773707
 21
30.7870136946
  0
LINE
  5
2B1
100
AcDbEntity
  8
0
100
AcDbLine
 62
7
  6
CONTINUOUS
 10
32.6762902332
 20
31.2158153501
 11
32.6913037384
 21
31.2059084985
  0
LINE
  5
2B2
100
AcDbEntity
  8
0
100
AcDbLine
 62
7
  6
CONTINUOUS
 10
-38.5098335743
 20
72.3100919158
 11
-38.4364657541
 21
72.2614982231
  0
LINE
  5
2B3
100
AcDbEntity
  8
0
100
AcDbLine
 62
7
  6
CONTINUOUS
 10
-38.5292003952
 20
72.298409341
 11
-38.4485047525
 21
72.2446450578
  0
LINE
  5
2B4
100
AcDbEntity
  8
0
100
AcDbLine
 62
7
  6
CONTINUOUS
 10
32.1568890133
 20
31.5377041125
 11
32.6873018385
 21
31.1842507068
  0
LINE
  5
2B5
100
AcDbEntity
  8
0
100
AcDbLine
 62
7
  6
CONTINUOUS
 10
31.9468396675
 20
30.5628515008
 11
31.7093711668
 21
30.7507858986
  0
LINE
  5
2B6
100
AcDbEntity
  8
0
100
AcDbLine
 62
7
  6
CONTINUOUS
 10
30.5639163779
 20
28.0922833459
 11
31.2709587153
 21
27.5262499748
  0
LINE
  5
2B7
100
AcDbEntity
  8
0
100
AcDbLine
 62
7
  6
CONTINUOUS
 10
31.2911818274
 20
30.4022828648
 11
31.4192038706
 21
30.2805371682
  0
LINE
  5
2B8
100
AcDbEntity
  8
0
100
AcDbLine
 62
7
  6
CONTINUOUS
 10
33.4605735492
 20
29.6763775752
 11
33.3325515061
 21
29.7981232718
  0
LINE
  5
2B9
100
AcDbEntity
  8
0
100
AcDbLine
 62
7
  6
CONTINUOUS
 10
31.4192038706
 20
30.2805371682
 11
31.4265117217
 21
30.2608591199
  0
LINE
  5
2BA
100
AcDbEntity
  8
0
100
AcDbLine
 62
7
  6
CONTINUOUS
 10
33.3325515061
 20
29.7981232718
 11
33.325243655
 21
29.8178013201
  0
LINE
  5
2BB
100
AcDbEntity
  8
0
100
AcDbLine
 62
7
  6
CONTINUOUS
 10
32.8322967434
 20
31.5227613292
 11
32.6659477484
 21
32.0078611935
  0
LINE
  5
2BC
100
AcDbEntity
  8
ASSI
100
AcDbLine
 62
7
  6
CONTINUOUS
 10
53.9463358348
 20
39.8716673686
 11
53.9463358348
 21
43.9129890541
  0
LINE
  5
2BD
100
AcDbEntity
  8
0
100
AcDbLine
 62
7
  6
CONTINUOUS
 10
53.9463358348
 20
39.8716673686
 11
53.9463358348
 21
43.9129890541
  0
LINE
  5
2BE
100
AcDbEntity
  8
0
100
AcDbLine
 62
7
  6
CONTINUOUS
 10
-40.4748923121
 20
71.6629291736
 11
-39.5683462578
 21
71.3032780192
  0
LINE
  5
2BF
100
AcDbEntity
  8
ASSI
100
AcDbLine
 62
7
  6
CONTINUOUS
 10
28.1225747327
 20
-51.615710329
 11
15.9957803035
 21
-56.8620890099
  0
LINE
  5
2C0
100
AcDbEntity
  8
0
100
AcDbLine
 62
7
  6
CONTINUOUS
 10
28.1225747327
 20
-51.615710329
 11
15.9957803035
 21
-56.8620890099
  0
LINE
  5
2C1
100
AcDbEntity
  8
0
100
AcDbLine
 62
7
  6
CONTINUOUS
 10
-37.8125500118
 20
73.6160497621
 11
-37.2768010361
 21
73.4070184667
  0
LINE
  5
2C2
100
AcDbEntity
  8
ASSI
100
AcDbLine
 62
250
  6
CONTINUOUS
 10
53.9463358348
 20
43.9129890541
 11
50.6963358348
 21
45.789135637
  0
LINE
  5
2C3
100
AcDbEntity
  8
0
100
AcDbLine
 62
250
  6
CONTINUOUS
 10
53.9463358348
 20
43.9129890541
 11
50.6963358348
 21
45.789135637
  0
LINE
  5
2C4
100
AcDbEntity
  8
ASSI
100
AcDbLine
 62
250
  6
CONTINUOUS
 10
49.9892290536
 20
46.1974102303
 11
49.9642290536
 21
46.2118421271
  0
LINE
  5
2C5
100
AcDbEntity
  8
ASSI
100
AcDbLine
 62
7
  6
CONTINUOUS
 10
49.4464621006
 20
49.3975921177
 11
-26.9210702675
 21
93.4912481971
  0
LINE
  5
2C6
100
AcDbEntity
  8
0
100
AcDbLine
 62
7
  6
CONTINUOUS
 10
51.4714621006
 20
49.3832718163
 11
49.9714621006
 21
50.2491856238
  0
LINE
  5
2C7
100
AcDbEntity
  8
ASSI
100
AcDbLine
 62
7
  6
CONTINUOUS
 10
51.4714621006
 20
49.3832718163
 11
-26.3960702675
 21
94.3428417032
  0
LINE
  5
2C8
100
AcDbEntity
  8
0
100
AcDbLine
 62
7
  6
CONTINUOUS
 10
49.9714621006
 20
50.2491856238
 11
-26.3960702675
 21
94.3428417032
  0
LINE
  5
2C9
100
AcDbEntity
  8
ASSI
100
AcDbLine
 62
7
  6
CONTINUOUS
 10
8.9997919577
 20
-84.766586297
 11
93.1763986019
 21
-48.3495135824
  0
LINE
  5
2CA
100
AcDbEntity
  8
0
100
AcDbLine
 62
7
  6
CONTINUOUS
 10
8.9997919577
 20
-84.766586297
 11
93.1763986019
 21
-48.3495135824
  0
LINE
  5
2CB
100
AcDbEntity
  8
0
100
AcDbLine
 62
7
  6
CONTINUOUS
 10
-39.6567661098
 20
70.1158600098
 11
-39.7481454465
 21
70.0977260094
  0
LINE
  5
2CC
100
AcDbEntity
  8
ASSI
100
AcDbLine
 62
7
  6
CONTINUOUS
 10
8.9997919577
 20
-92.931289065
 11
93.1763986019
 21
-56.5142163503
  0
LINE
  5
2CD
100
AcDbEntity
  8
0
100
AcDbLine
 62
7
  6
CONTINUOUS
 10
8.9997919577
 20
-92.931289065
 11
93.1763986019
 21
-56.5142163503
  0
LINE
  5
2CE
100
AcDbEntity
  8
ASSI
100
AcDbLine
 62
250
  6
CONTINUOUS
 10
93.1763986019
 20
-48.3495135824
 11
93.1763986019
 21
-56.5142163503
  0
LINE
  5
2CF
100
AcDbEntity
  8
0
100
AcDbLine
 62
250
  6
CONTINUOUS
 10
93.1763986019
 20
-48.3495135824
 11
93.1763986019
 21
-56.5142163503
  0
LINE
  5
2D0
100
AcDbEntity
  8
ASSI
100
AcDbLine
 62
7
  6
CONTINUOUS
 10
94.5776829317
 20
-46.7322727733
 11
94.5776829317
 21
-54.8969755412
  0
LINE
  5
2D1
100
AcDbEntity
  8
0
100
AcDbLine
 62
7
  6
CONTINUOUS
 10
94.5776829317
 20
-46.7322727733
 11
94.5776829317
 21
-54.8969755412
  0
ARC
  5
2D2
100
AcDbEntity
  8
0
100
AcDbCircle
 62
7
  6
CONTINUOUS
 10
-82.3464098983
 20
-293.6313409377
 40
274.0833173726
100
AcDbArc
 50
72.9708423383
 51
73.100817177
  0
ARC
  5
2D3
100
AcDbEntity
  8
0
100
AcDbCircle
 62
7
  6
CONTINUOUS
 10
-153.6227734398
 20
-252.4772619233
 40
274.0833173653
100
AcDbArc
 50
72.9708423383
 51
73.100817177
  0
ARC
  5
2D4
100
AcDbEntity
  8
0
100
AcDbCircle
 62
7
  6
CONTINUOUS
 10
-118.4477734368
 20
-191.5523748204
 40
274.0833173549
100
AcDbArc
 50
72.9708423383
 51
73.100817177
  0
ARC
  5
2D5
100
AcDbEntity
  8
0
100
AcDbCircle
 62
7
  6
CONTINUOUS
 10
-68.1472382453
 20
-82.1978992374
 40
83.3848101827
100
AcDbArc
 50
38.7434644121
 51
39.0653357301
  0
ARC
  5
2D6
100
AcDbEntity
  8
0
100
AcDbCircle
 62
7
  6
CONTINUOUS
 10
-139.4236017912
 20
-41.0438202319
 40
83.3848101857
100
AcDbArc
 50
38.7434644121
 51
39.0653357301
  0
ARC
  5
2D7
100
AcDbEntity
  8
0
100
AcDbCircle
 62
7
  6
CONTINUOUS
 10
-104.2486017896
 20
19.8810668624
 40
83.3848101837
100
AcDbArc
 50
38.7434644121
 51
39.0653357301
  0
ARC
  5
2D8
100
AcDbEntity
  8
TRASH
100
AcDbCircle
 62
7
  6
CONTINUOUS
 10
-87.2015344839
 20
-2.3981888302
 40
17.845095801
100
AcDbArc
 50
45.7228726257
 51
45.8625016318
  0
ARC
  5
2D9
100
AcDbEntity
  8
0
100
AcDbCircle
 62
7
  6
CONTINUOUS
 10
-43.0133591641
 20
-28.8528646329
 40
49.8291016999
100
AcDbArc
 50
129.2026531293
 51
129.3405054347
  0
ARC
  5
2DA
100
AcDbEntity
  8
0
100
AcDbCircle
 62
7
  6
CONTINUOUS
 10
-28.4511606666
 20
3.5467166992
 40
45.9921769535
100
AcDbArc
 50
170.653739916
 51
170.8030936875
  0
ARC
  5
2DB
100
AcDbEntity
  8
TRASH
100
AcDbCircle
 62
7
  6
CONTINUOUS
 10
-69.6684622292
 20
27.9728527066
 40
17.8484649245
100
AcDbArc
 50
254.1395239607
 51
254.2791278519
  0
ARC
  5
2DC
100
AcDbEntity
  8
0
100
AcDbCircle
 62
7
  6
CONTINUOUS
 10
-63.4642019221
 20
16.2736829866
 40
12.9233557194
100
AcDbArc
 50
208.8915966297
 51
209.0088369014
  0
ARC
  5
2DD
100
AcDbEntity
  8
0
100
AcDbCircle
 62
7
  6
CONTINUOUS
 10
-73.970875917
 20
-1.923606306
 40
12.9232774576
100
AcDbArc
 50
90.9892926759
 51
91.1065314247
  0
ARC
  5
2DE
100
AcDbEntity
  8
0
100
AcDbCircle
 62
7
  6
CONTINUOUS
 10
-66.9534692693
 20
19.0493576921
 40
12.0214452662
100
AcDbArc
 50
221.3979345218
 51
223.6282346762
  0
ARC
  5
2DF
100
AcDbEntity
  8
0
100
AcDbCircle
 62
7
  6
CONTINUOUS
 10
-78.0201296213
 20
0.1898497283
 40
11.5319862282
100
AcDbArc
 50
76.2882011953
 51
78.6118174322
  0
ARC
  5
2E0
100
AcDbEntity
  8
0
100
AcDbCircle
 62
7
  6
CONTINUOUS
 10
-70.3057703679
 20
5.38816737
 40
7.5213594257
100
AcDbArc
 50
125.5736623988
 51
126.5083682374
  0
ARC
  5
2E1
100
AcDbEntity
  8
0
100
AcDbCircle
 62
7
  6
CONTINUOUS
 10
-67.9651126134
 20
9.444096026
 40
7.5203802195
100
AcDbArc
 50
173.491576093
 51
174.4264033885
  0
ARC
  5
2E2
100
AcDbEntity
  8
0
100
AcDbCircle
 62
7
  6
CONTINUOUS
 10
-74.5390745891
 20
10.5359661844
 40
3.3579350825
100
AcDbArc
 50
322.158974618
 51
330.0025696328
  0
ARC
  5
2E3
100
AcDbEntity
  8
0
100
AcDbCircle
 62
7
  6
CONTINUOUS
 10
-74.5319260784
 20
10.5328036446
 40
3.3501630874
100
AcDbArc
 50
329.988287995
 51
337.850137782
  0
ARC
  5
2E4
100
AcDbEntity
  8
TRASH
100
AcDbCircle
 62
7
  6
CONTINUOUS
 10
-76.8351508407
 20
10.5010204909
 40
2.576904142
100
AcDbArc
 50
343.3387724774
 51
344.8123034559
  0
ARC
  5
2E5
100
AcDbEntity
  8
TRASH
100
AcDbCircle
 62
7
  6
CONTINUOUS
 10
-75.6331400985
 20
12.520101565
 40
2.54461622
100
AcDbArc
 50
315.1691402291
 51
316.6573500239
  0
ARC
  5
2E6
100
AcDbEntity
  8
0
100
AcDbCircle
 62
7
  6
CONTINUOUS
 10
-75.208094484
 20
10.9223504142
 40
2.2827167086
100
AcDbArc
 50
324.2632992345
 51
335.731920216
  0
ARC
  5
2E7
100
AcDbEntity
  8
0
100
AcDbCircle
 62
7
  6
CONTINUOUS
 10
-73.8901765201
 20
10.1615468801
 40
2.2827167086
100
AcDbArc
 50
144.2632992126
 51
155.731920216
  0
ARC
  5
2E8
100
AcDbEntity
  8
ASSI
100
AcDbCircle
 62
7
  6
CONTINUOUS
 10
-72.8270118594
 20
9.5478453882
 40
2.2628547808
100
AcDbArc
 50
327.6542199289
 51
329.9991808539
  0
ARC
  5
2E9
100
AcDbEntity
  8
0
100
AcDbCircle
 62
7
  6
CONTINUOUS
 10
-72.8270118594
 20
9.5478453882
 40
2.2628547808
100
AcDbArc
 50
327.6542199289
 51
329.9991808539
  0
ARC
  5
2EA
100
AcDbEntity
  8
0
100
AcDbCircle
 62
7
  6
CONTINUOUS
 10
-73.139797555
 20
10.7444700723
 40
1.8703759706
100
AcDbArc
 50
47.9792986411
 51
48.3044083134
  0
ARC
  5
2EB
100
AcDbEntity
  8
0
100
AcDbCircle
 62
7
  6
CONTINUOUS
 10
-74.0197277014
 20
9.2201648493
 40
1.870313019
100
AcDbArc
 50
251.6925261235
 51
252.0176430908
  0
ARC
  5
2EC
100
AcDbEntity
  8
0
100
AcDbCircle
 62
7
  6
CONTINUOUS
 10
-74.0232442354
 20
9.2097659811
 40
1.8593358953
100
AcDbArc
 50
246.5241458918
 51
251.6947475552
  0
ARC
  5
2ED
100
AcDbEntity
  8
0
100
AcDbCircle
 62
7
  6
CONTINUOUS
 10
-73.1304072358
 20
10.7553489343
 40
1.8560066678
100
AcDbArc
 50
48.2974725597
 51
53.477400568
  0
ARC
  5
2EE
100
AcDbEntity
  8
0
100
AcDbCircle
 62
7
  6
CONTINUOUS
 10
-73.123688327
 20
10.764302087
 40
1.8448130269
100
AcDbArc
 50
53.479608356
 51
54.6118313405
  0
ARC
  5
2EF
100
AcDbEntity
  8
0
100
AcDbCircle
 62
7
  6
CONTINUOUS
 10
-73.1211807861
 20
10.7660421496
 40
1.8420158689
100
AcDbArc
 50
60.0159943214
 51
68.6911787862
  0
ARC
  5
2F0
100
AcDbEntity
  8
0
100
AcDbCircle
 62
7
  6
CONTINUOUS
 10
-74.0318529197
 20
9.1896324772
 40
1.8374395078
100
AcDbArc
 50
231.3049883782
 51
246.5202696842
  0
ARC
  5
2F1
100
AcDbEntity
  8
0
100
AcDbCircle
 62
7
  6
CONTINUOUS
 10
-73.1188460348
 20
10.7711272191
 40
1.8364446221
100
AcDbArc
 50
54.611679853
 51
59.9998010892
  0
ARC
  5
2F2
100
AcDbEntity
  8
0
100
AcDbCircle
 62
7
  6
CONTINUOUS
 10
-73.6487776426
 20
10.9945776965
 40
1.8208767852
100
AcDbArc
 50
68.7071432323
 51
75.8205843462
  0
ARC
  5
2F3
100
AcDbEntity
  8
0
100
AcDbCircle
 62
7
  6
CONTINUOUS
 10
-74.494922278
 20
9.5314075103
 40
1.8148075675
100
AcDbArc
 50
224.1644198945
 51
231.3111806934
  0
ARC
  5
2F4
100
AcDbEntity
  8
TRASH
100
AcDbCircle
 62
7
  6
CONTINUOUS
 10
-73.4289157995
 20
9.8952591847
 40
1.4004080029
100
AcDbArc
 50
140.1802864774
 51
159.8187042804
  0
ARC
  5
2F5
100
AcDbEntity
  8
ASSI
100
AcDbCircle
 62
7
  6
CONTINUOUS
 10
-72.5246846196
 20
8.6245285197
 40
1.3015357554
100
AcDbArc
 50
239.7966725396
 51
240.0031914725
  0
ARC
  5
2F6
100
AcDbEntity
  8
ASSI
100
AcDbCircle
 62
7
  6
CONTINUOUS
 10
-71.8762869523
 20
9.7477314597
 40
1.3015354875
100
AcDbArc
 50
60.0031917128
 51
60.2096708646
  0
ARC
  5
2F7
100
AcDbEntity
  8
0
100
AcDbCircle
 62
7
  6
CONTINUOUS
 10
-72.6672008827
 20
9.1175258476
 40
1.0313945006
100
AcDbArc
 50
320.5436414121
 51
321.8158338067
  0
ARC
  5
2F8
100
AcDbEntity
  8
0
100
AcDbCircle
 62
7
  6
CONTINUOUS
 10
-74.3000096535
 20
9.8769681462
 40
0.9402638932
100
AcDbArc
 50
228.4920190592
 51
233.3341832573
  0
ARC
  5
2F9
100
AcDbEntity
  8
0
100
AcDbCircle
 62
7
  6
CONTINUOUS
 10
-73.8486849547
 20
10.6587958617
 40
0.9402338485
100
AcDbArc
 50
66.6619090741
 51
71.5020821419
  0
ARC
  5
2FA
100
AcDbEntity
  8
0
100
AcDbCircle
 62
7
  6
CONTINUOUS
 10
-76.0155289835
 20
8.5308088062
 40
0.0682719133
100
AcDbArc
 50
223.8075267331
 51
231.1101252561
  0
ARC
  5
2FB
100
AcDbEntity
  8
0
100
AcDbCircle
 62
7
  6
CONTINUOUS
 10
-73.5406003907
 20
12.8174983629
 40
0.0682677861
100
AcDbArc
 50
68.8957287155
 51
76.1690747108
  0
ARC
  5
2FC
100
AcDbEntity
  8
0
100
AcDbCircle
 62
7
  6
CONTINUOUS
 10
-61.7404080193
 20
96.2167719521
 40
87.1276219821
100
AcDbArc
 50
260.9468865188
 51
261.254942307
  0
ARC
  5
2FD
100
AcDbEntity
  8
0
100
AcDbCircle
 62
7
  6
CONTINUOUS
 10
-26.5654080193
 20
157.141659045
 40
87.127621982
100
AcDbArc
 50
260.9468865188
 51
261.254942307
  0
ARC
  5
2FE
100
AcDbEntity
  8
TRASH
100
AcDbCircle
 62
7
  6
CONTINUOUS
 10
-34.4934622338
 20
88.8977397835
 40
17.8484649077
100
AcDbArc
 50
254.1395239606
 51
254.2791278519
  0
ARC
  5
2FF
100
AcDbEntity
  8
TRASH
100
AcDbCircle
 62
7
  6
CONTINUOUS
 10
-52.0265344726
 20
58.5266982744
 40
17.8450957849
100
AcDbArc
 50
45.7228726257
 51
45.8625016319
  0
ARC
  5
300
100
AcDbEntity
  8
0
100
AcDbCircle
 62
7
  6
CONTINUOUS
 10
-28.2892019289
 20
77.1985700759
 40
12.9233557116
100
AcDbArc
 50
208.8915966296
 51
209.0088369014
  0
ARC
  5
301
100
AcDbEntity
  8
0
100
AcDbCircle
 62
7
  6
CONTINUOUS
 10
-38.7958759174
 20
59.0012808068
 40
12.9232774377
100
AcDbArc
 50
90.9892926758
 51
91.1065314248
  0
ARC
  5
302
100
AcDbEntity
  8
0
100
AcDbCircle
 62
7
  6
CONTINUOUS
 10
-31.7784692692
 20
79.9742447851
 40
12.0214452662
100
AcDbArc
 50
221.3979345218
 51
223.6282346762
  0
ARC
  5
303
100
AcDbEntity
  8
0
100
AcDbCircle
 62
7
  6
CONTINUOUS
 10
-42.8451296213
 20
61.1147368214
 40
11.5319862281
100
AcDbArc
 50
76.2882011953
 51
78.6118174322
  0
ARC
  5
304
100
AcDbEntity
  8
0
100
AcDbCircle
 62
7
  6
CONTINUOUS
 10
-35.1307703681
 20
66.3130544633
 40
7.5213594254
100
AcDbArc
 50
125.5736623987
 51
126.5083682374
  0
ARC
  5
305
100
AcDbEntity
  8
0
100
AcDbCircle
 62
7
  6
CONTINUOUS
 10
-32.7901126134
 20
70.368983119
 40
7.5203802195
100
AcDbArc
 50
173.491576093
 51
174.4264033885
  0
ARC
  5
306
100
AcDbEntity
  8
0
100
AcDbCircle
 62
7
  6
CONTINUOUS
 10
-39.3640745891
 20
71.4608532774
 40
3.3579350825
100
AcDbArc
 50
322.158974618
 51
330.0025696328
  0
ARC
  5
307
100
AcDbEntity
  8
0
100
AcDbCircle
 62
7
  6
CONTINUOUS
 10
-39.3569260784
 20
71.4576907376
 40
3.3501630874
100
AcDbArc
 50
329.988287995
 51
337.850137782
  0
ARC
  5
308
100
AcDbEntity
  8
TRASH
100
AcDbCircle
 62
7
  6
CONTINUOUS
 10
-41.6601508407
 20
71.4259075839
 40
2.576904142
100
AcDbArc
 50
343.3387724774
 51
344.812303456
  0
ARC
  5
309
100
AcDbEntity
  8
TRASH
100
AcDbCircle
 62
7
  6
CONTINUOUS
 10
-40.4581400984
 20
73.4449886579
 40
2.5446162199
100
AcDbArc
 50
315.1691402291
 51
316.6573500239
  0
ARC
  5
30A
100
AcDbEntity
  8
0
100
AcDbCircle
 62
7
  6
CONTINUOUS
 10
-40.033094484
 20
71.8472375072
 40
2.2827167086
100
AcDbArc
 50
324.2632992345
 51
335.731920216
  0
ARC
  5
30B
100
AcDbEntity
  8
0
100
AcDbCircle
 62
7
  6
CONTINUOUS
 10
-38.7151765201
 20
71.0864339731
 40
2.2827167086
100
AcDbArc
 50
144.2632992126
 51
155.731920216
  0
ARC
  5
30C
100
AcDbEntity
  8
ASSI
100
AcDbCircle
 62
7
  6
CONTINUOUS
 10
-37.6520118594
 20
70.4727324812
 40
2.2628547809
100
AcDbArc
 50
327.6542199289
 51
329.9991808539
  0
ARC
  5
30D
100
AcDbEntity
  8
0
100
AcDbCircle
 62
7
  6
CONTINUOUS
 10
-37.6520118594
 20
70.4727324812
 40
2.2628547809
100
AcDbArc
 50
327.6542199289
 51
329.9991808539
  0
ARC
  5
30E
100
AcDbEntity
  8
0
100
AcDbCircle
 62
7
  6
CONTINUOUS
 10
-37.9647975542
 20
71.6693571661
 40
1.8703759695
100
AcDbArc
 50
47.9792986411
 51
48.3044083135
  0
ARC
  5
30F
100
AcDbEntity
  8
0
100
AcDbCircle
 62
7
  6
CONTINUOUS
 10
-38.844727701
 20
70.1450519437
 40
1.8703130205
100
AcDbArc
 50
251.6925261237
 51
252.0176430907
  0
ARC
  5
310
100
AcDbEntity
  8
0
100
AcDbCircle
 62
7
  6
CONTINUOUS
 10
-38.8482442354
 20
70.1346530741
 40
1.8593358954
100
AcDbArc
 50
246.5241458918
 51
251.6947475552
  0
ARC
  5
311
100
AcDbEntity
  8
0
100
AcDbCircle
 62
7
  6
CONTINUOUS
 10
-37.9554072358
 20
71.6802360273
 40
1.8560066678
100
AcDbArc
 50
48.2974725597
 51
53.477400568
  0
ARC
  5
312
100
AcDbEntity
  8
0
100
AcDbCircle
 62
7
  6
CONTINUOUS
 10
-37.948688327
 20
71.6891891801
 40
1.8448130268
100
AcDbArc
 50
53.479608356
 51
54.6118313405
  0
ARC
  5
313
100
AcDbEntity
  8
0
100
AcDbCircle
 62
7
  6
CONTINUOUS
 10
-37.9461807861
 20
71.6909292426
 40
1.8420158689
100
AcDbArc
 50
60.0159943214
 51
68.6911787862
  0
ARC
  5
314
100
AcDbEntity
  8
0
100
AcDbCircle
 62
7
  6
CONTINUOUS
 10
-38.8568529198
 20
70.1145195702
 40
1.8374395077
100
AcDbArc
 50
231.3049883782
 51
246.5202696842
  0
ARC
  5
315
100
AcDbEntity
  8
0
100
AcDbCircle
 62
7
  6
CONTINUOUS
 10
-37.9438460348
 20
71.6960143121
 40
1.8364446221
100
AcDbArc
 50
54.611679853
 51
59.9998010892
  0
ARC
  5
316
100
AcDbEntity
  8
0
100
AcDbCircle
 62
7
  6
CONTINUOUS
 10
-38.4737776426
 20
71.9194647895
 40
1.8208767852
100
AcDbArc
 50
68.7071432323
 51
75.8205843462
  0
ARC
  5
317
100
AcDbEntity
  8
0
100
AcDbCircle
 62
7
  6
CONTINUOUS
 10
-39.319922278
 20
70.4562946033
 40
1.8148075675
100
AcDbArc
 50
224.1644198945
 51
231.3111806934
  0
ARC
  5
318
100
AcDbEntity
  8
TRASH
100
AcDbCircle
 62
7
  6
CONTINUOUS
 10
-38.2539157995
 20
70.8201462777
 40
1.4004080029
100
AcDbArc
 50
140.1802864774
 51
159.8187042804
  0
ARC
  5
319
100
AcDbEntity
  8
ASSI
100
AcDbCircle
 62
7
  6
CONTINUOUS
 10
-37.3496846238
 20
69.5494156053
 40
1.3015357469
100
AcDbArc
 50
239.7966725389
 51
240.0031914732
  0
ARC
  5
31A
100
AcDbEntity
  8
ASSI
100
AcDbCircle
 62
7
  6
CONTINUOUS
 10
-36.7012869501
 20
70.6726185566
 40
1.3015354831
100
AcDbArc
 50
60.0031917123
 51
60.2096708648
  0
ARC
  5
31B
100
AcDbEntity
  8
0
100
AcDbCircle
 62
7
  6
CONTINUOUS
 10
-37.4922008826
 20
70.0424129406
 40
1.0313945005
100
AcDbArc
 50
320.543641412
 51
321.8158338067
  0
ARC
  5
31C
100
AcDbEntity
  8
0
100
AcDbCircle
 62
7
  6
CONTINUOUS
 10
-39.1250096535
 20
70.8018552392
 40
0.9402638932
100
AcDbArc
 50
228.4920190592
 51
233.3341832573
  0
ARC
  5
31D
100
AcDbEntity
  8
0
100
AcDbCircle
 62
7
  6
CONTINUOUS
 10
-38.6736849547
 20
71.5836829547
 40
0.9402338485
100
AcDbArc
 50
66.6619090741
 51
71.5020821419
  0
ARC
  5
31E
100
AcDbEntity
  8
0
100
AcDbCircle
 62
7
  6
CONTINUOUS
 10
-40.8405289835
 20
69.4556958993
 40
0.0682719133
100
AcDbArc
 50
223.8075267336
 51
231.1101252556
  0
ARC
  5
31F
100
AcDbEntity
  8
0
100
AcDbCircle
 62
7
  6
CONTINUOUS
 10
-38.3656003907
 20
73.7423854559
 40
0.0682677861
100
AcDbArc
 50
68.8957287153
 51
76.169074711
  0
ARC
  5
320
100
AcDbEntity
  8
0
100
AcDbCircle
 62
7
  6
CONTINUOUS
 10
28.2630043701
 20
-70.0069436289
 40
49.8291016851
100
AcDbArc
 50
129.2026531293
 51
129.3405054348
  0
ARC
  5
321
100
AcDbEntity
  8
ASSI
100
AcDbCircle
 62
7
  6
CONTINUOUS
 10
-9.6398289304
 20
-105.3636622283
 40
18.7865722122
100
AcDbArc
 50
117.1179581266
 51
118.4724841061
  0
ARC
  5
322
100
AcDbEntity
  8
0
100
AcDbCircle
 62
7
  6
CONTINUOUS
 10
-9.6398289304
 20
-105.3636622283
 40
18.7865722122
100
AcDbArc
 50
117.1179581266
 51
118.4724841061
  0
ARC
  5
323
100
AcDbEntity
  8
RACCORDO
100
AcDbCircle
 62
250
  6
CONTINUOUS
 10
86.2839986322
 20
-53.6735956314
 40
5.9179678753
100
AcDbArc
 50
298.9566103839
 51
299.9985043554
  0
ARC
  5
324
100
AcDbEntity
  8
RACCORDO
100
AcDbCircle
 62
250
  6
CONTINUOUS
 10
4.9667187959
 20
-88.3769360645
 40
5.9179678751
100
AcDbArc
 50
298.9566103839
 51
299.9985043555
  0
ARC
  5
325
100
AcDbEntity
  8
TRASH
100
AcDbCircle
 62
7
  6
CONTINUOUS
 10
1.6079013123
 20
-13.181226308
 40
17.848464917
100
AcDbArc
 50
254.1395239607
 51
254.2791278519
  0
ARC
  5
326
100
AcDbEntity
  8
TRASH
100
AcDbCircle
 62
7
  6
CONTINUOUS
 10
-15.9251709369
 20
-43.5522678343
 40
17.8450957963
100
AcDbArc
 50
45.7228726257
 51
45.8625016318
  0
ARC
  5
327
100
AcDbEntity
  8
0
100
AcDbCircle
 62
7
  6
CONTINUOUS
 10
7.8121616156
 20
-24.8803960241
 40
12.9233557127
100
AcDbArc
 50
208.8915966296
 51
209.0088369014
  0
ARC
  5
328
100
AcDbEntity
  8
0
100
AcDbCircle
 62
7
  6
CONTINUOUS
 10
-2.6945123735
 20
-43.0776853097
 40
12.9232774538
100
AcDbArc
 50
90.9892926759
 51
91.1065314247
  0
ARC
  5
329
100
AcDbEntity
  8
0
100
AcDbCircle
 62
7
  6
CONTINUOUS
 10
4.3228942744
 20
-22.1047213154
 40
12.0214452662
100
AcDbArc
 50
221.3979345218
 51
223.6282346762
  0
ARC
  5
32A
100
AcDbEntity
  8
0
100
AcDbCircle
 62
7
  6
CONTINUOUS
 10
-6.7437660777
 20
-40.9642292791
 40
11.5319862282
100
AcDbArc
 50
76.2882011953
 51
78.6118174322
  0
ARC
  5
32B
100
AcDbEntity
  8
SMUSSO
100
AcDbCircle
 62
7
  6
CONTINUOUS
 10
-18.0222723205
 20
10.9642305971
 40
8.6798459791
100
AcDbArc
 50
240.0040242566
 51
243.9383287247
  0
ARC
  5
32C
100
AcDbEntity
  8
0
100
AcDbCircle
 62
7
  6
CONTINUOUS
 10
0.9705931757
 20
-35.7659116375
 40
7.5213594258
100
AcDbArc
 50
125.5736623988
 51
126.5083682374
  0
ARC
  5
32D
100
AcDbEntity
  8
0
100
AcDbCircle
 62
7
  6
CONTINUOUS
 10
3.3112509299
 20
-31.7099829814
 40
7.5203802193
100
AcDbArc
 50
173.491576093
 51
174.4264033885
  0
ARC
  5
32E
100
AcDbEntity
  8
0
100
AcDbCircle
 62
7
  6
CONTINUOUS
 10
-3.2627110454
 20
-30.6181128231
 40
3.3579350825
100
AcDbArc
 50
322.158974618
 51
330.0025696328
  0
ARC
  5
32F
100
AcDbEntity
  8
0
100
AcDbCircle
 62
7
  6
CONTINUOUS
 10
-3.2555625348
 20
-30.6212753628
 40
3.3501630874
100
AcDbArc
 50
329.988287995
 51
337.850137782
  0
ARC
  5
330
100
AcDbEntity
  8
TRASH
100
AcDbCircle
 62
7
  6
CONTINUOUS
 10
-5.558787297
 20
-30.6530585166
 40
2.5769041419
100
AcDbArc
 50
343.3387724773
 51
344.812303456
  0
ARC
  5
331
100
AcDbEntity
  8
TRASH
100
AcDbCircle
 62
7
  6
CONTINUOUS
 10
-4.3567765549
 20
-28.6339774424
 40
2.54461622
100
AcDbArc
 50
315.1691402291
 51
316.6573500239
  0
ARC
  5
332
100
AcDbEntity
  8
0
100
AcDbCircle
 62
7
  6
CONTINUOUS
 10
-3.9317309404
 20
-30.2317285933
 40
2.2827167086
100
AcDbArc
 50
324.2632992345
 51
335.731920216
  0
ARC
  5
333
100
AcDbEntity
  8
0
100
AcDbCircle
 62
7
  6
CONTINUOUS
 10
-2.6138129765
 20
-30.9925321274
 40
2.2827167086
100
AcDbArc
 50
144.2632992126
 51
155.731920216
  0
ARC
  5
334
100
AcDbEntity
  8
ASSI
100
AcDbCircle
 62
7
  6
CONTINUOUS
 10
-1.5506483158
 20
-31.6062336192
 40
2.2628547808
100
AcDbArc
 50
327.6542199289
 51
329.999180854
  0
ARC
  5
335
100
AcDbEntity
  8
0
100
AcDbCircle
 62
7
  6
CONTINUOUS
 10
-1.5506483158
 20
-31.6062336192
 40
2.2628547808
100
AcDbArc
 50
327.6542199289
 51
329.999180854
  0
ARC
  5
336
100
AcDbEntity
  8
0
100
AcDbCircle
 62
7
  6
CONTINUOUS
 10
-1.8634340109
 20
-30.4096089346
 40
1.8703759699
100
AcDbArc
 50
47.9792986411
 51
48.3044083134
  0
ARC
  5
337
100
AcDbEntity
  8
0
100
AcDbCircle
 62
7
  6
CONTINUOUS
 10
-2.7433641579
 20
-31.9339141584
 40
1.8703130187
100
AcDbArc
 50
251.6925261235
 51
252.0176430908
  0
ARC
  5
338
100
AcDbEntity
  8
0
100
AcDbCircle
 62
7
  6
CONTINUOUS
 10
-2.7468806918
 20
-31.9443130264
 40
1.8593358954
100
AcDbArc
 50
246.5241458918
 51
251.6947475552
  0
ARC
  5
339
100
AcDbEntity
  8
0
100
AcDbCircle
 62
7
  6
CONTINUOUS
 10
-1.8540436922
 20
-30.3987300732
 40
1.8560066678
100
AcDbArc
 50
48.2974725597
 51
53.477400568
  0
ARC
  5
33A
100
AcDbEntity
  8
0
100
AcDbCircle
 62
7
  6
CONTINUOUS
 10
-1.8473247834
 20
-30.3897769204
 40
1.8448130269
100
AcDbArc
 50
53.479608356
 51
54.6118313405
  0
ARC
  5
33B
100
AcDbEntity
  8
0
100
AcDbCircle
 62
7
  6
CONTINUOUS
 10
-1.8448172425
 20
-30.3880368578
 40
1.8420158689
100
AcDbArc
 50
60.0159943214
 51
68.6911787862
  0
ARC
  5
33C
100
AcDbEntity
  8
0
100
AcDbCircle
 62
7
  6
CONTINUOUS
 10
-2.7554893761
 20
-31.9644465303
 40
1.8374395078
100
AcDbArc
 50
231.3049883782
 51
246.5202696842
  0
ARC
  5
33D
100
AcDbEntity
  8
0
100
AcDbCircle
 62
7
  6
CONTINUOUS
 10
-1.8424824912
 20
-30.3829517883
 40
1.8364446221
100
AcDbArc
 50
54.611679853
 51
59.9998010892
  0
ARC
  5
33E
100
AcDbEntity
  8
0
100
AcDbCircle
 62
7
  6
CONTINUOUS
 10
-2.372414099
 20
-30.1595013109
 40
1.8208767852
100
AcDbArc
 50
68.7071432323
 51
75.8205843462
  0
ARC
  5
33F
100
AcDbEntity
  8
0
100
AcDbCircle
 62
7
  6
CONTINUOUS
 10
-3.2185587344
 20
-31.6226714971
 40
1.8148075675
100
AcDbArc
 50
224.1644198945
 51
231.3111806934
  0
ARC
  5
340
100
AcDbEntity
  8
TRASH
100
AcDbCircle
 62
7
  6
CONTINUOUS
 10
-2.1525522559
 20
-31.2588198228
 40
1.4004080029
100
AcDbArc
 50
140.1802864774
 51
159.8187042804
  0
ARC
  5
341
100
AcDbEntity
  8
ASSI
100
AcDbCircle
 62
7
  6
CONTINUOUS
 10
-1.2483210765
 20
-32.5295504886
 40
1.3015357545
100
AcDbArc
 50
239.7966725396
 51
240.0031914727
  0
ARC
  5
342
100
AcDbEntity
  8
ASSI
100
AcDbCircle
 62
7
  6
CONTINUOUS
 10
-0.5999234085
 20
-31.4063475474
 40
1.3015354872
100
AcDbArc
 50
60.0031917127
 51
60.2096708646
  0
ARC
  5
343
100
AcDbEntity
  8
0
100
AcDbCircle
 62
7
  6
CONTINUOUS
 10
-1.3908373391
 20
-32.0365531598
 40
1.0313945006
100
AcDbArc
 50
320.5436414121
 51
321.8158338067
  0
ARC
  5
344
100
AcDbEntity
  8
0
100
AcDbCircle
 62
7
  6
CONTINUOUS
 10
-3.0236461099
 20
-31.2771108613
 40
0.9402638932
100
AcDbArc
 50
228.4920190592
 51
233.3341832573
  0
ARC
  5
345
100
AcDbEntity
  8
0
100
AcDbCircle
 62
7
  6
CONTINUOUS
 10
-2.5723214111
 20
-30.4952831457
 40
0.9402338485
100
AcDbArc
 50
66.6619090741
 51
71.5020821419
  0
ARC
  5
346
100
AcDbEntity
  8
0
100
AcDbCircle
 62
7
  6
CONTINUOUS
 10
-4.7391654399
 20
-32.6232702012
 40
0.0682719133
100
AcDbArc
 50
223.8075267333
 51
231.1101252558
  0
ARC
  5
347
100
AcDbEntity
  8
0
100
AcDbCircle
 62
7
  6
CONTINUOUS
 10
-2.2642368471
 20
-28.3365806445
 40
0.0682677861
100
AcDbArc
 50
68.8957287154
 51
76.1690747109
  0
ARC
  5
348
100
AcDbEntity
  8
0
100
AcDbCircle
 62
7
  6
CONTINUOUS
 10
9.5359555245
 20
55.0626929455
 40
87.1276219829
100
AcDbArc
 50
260.9468865188
 51
261.254942307
  0
ARC
  5
349
100
AcDbEntity
  8
0
100
AcDbCircle
 62
7
  6
CONTINUOUS
 10
-7.838359167
 20
32.0720224635
 40
49.8291016954
100
AcDbArc
 50
129.2026531293
 51
129.3405054347
  0
ARC
  5
34A
100
AcDbEntity
  8
0
100
AcDbCircle
 62
7
  6
CONTINUOUS
 10
6.7238393392
 20
64.4716037913
 40
45.9921769594
100
AcDbArc
 50
170.653739916
 51
170.8030936875
  0
ARC
  5
34B
100
AcDbEntity
  8
0
100
AcDbCircle
 62
7
  6
CONTINUOUS
 10
2.6960503978
 20
13.8064202534
 40
34.329678845
100
AcDbArc
 50
29.2331149075
 51
29.4179493876
  0
ARC
  5
34C
100
AcDbEntity
  8
SMUSSO
100
AcDbCircle
 62
7
  6
CONTINUOUS
 10
-13.7025709271
 20
18.4471405922
 40
8.6798790575
100
AcDbArc
 50
56.068238726
 51
60.0023585356
  0
ARC
  5
34D
100
AcDbEntity
  8
0
100
AcDbCircle
 62
7
  6
CONTINUOUS
 10
42.8252028811
 20
-37.6073623089
 40
45.9921769576
100
AcDbArc
 50
170.653739916
 51
170.8030936875
  0
ARC
  5
34E
100
AcDbEntity
  8
0
100
AcDbCircle
 62
7
  6
CONTINUOUS
 10
31.5622457563
 20
66.6410204512
 40
37.1116988509
100
AcDbArc
 50
270.5874822969
 51
270.7584548051
  0
ARC
  5
34F
100
AcDbEntity
  8
TRASH
100
AcDbCircle
 62
7
  6
CONTINUOUS
 10
36.7829013115
 20
47.7436607821
 40
17.8484649139
100
AcDbArc
 50
254.1395239607
 51
254.2791278519
  0
ARC
  5
350
100
AcDbEntity
  8
TRASH
100
AcDbCircle
 62
7
  6
CONTINUOUS
 10
19.2498290654
 20
17.3726192611
 40
17.845095793
100
AcDbArc
 50
45.7228726257
 51
45.8625016318
  0
ARC
  5
351
100
AcDbEntity
  8
0
100
AcDbCircle
 62
7
  6
CONTINUOUS
 10
44.3107468322
 20
25.7120268993
 40
12.8654753711
100
AcDbArc
 50
151.6483645374
 51
154.5214051539
  0
ARC
  5
352
100
AcDbEntity
  8
0
100
AcDbCircle
 62
7
  6
CONTINUOUS
 10
41.9935640815
 20
21.9247770191
 40
12.7525218845
100
AcDbArc
 50
145.443850278
 51
148.3433629691
  0
ARC
  5
353
100
AcDbEntity
  8
0
100
AcDbCircle
 62
7
  6
CONTINUOUS
 10
39.8359609529
 20
23.8793711464
 40
10.8388855422
100
AcDbArc
 50
131.4150092257
 51
134.9736438804
  0
ARC
  5
354
100
AcDbEntity
  8
0
100
AcDbCircle
 62
7
  6
CONTINUOUS
 10
41.2834626865
 20
26.6920059732
 40
10.6784171956
100
AcDbArc
 50
164.9827347897
 51
168.5932309156
  0
ARC
  5
355
100
AcDbEntity
  8
0
100
AcDbCircle
 62
7
  6
CONTINUOUS
 10
31.938049115
 20
24.5334217824
 40
6.6763465746
100
AcDbArc
 50
92.2938254777
 51
93.1902289431
  0
ARC
  5
356
100
AcDbEntity
  8
0
100
AcDbCircle
 62
7
  6
CONTINUOUS
 10
36.8689924629
 20
33.1422052149
 40
6.6130029656
100
AcDbArc
 50
206.8034815737
 51
207.7085085907
  0
ARC
  5
357
100
AcDbEntity
  8
0
100
AcDbCircle
 62
7
  6
CONTINUOUS
 10
31.9105326391
 20
30.3079631884
 40
3.3600514447
100
AcDbArc
 50
322.1613370714
 51
337.8386628771
  0
ARC
  5
358
100
AcDbEntity
  8
0
100
AcDbCircle
 62
7
  6
CONTINUOUS
 10
33.3049220422
 20
29.5030144409
 40
3.246703174
100
AcDbArc
 50
139.3503616328
 51
160.6496383157
  0
ARC
  5
359
100
AcDbEntity
  8
0
100
AcDbCircle
 62
7
  6
CONTINUOUS
 10
31.4468333345
 20
30.5756459991
 40
3.246703174
100
AcDbArc
 50
319.3503616328
 51
340.6496383157
  0
ARC
  5
35A
100
AcDbEntity
  8
TRASH
100
AcDbCircle
 62
7
  6
CONTINUOUS
 10
30.6222459309
 20
32.4761676902
 40
2.8142824553
100
AcDbArc
 50
316.8504290677
 51
316.9896495609
  0
ARC
  5
35B
100
AcDbEntity
  8
TRASH
100
AcDbCircle
 62
7
  6
CONTINUOUS
 10
30.656657959
 20
32.4439063983
 40
2.7671127761
100
AcDbArc
 50
316.6907256414
 51
316.8504773541
  0
ARC
  5
35C
100
AcDbEntity
  8
TRASH
100
AcDbCircle
 62
7
  6
CONTINUOUS
 10
29.4505922867
 20
30.320534327
 40
2.7495507341
100
AcDbArc
 50
343.0109689625
 51
343.3178795118
  0
ARC
  5
35D
100
AcDbEntity
  8
TRASH
100
AcDbCircle
 62
7
  6
CONTINUOUS
 10
29.6011490787
 20
30.2757014808
 40
2.5924607834
100
AcDbArc
 50
343.3118426773
 51
344.816815557
  0
ARC
  5
35E
100
AcDbEntity
  8
TRASH
100
AcDbCircle
 62
7
  6
CONTINUOUS
 10
30.8322091519
 20
32.2768620673
 40
2.5247894006
100
AcDbArc
 50
315.1713565649
 51
316.7164793279
  0
ARC
  5
35F
100
AcDbEntity
  8
ASSI
100
AcDbCircle
 62
7
  6
CONTINUOUS
 10
33.6243516842
 20
29.3186534738
 40
2.2628547808
100
AcDbArc
 50
327.6542199289
 51
329.999180854
  0
ARC
  5
360
100
AcDbEntity
  8
0
100
AcDbCircle
 62
7
  6
CONTINUOUS
 10
33.6243516842
 20
29.3186534738
 40
2.2628547808
100
AcDbArc
 50
327.6542199289
 51
329.999180854
  0
ARC
  5
361
100
AcDbEntity
  8
0
100
AcDbCircle
 62
7
  6
CONTINUOUS
 10
33.3115665436
 20
30.5152787782
 40
1.8703751382
100
AcDbArc
 50
47.9792982851
 51
48.3044083673
  0
ARC
  5
362
100
AcDbEntity
  8
0
100
AcDbCircle
 62
7
  6
CONTINUOUS
 10
32.4316355819
 20
28.9909721426
 40
1.8703121851
100
AcDbArc
 50
251.6925260695
 51
252.017643447
  0
ARC
  5
363
100
AcDbEntity
  8
0
100
AcDbCircle
 62
7
  6
CONTINUOUS
 10
32.4277083813
 20
28.9794810482
 40
1.8581691242
100
AcDbArc
 50
245.8880812731
 51
251.6961917816
  0
ARC
  5
364
100
AcDbEntity
  8
0
100
AcDbCircle
 62
7
  6
CONTINUOUS
 10
33.3225619252
 20
30.5281645407
 40
1.8534396817
100
AcDbArc
 50
48.2932448131
 51
54.1162378213
  0
ARC
  5
365
100
AcDbEntity
  8
0
100
AcDbCircle
 62
7
  6
CONTINUOUS
 10
33.3304410389
 20
30.5374343742
 40
1.8413797382
100
AcDbArc
 50
60.0138718085
 51
68.6920579236
  0
ARC
  5
366
100
AcDbEntity
  8
0
100
AcDbCircle
 62
7
  6
CONTINUOUS
 10
33.3299177925
 20
30.5381261579
 40
1.8410571174
100
AcDbArc
 50
54.1199988455
 51
54.6129904117
  0
ARC
  5
367
100
AcDbEntity
  8
0
100
AcDbCircle
 62
7
  6
CONTINUOUS
 10
32.4200946644
 20
28.9609526294
 40
1.8381738886
100
AcDbArc
 50
231.3067525361
 51
239.9953197939
  0
ARC
  5
368
100
AcDbEntity
  8
0
100
AcDbCircle
 62
7
  6
CONTINUOUS
 10
32.4195230148
 20
28.9604091367
 40
1.837417391
100
AcDbArc
 50
240.0070665344
 51
245.8781003876
  0
ARC
  5
369
100
AcDbEntity
  8
0
100
AcDbCircle
 62
7
  6
CONTINUOUS
 10
33.3321173348
 20
30.5412596006
 40
1.8372288029
100
AcDbArc
 50
54.6123240205
 51
59.9947440599
  0
ARC
  5
36A
100
AcDbEntity
  8
0
100
AcDbCircle
 62
250
  6
CONTINUOUS
 10
31.6584940368
 20
29.4594844882
 40
1.7513787529
100
AcDbArc
 50
231.3193218502
 51
239.9815167438
  0
ARC
  5
36B
100
AcDbEntity
  8
0
100
AcDbCircle
 62
250
  6
CONTINUOUS
 10
32.5211820713
 20
30.9545763198
 40
1.7469160199
100
AcDbArc
 50
60.0042250359
 51
68.6981525166
  0
ARC
  5
36C
100
AcDbEntity
  8
0
100
AcDbCircle
 62
7
  6
CONTINUOUS
 10
31.8838692113
 20
30.3233554893
 40
1.7042819575
100
AcDbArc
 50
322.3081829717
 51
337.689911662
  0
ARC
  5
36D
100
AcDbEntity
  8
0
100
AcDbCircle
 62
7
  6
CONTINUOUS
 10
32.8678861654
 20
29.7553049507
 40
1.7042819575
100
AcDbArc
 50
142.3081831336
 51
157.6899116624
  0
ARC
  5
36E
100
AcDbEntity
  8
TRASH
100
AcDbCircle
 62
7
  6
CONTINUOUS
 10
33.0224651546
 20
29.666083809
 40
1.4004147117
100
AcDbArc
 50
140.1813431726
 51
159.8196659665
  0
ARC
  5
36F
100
AcDbEntity
  8
ASSI
100
AcDbCircle
 62
7
  6
CONTINUOUS
 10
33.9266789241
 20
28.3953366054
 40
1.3015357556
100
AcDbArc
 50
239.7966874454
 51
240.0031914725
  0
ARC
  5
370
100
AcDbEntity
  8
ASSI
100
AcDbCircle
 62
7
  6
CONTINUOUS
 10
34.575076592
 20
29.5185395465
 40
1.3015354862
100
AcDbArc
 50
60.0031917126
 51
60.2096552351
  0
ARC
  5
371
100
AcDbEntity
  8
0
100
AcDbCircle
 62
7
  6
CONTINUOUS
 10
32.2116631051
 20
30.8487823684
 40
1.2449250017
100
AcDbArc
 50
51.3916302161
 51
68.5980023653
  0
ARC
  5
372
100
AcDbEntity
  8
0
100
AcDbCircle
 62
7
  6
CONTINUOUS
 10
31.592792978
 20
29.776731097
 40
1.2449250017
100
AcDbArc
 50
231.391630249
 51
248.5980023654
  0
ARC
  5
373
100
AcDbEntity
  8
0
100
AcDbCircle
 62
7
  6
CONTINUOUS
 10
42.7388600551
 20
134.4163443879
 40
170.0243909767
100
AcDbArc
 50
226.832023384
 51
227.0416393755
  0
ARC
  5
374
100
AcDbEntity
  8
0
100
AcDbCircle
 62
7
  6
CONTINUOUS
 10
114.0152236007
 20
93.2622653825
 40
170.0243909796
100
AcDbArc
 50
226.832023384
 51
227.0416393755
  0
ARC
  5
375
100
AcDbEntity
  8
0
100
AcDbCircle
 62
7
  6
CONTINUOUS
 10
77.9138600486
 20
195.3412314738
 40
170.0243909671
100
AcDbArc
 50
226.832023384
 51
227.0416393755
  0
SPLINE
  5
376
100
AcDbEntity
  8
0
100
AcDbSpline
 62
7
  6
CONTINUOUS
 70
0
 71
3
 72
23
 73
19
 74
0
 42
0.0000001
 43
0.0000001
 44
0.0000000001
 40
0.0
 40
0.0
 40
0.0
 40
0.0
 40
0.0574855742
 40
0.1162211955
 40
0.1765260613
 40
0.2385344617
 40
0.3021908084
 40
0.367259273
 40
0.4333566424
 40
0.4999953436
 40
0.56663416
 40
0.632731979
 40
0.6978011431
 40
0.7614582892
 40
0.8234677081
 40
0.8837733074
 40
0.9425094636
 40
1.0
 40
1.0
 40
1.0
 40
1.0
 10
-73.524280092
 20
12.8837875527
 30
0.0
 10
-73.6450778347
 20
12.9136125605
 30
0.0
 10
-73.8959621606
 20
12.9495175493
 30
0.0
 10
-74.2796581324
 20
12.9311219886
 30
0.0
 10
-74.6634620769
 20
12.8427062475
 30
0.0
 10
-75.036816051
 20
12.6876453403
 30
0.0
 10
-75.3900534823
 20
12.4709033182
 30
0.0
 10
-75.7140977537
 20
12.1987643528
 30
0.0
 10
-76.000631583
 20
11.8787641576
 30
0.0
 10
-76.2422245459
 20
11.5195533711
 30
0.0
 10
-76.4325184739
 20
11.1307236012
 30
0.0
 10
-76.5663863479
 20
10.7225772517
 30
0.0
 10
-76.6400520661
 20
10.3058745398
 30
0.0
 10
-76.6511485906
 20
9.8915859895
 30
0.0
 10
-76.5987726364
 20
9.4907142167
 30
0.0
 10
-76.4834563234
 20
9.1141127062
 30
0.0
 10
-76.3075564886
 20
8.7726014448
 30
0.0
 10
-76.1510257175
 20
8.5732601812
 30
0.0
 10
-76.0647908296
 20
8.483550412
 30
0.0
  0
SPLINE
  5
377
100
AcDbEntity
  8
0
100
AcDbSpline
 62
7
  6
CONTINUOUS
 70
0
 71
3
 72
13
 73
9
 74
0
 42
0.0000001
 43
0.0000001
 44
0.0000000001
 40
0.0
 40
0.0
 40
0.0
 40
0.0
 40
0.2692051057
 40
0.5267138215
 40
0.6501772003
 40
0.7698593822
 40
0.8861981029
 40
1.0
 40
1.0
 40
1.0
 40
1.0
 10
-71.8872596911
 20
8.475964785
 30
0.0
 10
-72.0568454523
 20
8.2577828159
 30
0.0
 10
-72.4435187024
 20
7.8702058871
 30
0.0
 10
-73.0316406633
 20
7.5347982448
 30
0.0
 10
-73.5258062789
 20
7.3869809567
 30
0.0
 10
-73.8934107653
 20
7.3387736523
 30
0.0
 10
-74.2539530224
 20
7.3532314599
 30
0.0
 10
-74.4860275849
 20
7.4051492052
 30
0.0
 10
-74.597138444
 20
7.4412135786
 30
0.0
  0
SPLINE
  5
378
100
AcDbEntity
  8
0
100
AcDbSpline
 62
7
  6
CONTINUOUS
 70
0
 71
3
 72
13
 73
9
 74
0
 42
0.0000001
 43
0.0000001
 44
0.0000000001
 40
0.0
 40
0.0
 40
0.0
 40
0.0
 40
0.2692031902
 40
0.5267127472
 40
0.6501769435
 40
0.7698598035
 40
0.8861987167
 40
1.0
 40
1.0
 40
1.0
 40
1.0
 10
-71.4290021216
 20
9.2696901775
 30
0.0
 10
-71.3248421365
 20
9.5256502451
 30
0.0
 10
-71.1825236051
 20
10.0543170925
 30
0.0
 10
-71.1861041983
 20
10.7313626217
 30
0.0
 10
-71.3051633202
 20
11.2332471509
 30
0.0
 10
-71.4472083254
 20
11.5757193533
 30
0.0
 10
-71.6399909362
 20
11.8807442865
 30
0.0
 10
-71.8009843329
 20
12.0557795098
 30
0.0
 10
-71.8877696271
 20
12.1339780209
 30
0.0
  0
SPLINE
  5
379
100
AcDbEntity
  8
0
100
AcDbSpline
 62
7
  6
CONTINUOUS
 70
0
 71
3
 72
15
 73
11
 74
0
 42
0.0000001
 43
0.0000001
 44
0.0000000001
 40
0.0
 40
0.0
 40
0.0
 40
0.0
 40
0.1066804552
 40
0.2284352311
 40
0.3612961068
 40
0.4999931239
 40
0.6386912735
 40
0.7715553254
 40
0.8933146783
 40
1.0
 40
1.0
 40
1.0
 40
1.0
 10
-71.4290021216
 20
9.2696901775
 30
0.0
 10
-71.4130467803
 20
9.2364014604
 30
0.0
 10
-71.3916596594
 20
9.1588734993
 30
0.0
 10
-71.3899595712
 20
9.0328501418
 30
0.0
 10
-71.418338243
 20
8.8986222013
 30
0.0
 10
-71.4766005203
 20
8.7680305441
 30
0.0
 10
-71.5605658111
 20
8.6522773106
 30
0.0
 10
-71.6626229578
 20
8.5605840765
 30
0.0
 10
-71.7726148926
 20
8.4990404315
 30
0.0
 10
-71.8504516513
 20
8.4787939423
 30
0.0
 10
-71.8872596911
 20
8.475964785
 30
0.0
  0
SPLINE
  5
37A
100
AcDbEntity
  8
0
100
AcDbSpline
 62
7
  6
CONTINUOUS
 70
0
 71
3
 72
17
 73
13
 74
0
 42
0.0000001
 43
0.0000001
 44
0.0000000001
 40
0.0
 40
0.0
 40
0.0
 40
0.0
 40
0.1462291171
 40
0.2914265919
 40
0.4328226757
 40
0.5673847054
 40
0.6923417559
 40
0.8057951571
 40
0.8581677292
 40
0.9077369528
 40
0.9548405552
 40
1.0
 40
1.0
 40
1.0
 40
1.0
 10
-71.3415510772
 20
9.5100835089
 30
0.0
 10
-71.3233435669
 20
9.4059587656
 30
0.0
 10
-71.3089840444
 20
9.1940112211
 30
0.0
 10
-71.3507391608
 20
8.8819866913
 30
0.0
 10
-71.4496080387
 20
8.5919545977
 30
0.0
 10
-71.5964650552
 20
8.3397529645
 30
0.0
 10
-71.7792727646
 20
8.1387418722
 30
0.0
 10
-71.9553561869
 20
8.0192231446
 30
0.0
 10
-72.1003019641
 20
7.9609710419
 30
0.0
 10
-72.2056947459
 20
7.9364037926
 30
0.0
 10
-72.3085210387
 20
7.9301117152
 30
0.0
 10
-72.3751933892
 20
7.9382278315
 30
0.0
 10
-72.4070517812
 20
7.9453482691
 30
0.0
  0
SPLINE
  5
37B
100
AcDbEntity
  8
0
100
AcDbSpline
 62
7
  6
CONTINUOUS
 70
0
 71
3
 72
14
 73
10
 74
0
 42
0.0000001
 43
0.0000001
 44
0.0000000001
 40
0.0
 40
0.0
 40
0.0
 40
0.0
 40
0.4079139515
 40
0.7179652821
 40
0.8313936632
 40
0.9155307022
 40
0.9465852858
 40
0.9705161796
 40
1.0
 40
1.0
 40
1.0
 40
1.0
 10
-74.80035346
 20
7.5116487377
 30
0.0
 10
-74.7747960724
 20
7.4968950529
 30
0.0
 10
-74.7291799615
 20
7.4720056018
 30
0.0
 10
-74.6744718673
 20
7.4467867117
 30
0.0
 10
-74.6397441544
 20
7.434687147
 30
0.0
 10
-74.6237423023
 20
7.4305473643
 30
0.0
 10
-74.6136354976
 20
7.4293570481
 30
0.0
 10
-74.6077189662
 20
7.4293413763
 30
0.0
 10
-74.6033007432
 20
7.4305834107
 30
0.0
 10
-74.6022371759
 20
7.4324323122
 30
0.0
  0
SPLINE
  5
37C
100
AcDbEntity
  8
0
100
AcDbSpline
 62
7
  6
CONTINUOUS
 70
0
 71
3
 72
10
 73
6
 74
0
 42
0.0000001
 43
0.0000001
 44
0.0000000001
 40
0.0
 40
0.0
 40
0.0
 40
0.0
 40
0.3580625927
 40
0.6388705588
 40
1.0
 40
1.0
 40
1.0
 40
1.0
 10
-71.8827099082
 20
12.1427917076
 30
0.0
 10
-71.881751765
 20
12.1444452192
 30
0.0
 10
-71.882517008
 20
12.1483588721
 30
0.0
 10
-71.8849582633
 20
12.1529440672
 30
0.0
 10
-71.8869350107
 20
12.1557996252
 30
0.0
 10
-71.8881012957
 20
12.1573341442
 30
0.0
  0
SPLINE
  5
37D
100
AcDbEntity
  8
0
100
AcDbSpline
 62
7
  6
CONTINUOUS
 70
0
 71
3
 72
12
 73
8
 74
0
 42
0.0000001
 43
0.0000001
 44
0.0000000001
 40
0.0
 40
0.0
 40
0.0
 40
0.0
 40
0.0631497631
 40
0.1451758046
 40
0.3643864106
 40
0.6522238072
 40
1.0
 40
1.0
 40
1.0
 40
1.0
 10
-71.8881012957
 20
12.1573341442
 30
0.0
 10
-71.8906664733
 20
12.1607092318
 30
0.0
 10
-71.8971993806
 20
12.1679775158
 30
0.0
 10
-71.9150197166
 20
12.184750967
 30
0.0
 10
-71.9462715534
 20
12.2091015417
 30
0.0
 10
-71.9938296869
 20
12.241244812
 30
0.0
 10
-72.0304020094
 20
12.2632665328
 30
0.0
 10
-72.0506211628
 20
12.2749385792
 30
0.0
  0
SPLINE
  5
37E
100
AcDbEntity
  8
0
100
AcDbSpline
 62
7
  6
CONTINUOUS
 70
0
 71
3
 72
9
 73
5
 74
0
 42
0.0000001
 43
0.0000001
 44
0.0000000001
 40
0.0
 40
0.0
 40
0.0
 40
0.0
 40
0.253295696
 40
1.0
 40
1.0
 40
1.0
 40
1.0
 10
-74.6014111395
 20
9.6845762346
 30
0.0
 10
-74.6635065419
 20
9.5591401282
 30
0.0
 10
-74.8999151773
 20
9.0596633107
 30
0.0
 10
-75.1011769541
 20
8.5434042067
 30
0.0
 10
-75.2286490627
 20
8.150979646
 30
0.0
  0
SPLINE
  5
37F
100
AcDbEntity
  8
0
100
AcDbSpline
 62
7
  6
CONTINUOUS
 70
0
 71
3
 72
9
 73
5
 74
0
 42
0.0000001
 43
0.0000001
 44
0.0000000001
 40
0.0
 40
0.0
 40
0.0
 40
0.0
 40
0.5054001356
 40
1.0
 40
1.0
 40
1.0
 40
1.0
 10
-73.9695777395
 20
9.7678494489
 30
0.0
 10
-74.0603861132
 20
9.7666898691
 30
0.0
 10
-74.2400566513
 20
9.7639969538
 30
0.0
 10
-74.419729047
 20
9.7613584597
 30
0.0
 10
-74.5085996204
 20
9.7604647343
 30
0.0
  0
LINE
  5
380
100
AcDbEntity
  8
0
100
AcDbLine
 62
7
  6
CONTINUOUS
 10
-73.9695777395
 20
9.7678494489
 11
-73.9498921351
 21
9.7705156508
  0
LINE
  5
381
100
AcDbEntity
  8
0
100
AcDbLine
 62
7
  6
CONTINUOUS
 10
-73.5889985978
 20
10.4270316923
 11
-73.5815534443
 21
10.4088650556
  0
SPLINE
  5
382
100
AcDbEntity
  8
0
100
AcDbSpline
 62
7
  6
CONTINUOUS
 70
0
 71
3
 72
9
 73
5
 74
0
 42
0.0000001
 43
0.0000001
 44
0.0000000001
 40
0.0
 40
0.0
 40
0.0
 40
0.0
 40
0.4946003564
 40
1.0
 40
1.0
 40
1.0
 40
1.0
 10
-73.8521034217
 20
10.8975491604
 30
0.0
 10
-73.8084436429
 20
10.8201351089
 30
0.0
 10
-73.7208972724
 20
10.6632081612
 30
0.0
 10
-73.6333970442
 20
10.5062566865
 30
0.0
 10
-73.5889985978
 20
10.4270316923
 30
0.0
  0
SPLINE
  5
383
100
AcDbEntity
  8
0
100
AcDbSpline
 62
7
  6
CONTINUOUS
 70
0
 71
3
 72
9
 73
5
 74
0
 42
0.0000001
 43
0.0000001
 44
0.0000000001
 40
0.0
 40
0.0
 40
0.0
 40
0.0
 40
0.2462810576
 40
1.0
 40
1.0
 40
1.0
 40
1.0
 10
-72.8182595189
 20
12.3258967975
 30
0.0
 10
-72.9093302415
 20
12.2247676398
 30
0.0
 10
-73.2712297369
 20
11.8070919994
 30
0.0
 10
-73.6019218534
 20
11.3625262097
 30
0.0
 10
-73.8327876689
 20
11.0158713735
 30
0.0
  0
SPLINE
  5
384
100
AcDbEntity
  8
0
100
AcDbSpline
 62
7
  6
CONTINUOUS
 70
0
 71
3
 72
11
 73
7
 74
0
 42
0.0000001
 43
0.0000001
 44
0.0000000001
 40
0.0
 40
0.0
 40
0.0
 40
0.0
 40
0.1984159015
 40
0.4291647003
 40
0.6984246547
 40
1.0
 40
1.0
 40
1.0
 40
1.0
 10
-72.6674913202
 20
12.391257691
 30
0.0
 10
-72.6781651094
 20
12.3953863915
 30
0.0
 10
-72.7037925059
 20
12.3980517873
 30
0.0
 10
-72.7429881348
 20
12.386252015
 30
0.0
 10
-72.7825609197
 20
12.3616074648
 30
0.0
 10
-72.8066192801
 20
12.3388226591
 30
0.0
 10
-72.8182595189
 20
12.3258967975
 30
0.0
  0
SPLINE
  5
385
100
AcDbEntity
  8
0
100
AcDbSpline
 62
7
  6
CONTINUOUS
 70
0
 71
3
 72
11
 73
7
 74
0
 42
0.0000001
 43
0.0000001
 44
0.0000000001
 40
0.0
 40
0.0
 40
0.0
 40
0.0
 40
0.3015818999
 40
0.5708417785
 40
0.8015857314
 40
1.0
 40
1.0
 40
1.0
 40
1.0
 10
-75.2286490627
 20
8.150979646
 30
0.0
 10
-75.2340228744
 20
8.1344362962
 30
0.0
 10
-75.2417254083
 20
8.1022096619
 30
0.0
 10
-75.2432805616
 20
8.0556181441
 30
0.0
 10
-75.2338998447
 20
8.015776268
 30
0.0
 10
-75.2187764764
 20
7.9949176545
 30
0.0
 10
-75.2098636954
 20
7.98773957
 30
0.0
  0
LINE
  5
386
100
AcDbEntity
  8
0
100
AcDbLine
 62
7
  6
CONTINUOUS
 10
-72.3542091983
 20
12.2700490771
 11
-72.6674913202
 21
12.391257691
  0
LINE
  5
387
100
AcDbEntity
  8
0
100
AcDbLine
 62
7
  6
CONTINUOUS
 10
-75.2098636954
 20
7.98773957
 11
-74.9482343749
 21
7.7770656798
  0
LINE
  5
388
100
AcDbEntity
  8
0
100
AcDbLine
 62
7
  6
CONTINUOUS
 10
-73.5160194577
 20
12.881187203
 11
-73.2027373357
 21
12.7599785891
  0
LINE
  5
389
100
AcDbEntity
  8
0
100
AcDbLine
 62
7
  6
CONTINUOUS
 10
-75.7967625123
 20
8.2669951918
 11
-76.0583918328
 21
8.477669082
  0
SPLINE
  5
38A
100
AcDbEntity
  8
0
100
AcDbSpline
 62
7
  6
CONTINUOUS
 70
0
 71
3
 72
9
 73
5
 74
0
 42
0.0000001
 43
0.0000001
 44
0.0000000001
 40
0.0
 40
0.0
 40
0.0
 40
0.0
 40
0.2596286984
 40
1.0
 40
1.0
 40
1.0
 40
1.0
 10
-71.8708520593
 20
8.4620846471
 30
0.0
 10
-71.8821765558
 20
8.4483265754
 30
0.0
 10
-71.9271645382
 20
8.3964907593
 30
0.0
 10
-71.9776990487
 20
8.3493684545
 30
0.0
 10
-72.0179544082
 20
8.3183583203
 30
0.0
  0
SPLINE
  5
38B
100
AcDbEntity
  8
0
100
AcDbSpline
 62
7
  6
CONTINUOUS
 70
0
 71
3
 72
10
 73
6
 74
0
 42
0.0000001
 43
0.0000001
 44
0.0000000001
 40
0.0
 40
0.0
 40
0.0
 40
0.0
 40
0.3650114806
 40
0.6425403383
 40
1.0
 40
1.0
 40
1.0
 40
1.0
 10
-74.6022371759
 20
7.4324323122
 30
0.0
 10
-74.6014115445
 20
7.4338675868
 30
0.0
 10
-74.6020058816
 20
7.4372430247
 30
0.0
 10
-74.6043298282
 20
7.4410261461
 30
0.0
 10
-74.6061479432
 20
7.4433051428
 30
0.0
 10
-74.6072235066
 20
7.4445186379
 30
0.0
  0
SPLINE
  5
38C
100
AcDbEntity
  8
0
100
AcDbSpline
 62
7
  6
CONTINUOUS
 70
0
 71
3
 72
16
 73
12
 74
0
 42
0.0000001
 43
0.0000001
 44
0.0000000001
 40
0.0
 40
0.0
 40
0.0
 40
0.0
 40
0.1454544541
 40
0.2892730858
 40
0.4291115294
 40
0.562507825
 40
0.687236634
 40
0.8017166962
 40
0.9054845966
 40
0.9537770171
 40
1.0
 40
1.0
 40
1.0
 40
1.0
 10
-71.3748064302
 20
9.4114975765
 30
0.0
 10
-71.3663753355
 20
9.3164676235
 30
0.0
 10
-71.3672563464
 20
9.125478293
 30
0.0
 10
-71.4189941265
 20
8.8473931269
 30
0.0
 10
-71.5160695022
 20
8.5900831324
 30
0.0
 10
-71.6512939295
 20
8.3650889138
 30
0.0
 10
-71.8158244164
 20
8.1821436229
 30
0.0
 10
-71.9993949034
 20
8.0490099483
 30
0.0
 10
-72.163665709
 20
7.9827034976
 30
0.0
 10
-72.2924125076
 20
7.9615076156
 30
0.0
 10
-72.3547308104
 20
7.9610829964
 30
0.0
 10
-72.3849558025
 20
7.9634501145
 30
0.0
  0
SPLINE
  5
38D
100
AcDbEntity
  8
0
100
AcDbSpline
 62
7
  6
CONTINUOUS
 70
0
 71
3
 72
9
 73
5
 74
0
 42
0.0000001
 43
0.0000001
 44
0.0000000001
 40
0.0
 40
0.0
 40
0.0
 40
0.0
 40
0.498891941
 40
1.0
 40
1.0
 40
1.0
 40
1.0
 10
-72.987553422
 20
12.6911550737
 30
0.0
 10
-72.8690404386
 20
12.6449223678
 30
0.0
 10
-72.6407130615
 20
12.5264621296
 30
0.0
 10
-72.4432621183
 20
12.3616812635
 30
0.0
 10
-72.3542091983
 20
12.2700490771
 30
0.0
  0
LINE
  5
38E
100
AcDbEntity
  8
0
100
AcDbLine
 62
7
  6
CONTINUOUS
 10
-75.6549752847
 20
10.7548450873
 11
-75.6498923121
 21
10.7380420806
  0
SPLINE
  5
38F
100
AcDbEntity
  8
0
100
AcDbSpline
 62
7
  6
CONTINUOUS
 70
0
 71
3
 72
9
 73
5
 74
0
 42
0.0000001
 43
0.0000001
 44
0.0000000001
 40
0.0
 40
0.0
 40
0.0
 40
0.0
 40
0.2545509313
 40
1.0
 40
1.0
 40
1.0
 40
1.0
 10
-75.4370254959
 20
10.2965258022
 30
0.0
 10
-75.4563673019
 20
10.3333490584
 30
0.0
 10
-75.5309336035
 20
10.4787517903
 30
0.0
 10
-75.600474892
 20
10.6267094503
 30
0.0
 10
-75.6498923121
 20
10.7380420806
 30
0.0
  0
SPLINE
  5
390
100
AcDbEntity
  8
0
100
AcDbSpline
 62
7
  6
CONTINUOUS
 70
0
 71
3
 72
9
 73
5
 74
0
 42
0.0000001
 43
0.0000001
 44
0.0000000001
 40
0.0
 40
0.0
 40
0.0
 40
0.0
 40
0.2462796112
 40
1.0
 40
1.0
 40
1.0
 40
1.0
 10
-76.0771772001
 20
8.640909158
 30
0.0
 10
-76.0351336395
 20
8.7703408116
 30
0.0
 10
-75.854370407
 20
9.2925857317
 30
0.0
 10
-75.6347148738
 20
9.8012490886
 30
0.0
 10
-75.4499384535
 20
10.17450741
 30
0.0
  0
SPLINE
  5
391
100
AcDbEntity
  8
0
100
AcDbSpline
 62
7
  6
CONTINUOUS
 70
0
 71
3
 72
9
 73
5
 74
0
 42
0.0000001
 43
0.0000001
 44
0.0000000001
 40
0.0
 40
0.0
 40
0.0
 40
0.0
 40
0.25329422
 40
1.0
 40
1.0
 40
1.0
 40
1.0
 10
-74.6813147774
 20
11.5058024303
 30
0.0
 10
-74.6037309734
 20
11.622297771
 30
0.0
 10
-74.2893712982
 20
12.07677905
 30
0.0
 10
-73.9429044192
 20
12.5092134391
 30
0.0
 10
-73.6667876564
 20
12.8158263095
 30
0.0
  0
SPLINE
  5
392
100
AcDbEntity
  8
0
100
AcDbSpline
 62
7
  6
CONTINUOUS
 70
0
 71
3
 72
9
 73
5
 74
0
 42
0.0000001
 43
0.0000001
 44
0.0000000001
 40
0.0
 40
0.0
 40
0.0
 40
0.0
 40
0.2453075081
 40
1.0
 40
1.0
 40
1.0
 40
1.0
 10
-75.2693131836
 20
11.3972243317
 30
0.0
 10
-75.2294554847
 20
11.4014572395
 30
0.0
 10
-75.0668537872
 20
11.4175229253
 30
0.0
 10
-74.9037435738
 20
11.4286902826
 30
0.0
 10
-74.7805293463
 20
11.4336102567
 30
0.0
  0
LINE
  5
393
100
AcDbEntity
  8
0
100
AcDbLine
 62
7
  6
CONTINUOUS
 10
-75.2866082458
 20
11.3931781291
 11
-75.2693131836
 21
11.3972243317
  0
SPLINE
  5
394
100
AcDbEntity
  8
0
100
AcDbSpline
 62
7
  6
CONTINUOUS
 70
0
 71
3
 72
11
 73
7
 74
0
 42
0.0000001
 43
0.0000001
 44
0.0000000001
 40
0.0
 40
0.0
 40
0.0
 40
0.0
 40
0.201042385
 40
0.43418551
 40
0.7025373675
 40
1.0
 40
1.0
 40
1.0
 40
1.0
 10
-76.0647987272
 20
8.4835483947
 30
0.0
 10
-76.072434201
 20
8.4914986264
 30
0.0
 10
-76.08480468
 20
8.5127163827
 30
0.0
 10
-76.0919722952
 20
8.5510383974
 30
0.0
 10
-76.0896103687
 20
8.5950935212
 30
0.0
 10
-76.0822159324
 20
8.6253973543
 30
0.0
 10
-76.0771772001
 20
8.640909158
 30
0.0
  0
SPLINE
  5
395
100
AcDbEntity
  8
0
100
AcDbSpline
 62
7
  6
CONTINUOUS
 70
0
 71
3
 72
11
 73
7
 74
0
 42
0.0000001
 43
0.0000001
 44
0.0000000001
 40
0.0
 40
0.0
 40
0.0
 40
0.0
 40
0.2974787548
 40
0.5658369143
 40
0.7989719075
 40
1.0
 40
1.0
 40
1.0
 40
1.0
 10
-73.6667876564
 20
12.8158263095
 30
0.0
 10
-73.6558700724
 20
12.8279497015
 30
0.0
 10
-73.6333163806
 20
12.8495115427
 30
0.0
 10
-73.5963327052
 20
12.8735890121
 30
0.0
 10
-73.5595502434
 20
12.8865405887
 30
0.0
 10
-73.5349842189
 20
12.8864289543
 30
0.0
 10
-73.5242804582
 20
12.8837867512
 30
0.0
  0
SPLINE
  5
396
100
AcDbEntity
  8
0
100
AcDbSpline
 62
250
  6
CONTINUOUS
 70
0
 71
3
 72
23
 73
19
 74
0
 42
0.0000001
 43
0.0000001
 44
0.0000000001
 40
0.0
 40
0.0
 40
0.0
 40
0.0
 40
0.056437763
 40
0.1144717113
 40
0.1744406573
 40
0.2364514051
 40
0.3003885665
 40
0.3659454525
 40
0.4326665096
 40
0.4999952104
 40
0.5673241649
 40
0.6340459624
 40
0.6996040126
 40
0.7635426586
 40
0.8255550703
 40
0.885525687
 40
0.9435611217
 40
1.0
 40
1.0
 40
1.0
 40
1.0
 10
-73.6667876564
 20
12.8158263095
 30
0.0
 10
-73.7786700459
 20
12.841753112
 30
0.0
 10
-74.0114274916
 20
12.8716652662
 30
0.0
 10
-74.3676136806
 20
12.8498927503
 30
0.0
 10
-74.7253788001
 20
12.7631511037
 30
0.0
 10
-75.0748622421
 20
12.6141243781
 30
0.0
 10
-75.4067651031
 20
12.4071185059
 30
0.0
 10
-75.7122278175
 20
12.1478771195
 30
0.0
 10
-75.9831066292
 20
11.8434780027
 30
0.0
 10
-76.2121539724
 20
11.5021650868
 30
0.0
 10
-76.3932165195
 20
11.1331464249
 30
0.0
 10
-76.5213965424
 20
10.7463550357
 30
0.0
 10
-76.5931783529
 20
10.3521895812
 30
0.0
 10
-76.6065042456
 20
9.9612418286
 30
0.0
 10
-76.5608298033
 20
9.5840564143
 30
0.0
 10
-76.4570753296
 20
9.23083961
 30
0.0
 10
-76.2978464855
 20
8.9114731901
 30
0.0
 10
-76.1555689288
 20
8.724844409
 30
0.0
 10
-76.0771772001
 20
8.640909158
 30
0.0
  0
SPLINE
  5
397
100
AcDbEntity
  8
0
100
AcDbSpline
 62
250
  6
CONTINUOUS
 70
0
 71
3
 72
23
 73
19
 74
0
 42
0.0000001
 43
0.0000001
 44
0.0000000001
 40
0.0
 40
0.0
 40
0.0
 40
0.0
 40
0.056437763
 40
0.1144717113
 40
0.1744406573
 40
0.2364514051
 40
0.3003885665
 40
0.3659454525
 40
0.4326665096
 40
0.4999952104
 40
0.5673241649
 40
0.6340459624
 40
0.6996040126
 40
0.7635426586
 40
0.8255550703
 40
0.885525687
 40
0.9435611217
 40
1.0
 40
1.0
 40
1.0
 40
1.0
 10
-75.2286490627
 20
8.150979646
 30
0.0
 10
-75.1167666731
 20
8.1250528435
 30
0.0
 10
-74.8840092274
 20
8.0951406894
 30
0.0
 10
-74.5278230385
 20
8.1169132052
 30
0.0
 10
-74.170057919
 20
8.2036548518
 30
0.0
 10
-73.8205744769
 20
8.3526815775
 30
0.0
 10
-73.488671616
 20
8.5596874497
 30
0.0
 10
-73.1832089015
 20
8.8189288361
 30
0.0
 10
-72.9123300898
 20
9.1233279528
 30
0.0
 10
-72.6832827466
 20
9.4646408687
 30
0.0
 10
-72.5022201996
 20
9.8336595306
 30
0.0
 10
-72.3740401767
 20
10.2204509199
 30
0.0
 10
-72.3022583661
 20
10.6146163744
 30
0.0
 10
-72.2889324734
 20
11.005564127
 30
0.0
 10
-72.3346069157
 20
11.3827495413
 30
0.0
 10
-72.4383613895
 20
11.7359663456
 30
0.0
 10
-72.5975902335
 20
12.0553327654
 30
0.0
 10
-72.7398677903
 20
12.2419615465
 30
0.0
 10
-72.8182595189
 20
12.3258967975
 30
0.0
  0
SPLINE
  5
398
100
AcDbEntity
  8
0
100
AcDbSpline
 62
250
  6
CONTINUOUS
 70
0
 71
3
 72
13
 73
9
 74
0
 42
0.0000001
 43
0.0000001
 44
0.0000000001
 40
0.0
 40
0.0
 40
0.0
 40
0.0
 40
0.2680549555
 40
0.526758464
 40
0.650904072
 40
0.7709199741
 40
0.8870421114
 40
1.0
 40
1.0
 40
1.0
 40
1.0
 10
-72.5158279777
 20
9.3679631443
 30
0.0
 10
-72.3714370495
 20
9.6180555678
 30
0.0
 10
-72.1527525709
 20
10.1504569667
 30
0.0
 10
-72.0752411167
 20
10.8583982244
 30
0.0
 10
-72.1441901441
 20
11.397899804
 30
0.0
 10
-72.257359796
 20
11.7712770786
 30
0.0
 10
-72.4297509743
 20
12.1078122729
 30
0.0
 10
-72.5831443877
 20
12.3035389428
 30
0.0
 10
-72.6674913202
 20
12.391257691
 30
0.0
  0
SPLINE
  5
399
100
AcDbEntity
  8
0
100
AcDbSpline
 62
250
  6
CONTINUOUS
 70
0
 71
3
 72
13
 73
9
 74
0
 42
0.0000001
 43
0.0000001
 44
0.0000000001
 40
0.0
 40
0.0
 40
0.0
 40
0.0
 40
0.1129582452
 40
0.2290801903
 40
0.3490952499
 40
0.4732396421
 40
0.7319423319
 40
1.0
 40
1.0
 40
1.0
 40
1.0
 10
-75.2098636954
 20
7.98773957
 30
0.0
 10
-75.0917269637
 20
7.9585467428
 30
0.0
 10
-74.8455320818
 20
7.9235561716
 30
0.0
 10
-74.4678954846
 20
7.942513616
 30
0.0
 10
-74.0879633575
 20
8.0311813694
 30
0.0
 10
-73.5862751168
 20
8.2412060276
 30
0.0
 10
-73.0119424961
 20
8.6622924819
 30
0.0
 10
-72.6602175942
 20
9.1178729927
 30
0.0
 10
-72.5158279777
 20
9.3679631443
 30
0.0
  0
SPLINE
  5
39A
100
AcDbEntity
  8
0
100
AcDbSpline
 62
7
  6
CONTINUOUS
 70
0
 71
3
 72
10
 73
6
 74
0
 42
0.0000001
 43
0.0000001
 44
0.0000000001
 40
0.0
 40
0.0
 40
0.0
 40
0.0
 40
0.3573774147
 40
0.6348761083
 40
1.0
 40
1.0
 40
1.0
 40
1.0
 10
-71.8956741341
 20
12.1410599136
 30
0.0
 10
-71.8940850842
 20
12.1407356925
 30
0.0
 10
-71.89120167
 20
12.1403016352
 30
0.0
 10
-71.8867613767
 20
12.140182623
 30
0.0
 10
-71.8835406464
 20
12.1413580645
 30
0.0
 10
-71.8827099082
 20
12.1427917076
 30
0.0
  0
SPLINE
  5
39B
100
AcDbEntity
  8
0
100
AcDbSpline
 62
7
  6
CONTINUOUS
 70
0
 71
3
 72
9
 73
5
 74
0
 42
0.0000001
 43
0.0000001
 44
0.0000000001
 40
0.0
 40
0.0
 40
0.0
 40
0.0
 40
0.2503294356
 40
1.0
 40
1.0
 40
1.0
 40
1.0
 10
-74.7662570557
 20
10.0065725833
 30
0.0
 10
-74.7735850637
 20
9.9555816313
 30
0.0
 10
-74.8019823144
 20
9.7517600154
 30
0.0
 10
-74.8278545341
 20
9.5475969121
 30
0.0
 10
-74.8467948401
 20
9.3944906975
 30
0.0
  0
LINE
  5
39C
100
AcDbEntity
  8
0
100
AcDbLine
 62
7
  6
CONTINUOUS
 10
-74.7662570557
 20
10.0065725833
 11
-74.3482508135
 21
9.8259181213
  0
LINE
  5
39D
100
AcDbEntity
  8
0
100
AcDbLine
 62
7
  6
CONTINUOUS
 10
-75.4370254959
 20
10.2965258022
 11
-74.987128739
 21
10.1020409101
  0
SPLINE
  5
39E
100
AcDbEntity
  8
0
100
AcDbSpline
 62
7
  6
CONTINUOUS
 70
0
 71
3
 72
11
 73
7
 74
0
 42
0.0000001
 43
0.0000001
 44
0.0000000001
 40
0.0
 40
0.0
 40
0.0
 40
0.0
 40
0.2494257263
 40
0.5016511535
 40
0.7536824684
 40
1.0
 40
1.0
 40
1.0
 40
1.0
 10
-71.2808361199
 20
9.7276370393
 30
0.0
 10
-71.2140651678
 20
9.6464549268
 30
0.0
 10
-71.1020175855
 20
9.4636394447
 30
0.0
 10
-71.0102612879
 20
9.156236977
 30
0.0
 10
-70.9945671252
 20
8.8374887399
 30
0.0
 10
-71.0327627433
 20
8.6287700651
 30
0.0
 10
-71.0632206562
 20
8.5295352061
 30
0.0
  0
SPLINE
  5
39F
100
AcDbEntity
  8
0
100
AcDbSpline
 62
7
  6
CONTINUOUS
 70
0
 71
3
 72
15
 73
11
 74
0
 42
0.0000001
 43
0.0000001
 44
0.0000000001
 40
0.0
 40
0.0
 40
0.0
 40
0.0
 40
0.3095280322
 40
0.4511189946
 40
0.581556079
 40
0.7002345752
 40
0.8077546024
 40
0.9062761239
 40
0.9534728418
 40
1.0
 40
1.0
 40
1.0
 40
1.0
 10
-71.0632206562
 20
8.5295352061
 30
0.0
 10
-71.1007486277
 20
8.4072654045
 30
0.0
 10
-71.1820004724
 20
8.2349114727
 30
0.0
 10
-71.3360663172
 20
8.0492926391
 30
0.0
 10
-71.4605653511
 20
7.9449057254
 30
0.0
 10
-71.5914601314
 20
7.8746485562
 30
0.0
 10
-71.7227364292
 20
7.8405376945
 30
0.0
 10
-71.8291157653
 20
7.8436500987
 30
0.0
 10
-71.9058964679
 20
7.8651852885
 30
0.0
 10
-71.9411403259
 20
7.8817573565
 30
0.0
 10
-71.9577902546
 20
7.8913696
 30
0.0
  0
SPLINE
  5
3A0
100
AcDbEntity
  8
0
100
AcDbSpline
 62
7
  6
CONTINUOUS
 70
0
 71
3
 72
9
 73
5
 74
0
 42
0.0000001
 43
0.0000001
 44
0.0000000001
 40
0.0
 40
0.0
 40
0.0
 40
0.0
 40
0.5011062068
 40
1.0
 40
1.0
 40
1.0
 40
1.0
 10
-74.9482343749
 20
7.7770656798
 30
0.0
 10
-75.0720661084
 20
7.8083657135
 30
0.0
 10
-75.3133986787
 20
7.8969412229
 30
0.0
 10
-75.5300754105
 20
8.0353780567
 30
0.0
 10
-75.6293409779
 20
8.1148551038
 30
0.0
  0
SPLINE
  5
3A1
100
AcDbEntity
  8
TRASH
100
AcDbSpline
 62
7
  6
CONTINUOUS
 70
0
 71
3
 72
9
 73
5
 74
0
 42
0.0000001
 43
0.0000001
 44
0.0000000001
 40
0.0
 40
0.0
 40
0.0
 40
0.0
 40
0.5065381793
 40
1.0
 40
1.0
 40
1.0
 40
1.0
 10
-74.504517705
 20
10.7920440615
 30
0.0
 10
-74.3906299032
 20
10.7785022803
 30
0.0
 10
-74.1656593737
 20
10.7529656374
 30
0.0
 10
-73.9400614117
 20
10.7327849724
 30
0.0
 10
-73.8285321688
 20
10.72610141
 30
0.0
  0
SPLINE
  5
3A2
100
AcDbEntity
  8
0
100
AcDbSpline
 62
7
  6
CONTINUOUS
 70
0
 71
3
 72
9
 73
5
 74
0
 42
0.0000001
 43
0.0000001
 44
0.0000000001
 40
0.0
 40
0.0
 40
0.0
 40
0.0
 40
0.2497368464
 40
1.0
 40
1.0
 40
1.0
 40
1.0
 10
-73.7042003952
 20
11.373522248
 30
0.0
 10
-73.7452157606
 20
11.3425570307
 30
0.0
 10
-73.9092997462
 20
11.2183690211
 30
0.0
 10
-74.0726361359
 20
11.0931740742
 30
0.0
 10
-74.1940034946
 20
10.9977447971
 30
0.0
  0
LINE
  5
3A3
100
AcDbEntity
  8
0
100
AcDbLine
 62
7
  6
CONTINUOUS
 10
-73.8285273293
 20
10.7261056008
 11
-74.1940034946
 21
10.9977447971
  0
LINE
  5
3A4
100
AcDbEntity
  8
0
100
AcDbLine
 62
7
  6
CONTINUOUS
 10
-74.3871291542
 20
11.1412714768
 11
-74.7805293463
 21
11.4336102567
  0
LINE
  5
3A5
100
AcDbEntity
  8
0
100
AcDbLine
 62
7
  6
CONTINUOUS
 10
-74.2204427058
 20
10.9972611828
 11
-74.3871291542
 21
11.1412714768
  0
LINE
  5
3A6
100
AcDbEntity
  8
0
100
AcDbLine
 62
7
  6
CONTINUOUS
 10
-74.5463713382
 20
10.8038776969
 11
-75.2866082458
 21
11.3931781291
  0
LINE
  5
3A7
100
AcDbEntity
  8
0
100
AcDbLine
 62
7
  6
CONTINUOUS
 10
-75.7430795254
 20
11.494793303
 11
-74.5463543654
 21
10.8039193075
  0
SPLINE
  5
3A8
100
AcDbEntity
  8
0
100
AcDbSpline
 62
7
  6
CONTINUOUS
 70
0
 71
3
 72
9
 73
5
 74
0
 42
0.0000001
 43
0.0000001
 44
0.0000000001
 40
0.0
 40
0.0
 40
0.0
 40
0.0
 40
0.250262929
 40
1.0
 40
1.0
 40
1.0
 40
1.0
 10
-74.774641803
 20
10.4085471981
 30
0.0
 10
-74.8744126134
 20
10.4662868212
 30
0.0
 10
-75.2731551048
 20
10.6968669635
 30
0.0
 10
-75.6720670531
 20
10.9271538803
 30
0.0
 10
-75.9711750205
 20
11.0997583769
 30
0.0
  0
SPLINE
  5
3A9
100
AcDbEntity
  8
0
100
AcDbSpline
 62
7
  6
CONTINUOUS
 70
0
 71
3
 72
9
 73
5
 74
0
 42
0.0000001
 43
0.0000001
 44
0.0000000001
 40
0.0
 40
0.0
 40
0.0
 40
0.0
 40
0.5001713307
 40
1.0
 40
1.0
 40
1.0
 40
1.0
 10
-75.6549752847
 20
10.7548450873
 30
0.0
 10
-75.5082040324
 20
10.69708163
 30
0.0
 10
-75.2148271256
 20
10.5814288294
 30
0.0
 10
-74.9211902666
 20
10.4664372699
 30
0.0
 10
-74.7745195655
 20
10.4087133856
 30
0.0
  0
LINE
  5
3AA
100
AcDbEntity
  8
0
100
AcDbLine
 62
7
  6
CONTINUOUS
 10
-74.987128739
 20
10.1020409101
 11
-74.7790573271
 21
10.0297122778
  0
SPLINE
  5
3AB
100
AcDbEntity
  8
TRASH
100
AcDbSpline
 62
7
  6
CONTINUOUS
 70
0
 71
3
 72
9
 73
5
 74
0
 42
0.0000001
 43
0.0000001
 44
0.0000000001
 40
0.0
 40
0.0
 40
0.0
 40
0.0
 40
0.4934623287
 40
1.0
 40
1.0
 40
1.0
 40
1.0
 10
-74.348250813
 20
9.8259181214
 30
0.0
 10
-74.4098021632
 20
9.9191674046
 30
0.0
 10
-74.5400697458
 20
10.1044624182
 30
0.0
 10
-74.6746749927
 20
10.2865269698
 30
0.0
 10
-74.7433467274
 20
10.378388474
 30
0.0
  0
SPLINE
  5
3AC
100
AcDbEntity
  8
0
100
AcDbSpline
 62
7
  6
CONTINUOUS
 70
0
 71
3
 72
23
 73
19
 74
0
 42
0.0000001
 43
0.0000001
 44
0.0000000001
 40
0.0
 40
0.0
 40
0.0
 40
0.0
 40
0.0574855742
 40
0.1162211955
 40
0.1765260613
 40
0.2385344617
 40
0.3021908084
 40
0.367259273
 40
0.4333566424
 40
0.4999953436
 40
0.56663416
 40
0.632731979
 40
0.6978011431
 40
0.7614582892
 40
0.8234677081
 40
0.8837733074
 40
0.9425094636
 40
1.0
 40
1.0
 40
1.0
 40
1.0
 10
-38.349280092
 20
73.8086746457
 30
0.0
 10
-38.4700778347
 20
73.8384996535
 30
0.0
 10
-38.7209621606
 20
73.8744046423
 30
0.0
 10
-39.1046581324
 20
73.8560090816
 30
0.0
 10
-39.4884620769
 20
73.7675933405
 30
0.0
 10
-39.861816051
 20
73.6125324333
 30
0.0
 10
-40.2150534823
 20
73.3957904112
 30
0.0
 10
-40.5390977537
 20
73.1236514458
 30
0.0
 10
-40.825631583
 20
72.8036512506
 30
0.0
 10
-41.0672245459
 20
72.4444404641
 30
0.0
 10
-41.2575184739
 20
72.0556106942
 30
0.0
 10
-41.3913863479
 20
71.6474643447
 30
0.0
 10
-41.4650520661
 20
71.2307616328
 30
0.0
 10
-41.4761485906
 20
70.8164730825
 30
0.0
 10
-41.4237726364
 20
70.4156013097
 30
0.0
 10
-41.3084563234
 20
70.0389997992
 30
0.0
 10
-41.1325564886
 20
69.6974885378
 30
0.0
 10
-40.9760257175
 20
69.4981472742
 30
0.0
 10
-40.8897908296
 20
69.408437505
 30
0.0
  0
SPLINE
  5
3AD
100
AcDbEntity
  8
0
100
AcDbSpline
 62
7
  6
CONTINUOUS
 70
0
 71
3
 72
13
 73
9
 74
0
 42
0.0000001
 43
0.0000001
 44
0.0000000001
 40
0.0
 40
0.0
 40
0.0
 40
0.0
 40
0.2692051057
 40
0.5267138215
 40
0.6501772003
 40
0.7698593822
 40
0.8861981029
 40
1.0
 40
1.0
 40
1.0
 40
1.0
 10
-36.7122596911
 20
69.400851878
 30
0.0
 10
-36.8818454523
 20
69.1826699089
 30
0.0
 10
-37.2685187024
 20
68.7950929801
 30
0.0
 10
-37.8566406633
 20
68.4596853378
 30
0.0
 10
-38.3508062789
 20
68.3118680497
 30
0.0
 10
-38.7184107653
 20
68.2636607453
 30
0.0
 10
-39.0789530224
 20
68.2781185529
 30
0.0
 10
-39.3110275849
 20
68.3300362982
 30
0.0
 10
-39.422138444
 20
68.3661006716
 30
0.0
  0
SPLINE
  5
3AE
100
AcDbEntity
  8
0
100
AcDbSpline
 62
7
  6
CONTINUOUS
 70
0
 71
3
 72
13
 73
9
 74
0
 42
0.0000001
 43
0.0000001
 44
0.0000000001
 40
0.0
 40
0.0
 40
0.0
 40
0.0
 40
0.2692031902
 40
0.5267127472
 40
0.6501769435
 40
0.7698598035
 40
0.8861987167
 40
1.0
 40
1.0
 40
1.0
 40
1.0
 10
-36.2540021216
 20
70.1945772705
 30
0.0
 10
-36.1498421365
 20
70.4505373381
 30
0.0
 10
-36.0075236051
 20
70.9792041855
 30
0.0
 10
-36.0111041983
 20
71.6562497147
 30
0.0
 10
-36.1301633202
 20
72.1581342439
 30
0.0
 10
-36.2722083254
 20
72.5006064463
 30
0.0
 10
-36.4649909362
 20
72.8056313795
 30
0.0
 10
-36.6259843329
 20
72.9806666028
 30
0.0
 10
-36.7127696271
 20
73.0588651139
 30
0.0
  0
SPLINE
  5
3AF
100
AcDbEntity
  8
0
100
AcDbSpline
 62
7
  6
CONTINUOUS
 70
0
 71
3
 72
15
 73
11
 74
0
 42
0.0000001
 43
0.0000001
 44
0.0000000001
 40
0.0
 40
0.0
 40
0.0
 40
0.0
 40
0.1066804552
 40
0.2284352311
 40
0.3612961068
 40
0.4999931239
 40
0.6386912735
 40
0.7715553254
 40
0.8933146783
 40
1.0
 40
1.0
 40
1.0
 40
1.0
 10
-36.2540021216
 20
70.1945772705
 30
0.0
 10
-36.2380467803
 20
70.1612885534
 30
0.0
 10
-36.2166596594
 20
70.0837605923
 30
0.0
 10
-36.2149595712
 20
69.9577372348
 30
0.0
 10
-36.243338243
 20
69.8235092943
 30
0.0
 10
-36.3016005203
 20
69.6929176371
 30
0.0
 10
-36.3855658111
 20
69.5771644036
 30
0.0
 10
-36.4876229578
 20
69.4854711695
 30
0.0
 10
-36.5976148926
 20
69.4239275245
 30
0.0
 10
-36.6754516513
 20
69.4036810353
 30
0.0
 10
-36.7122596911
 20
69.400851878
 30
0.0
  0
SPLINE
  5
3B0
100
AcDbEntity
  8
0
100
AcDbSpline
 62
7
  6
CONTINUOUS
 70
0
 71
3
 72
17
 73
13
 74
0
 42
0.0000001
 43
0.0000001
 44
0.0000000001
 40
0.0
 40
0.0
 40
0.0
 40
0.0
 40
0.1462291171
 40
0.2914265919
 40
0.4328226757
 40
0.5673847054
 40
0.6923417559
 40
0.8057951571
 40
0.8581677292
 40
0.9077369528
 40
0.9548405552
 40
1.0
 40
1.0
 40
1.0
 40
1.0
 10
-36.1665510772
 20
70.4349706019
 30
0.0
 10
-36.1483435669
 20
70.3308458586
 30
0.0
 10
-36.1339840444
 20
70.1188983141
 30
0.0
 10
-36.1757391608
 20
69.8068737843
 30
0.0
 10
-36.2746080387
 20
69.5168416907
 30
0.0
 10
-36.4214650552
 20
69.2646400576
 30
0.0
 10
-36.6042727646
 20
69.0636289652
 30
0.0
 10
-36.7803561869
 20
68.9441102377
 30
0.0
 10
-36.9253019641
 20
68.8858581349
 30
0.0
 10
-37.0306947459
 20
68.8612908856
 30
0.0
 10
-37.1335210387
 20
68.8549988082
 30
0.0
 10
-37.2001933892
 20
68.8631149245
 30
0.0
 10
-37.2320517812
 20
68.8702353621
 30
0.0
  0
SPLINE
  5
3B1
100
AcDbEntity
  8
0
100
AcDbSpline
 62
7
  6
CONTINUOUS
 70
0
 71
3
 72
14
 73
10
 74
0
 42
0.0000001
 43
0.0000001
 44
0.0000000001
 40
0.0
 40
0.0
 40
0.0
 40
0.0
 40
0.4079139515
 40
0.7179652821
 40
0.8313936632
 40
0.9155307022
 40
0.9465852858
 40
0.9705161796
 40
1.0
 40
1.0
 40
1.0
 40
1.0
 10
-39.62535346
 20
68.4365358307
 30
0.0
 10
-39.5997960724
 20
68.4217821459
 30
0.0
 10
-39.5541799615
 20
68.3968926948
 30
0.0
 10
-39.4994718673
 20
68.3716738047
 30
0.0
 10
-39.4647441544
 20
68.35957424
 30
0.0
 10
-39.4487423023
 20
68.3554344573
 30
0.0
 10
-39.4386354976
 20
68.3542441411
 30
0.0
 10
-39.4327189662
 20
68.3542284693
 30
0.0
 10
-39.4283007432
 20
68.3554705037
 30
0.0
 10
-39.4272371759
 20
68.3573194052
 30
0.0
  0
SPLINE
  5
3B2
100
AcDbEntity
  8
0
100
AcDbSpline
 62
7
  6
CONTINUOUS
 70
0
 71
3
 72
10
 73
6
 74
0
 42
0.0000001
 43
0.0000001
 44
0.0000000001
 40
0.0
 40
0.0
 40
0.0
 40
0.0
 40
0.3580625927
 40
0.6388705588
 40
1.0
 40
1.0
 40
1.0
 40
1.0
 10
-36.7077099082
 20
73.0676788006
 30
0.0
 10
-36.706751765
 20
73.0693323122
 30
0.0
 10
-36.707517008
 20
73.0732459652
 30
0.0
 10
-36.7099582633
 20
73.0778311602
 30
0.0
 10
-36.7119350107
 20
73.0806867182
 30
0.0
 10
-36.7131012957
 20
73.0822212372
 30
0.0
  0
SPLINE
  5
3B3
100
AcDbEntity
  8
0
100
AcDbSpline
 62
7
  6
CONTINUOUS
 70
0
 71
3
 72
12
 73
8
 74
0
 42
0.0000001
 43
0.0000001
 44
0.0000000001
 40
0.0
 40
0.0
 40
0.0
 40
0.0
 40
0.0631497631
 40
0.1451758046
 40
0.3643864106
 40
0.6522238072
 40
1.0
 40
1.0
 40
1.0
 40
1.0
 10
-36.7131012957
 20
73.0822212372
 30
0.0
 10
-36.7156664733
 20
73.0855963248
 30
0.0
 10
-36.7221993806
 20
73.0928646088
 30
0.0
 10
-36.7400197166
 20
73.10963806
 30
0.0
 10
-36.7712715534
 20
73.1339886347
 30
0.0
 10
-36.8188296869
 20
73.166131905
 30
0.0
 10
-36.8554020094
 20
73.1881536258
 30
0.0
 10
-36.8756211628
 20
73.1998256722
 30
0.0
  0
SPLINE
  5
3B4
100
AcDbEntity
  8
0
100
AcDbSpline
 62
7
  6
CONTINUOUS
 70
0
 71
3
 72
9
 73
5
 74
0
 42
0.0000001
 43
0.0000001
 44
0.0000000001
 40
0.0
 40
0.0
 40
0.0
 40
0.0
 40
0.253295696
 40
1.0
 40
1.0
 40
1.0
 40
1.0
 10
-39.4264111395
 20
70.6094633276
 30
0.0
 10
-39.4885065419
 20
70.4840272212
 30
0.0
 10
-39.7249151773
 20
69.9845504037
 30
0.0
 10
-39.9261769541
 20
69.4682912997
 30
0.0
 10
-40.0536490627
 20
69.0758667391
 30
0.0
  0
SPLINE
  5
3B5
100
AcDbEntity
  8
0
100
AcDbSpline
 62
7
  6
CONTINUOUS
 70
0
 71
3
 72
9
 73
5
 74
0
 42
0.0000001
 43
0.0000001
 44
0.0000000001
 40
0.0
 40
0.0
 40
0.0
 40
0.0
 40
0.5054001356
 40
1.0
 40
1.0
 40
1.0
 40
1.0
 10
-38.7945777395
 20
70.6927365419
 30
0.0
 10
-38.8853861132
 20
70.6915769621
 30
0.0
 10
-39.0650566513
 20
70.6888840468
 30
0.0
 10
-39.244729047
 20
70.6862455527
 30
0.0
 10
-39.3335996204
 20
70.6853518273
 30
0.0
  0
LINE
  5
3B6
100
AcDbEntity
  8
0
100
AcDbLine
 62
7
  6
CONTINUOUS
 10
-38.7945777395
 20
70.6927365419
 11
-38.7748921351
 21
70.6954027439
  0
LINE
  5
3B7
100
AcDbEntity
  8
0
100
AcDbLine
 62
7
  6
CONTINUOUS
 10
-38.4139985978
 20
71.3519187854
 11
-38.4065534443
 21
71.3337521486
  0
SPLINE
  5
3B8
100
AcDbEntity
  8
0
100
AcDbSpline
 62
7
  6
CONTINUOUS
 70
0
 71
3
 72
9
 73
5
 74
0
 42
0.0000001
 43
0.0000001
 44
0.0000000001
 40
0.0
 40
0.0
 40
0.0
 40
0.0
 40
0.4946003564
 40
1.0
 40
1.0
 40
1.0
 40
1.0
 10
-38.6771034217
 20
71.8224362534
 30
0.0
 10
-38.6334436429
 20
71.7450222019
 30
0.0
 10
-38.5458972724
 20
71.5880952542
 30
0.0
 10
-38.4583970442
 20
71.4311437795
 30
0.0
 10
-38.4139985978
 20
71.3519187854
 30
0.0
  0
SPLINE
  5
3B9
100
AcDbEntity
  8
0
100
AcDbSpline
 62
7
  6
CONTINUOUS
 70
0
 71
3
 72
9
 73
5
 74
0
 42
0.0000001
 43
0.0000001
 44
0.0000000001
 40
0.0
 40
0.0
 40
0.0
 40
0.0
 40
0.2462810576
 40
1.0
 40
1.0
 40
1.0
 40
1.0
 10
-37.6432595189
 20
73.2507838905
 30
0.0
 10
-37.7343302415
 20
73.1496547329
 30
0.0
 10
-38.0962297369
 20
72.7319790924
 30
0.0
 10
-38.4269218534
 20
72.2874133027
 30
0.0
 10
-38.6577876689
 20
71.9407584665
 30
0.0
  0
SPLINE
  5
3BA
100
AcDbEntity
  8
0
100
AcDbSpline
 62
7
  6
CONTINUOUS
 70
0
 71
3
 72
11
 73
7
 74
0
 42
0.0000001
 43
0.0000001
 44
0.0000000001
 40
0.0
 40
0.0
 40
0.0
 40
0.0
 40
0.1984159015
 40
0.4291647003
 40
0.6984246547
 40
1.0
 40
1.0
 40
1.0
 40
1.0
 10
-37.4924913202
 20
73.316144784
 30
0.0
 10
-37.5031651094
 20
73.3202734845
 30
0.0
 10
-37.5287925059
 20
73.3229388804
 30
0.0
 10
-37.5679881348
 20
73.311139108
 30
0.0
 10
-37.6075609197
 20
73.2864945578
 30
0.0
 10
-37.6316192801
 20
73.2637097521
 30
0.0
 10
-37.6432595189
 20
73.2507838905
 30
0.0
  0
SPLINE
  5
3BB
100
AcDbEntity
  8
0
100
AcDbSpline
 62
7
  6
CONTINUOUS
 70
0
 71
3
 72
11
 73
7
 74
0
 42
0.0000001
 43
0.0000001
 44
0.0000000001
 40
0.0
 40
0.0
 40
0.0
 40
0.0
 40
0.3015818999
 40
0.5708417785
 40
0.8015857314
 40
1.0
 40
1.0
 40
1.0
 40
1.0
 10
-40.0536490627
 20
69.0758667391
 30
0.0
 10
-40.0590228744
 20
69.0593233892
 30
0.0
 10
-40.0667254083
 20
69.0270967549
 30
0.0
 10
-40.0682805616
 20
68.9805052371
 30
0.0
 10
-40.0588998447
 20
68.940663361
 30
0.0
 10
-40.0437764764
 20
68.9198047475
 30
0.0
 10
-40.0348636954
 20
68.912626663
 30
0.0
  0
LINE
  5
3BC
100
AcDbEntity
  8
0
100
AcDbLine
 62
7
  6
CONTINUOUS
 10
-37.1792091983
 20
73.1949361701
 11
-37.4924913202
 21
73.316144784
  0
LINE
  5
3BD
100
AcDbEntity
  8
0
100
AcDbLine
 62
7
  6
CONTINUOUS
 10
-40.0348636954
 20
68.912626663
 11
-39.7732343749
 21
68.7019527728
  0
LINE
  5
3BE
100
AcDbEntity
  8
0
100
AcDbLine
 62
7
  6
CONTINUOUS
 10
-38.3410194577
 20
73.806074296
 11
-38.0277373357
 21
73.6848656821
  0
LINE
  5
3BF
100
AcDbEntity
  8
0
100
AcDbLine
 62
7
  6
CONTINUOUS
 10
-40.6217625123
 20
69.1918822848
 11
-40.8833918328
 21
69.402556175
  0
SPLINE
  5
3C0
100
AcDbEntity
  8
0
100
AcDbSpline
 62
7
  6
CONTINUOUS
 70
0
 71
3
 72
9
 73
5
 74
0
 42
0.0000001
 43
0.0000001
 44
0.0000000001
 40
0.0
 40
0.0
 40
0.0
 40
0.0
 40
0.2596286984
 40
1.0
 40
1.0
 40
1.0
 40
1.0
 10
-36.6958520593
 20
69.3869717401
 30
0.0
 10
-36.7071765558
 20
69.3732136684
 30
0.0
 10
-36.7521645382
 20
69.3213778523
 30
0.0
 10
-36.8026990487
 20
69.2742555475
 30
0.0
 10
-36.8429544082
 20
69.2432454133
 30
0.0
  0
SPLINE
  5
3C1
100
AcDbEntity
  8
0
100
AcDbSpline
 62
7
  6
CONTINUOUS
 70
0
 71
3
 72
10
 73
6
 74
0
 42
0.0000001
 43
0.0000001
 44
0.0000000001
 40
0.0
 40
0.0
 40
0.0
 40
0.0
 40
0.3650114806
 40
0.6425403383
 40
1.0
 40
1.0
 40
1.0
 40
1.0
 10
-39.4272371759
 20
68.3573194052
 30
0.0
 10
-39.4264115445
 20
68.3587546798
 30
0.0
 10
-39.4270058816
 20
68.3621301177
 30
0.0
 10
-39.4293298282
 20
68.3659132391
 30
0.0
 10
-39.4311479432
 20
68.3681922358
 30
0.0
 10
-39.4322235066
 20
68.3694057309
 30
0.0
  0
SPLINE
  5
3C2
100
AcDbEntity
  8
0
100
AcDbSpline
 62
7
  6
CONTINUOUS
 70
0
 71
3
 72
16
 73
12
 74
0
 42
0.0000001
 43
0.0000001
 44
0.0000000001
 40
0.0
 40
0.0
 40
0.0
 40
0.0
 40
0.1454544541
 40
0.2892730858
 40
0.4291115294
 40
0.562507825
 40
0.687236634
 40
0.8017166962
 40
0.9054845966
 40
0.9537770171
 40
1.0
 40
1.0
 40
1.0
 40
1.0
 10
-36.1998064302
 20
70.3363846695
 30
0.0
 10
-36.1913753355
 20
70.2413547165
 30
0.0
 10
-36.1922563464
 20
70.050365386
 30
0.0
 10
-36.2439941265
 20
69.7722802199
 30
0.0
 10
-36.3410695022
 20
69.5149702254
 30
0.0
 10
-36.4762939295
 20
69.2899760068
 30
0.0
 10
-36.6408244164
 20
69.1070307159
 30
0.0
 10
-36.8243949034
 20
68.9738970413
 30
0.0
 10
-36.988665709
 20
68.9075905906
 30
0.0
 10
-37.1174125076
 20
68.8863947086
 30
0.0
 10
-37.1797308104
 20
68.8859700894
 30
0.0
 10
-37.2099558025
 20
68.8883372075
 30
0.0
  0
SPLINE
  5
3C3
100
AcDbEntity
  8
0
100
AcDbSpline
 62
7
  6
CONTINUOUS
 70
0
 71
3
 72
9
 73
5
 74
0
 42
0.0000001
 43
0.0000001
 44
0.0000000001
 40
0.0
 40
0.0
 40
0.0
 40
0.0
 40
0.498891941
 40
1.0
 40
1.0
 40
1.0
 40
1.0
 10
-37.812553422
 20
73.6160421667
 30
0.0
 10
-37.6940404386
 20
73.5698094608
 30
0.0
 10
-37.4657130615
 20
73.4513492226
 30
0.0
 10
-37.2682621183
 20
73.2865683565
 30
0.0
 10
-37.1792091983
 20
73.1949361701
 30
0.0
  0
LINE
  5
3C4
100
AcDbEntity
  8
0
100
AcDbLine
 62
7
  6
CONTINUOUS
 10
-40.4799752847
 20
71.6797321803
 11
-40.4748923121
 21
71.6629291736
  0
SPLINE
  5
3C5
100
AcDbEntity
  8
0
100
AcDbSpline
 62
7
  6
CONTINUOUS
 70
0
 71
3
 72
9
 73
5
 74
0
 42
0.0000001
 43
0.0000001
 44
0.0000000001
 40
0.0
 40
0.0
 40
0.0
 40
0.0
 40
0.2545509313
 40
1.0
 40
1.0
 40
1.0
 40
1.0
 10
-40.2620254959
 20
71.2214128952
 30
0.0
 10
-40.2813673019
 20
71.2582361514
 30
0.0
 10
-40.3559336035
 20
71.4036388833
 30
0.0
 10
-40.425474892
 20
71.5515965433
 30
0.0
 10
-40.4748923121
 20
71.6629291736
 30
0.0
  0
SPLINE
  5
3C6
100
AcDbEntity
  8
0
100
AcDbSpline
 62
7
  6
CONTINUOUS
 70
0
 71
3
 72
9
 73
5
 74
0
 42
0.0000001
 43
0.0000001
 44
0.0000000001
 40
0.0
 40
0.0
 40
0.0
 40
0.0
 40
0.2462796112
 40
1.0
 40
1.0
 40
1.0
 40
1.0
 10
-40.9021772001
 20
69.565796251
 30
0.0
 10
-40.8601336395
 20
69.6952279046
 30
0.0
 10
-40.679370407
 20
70.2174728247
 30
0.0
 10
-40.4597148738
 20
70.7261361816
 30
0.0
 10
-40.2749384535
 20
71.099394503
 30
0.0
  0
SPLINE
  5
3C7
100
AcDbEntity
  8
0
100
AcDbSpline
 62
7
  6
CONTINUOUS
 70
0
 71
3
 72
9
 73
5
 74
0
 42
0.0000001
 43
0.0000001
 44
0.0000000001
 40
0.0
 40
0.0
 40
0.0
 40
0.0
 40
0.25329422
 40
1.0
 40
1.0
 40
1.0
 40
1.0
 10
-39.5063147774
 20
72.4306895233
 30
0.0
 10
-39.4287309734
 20
72.547184864
 30
0.0
 10
-39.1143712982
 20
73.001666143
 30
0.0
 10
-38.7679044192
 20
73.4341005321
 30
0.0
 10
-38.4917876564
 20
73.7407134025
 30
0.0
  0
SPLINE
  5
3C8
100
AcDbEntity
  8
0
100
AcDbSpline
 62
7
  6
CONTINUOUS
 70
0
 71
3
 72
9
 73
5
 74
0
 42
0.0000001
 43
0.0000001
 44
0.0000000001
 40
0.0
 40
0.0
 40
0.0
 40
0.0
 40
0.2453075081
 40
1.0
 40
1.0
 40
1.0
 40
1.0
 10
-40.0943131836
 20
72.3221114247
 30
0.0
 10
-40.0544554847
 20
72.3263443325
 30
0.0
 10
-39.8918537872
 20
72.3424100183
 30
0.0
 10
-39.7287435738
 20
72.3535773756
 30
0.0
 10
-39.6055293463
 20
72.3584973497
 30
0.0
  0
LINE
  5
3C9
100
AcDbEntity
  8
0
100
AcDbLine
 62
7
  6
CONTINUOUS
 10
-40.1116082458
 20
72.3180652221
 11
-40.0943131836
 21
72.3221114247
  0
SPLINE
  5
3CA
100
AcDbEntity
  8
0
100
AcDbSpline
 62
7
  6
CONTINUOUS
 70
0
 71
3
 72
11
 73
7
 74
0
 42
0.0000001
 43
0.0000001
 44
0.0000000001
 40
0.0
 40
0.0
 40
0.0
 40
0.0
 40
0.201042385
 40
0.43418551
 40
0.7025373675
 40
1.0
 40
1.0
 40
1.0
 40
1.0
 10
-40.8897987272
 20
69.4084354877
 30
0.0
 10
-40.897434201
 20
69.4163857194
 30
0.0
 10
-40.90980468
 20
69.4376034757
 30
0.0
 10
-40.9169722952
 20
69.4759254904
 30
0.0
 10
-40.9146103687
 20
69.5199806142
 30
0.0
 10
-40.9072159324
 20
69.5502844474
 30
0.0
 10
-40.9021772001
 20
69.565796251
 30
0.0
  0
SPLINE
  5
3CB
100
AcDbEntity
  8
0
100
AcDbSpline
 62
7
  6
CONTINUOUS
 70
0
 71
3
 72
11
 73
7
 74
0
 42
0.0000001
 43
0.0000001
 44
0.0000000001
 40
0.0
 40
0.0
 40
0.0
 40
0.0
 40
0.2974787548
 40
0.5658369143
 40
0.7989719075
 40
1.0
 40
1.0
 40
1.0
 40
1.0
 10
-38.4917876564
 20
73.7407134025
 30
0.0
 10
-38.4808700724
 20
73.7528367945
 30
0.0
 10
-38.4583163806
 20
73.7743986357
 30
0.0
 10
-38.4213327052
 20
73.7984761051
 30
0.0
 10
-38.3845502434
 20
73.8114276817
 30
0.0
 10
-38.3599842189
 20
73.8113160473
 30
0.0
 10
-38.3492804582
 20
73.8086738442
 30
0.0
  0
SPLINE
  5
3CC
100
AcDbEntity
  8
0
100
AcDbSpline
 62
250
  6
CONTINUOUS
 70
0
 71
3
 72
23
 73
19
 74
0
 42
0.0000001
 43
0.0000001
 44
0.0000000001
 40
0.0
 40
0.0
 40
0.0
 40
0.0
 40
0.056437763
 40
0.1144717113
 40
0.1744406573
 40
0.2364514051
 40
0.3003885665
 40
0.3659454525
 40
0.4326665096
 40
0.4999952104
 40
0.5673241649
 40
0.6340459624
 40
0.6996040126
 40
0.7635426586
 40
0.8255550703
 40
0.885525687
 40
0.9435611217
 40
1.0
 40
1.0
 40
1.0
 40
1.0
 10
-38.4917876564
 20
73.7407134025
 30
0.0
 10
-38.6036700459
 20
73.766640205
 30
0.0
 10
-38.8364274916
 20
73.7965523592
 30
0.0
 10
-39.1926136806
 20
73.7747798433
 30
0.0
 10
-39.5503788001
 20
73.6880381967
 30
0.0
 10
-39.8998622421
 20
73.5390114711
 30
0.0
 10
-40.2317651031
 20
73.3320055989
 30
0.0
 10
-40.5372278175
 20
73.0727642125
 30
0.0
 10
-40.8081066292
 20
72.7683650957
 30
0.0
 10
-41.0371539724
 20
72.4270521798
 30
0.0
 10
-41.2182165195
 20
72.0580335179
 30
0.0
 10
-41.3463965424
 20
71.6712421287
 30
0.0
 10
-41.4181783529
 20
71.2770766742
 30
0.0
 10
-41.4315042456
 20
70.8861289216
 30
0.0
 10
-41.3858298033
 20
70.5089435073
 30
0.0
 10
-41.2820753296
 20
70.155726703
 30
0.0
 10
-41.1228464855
 20
69.8363602832
 30
0.0
 10
-40.9805689288
 20
69.649731502
 30
0.0
 10
-40.9021772001
 20
69.565796251
 30
0.0
  0
SPLINE
  5
3CD
100
AcDbEntity
  8
0
100
AcDbSpline
 62
250
  6
CONTINUOUS
 70
0
 71
3
 72
23
 73
19
 74
0
 42
0.0000001
 43
0.0000001
 44
0.0000000001
 40
0.0
 40
0.0
 40
0.0
 40
0.0
 40
0.056437763
 40
0.1144717113
 40
0.1744406573
 40
0.2364514051
 40
0.3003885665
 40
0.3659454525
 40
0.4326665096
 40
0.4999952104
 40
0.5673241649
 40
0.6340459624
 40
0.6996040126
 40
0.7635426586
 40
0.8255550703
 40
0.885525687
 40
0.9435611217
 40
1.0
 40
1.0
 40
1.0
 40
1.0
 10
-40.0536490627
 20
69.0758667391
 30
0.0
 10
-39.9417666731
 20
69.0499399365
 30
0.0
 10
-39.7090092274
 20
69.0200277824
 30
0.0
 10
-39.3528230385
 20
69.0418002982
 30
0.0
 10
-38.995057919
 20
69.1285419448
 30
0.0
 10
-38.6455744769
 20
69.2775686705
 30
0.0
 10
-38.313671616
 20
69.4845745427
 30
0.0
 10
-38.0082089015
 20
69.7438159291
 30
0.0
 10
-37.7373300898
 20
70.0482150458
 30
0.0
 10
-37.5082827466
 20
70.3895279617
 30
0.0
 10
-37.3272201996
 20
70.7585466236
 30
0.0
 10
-37.1990401767
 20
71.1453380129
 30
0.0
 10
-37.1272583661
 20
71.5395034674
 30
0.0
 10
-37.1139324734
 20
71.93045122
 30
0.0
 10
-37.1596069157
 20
72.3076366343
 30
0.0
 10
-37.2633613895
 20
72.6608534386
 30
0.0
 10
-37.4225902335
 20
72.9802198584
 30
0.0
 10
-37.5648677903
 20
73.1668486395
 30
0.0
 10
-37.6432595189
 20
73.2507838905
 30
0.0
  0
SPLINE
  5
3CE
100
AcDbEntity
  8
0
100
AcDbSpline
 62
250
  6
CONTINUOUS
 70
0
 71
3
 72
13
 73
9
 74
0
 42
0.0000001
 43
0.0000001
 44
0.0000000001
 40
0.0
 40
0.0
 40
0.0
 40
0.0
 40
0.2680549555
 40
0.526758464
 40
0.650904072
 40
0.7709199741
 40
0.8870421114
 40
1.0
 40
1.0
 40
1.0
 40
1.0
 10
-37.3408279777
 20
70.2928502373
 30
0.0
 10
-37.1964370495
 20
70.5429426609
 30
0.0
 10
-36.9777525709
 20
71.0753440597
 30
0.0
 10
-36.9002411167
 20
71.7832853175
 30
0.0
 10
-36.9691901441
 20
72.322786897
 30
0.0
 10
-37.082359796
 20
72.6961641716
 30
0.0
 10
-37.2547509743
 20
73.0326993659
 30
0.0
 10
-37.4081443877
 20
73.2284260358
 30
0.0
 10
-37.4924913202
 20
73.316144784
 30
0.0
  0
SPLINE
  5
3CF
100
AcDbEntity
  8
0
100
AcDbSpline
 62
250
  6
CONTINUOUS
 70
0
 71
3
 72
13
 73
9
 74
0
 42
0.0000001
 43
0.0000001
 44
0.0000000001
 40
0.0
 40
0.0
 40
0.0
 40
0.0
 40
0.1129582452
 40
0.2290801903
 40
0.3490952499
 40
0.4732396421
 40
0.7319423319
 40
1.0
 40
1.0
 40
1.0
 40
1.0
 10
-40.0348636954
 20
68.912626663
 30
0.0
 10
-39.9167269637
 20
68.8834338358
 30
0.0
 10
-39.6705320818
 20
68.8484432646
 30
0.0
 10
-39.2928954846
 20
68.8674007091
 30
0.0
 10
-38.9129633575
 20
68.9560684624
 30
0.0
 10
-38.4112751168
 20
69.1660931206
 30
0.0
 10
-37.8369424961
 20
69.5871795749
 30
0.0
 10
-37.4852175942
 20
70.0427600857
 30
0.0
 10
-37.3408279777
 20
70.2928502373
 30
0.0
  0
SPLINE
  5
3D0
100
AcDbEntity
  8
0
100
AcDbSpline
 62
7
  6
CONTINUOUS
 70
0
 71
3
 72
10
 73
6
 74
0
 42
0.0000001
 43
0.0000001
 44
0.0000000001
 40
0.0
 40
0.0
 40
0.0
 40
0.0
 40
0.3573774147
 40
0.6348761083
 40
1.0
 40
1.0
 40
1.0
 40
1.0
 10
-36.7206741341
 20
73.0659470066
 30
0.0
 10
-36.7190850842
 20
73.0656227855
 30
0.0
 10
-36.71620167
 20
73.0651887282
 30
0.0
 10
-36.7117613767
 20
73.065069716
 30
0.0
 10
-36.7085406464
 20
73.0662451575
 30
0.0
 10
-36.7077099082
 20
73.0676788006
 30
0.0
  0
SPLINE
  5
3D1
100
AcDbEntity
  8
0
100
AcDbSpline
 62
7
  6
CONTINUOUS
 70
0
 71
3
 72
9
 73
5
 74
0
 42
0.0000001
 43
0.0000001
 44
0.0000000001
 40
0.0
 40
0.0
 40
0.0
 40
0.0
 40
0.2503294356
 40
1.0
 40
1.0
 40
1.0
 40
1.0
 10
-39.5912570557
 20
70.9314596763
 30
0.0
 10
-39.5985850637
 20
70.8804687243
 30
0.0
 10
-39.6269823144
 20
70.6766471084
 30
0.0
 10
-39.6528545341
 20
70.4724840051
 30
0.0
 10
-39.6717948401
 20
70.3193777905
 30
0.0
  0
LINE
  5
3D2
100
AcDbEntity
  8
0
100
AcDbLine
 62
7
  6
CONTINUOUS
 10
-39.5912570557
 20
70.9314596763
 11
-39.1732508135
 21
70.7508052143
  0
LINE
  5
3D3
100
AcDbEntity
  8
0
100
AcDbLine
 62
7
  6
CONTINUOUS
 10
-40.2620254959
 20
71.2214128952
 11
-39.812128739
 21
71.0269280031
  0
SPLINE
  5
3D4
100
AcDbEntity
  8
0
100
AcDbSpline
 62
7
  6
CONTINUOUS
 70
0
 71
3
 72
11
 73
7
 74
0
 42
0.0000001
 43
0.0000001
 44
0.0000000001
 40
0.0
 40
0.0
 40
0.0
 40
0.0
 40
0.2494257263
 40
0.5016511535
 40
0.7536824684
 40
1.0
 40
1.0
 40
1.0
 40
1.0
 10
-36.1058361199
 20
70.6525241324
 30
0.0
 10
-36.0390651678
 20
70.5713420198
 30
0.0
 10
-35.9270175855
 20
70.3885265377
 30
0.0
 10
-35.8352612879
 20
70.08112407
 30
0.0
 10
-35.8195671252
 20
69.7623758329
 30
0.0
 10
-35.8577627433
 20
69.5536571581
 30
0.0
 10
-35.8882206562
 20
69.4544222991
 30
0.0
  0
SPLINE
  5
3D5
100
AcDbEntity
  8
0
100
AcDbSpline
 62
7
  6
CONTINUOUS
 70
0
 71
3
 72
15
 73
11
 74
0
 42
0.0000001
 43
0.0000001
 44
0.0000000001
 40
0.0
 40
0.0
 40
0.0
 40
0.0
 40
0.3095280322
 40
0.4511189946
 40
0.581556079
 40
0.7002345752
 40
0.8077546024
 40
0.9062761239
 40
0.9534728418
 40
1.0
 40
1.0
 40
1.0
 40
1.0
 10
-35.8882206562
 20
69.4544222991
 30
0.0
 10
-35.9257486277
 20
69.3321524975
 30
0.0
 10
-36.0070004724
 20
69.1597985657
 30
0.0
 10
-36.1610663172
 20
68.9741797321
 30
0.0
 10
-36.2855653511
 20
68.8697928184
 30
0.0
 10
-36.4164601314
 20
68.7995356492
 30
0.0
 10
-36.5477364292
 20
68.7654247875
 30
0.0
 10
-36.6541157653
 20
68.7685371917
 30
0.0
 10
-36.7308964679
 20
68.7900723815
 30
0.0
 10
-36.7661403259
 20
68.8066444495
 30
0.0
 10
-36.7827902546
 20
68.8162566931
 30
0.0
  0
SPLINE
  5
3D6
100
AcDbEntity
  8
0
100
AcDbSpline
 62
7
  6
CONTINUOUS
 70
0
 71
3
 72
9
 73
5
 74
0
 42
0.0000001
 43
0.0000001
 44
0.0000000001
 40
0.0
 40
0.0
 40
0.0
 40
0.0
 40
0.5011062068
 40
1.0
 40
1.0
 40
1.0
 40
1.0
 10
-39.7732343749
 20
68.7019527728
 30
0.0
 10
-39.8970661084
 20
68.7332528065
 30
0.0
 10
-40.1383986787
 20
68.8218283159
 30
0.0
 10
-40.3550754105
 20
68.9602651497
 30
0.0
 10
-40.4543409779
 20
69.0397421968
 30
0.0
  0
SPLINE
  5
3D7
100
AcDbEntity
  8
TRASH
100
AcDbSpline
 62
7
  6
CONTINUOUS
 70
0
 71
3
 72
9
 73
5
 74
0
 42
0.0000001
 43
0.0000001
 44
0.0000000001
 40
0.0
 40
0.0
 40
0.0
 40
0.0
 40
0.5065381793
 40
1.0
 40
1.0
 40
1.0
 40
1.0
 10
-39.329517705
 20
71.7169311545
 30
0.0
 10
-39.2156299032
 20
71.7033893733
 30
0.0
 10
-38.9906593737
 20
71.6778527304
 30
0.0
 10
-38.7650614117
 20
71.6576720654
 30
0.0
 10
-38.6535321688
 20
71.650988503
 30
0.0
  0
SPLINE
  5
3D8
100
AcDbEntity
  8
0
100
AcDbSpline
 62
7
  6
CONTINUOUS
 70
0
 71
3
 72
9
 73
5
 74
0
 42
0.0000001
 43
0.0000001
 44
0.0000000001
 40
0.0
 40
0.0
 40
0.0
 40
0.0
 40
0.2497368464
 40
1.0
 40
1.0
 40
1.0
 40
1.0
 10
-38.5292003952
 20
72.298409341
 30
0.0
 10
-38.5702157606
 20
72.2674441237
 30
0.0
 10
-38.7342997462
 20
72.1432561141
 30
0.0
 10
-38.8976361359
 20
72.0180611672
 30
0.0
 10
-39.0190034946
 20
71.9226318901
 30
0.0
  0
LINE
  5
3D9
100
AcDbEntity
  8
0
100
AcDbLine
 62
7
  6
CONTINUOUS
 10
-38.6535273293
 20
71.6509926939
 11
-39.0190034946
 21
71.9226318901
  0
LINE
  5
3DA
100
AcDbEntity
  8
0
100
AcDbLine
 62
7
  6
CONTINUOUS
 10
-39.2121291542
 20
72.0661585699
 11
-39.6055293463
 21
72.3584973497
  0
LINE
  5
3DB
100
AcDbEntity
  8
0
100
AcDbLine
 62
7
  6
CONTINUOUS
 10
-39.0454427058
 20
71.9221482758
 11
-39.2121291542
 21
72.0661585699
  0
LINE
  5
3DC
100
AcDbEntity
  8
0
100
AcDbLine
 62
7
  6
CONTINUOUS
 10
-39.3713713382
 20
71.7287647899
 11
-40.1116082458
 21
72.3180652221
  0
LINE
  5
3DD
100
AcDbEntity
  8
0
100
AcDbLine
 62
7
  6
CONTINUOUS
 10
-40.5680795254
 20
72.419680396
 11
-39.3713543654
 21
71.7288064005
  0
SPLINE
  5
3DE
100
AcDbEntity
  8
0
100
AcDbSpline
 62
7
  6
CONTINUOUS
 70
0
 71
3
 72
9
 73
5
 74
0
 42
0.0000001
 43
0.0000001
 44
0.0000000001
 40
0.0
 40
0.0
 40
0.0
 40
0.0
 40
0.250262929
 40
1.0
 40
1.0
 40
1.0
 40
1.0
 10
-39.599641803
 20
71.3334342911
 30
0.0
 10
-39.6994126134
 20
71.3911739142
 30
0.0
 10
-40.0981551048
 20
71.6217540565
 30
0.0
 10
-40.4970670531
 20
71.8520409733
 30
0.0
 10
-40.7961750205
 20
72.0246454699
 30
0.0
  0
SPLINE
  5
3DF
100
AcDbEntity
  8
0
100
AcDbSpline
 62
7
  6
CONTINUOUS
 70
0
 71
3
 72
9
 73
5
 74
0
 42
0.0000001
 43
0.0000001
 44
0.0000000001
 40
0.0
 40
0.0
 40
0.0
 40
0.0
 40
0.5001713307
 40
1.0
 40
1.0
 40
1.0
 40
1.0
 10
-40.4799752847
 20
71.6797321803
 30
0.0
 10
-40.3332040324
 20
71.621968723
 30
0.0
 10
-40.0398271256
 20
71.5063159225
 30
0.0
 10
-39.7461902666
 20
71.3913243629
 30
0.0
 10
-39.5995195655
 20
71.3336004786
 30
0.0
  0
LINE
  5
3E0
100
AcDbEntity
  8
0
100
AcDbLine
 62
7
  6
CONTINUOUS
 10
-39.812128739
 20
71.0269280031
 11
-39.6040573271
 21
70.9545993708
  0
SPLINE
  5
3E1
100
AcDbEntity
  8
TRASH
100
AcDbSpline
 62
7
  6
CONTINUOUS
 70
0
 71
3
 72
9
 73
5
 74
0
 42
0.0000001
 43
0.0000001
 44
0.0000000001
 40
0.0
 40
0.0
 40
0.0
 40
0.0
 40
0.4934623287
 40
1.0
 40
1.0
 40
1.0
 40
1.0
 10
-39.173250813
 20
70.7508052144
 30
0.0
 10
-39.2348021632
 20
70.8440544976
 30
0.0
 10
-39.3650697458
 20
71.0293495112
 30
0.0
 10
-39.4996749927
 20
71.2114140628
 30
0.0
 10
-39.5683467274
 20
71.303275567
 30
0.0
  0
SPLINE
  5
3E2
100
AcDbEntity
  8
RACCORDO
100
AcDbSpline
 62
7
  6
CONTINUOUS
 70
0
 71
3
 72
17
 73
13
 74
0
 42
0.0000001
 43
0.0000001
 44
0.0000000001
 40
0.0
 40
0.0
 40
0.0
 40
0.0
 40
0.0605645081
 40
0.1216456344
 40
0.2454307261
 40
0.3718529977
 40
0.4999854122
 40
0.62811925
 40
0.7545473356
 40
0.8783421785
 40
0.9394301792
 40
1.0
 40
1.0
 40
1.0
 40
1.0
 10
-37.366463446
 20
26.2028485292
 30
0.0
 10
-37.3872357611
 20
26.2354184836
 30
0.0
 10
-37.4238125064
 20
26.3042820184
 30
0.0
 10
-37.4754828638
 20
26.452564926
 30
0.0
 10
-37.4986438879
 20
26.6526601209
 30
0.0
 10
-37.4615676335
 20
26.8937273159
 30
0.0
 10
-37.3651662879
 20
27.1206588805
 30
0.0
 10
-37.2168686474
 20
27.3176378734
 30
0.0
 10
-37.0266547575
 20
27.4703204764
 30
0.0
 10
-36.8417854983
 20
27.5503460333
 30
0.0
 10
-36.687523486
 20
27.5797611445
 30
0.0
 10
-36.6095900938
 20
27.5825291323
 30
0.0
 10
-36.5709939601
 20
27.5808287528
 30
0.0
  0
SPLINE
  5
3E3
100
AcDbEntity
  8
RACCORDO
100
AcDbSpline
 62
250
  6
CONTINUOUS
 70
0
 71
3
 72
21
 73
17
 74
0
 42
0.0000001
 43
0.0000001
 44
0.0000000001
 40
0.0
 40
0.0
 40
0.0
 40
0.0
 40
0.0562160549
 40
0.1137127464
 40
0.1731601903
 40
0.2348756114
 40
0.298859448
 40
0.3648180467
 40
0.5000002015
 40
0.6351823681
 40
0.7011409771
 40
0.7651248114
 40
0.8268402484
 40
0.886287588
 40
0.9437844477
 40
1.0
 40
1.0
 40
1.0
 40
1.0
 10
-36.5894082828
 20
27.3343242289
 30
0.0
 10
-36.6161329694
 20
27.3461154218
 30
0.0
 10
-36.6731103258
 20
27.3638477757
 30
0.0
 10
-36.7634440742
 20
27.3711738026
 30
0.0
 10
-36.8561647042
 20
27.3594468389
 30
0.0
 10
-36.9480589575
 20
27.3291897765
 30
0.0
 10
-37.036087075
 20
27.281553353
 30
0.0
 10
-37.1451544801
 20
27.1965386106
 30
0.0
 10
-37.255830331
 20
27.0575766571
 30
0.0
 10
-37.3208186558
 20
26.8922404109
 30
0.0
 10
-37.3398947888
 20
26.7552757378
 30
0.0
 10
-37.3371237122
 20
26.6552233198
 30
0.0
 10
-37.3173703231
 20
26.5605139682
 30
0.0
 10
-37.2811546288
 20
26.4743568203
 30
0.0
 10
-37.2296370394
 20
26.399793255
 30
0.0
 10
-37.1857873999
 20
26.3593202363
 30
0.0
 10
-37.1622117119
 20
26.3420745765
 30
0.0
  0
SPLINE
  5
3E4
100
AcDbEntity
  8
RACCORDO
100
AcDbSpline
 62
7
  6
CONTINUOUS
 70
0
 71
3
 72
17
 73
13
 74
0
 42
0.0000001
 43
0.0000001
 44
0.0000000001
 40
0.0
 40
0.0
 40
0.0
 40
0.0
 40
0.0605710736
 40
0.1216591387
 40
0.2454566664
 40
0.3718869271
 40
0.5000220306
 40
0.6281531912
 40
0.7545733088
 40
0.8783557
 40
0.9394367747
 40
1.0
 40
1.0
 40
1.0
 40
1.0
 10
-2.0111274951
 20
5.7891233369
 30
0.0
 10
-2.0319017033
 20
5.8216970411
 30
0.0
 10
-2.0684814915
 20
5.8905688184
 30
0.0
 10
-2.1201524649
 20
6.0388691764
 30
0.0
 10
-2.1433052659
 20
6.2389835444
 30
0.0
 10
-2.1062107642
 20
6.4800631638
 30
0.0
 10
-2.0097907603
 20
6.7069924224
 30
0.0
 10
-1.8614818477
 20
6.903956369
 30
0.0
 10
-1.6712696377
 20
7.0566168165
 30
0.0
 10
-1.486413078
 20
7.1366259692
 30
0.0
 10
-1.3321665685
 20
7.1660328574
 30
0.0
 10
-1.2542418927
 20
7.1687995208
 30
0.0
 10
-1.2156499858
 20
7.1670989679
 30
0.0
  0
SPLINE
  5
3E5
100
AcDbEntity
  8
RACCORDO
100
AcDbSpline
 62
250
  6
CONTINUOUS
 70
0
 71
3
 72
21
 73
17
 74
0
 42
0.0000001
 43
0.0000001
 44
0.0000000001
 40
0.0
 40
0.0
 40
0.0
 40
0.0
 40
0.0562159476
 40
0.1137124817
 40
0.1731598193
 40
0.2348750822
 40
0.2988587991
 40
0.364817306
 40
0.4999993847
 40
0.6351816244
 40
0.7011403246
 40
0.7651242814
 40
0.8268398791
 40
0.8862873318
 40
0.9437843571
 40
1.0
 40
1.0
 40
1.0
 40
1.0
 10
-1.2340648805
 20
6.9205925581
 30
0.0
 10
-1.2607892792
 20
6.9323842418
 30
0.0
 10
-1.3177663603
 20
6.9501170904
 30
0.0
 10
-1.4080997667
 20
6.9574441332
 30
0.0
 10
-1.5008203064
 20
6.9457183733
 30
0.0
 10
-1.5927146723
 20
6.9154623787
 30
0.0
 10
-1.6807431023
 20
6.8678269988
 30
0.0
 10
-1.7898111473
 20
6.7828133801
 30
0.0
 10
-1.9004881155
 20
6.643852444
 30
0.0
 10
-1.9654778546
 20
6.4785167783
 30
0.0
 10
-1.984555298
 20
6.3415521924
 30
0.0
 10
-1.9817853298
 20
6.2414995854
 30
0.0
 10
-1.9620329793
 20
6.1467898432
 30
0.0
 10
-1.9258183693
 20
6.0606320395
 30
0.0
 10
-1.8743016232
 20
5.9860676481
 30
0.0
 10
-1.8304523353
 20
5.945594141
 30
0.0
 10
-1.8068769709
 20
5.9283479752
 30
0.0
  0
SPLINE
  5
3E6
100
AcDbEntity
  8
0
100
AcDbSpline
 62
7
  6
CONTINUOUS
 70
0
 71
3
 72
23
 73
19
 74
0
 42
0.0000001
 43
0.0000001
 44
0.0000000001
 40
0.0
 40
0.0
 40
0.0
 40
0.0
 40
0.0574855742
 40
0.1162211955
 40
0.1765260613
 40
0.2385344617
 40
0.3021908084
 40
0.367259273
 40
0.4333566424
 40
0.4999953436
 40
0.56663416
 40
0.632731979
 40
0.6978011431
 40
0.7614582892
 40
0.8234677081
 40
0.8837733074
 40
0.9425094636
 40
1.0
 40
1.0
 40
1.0
 40
1.0
 10
-2.2479165484
 20
-28.2702914547
 30
0.0
 10
-2.3687142911
 20
-28.2404664469
 30
0.0
 10
-2.619598617
 20
-28.2045614581
 30
0.0
 10
-3.0032945888
 20
-28.2229570189
 30
0.0
 10
-3.3870985333
 20
-28.3113727599
 30
0.0
 10
-3.7604525074
 20
-28.4664336671
 30
0.0
 10
-4.1136899387
 20
-28.6831756893
 30
0.0
 10
-4.4377342101
 20
-28.9553146546
 30
0.0
 10
-4.7242680394
 20
-29.2753148499
 30
0.0
 10
-4.9658610023
 20
-29.6345256364
 30
0.0
 10
-5.1561549303
 20
-30.0233554062
 30
0.0
 10
-5.2900228043
 20
-30.4315017557
 30
0.0
 10
-5.3636885225
 20
-30.8482044677
 30
0.0
 10
-5.374785047
 20
-31.262493018
 30
0.0
 10
-5.3224090928
 20
-31.6633647907
 30
0.0
 10
-5.2070927798
 20
-32.0399663012
 30
0.0
 10
-5.031192945
 20
-32.3814775627
 30
0.0
 10
-4.8746621739
 20
-32.5808188262
 30
0.0
 10
-4.7884272859
 20
-32.6705285955
 30
0.0
  0
SPLINE
  5
3E7
100
AcDbEntity
  8
0
100
AcDbSpline
 62
7
  6
CONTINUOUS
 70
0
 71
3
 72
13
 73
9
 74
0
 42
0.0000001
 43
0.0000001
 44
0.0000000001
 40
0.0
 40
0.0
 40
0.0
 40
0.0
 40
0.2692051057
 40
0.5267138215
 40
0.6501772003
 40
0.7698593822
 40
0.8861981029
 40
1.0
 40
1.0
 40
1.0
 40
1.0
 10
-0.6108961475
 20
-32.6781142225
 30
0.0
 10
-0.7804819087
 20
-32.8962961915
 30
0.0
 10
-1.1671551588
 20
-33.2838731204
 30
0.0
 10
-1.7552771197
 20
-33.6192807626
 30
0.0
 10
-2.2494427353
 20
-33.7670980507
 30
0.0
 10
-2.6170472217
 20
-33.8153053552
 30
0.0
 10
-2.9775894788
 20
-33.8008475475
 30
0.0
 10
-3.2096640413
 20
-33.7489298022
 30
0.0
 10
-3.3207749004
 20
-33.7128654288
 30
0.0
  0
SPLINE
  5
3E8
100
AcDbEntity
  8
0
100
AcDbSpline
 62
7
  6
CONTINUOUS
 70
0
 71
3
 72
13
 73
9
 74
0
 42
0.0000001
 43
0.0000001
 44
0.0000000001
 40
0.0
 40
0.0
 40
0.0
 40
0.0
 40
0.2692031902
 40
0.5267127472
 40
0.6501769435
 40
0.7698598035
 40
0.8861987167
 40
1.0
 40
1.0
 40
1.0
 40
1.0
 10
-0.152638578
 20
-31.88438883
 30
0.0
 10
-0.0484785929
 20
-31.6284287624
 30
0.0
 10
0.0938399385
 20
-31.0997619149
 30
0.0
 10
0.0902593453
 20
-30.4227163857
 30
0.0
 10
-0.0287997766
 20
-29.9208318566
 30
0.0
 10
-0.1708447818
 20
-29.5783596542
 30
0.0
 10
-0.3636273926
 20
-29.273334721
 30
0.0
 10
-0.5246207893
 20
-29.0982994976
 30
0.0
 10
-0.6114060835
 20
-29.0201009865
 30
0.0
  0
SPLINE
  5
3E9
100
AcDbEntity
  8
0
100
AcDbSpline
 62
7
  6
CONTINUOUS
 70
0
 71
3
 72
15
 73
11
 74
0
 42
0.0000001
 43
0.0000001
 44
0.0000000001
 40
0.0
 40
0.0
 40
0.0
 40
0.0
 40
0.1066804552
 40
0.2284352311
 40
0.3612961068
 40
0.4999931239
 40
0.6386912735
 40
0.7715553254
 40
0.8933146783
 40
1.0
 40
1.0
 40
1.0
 40
1.0
 10
-0.152638578
 20
-31.88438883
 30
0.0
 10
-0.1366832367
 20
-31.9176775471
 30
0.0
 10
-0.1152961158
 20
-31.9952055081
 30
0.0
 10
-0.1135960276
 20
-32.1212288656
 30
0.0
 10
-0.1419746994
 20
-32.2554568062
 30
0.0
 10
-0.2002369767
 20
-32.3860484633
 30
0.0
 10
-0.2842022675
 20
-32.5018016969
 30
0.0
 10
-0.3862594142
 20
-32.5934949309
 30
0.0
 10
-0.496251349
 20
-32.6550385759
 30
0.0
 10
-0.5740881076
 20
-32.6752850651
 30
0.0
 10
-0.6108961475
 20
-32.6781142225
 30
0.0
  0
SPLINE
  5
3EA
100
AcDbEntity
  8
0
100
AcDbSpline
 62
7
  6
CONTINUOUS
 70
0
 71
3
 72
17
 73
13
 74
0
 42
0.0000001
 43
0.0000001
 44
0.0000000001
 40
0.0
 40
0.0
 40
0.0
 40
0.0
 40
0.1462291171
 40
0.2914265919
 40
0.4328226757
 40
0.5673847054
 40
0.6923417559
 40
0.8057951571
 40
0.8581677292
 40
0.9077369528
 40
0.9548405552
 40
1.0
 40
1.0
 40
1.0
 40
1.0
 10
-0.0651875336
 20
-31.6439954985
 30
0.0
 10
-0.0469800233
 20
-31.7481202418
 30
0.0
 10
-0.0326205008
 20
-31.9600677863
 30
0.0
 10
-0.0743756172
 20
-32.2720923162
 30
0.0
 10
-0.1732444951
 20
-32.5621244098
 30
0.0
 10
-0.3201015116
 20
-32.8143260429
 30
0.0
 10
-0.502909221
 20
-33.0153371353
 30
0.0
 10
-0.6789926433
 20
-33.1348558628
 30
0.0
 10
-0.8239384205
 20
-33.1931079656
 30
0.0
 10
-0.9293312023
 20
-33.2176752148
 30
0.0
 10
-1.0321574951
 20
-33.2239672923
 30
0.0
 10
-1.0988298456
 20
-33.2158511759
 30
0.0
 10
-1.1306882376
 20
-33.2087307383
 30
0.0
  0
SPLINE
  5
3EB
100
AcDbEntity
  8
0
100
AcDbSpline
 62
7
  6
CONTINUOUS
 70
0
 71
3
 72
14
 73
10
 74
0
 42
0.0000001
 43
0.0000001
 44
0.0000000001
 40
0.0
 40
0.0
 40
0.0
 40
0.0
 40
0.4079139515
 40
0.7179652821
 40
0.8313936632
 40
0.9155307022
 40
0.9465852858
 40
0.9705161796
 40
1.0
 40
1.0
 40
1.0
 40
1.0
 10
-3.5239899164
 20
-33.6424302697
 30
0.0
 10
-3.4984325288
 20
-33.6571839545
 30
0.0
 10
-3.4528164179
 20
-33.6820734057
 30
0.0
 10
-3.3981083237
 20
-33.7072922957
 30
0.0
 10
-3.3633806108
 20
-33.7193918604
 30
0.0
 10
-3.3473787587
 20
-33.7235316431
 30
0.0
 10
-3.337271954
 20
-33.7247219594
 30
0.0
 10
-3.3313554226
 20
-33.7247376312
 30
0.0
 10
-3.3269371996
 20
-33.7234955967
 30
0.0
 10
-3.3258736323
 20
-33.7216466952
 30
0.0
  0
SPLINE
  5
3EC
100
AcDbEntity
  8
0
100
AcDbSpline
 62
7
  6
CONTINUOUS
 70
0
 71
3
 72
10
 73
6
 74
0
 42
0.0000001
 43
0.0000001
 44
0.0000000001
 40
0.0
 40
0.0
 40
0.0
 40
0.0
 40
0.3580625927
 40
0.6388705588
 40
1.0
 40
1.0
 40
1.0
 40
1.0
 10
-0.6063463646
 20
-29.0112872999
 30
0.0
 10
-0.6053882214
 20
-29.0096337883
 30
0.0
 10
-0.6061534644
 20
-29.0057201353
 30
0.0
 10
-0.6085947197
 20
-29.0011349403
 30
0.0
 10
-0.6105714671
 20
-28.9982793822
 30
0.0
 10
-0.6117377521
 20
-28.9967448632
 30
0.0
  0
SPLINE
  5
3ED
100
AcDbEntity
  8
0
100
AcDbSpline
 62
7
  6
CONTINUOUS
 70
0
 71
3
 72
12
 73
8
 74
0
 42
0.0000001
 43
0.0000001
 44
0.0000000001
 40
0.0
 40
0.0
 40
0.0
 40
0.0
 40
0.0631497631
 40
0.1451758046
 40
0.3643864106
 40
0.6522238072
 40
1.0
 40
1.0
 40
1.0
 40
1.0
 10
-0.6117377521
 20
-28.9967448632
 30
0.0
 10
-0.6143029297
 20
-28.9933697756
 30
0.0
 10
-0.620835837
 20
-28.9861014917
 30
0.0
 10
-0.638656173
 20
-28.9693280404
 30
0.0
 10
-0.6699080098
 20
-28.9449774657
 30
0.0
 10
-0.7174661433
 20
-28.9128341954
 30
0.0
 10
-0.7540384658
 20
-28.8908124747
 30
0.0
 10
-0.7742576192
 20
-28.8791404282
 30
0.0
  0
SPLINE
  5
3EE
100
AcDbEntity
  8
0
100
AcDbSpline
 62
7
  6
CONTINUOUS
 70
0
 71
3
 72
9
 73
5
 74
0
 42
0.0000001
 43
0.0000001
 44
0.0000000001
 40
0.0
 40
0.0
 40
0.0
 40
0.0
 40
0.253295696
 40
1.0
 40
1.0
 40
1.0
 40
1.0
 10
-3.3250475959
 20
-31.4695027729
 30
0.0
 10
-3.3871429983
 20
-31.5949388793
 30
0.0
 10
-3.6235516337
 20
-32.0944156968
 30
0.0
 10
-3.8248134105
 20
-32.6106748008
 30
0.0
 10
-3.9522855191
 20
-33.0030993614
 30
0.0
  0
SPLINE
  5
3EF
100
AcDbEntity
  8
0
100
AcDbSpline
 62
7
  6
CONTINUOUS
 70
0
 71
3
 72
9
 73
5
 74
0
 42
0.0000001
 43
0.0000001
 44
0.0000000001
 40
0.0
 40
0.0
 40
0.0
 40
0.0
 40
0.5054001356
 40
1.0
 40
1.0
 40
1.0
 40
1.0
 10
-2.6932141959
 20
-31.3862295586
 30
0.0
 10
-2.7840225696
 20
-31.3873891383
 30
0.0
 10
-2.9636931077
 20
-31.3900820537
 30
0.0
 10
-3.1433655034
 20
-31.3927205478
 30
0.0
 10
-3.2322360768
 20
-31.3936142732
 30
0.0
  0
LINE
  5
3F0
100
AcDbEntity
  8
0
100
AcDbLine
 62
7
  6
CONTINUOUS
 10
-2.6932141959
 20
-31.3862295586
 11
-2.6735285915
 21
-31.3835633566
  0
LINE
  5
3F1
100
AcDbEntity
  8
0
100
AcDbLine
 62
7
  6
CONTINUOUS
 10
-2.3126350542
 20
-30.7270473151
 11
-2.3051899007
 21
-30.7452139518
  0
SPLINE
  5
3F2
100
AcDbEntity
  8
0
100
AcDbSpline
 62
7
  6
CONTINUOUS
 70
0
 71
3
 72
9
 73
5
 74
0
 42
0.0000001
 43
0.0000001
 44
0.0000000001
 40
0.0
 40
0.0
 40
0.0
 40
0.0
 40
0.4946003564
 40
1.0
 40
1.0
 40
1.0
 40
1.0
 10
-2.5757398781
 20
-30.256529847
 30
0.0
 10
-2.5320800993
 20
-30.3339438986
 30
0.0
 10
-2.4445337288
 20
-30.4908708463
 30
0.0
 10
-2.3570335006
 20
-30.647822321
 30
0.0
 10
-2.3126350542
 20
-30.7270473151
 30
0.0
  0
SPLINE
  5
3F3
100
AcDbEntity
  8
0
100
AcDbSpline
 62
7
  6
CONTINUOUS
 70
0
 71
3
 72
9
 73
5
 74
0
 42
0.0000001
 43
0.0000001
 44
0.0000000001
 40
0.0
 40
0.0
 40
0.0
 40
0.0
 40
0.2462810576
 40
1.0
 40
1.0
 40
1.0
 40
1.0
 10
-1.5418959753
 20
-28.8281822099
 30
0.0
 10
-1.6329666979
 20
-28.9293113676
 30
0.0
 10
-1.9948661933
 20
-29.3469870081
 30
0.0
 10
-2.3255583098
 20
-29.7915527977
 30
0.0
 10
-2.5564241253
 20
-30.138207634
 30
0.0
  0
SPLINE
  5
3F4
100
AcDbEntity
  8
0
100
AcDbSpline
 62
7
  6
CONTINUOUS
 70
0
 71
3
 72
11
 73
7
 74
0
 42
0.0000001
 43
0.0000001
 44
0.0000000001
 40
0.0
 40
0.0
 40
0.0
 40
0.0
 40
0.1984159015
 40
0.4291647003
 40
0.6984246547
 40
1.0
 40
1.0
 40
1.0
 40
1.0
 10
-1.3911277766
 20
-28.7628213165
 30
0.0
 10
-1.4018015658
 20
-28.7586926159
 30
0.0
 10
-1.4274289623
 20
-28.7560272201
 30
0.0
 10
-1.4666245911
 20
-28.7678269924
 30
0.0
 10
-1.5061973761
 20
-28.7924715426
 30
0.0
 10
-1.5302557365
 20
-28.8152563484
 30
0.0
 10
-1.5418959753
 20
-28.8281822099
 30
0.0
  0
SPLINE
  5
3F5
100
AcDbEntity
  8
0
100
AcDbSpline
 62
7
  6
CONTINUOUS
 70
0
 71
3
 72
11
 73
7
 74
0
 42
0.0000001
 43
0.0000001
 44
0.0000000001
 40
0.0
 40
0.0
 40
0.0
 40
0.0
 40
0.3015818999
 40
0.5708417785
 40
0.8015857314
 40
1.0
 40
1.0
 40
1.0
 40
1.0
 10
-3.9522855191
 20
-33.0030993614
 30
0.0
 10
-3.9576593308
 20
-33.0196427112
 30
0.0
 10
-3.9653618647
 20
-33.0518693455
 30
0.0
 10
-3.966917018
 20
-33.0984608634
 30
0.0
 10
-3.9575363011
 20
-33.1383027394
 30
0.0
 10
-3.9424129328
 20
-33.159161353
 30
0.0
 10
-3.9335001518
 20
-33.1663394374
 30
0.0
  0
LINE
  5
3F6
100
AcDbEntity
  8
0
100
AcDbLine
 62
7
  6
CONTINUOUS
 10
-1.0778456547
 20
-28.8840299303
 11
-1.3911277766
 21
-28.7628213165
  0
LINE
  5
3F7
100
AcDbEntity
  8
0
100
AcDbLine
 62
7
  6
CONTINUOUS
 10
-3.9335001518
 20
-33.1663394374
 11
-3.6718708313
 21
-33.3770133277
  0
LINE
  5
3F8
100
AcDbEntity
  8
0
100
AcDbLine
 62
7
  6
CONTINUOUS
 10
-2.239655914
 20
-28.2728918045
 11
-1.9263737921
 21
-28.3941004184
  0
LINE
  5
3F9
100
AcDbEntity
  8
0
100
AcDbLine
 62
7
  6
CONTINUOUS
 10
-4.5203989687
 20
-32.8870838157
 11
-4.7820282892
 21
-32.6764099255
  0
SPLINE
  5
3FA
100
AcDbEntity
  8
0
100
AcDbSpline
 62
7
  6
CONTINUOUS
 70
0
 71
3
 72
9
 73
5
 74
0
 42
0.0000001
 43
0.0000001
 44
0.0000000001
 40
0.0
 40
0.0
 40
0.0
 40
0.0
 40
0.2596286984
 40
1.0
 40
1.0
 40
1.0
 40
1.0
 10
-0.5944885157
 20
-32.6919943603
 30
0.0
 10
-0.6058130122
 20
-32.705752432
 30
0.0
 10
-0.6508009946
 20
-32.7575882481
 30
0.0
 10
-0.7013355051
 20
-32.8047105529
 30
0.0
 10
-0.7415908646
 20
-32.8357206871
 30
0.0
  0
SPLINE
  5
3FB
100
AcDbEntity
  8
0
100
AcDbSpline
 62
7
  6
CONTINUOUS
 70
0
 71
3
 72
10
 73
6
 74
0
 42
0.0000001
 43
0.0000001
 44
0.0000000001
 40
0.0
 40
0.0
 40
0.0
 40
0.0
 40
0.3650114806
 40
0.6425403383
 40
1.0
 40
1.0
 40
1.0
 40
1.0
 10
-3.3258736323
 20
-33.7216466952
 30
0.0
 10
-3.3250480009
 20
-33.7202114207
 30
0.0
 10
-3.325642338
 20
-33.7168359827
 30
0.0
 10
-3.3279662846
 20
-33.7130528613
 30
0.0
 10
-3.3297843996
 20
-33.7107738646
 30
0.0
 10
-3.330859963
 20
-33.7095603695
 30
0.0
  0
SPLINE
  5
3FC
100
AcDbEntity
  8
0
100
AcDbSpline
 62
7
  6
CONTINUOUS
 70
0
 71
3
 72
16
 73
12
 74
0
 42
0.0000001
 43
0.0000001
 44
0.0000000001
 40
0.0
 40
0.0
 40
0.0
 40
0.0
 40
0.1454544541
 40
0.2892730858
 40
0.4291115294
 40
0.562507825
 40
0.687236634
 40
0.8017166962
 40
0.9054845966
 40
0.9537770171
 40
1.0
 40
1.0
 40
1.0
 40
1.0
 10
-0.0984428866
 20
-31.742581431
 30
0.0
 10
-0.0900117918
 20
-31.8376113839
 30
0.0
 10
-0.0908928028
 20
-32.0286007144
 30
0.0
 10
-0.1426305829
 20
-32.3066858805
 30
0.0
 10
-0.2397059586
 20
-32.563995875
 30
0.0
 10
-0.3749303859
 20
-32.7889900937
 30
0.0
 10
-0.5394608728
 20
-32.9719353846
 30
0.0
 10
-0.7230313598
 20
-33.1050690591
 30
0.0
 10
-0.8873021654
 20
-33.1713755098
 30
0.0
 10
-1.016048964
 20
-33.1925713919
 30
0.0
 10
-1.0783672668
 20
-33.1929960111
 30
0.0
 10
-1.1085922589
 20
-33.1906288929
 30
0.0
  0
SPLINE
  5
3FD
100
AcDbEntity
  8
0
100
AcDbSpline
 62
7
  6
CONTINUOUS
 70
0
 71
3
 72
9
 73
5
 74
0
 42
0.0000001
 43
0.0000001
 44
0.0000000001
 40
0.0
 40
0.0
 40
0.0
 40
0.0
 40
0.498891941
 40
1.0
 40
1.0
 40
1.0
 40
1.0
 10
-1.7111898783
 20
-28.4629239337
 30
0.0
 10
-1.592676895
 20
-28.5091566396
 30
0.0
 10
-1.3643495179
 20
-28.6276168778
 30
0.0
 10
-1.1668985747
 20
-28.7923977439
 30
0.0
 10
-1.0778456547
 20
-28.8840299303
 30
0.0
  0
LINE
  5
3FE
100
AcDbEntity
  8
0
100
AcDbLine
 62
7
  6
CONTINUOUS
 10
-4.3786117411
 20
-30.3992339201
 11
-4.3735287685
 21
-30.4160369268
  0
SPLINE
  5
3FF
100
AcDbEntity
  8
0
100
AcDbSpline
 62
7
  6
CONTINUOUS
 70
0
 71
3
 72
9
 73
5
 74
0
 42
0.0000001
 43
0.0000001
 44
0.0000000001
 40
0.0
 40
0.0
 40
0.0
 40
0.0
 40
0.2545509313
 40
1.0
 40
1.0
 40
1.0
 40
1.0
 10
-4.1606619523
 20
-30.8575532053
 30
0.0
 10
-4.1800037583
 20
-30.820729949
 30
0.0
 10
-4.2545700599
 20
-30.6753272171
 30
0.0
 10
-4.3241113484
 20
-30.5273695571
 30
0.0
 10
-4.3735287685
 20
-30.4160369268
 30
0.0
  0
SPLINE
  5
400
100
AcDbEntity
  8
0
100
AcDbSpline
 62
7
  6
CONTINUOUS
 70
0
 71
3
 72
9
 73
5
 74
0
 42
0.0000001
 43
0.0000001
 44
0.0000000001
 40
0.0
 40
0.0
 40
0.0
 40
0.0
 40
0.2462796112
 40
1.0
 40
1.0
 40
1.0
 40
1.0
 10
-4.8008136565
 20
-32.5131698494
 30
0.0
 10
-4.7587700959
 20
-32.3837381958
 30
0.0
 10
-4.5780068634
 20
-31.8614932758
 30
0.0
 10
-4.3583513302
 20
-31.3528299189
 30
0.0
 10
-4.1735749099
 20
-30.9795715974
 30
0.0
  0
SPLINE
  5
401
100
AcDbEntity
  8
0
100
AcDbSpline
 62
7
  6
CONTINUOUS
 70
0
 71
3
 72
9
 73
5
 74
0
 42
0.0000001
 43
0.0000001
 44
0.0000000001
 40
0.0
 40
0.0
 40
0.0
 40
0.0
 40
0.25329422
 40
1.0
 40
1.0
 40
1.0
 40
1.0
 10
-3.4049512338
 20
-29.6482765771
 30
0.0
 10
-3.3273674298
 20
-29.5317812364
 30
0.0
 10
-3.0130077546
 20
-29.0772999574
 30
0.0
 10
-2.6665408756
 20
-28.6448655683
 30
0.0
 10
-2.3904241128
 20
-28.3382526979
 30
0.0
  0
SPLINE
  5
402
100
AcDbEntity
  8
0
100
AcDbSpline
 62
7
  6
CONTINUOUS
 70
0
 71
3
 72
9
 73
5
 74
0
 42
0.0000001
 43
0.0000001
 44
0.0000000001
 40
0.0
 40
0.0
 40
0.0
 40
0.0
 40
0.2453075081
 40
1.0
 40
1.0
 40
1.0
 40
1.0
 10
-3.99294964
 20
-29.7568546758
 30
0.0
 10
-3.9530919411
 20
-29.752621768
 30
0.0
 10
-3.7904902436
 20
-29.7365560821
 30
0.0
 10
-3.6273800302
 20
-29.7253887249
 30
0.0
 10
-3.5041658027
 20
-29.7204687507
 30
0.0
  0
LINE
  5
403
100
AcDbEntity
  8
0
100
AcDbLine
 62
7
  6
CONTINUOUS
 10
-4.0102447022
 20
-29.7609008783
 11
-3.99294964
 21
-29.7568546758
  0
SPLINE
  5
404
100
AcDbEntity
  8
0
100
AcDbSpline
 62
7
  6
CONTINUOUS
 70
0
 71
3
 72
11
 73
7
 74
0
 42
0.0000001
 43
0.0000001
 44
0.0000000001
 40
0.0
 40
0.0
 40
0.0
 40
0.0
 40
0.201042385
 40
0.43418551
 40
0.7025373675
 40
1.0
 40
1.0
 40
1.0
 40
1.0
 10
-4.7884351836
 20
-32.6705306127
 30
0.0
 10
-4.7960706574
 20
-32.6625803811
 30
0.0
 10
-4.8084411364
 20
-32.6413626248
 30
0.0
 10
-4.8156087516
 20
-32.60304061
 30
0.0
 10
-4.8132468251
 20
-32.5589854862
 30
0.0
 10
-4.8058523888
 20
-32.5286816531
 30
0.0
 10
-4.8008136565
 20
-32.5131698494
 30
0.0
  0
SPLINE
  5
405
100
AcDbEntity
  8
0
100
AcDbSpline
 62
7
  6
CONTINUOUS
 70
0
 71
3
 72
11
 73
7
 74
0
 42
0.0000001
 43
0.0000001
 44
0.0000000001
 40
0.0
 40
0.0
 40
0.0
 40
0.0
 40
0.2974787548
 40
0.5658369143
 40
0.7989719075
 40
1.0
 40
1.0
 40
1.0
 40
1.0
 10
-2.3904241128
 20
-28.3382526979
 30
0.0
 10
-2.3795065288
 20
-28.3261293059
 30
0.0
 10
-2.356952837
 20
-28.3045674648
 30
0.0
 10
-2.3199691616
 20
-28.2804899954
 30
0.0
 10
-2.2831866998
 20
-28.2675384188
 30
0.0
 10
-2.2586206753
 20
-28.2676500532
 30
0.0
 10
-2.2479169146
 20
-28.2702922562
 30
0.0
  0
SPLINE
  5
406
100
AcDbEntity
  8
0
100
AcDbSpline
 62
250
  6
CONTINUOUS
 70
0
 71
3
 72
23
 73
19
 74
0
 42
0.0000001
 43
0.0000001
 44
0.0000000001
 40
0.0
 40
0.0
 40
0.0
 40
0.0
 40
0.056437763
 40
0.1144717113
 40
0.1744406573
 40
0.2364514051
 40
0.3003885665
 40
0.3659454525
 40
0.4326665096
 40
0.4999952104
 40
0.5673241649
 40
0.6340459624
 40
0.6996040126
 40
0.7635426586
 40
0.8255550703
 40
0.885525687
 40
0.9435611217
 40
1.0
 40
1.0
 40
1.0
 40
1.0
 10
-2.3904241128
 20
-28.3382526979
 30
0.0
 10
-2.5023065023
 20
-28.3123258954
 30
0.0
 10
-2.735063948
 20
-28.2824137412
 30
0.0
 10
-3.091250137
 20
-28.3041862571
 30
0.0
 10
-3.4490152565
 20
-28.3909279037
 30
0.0
 10
-3.7984986985
 20
-28.5399546294
 30
0.0
 10
-4.1304015595
 20
-28.7469605016
 30
0.0
 10
-4.4358642739
 20
-29.006201888
 30
0.0
 10
-4.7067430856
 20
-29.3106010047
 30
0.0
 10
-4.9357904288
 20
-29.6519139206
 30
0.0
 10
-5.1168529758
 20
-30.0209325825
 30
0.0
 10
-5.2450329987
 20
-30.4077239718
 30
0.0
 10
-5.3168148093
 20
-30.8018894263
 30
0.0
 10
-5.330140702
 20
-31.1928371789
 30
0.0
 10
-5.2844662597
 20
-31.5700225932
 30
0.0
 10
-5.180711786
 20
-31.9232393975
 30
0.0
 10
-5.0214829419
 20
-32.2426058173
 30
0.0
 10
-4.8792053852
 20
-32.4292345984
 30
0.0
 10
-4.8008136565
 20
-32.5131698494
 30
0.0
  0
SPLINE
  5
407
100
AcDbEntity
  8
0
100
AcDbSpline
 62
250
  6
CONTINUOUS
 70
0
 71
3
 72
23
 73
19
 74
0
 42
0.0000001
 43
0.0000001
 44
0.0000000001
 40
0.0
 40
0.0
 40
0.0
 40
0.0
 40
0.056437763
 40
0.1144717113
 40
0.1744406573
 40
0.2364514051
 40
0.3003885665
 40
0.3659454525
 40
0.4326665096
 40
0.4999952104
 40
0.5673241649
 40
0.6340459624
 40
0.6996040126
 40
0.7635426586
 40
0.8255550703
 40
0.885525687
 40
0.9435611217
 40
1.0
 40
1.0
 40
1.0
 40
1.0
 10
-3.9522855191
 20
-33.0030993614
 30
0.0
 10
-3.8404031295
 20
-33.0290261639
 30
0.0
 10
-3.6076456838
 20
-33.0589383181
 30
0.0
 10
-3.2514594949
 20
-33.0371658022
 30
0.0
 10
-2.8936943754
 20
-32.9504241556
 30
0.0
 10
-2.5442109333
 20
-32.80139743
 30
0.0
 10
-2.2123080724
 20
-32.5943915578
 30
0.0
 10
-1.9068453579
 20
-32.3351501714
 30
0.0
 10
-1.6359665462
 20
-32.0307510546
 30
0.0
 10
-1.406919203
 20
-31.6894381387
 30
0.0
 10
-1.225856656
 20
-31.3204194768
 30
0.0
 10
-1.0976766331
 20
-30.9336280876
 30
0.0
 10
-1.0258948225
 20
-30.5394626331
 30
0.0
 10
-1.0125689298
 20
-30.1485148805
 30
0.0
 10
-1.0582433721
 20
-29.7713294662
 30
0.0
 10
-1.1619978459
 20
-29.4181126619
 30
0.0
 10
-1.3212266899
 20
-29.098746242
 30
0.0
 10
-1.4635042467
 20
-28.9121174609
 30
0.0
 10
-1.5418959753
 20
-28.8281822099
 30
0.0
  0
SPLINE
  5
408
100
AcDbEntity
  8
0
100
AcDbSpline
 62
250
  6
CONTINUOUS
 70
0
 71
3
 72
13
 73
9
 74
0
 42
0.0000001
 43
0.0000001
 44
0.0000000001
 40
0.0
 40
0.0
 40
0.0
 40
0.0
 40
0.2680549555
 40
0.526758464
 40
0.650904072
 40
0.7709199741
 40
0.8870421114
 40
1.0
 40
1.0
 40
1.0
 40
1.0
 10
-1.2394644341
 20
-31.7861158632
 30
0.0
 10
-1.0950735059
 20
-31.5360234396
 30
0.0
 10
-0.8763890273
 20
-31.0036220408
 30
0.0
 10
-0.7988775731
 20
-30.295680783
 30
0.0
 10
-0.8678266005
 20
-29.7561792034
 30
0.0
 10
-0.9809962524
 20
-29.3828019289
 30
0.0
 10
-1.1533874307
 20
-29.0462667345
 30
0.0
 10
-1.3067808441
 20
-28.8505400647
 30
0.0
 10
-1.3911277766
 20
-28.7628213165
 30
0.0
  0
SPLINE
  5
409
100
AcDbEntity
  8
0
100
AcDbSpline
 62
250
  6
CONTINUOUS
 70
0
 71
3
 72
13
 73
9
 74
0
 42
0.0000001
 43
0.0000001
 44
0.0000000001
 40
0.0
 40
0.0
 40
0.0
 40
0.0
 40
0.1129582452
 40
0.2290801903
 40
0.3490952499
 40
0.4732396421
 40
0.7319423319
 40
1.0
 40
1.0
 40
1.0
 40
1.0
 10
-3.9335001518
 20
-33.1663394374
 30
0.0
 10
-3.8153634201
 20
-33.1955322646
 30
0.0
 10
-3.5691685382
 20
-33.2305228358
 30
0.0
 10
-3.191531941
 20
-33.2115653914
 30
0.0
 10
-2.8115998139
 20
-33.122897638
 30
0.0
 10
-2.3099115732
 20
-32.9128729799
 30
0.0
 10
-1.7355789525
 20
-32.4917865255
 30
0.0
 10
-1.3838540506
 20
-32.0362060147
 30
0.0
 10
-1.2394644341
 20
-31.7861158632
 30
0.0
  0
SPLINE
  5
40A
100
AcDbEntity
  8
0
100
AcDbSpline
 62
7
  6
CONTINUOUS
 70
0
 71
3
 72
10
 73
6
 74
0
 42
0.0000001
 43
0.0000001
 44
0.0000000001
 40
0.0
 40
0.0
 40
0.0
 40
0.0
 40
0.3573774147
 40
0.6348761083
 40
1.0
 40
1.0
 40
1.0
 40
1.0
 10
-0.6193105904
 20
-29.0130190938
 30
0.0
 10
-0.6177215406
 20
-29.0133433149
 30
0.0
 10
-0.6148381264
 20
-29.0137773723
 30
0.0
 10
-0.6103978331
 20
-29.0138963844
 30
0.0
 10
-0.6071771028
 20
-29.0127209429
 30
0.0
 10
-0.6063463646
 20
-29.0112872999
 30
0.0
  0
SPLINE
  5
40B
100
AcDbEntity
  8
0
100
AcDbSpline
 62
7
  6
CONTINUOUS
 70
0
 71
3
 72
9
 73
5
 74
0
 42
0.0000001
 43
0.0000001
 44
0.0000000001
 40
0.0
 40
0.0
 40
0.0
 40
0.0
 40
0.2503294356
 40
1.0
 40
1.0
 40
1.0
 40
1.0
 10
-3.4898935121
 20
-31.1475064241
 30
0.0
 10
-3.4972215201
 20
-31.1984973762
 30
0.0
 10
-3.5256187708
 20
-31.402318992
 30
0.0
 10
-3.5514909905
 20
-31.6064820953
 30
0.0
 10
-3.5704312964
 20
-31.75958831
 30
0.0
  0
LINE
  5
40C
100
AcDbEntity
  8
0
100
AcDbLine
 62
7
  6
CONTINUOUS
 10
-3.4898935121
 20
-31.1475064241
 11
-3.0718872699
 21
-31.3281608861
  0
LINE
  5
40D
100
AcDbEntity
  8
0
100
AcDbLine
 62
7
  6
CONTINUOUS
 10
-4.1606619523
 20
-30.8575532053
 11
-3.7107651954
 21
-31.0520380973
  0
SPLINE
  5
40E
100
AcDbEntity
  8
0
100
AcDbSpline
 62
7
  6
CONTINUOUS
 70
0
 71
3
 72
11
 73
7
 74
0
 42
0.0000001
 43
0.0000001
 44
0.0000000001
 40
0.0
 40
0.0
 40
0.0
 40
0.0
 40
0.2494257263
 40
0.5016511535
 40
0.7536824684
 40
1.0
 40
1.0
 40
1.0
 40
1.0
 10
-0.0044725763
 20
-31.4264419681
 30
0.0
 10
0.0622983758
 20
-31.5076240807
 30
0.0
 10
0.1743459581
 20
-31.6904395627
 30
0.0
 10
0.2661022557
 20
-31.9978420305
 30
0.0
 10
0.2817964184
 20
-32.3165902676
 30
0.0
 10
0.2436008003
 20
-32.5253089423
 30
0.0
 10
0.2131428874
 20
-32.6245438013
 30
0.0
  0
SPLINE
  5
40F
100
AcDbEntity
  8
0
100
AcDbSpline
 62
7
  6
CONTINUOUS
 70
0
 71
3
 72
15
 73
11
 74
0
 42
0.0000001
 43
0.0000001
 44
0.0000000001
 40
0.0
 40
0.0
 40
0.0
 40
0.0
 40
0.3095280322
 40
0.4511189946
 40
0.581556079
 40
0.7002345752
 40
0.8077546024
 40
0.9062761239
 40
0.9534728418
 40
1.0
 40
1.0
 40
1.0
 40
1.0
 10
0.2131428874
 20
-32.6245438013
 30
0.0
 10
0.1756149159
 20
-32.7468136029
 30
0.0
 10
0.0943630712
 20
-32.9191675347
 30
0.0
 10
-0.0597027735
 20
-33.1047863684
 30
0.0
 10
-0.1842018075
 20
-33.2091732821
 30
0.0
 10
-0.3150965878
 20
-33.2794304513
 30
0.0
 10
-0.4463728856
 20
-33.3135413129
 30
0.0
 10
-0.5527522217
 20
-33.3104289087
 30
0.0
 10
-0.6295329243
 20
-33.288893719
 30
0.0
 10
-0.6647767823
 20
-33.272321651
 30
0.0
 10
-0.681426711
 20
-33.2627094074
 30
0.0
  0
SPLINE
  5
410
100
AcDbEntity
  8
0
100
AcDbSpline
 62
7
  6
CONTINUOUS
 70
0
 71
3
 72
9
 73
5
 74
0
 42
0.0000001
 43
0.0000001
 44
0.0000000001
 40
0.0
 40
0.0
 40
0.0
 40
0.0
 40
0.5011062068
 40
1.0
 40
1.0
 40
1.0
 40
1.0
 10
-3.6718708313
 20
-33.3770133277
 30
0.0
 10
-3.7957025648
 20
-33.345713294
 30
0.0
 10
-4.037035135
 20
-33.2571377845
 30
0.0
 10
-4.2537118669
 20
-33.1187009507
 30
0.0
 10
-4.3529774343
 20
-33.0392239036
 30
0.0
  0
SPLINE
  5
411
100
AcDbEntity
  8
TRASH
100
AcDbSpline
 62
7
  6
CONTINUOUS
 70
0
 71
3
 72
9
 73
5
 74
0
 42
0.0000001
 43
0.0000001
 44
0.0000000001
 40
0.0
 40
0.0
 40
0.0
 40
0.0
 40
0.5065381793
 40
1.0
 40
1.0
 40
1.0
 40
1.0
 10
-3.2281541614
 20
-30.3620349459
 30
0.0
 10
-3.1142663596
 20
-30.3755767271
 30
0.0
 10
-2.8892958301
 20
-30.40111337
 30
0.0
 10
-2.6636978681
 20
-30.421294035
 30
0.0
 10
-2.5521686252
 20
-30.4279775974
 30
0.0
  0
SPLINE
  5
412
100
AcDbEntity
  8
0
100
AcDbSpline
 62
7
  6
CONTINUOUS
 70
0
 71
3
 72
9
 73
5
 74
0
 42
0.0000001
 43
0.0000001
 44
0.0000000001
 40
0.0
 40
0.0
 40
0.0
 40
0.0
 40
0.2497368464
 40
1.0
 40
1.0
 40
1.0
 40
1.0
 10
-2.4278368516
 20
-29.7805567595
 30
0.0
 10
-2.4688522169
 20
-29.8115219767
 30
0.0
 10
-2.6329362026
 20
-29.9357099863
 30
0.0
 10
-2.7962725923
 20
-30.0609049332
 30
0.0
 10
-2.917639951
 20
-30.1563342104
 30
0.0
  0
LINE
  5
413
100
AcDbEntity
  8
0
100
AcDbLine
 62
7
  6
CONTINUOUS
 10
-2.5521637857
 20
-30.4279734066
 11
-2.917639951
 21
-30.1563342104
  0
LINE
  5
414
100
AcDbEntity
  8
0
100
AcDbLine
 62
7
  6
CONTINUOUS
 10
-3.1107656106
 20
-30.0128075306
 11
-3.5041658027
 21
-29.7204687507
  0
LINE
  5
415
100
AcDbEntity
  8
0
100
AcDbLine
 62
7
  6
CONTINUOUS
 10
-2.9440791622
 20
-30.1568178247
 11
-3.1107656106
 21
-30.0128075306
  0
LINE
  5
416
100
AcDbEntity
  8
0
100
AcDbLine
 62
7
  6
CONTINUOUS
 10
-3.2700077946
 20
-30.3502013105
 11
-4.0102447022
 21
-29.7609008783
  0
LINE
  5
417
100
AcDbEntity
  8
0
100
AcDbLine
 62
7
  6
CONTINUOUS
 10
-4.4667159818
 20
-29.6592857044
 11
-3.2699908218
 21
-30.3501596999
  0
SPLINE
  5
418
100
AcDbEntity
  8
0
100
AcDbSpline
 62
7
  6
CONTINUOUS
 70
0
 71
3
 72
9
 73
5
 74
0
 42
0.0000001
 43
0.0000001
 44
0.0000000001
 40
0.0
 40
0.0
 40
0.0
 40
0.0
 40
0.250262929
 40
1.0
 40
1.0
 40
1.0
 40
1.0
 10
-3.4982782594
 20
-30.7455318094
 30
0.0
 10
-3.5980490698
 20
-30.6877921862
 30
0.0
 10
-3.9967915612
 20
-30.4572120439
 30
0.0
 10
-4.3957035095
 20
-30.2269251272
 30
0.0
 10
-4.6948114769
 20
-30.0543206306
 30
0.0
  0
SPLINE
  5
419
100
AcDbEntity
  8
0
100
AcDbSpline
 62
7
  6
CONTINUOUS
 70
0
 71
3
 72
9
 73
5
 74
0
 42
0.0000001
 43
0.0000001
 44
0.0000000001
 40
0.0
 40
0.0
 40
0.0
 40
0.0
 40
0.5001713307
 40
1.0
 40
1.0
 40
1.0
 40
1.0
 10
-4.3786117411
 20
-30.3992339201
 30
0.0
 10
-4.2318404888
 20
-30.4569973774
 30
0.0
 10
-3.938463582
 20
-30.572650178
 30
0.0
 10
-3.644826723
 20
-30.6876417376
 30
0.0
 10
-3.4981560219
 20
-30.7453656218
 30
0.0
  0
LINE
  5
41A
100
AcDbEntity
  8
0
100
AcDbLine
 62
7
  6
CONTINUOUS
 10
-3.7107651954
 20
-31.0520380973
 11
-3.5026937835
 21
-31.1243667297
  0
SPLINE
  5
41B
100
AcDbEntity
  8
TRASH
100
AcDbSpline
 62
7
  6
CONTINUOUS
 70
0
 71
3
 72
9
 73
5
 74
0
 42
0.0000001
 43
0.0000001
 44
0.0000000001
 40
0.0
 40
0.0
 40
0.0
 40
0.0
 40
0.4934623287
 40
1.0
 40
1.0
 40
1.0
 40
1.0
 10
-3.0718872694
 20
-31.3281608861
 30
0.0
 10
-3.1334386196
 20
-31.2349116028
 30
0.0
 10
-3.2637062022
 20
-31.0496165892
 30
0.0
 10
-3.3983114491
 20
-30.8675520377
 30
0.0
 10
-3.4669831838
 20
-30.7756905334
 30
0.0
  0
SPLINE
  5
41C
100
AcDbEntity
  8
0
100
AcDbSpline
 62
7
  6
CONTINUOUS
 70
0
 71
3
 72
15
 73
11
 74
0
 42
0.0000001
 43
0.0000001
 44
0.0000000001
 40
0.0
 40
0.0
 40
0.0
 40
0.0
 40
0.1343560002
 40
0.2665657646
 40
0.3960419241
 40
0.5224336898
 40
0.6456694862
 40
0.7659692382
 40
0.8838357763
 40
1.0
 40
1.0
 40
1.0
 40
1.0
 10
29.9677834116
 20
30.736865868
 30
0.0
 10
29.9258545112
 20
30.6146954965
 30
0.0
 10
29.8578402663
 20
30.3667586175
 30
0.0
 10
29.8055543371
 20
29.9885419607
 30
0.0
 10
29.8049941563
 20
29.6142371668
 30
0.0
 10
29.8566615276
 20
29.2521283716
 30
0.0
 10
29.9599901195
 20
28.9103218043
 30
0.0
 10
30.1133465055
 20
28.5967549986
 30
0.0
 10
30.3136973238
 20
28.3192287217
 30
0.0
 10
30.4767359498
 20
28.1620769481
 30
0.0
 10
30.5639163779
 20
28.0922833459
 30
0.0
  0
SPLINE
  5
41D
100
AcDbEntity
  8
0
100
AcDbSpline
 62
7
  6
CONTINUOUS
 70
0
 71
3
 72
15
 73
11
 74
0
 42
0.0000001
 43
0.0000001
 44
0.0000000001
 40
0.0
 40
0.0
 40
0.0
 40
0.0
 40
0.1161645796
 40
0.2340317672
 40
0.3543320302
 40
0.4775681241
 40
0.603959805
 40
0.7334355136
 40
0.8656446391
 40
1.0
 40
1.0
 40
1.0
 40
1.0
 10
33.1558053154
 20
32.5821452382
 30
0.0
 10
33.0517797885
 20
32.6227325126
 30
0.0
 10
32.83418242
 20
32.6853228796
 30
0.0
 10
32.49369942
 20
32.7200370819
 30
0.0
 10
32.1455069256
 20
32.6960445975
 30
0.0
 10
31.7978750356
 20
32.6146191011
 30
0.0
 10
31.4584924525
 20
32.4783138971
 30
0.0
 10
31.1346601402
 20
32.2906914097
 30
0.0
 10
30.8332994873
 20
32.0563268521
 30
0.0
 10
30.6526099343
 20
31.873479211
 30
0.0
 10
30.5677825528
 20
31.7760946229
 30
0.0
  0
SPLINE
  5
41E
100
AcDbEntity
  8
0
100
AcDbSpline
 62
7
  6
CONTINUOUS
 70
0
 71
3
 72
13
 73
9
 74
0
 42
0.0000001
 43
0.0000001
 44
0.0000000001
 40
0.0
 40
0.0
 40
0.0
 40
0.0
 40
0.2692031717
 40
0.5267127238
 40
0.6501769222
 40
0.7698597869
 40
0.8861987062
 40
1.0
 40
1.0
 40
1.0
 40
1.0
 10
35.022361422
 20
29.040498263
 30
0.0
 10
35.1265213995
 20
29.2964583125
 30
0.0
 10
35.2688399278
 20
29.8251251327
 30
0.0
 10
35.2652593522
 20
30.5021706376
 30
0.0
 10
35.146200244
 20
31.0040551704
 30
0.0
 10
35.0041552457
 20
31.3465273891
 30
0.0
 10
34.8113726303
 20
31.6515523444
 30
0.0
 10
34.6503792244
 20
31.8265875821
 30
0.0
 10
34.5635939229
 20
31.9047861007
 30
0.0
  0
SPLINE
  5
41F
100
AcDbEntity
  8
0
100
AcDbSpline
 62
7
  6
CONTINUOUS
 70
0
 71
3
 72
13
 73
9
 74
0
 42
0.0000001
 43
0.0000001
 44
0.0000000001
 40
0.0
 40
0.0
 40
0.0
 40
0.0
 40
0.1138019076
 40
0.2301406344
 40
0.349822821
 40
0.4732862018
 40
0.7307949127
 40
1.0
 40
1.0
 40
1.0
 40
1.0
 10
31.8542251079
 20
27.2120216615
 30
0.0
 10
31.9653359771
 20
27.1759572856
 30
0.0
 10
32.1974105565
 20
27.1240395395
 30
0.0
 10
32.5579528352
 20
27.1095817388
 30
0.0
 10
32.9255573321
 20
27.1577890574
 30
0.0
 10
33.4197229442
 20
27.3056063592
 30
0.0
 10
34.0078448752
 20
27.6410140046
 30
0.0
 10
34.3945181032
 20
28.0285909172
 30
0.0
 10
34.5641038525
 20
28.2467728705
 30
0.0
  0
SPLINE
  5
420
100
AcDbEntity
  8
0
100
AcDbSpline
 62
7
  6
CONTINUOUS
 70
0
 71
3
 72
15
 73
11
 74
0
 42
0.0000001
 43
0.0000001
 44
0.0000000001
 40
0.0
 40
0.0
 40
0.0
 40
0.0
 40
0.1066851019
 40
0.2284443172
 40
0.3613084497
 40
0.5000068809
 40
0.6387041818
 40
0.7715651404
 40
0.8933197751
 40
1.0
 40
1.0
 40
1.0
 40
1.0
 10
34.5641038525
 20
28.2467728705
 30
0.0
 10
34.6009118165
 20
28.249602022
 30
0.0
 10
34.6787484527
 20
28.2698484569
 30
0.0
 10
34.7887403521
 20
28.3313919694
 30
0.0
 10
34.8907975827
 20
28.4230852319
 30
0.0
 10
34.9747630389
 20
28.5388386274
 30
0.0
 10
35.0330253715
 20
28.6694305106
 30
0.0
 10
35.061404024
 20
28.8036585389
 30
0.0
 10
35.0597038358
 20
28.9296817954
 30
0.0
 10
35.0383167288
 20
29.0072096178
 30
0.0
 10
35.022361422
 20
29.040498263
 30
0.0
  0
SPLINE
  5
421
100
AcDbEntity
  8
0
100
AcDbSpline
 62
7
  6
CONTINUOUS
 70
0
 71
3
 72
14
 73
10
 74
0
 42
0.0000001
 43
0.0000001
 44
0.0000000001
 40
0.0
 40
0.0
 40
0.0
 40
0.0
 40
0.4078813901
 40
0.7179373106
 40
0.8313732475
 40
0.9155180944
 40
0.9465762503
 40
0.9705104005
 40
1.0
 40
1.0
 40
1.0
 40
1.0
 10
34.4007423876
 20
32.045746667
 30
0.0
 10
34.4263349012
 20
32.0309727048
 30
0.0
 10
34.4707634909
 20
32.0038790767
 30
0.0
 10
34.5200307732
 20
31.9690638568
 30
0.0
 10
34.5479157226
 20
31.9450037969
 30
0.0
 10
34.5595198071
 20
31.9331976798
 30
0.0
 10
34.5656134071
 20
31.9250272882
 30
0.0
 10
34.5685898801
 20
31.9199029082
 30
0.0
 10
34.5697248149
 20
31.9154483652
 30
0.0
 10
34.5686536284
 20
31.9135997972
 30
0.0
  0
SPLINE
  5
422
100
AcDbEntity
  8
0
100
AcDbSpline
 62
7
  6
CONTINUOUS
 70
0
 71
3
 72
10
 73
6
 74
0
 42
0.0000001
 43
0.0000001
 44
0.0000000001
 40
0.0
 40
0.0
 40
0.0
 40
0.0
 40
0.3578619366
 40
0.6387248675
 40
1.0
 40
1.0
 40
1.0
 40
1.0
 10
31.8491263604
 20
27.2032404019
 30
0.0
 10
31.8481729176
 20
27.201582915
 30
0.0
 10
31.8443947465
 20
27.2002917603
 30
0.0
 10
31.8391978852
 20
27.2001174049
 30
0.0
 10
31.8357315661
 20
27.2004043667
 30
0.0
 10
31.833816711
 20
27.2006487528
 30
0.0
  0
SPLINE
  5
423
100
AcDbEntity
  8
0
100
AcDbSpline
 62
7
  6
CONTINUOUS
 70
0
 71
3
 72
12
 73
8
 74
0
 42
0.0000001
 43
0.0000001
 44
0.0000000001
 40
0.0
 40
0.0
 40
0.0
 40
0.0
 40
0.0631974397
 40
0.1452550734
 40
0.3644819389
 40
0.6522848128
 40
1.0
 40
1.0
 40
1.0
 40
1.0
 10
31.833816711
 20
27.2006487528
 30
0.0
 10
31.8296153725
 20
27.2011849545
 30
0.0
 10
31.8200659828
 20
27.2032097857
 30
0.0
 10
31.7966637817
 20
27.2102506936
 30
0.0
 10
31.7600105304
 20
27.2251170192
 30
0.0
 10
31.7084839964
 20
27.2501856562
 30
0.0
 10
31.6711921139
 20
27.2708062008
 30
0.0
 10
31.6510100851
 20
27.2824568162
 30
0.0
  0
SPLINE
  5
424
100
AcDbEntity
  8
0
100
AcDbSpline
 62
7
  6
CONTINUOUS
 70
0
 71
3
 72
9
 73
5
 74
0
 42
0.0000001
 43
0.0000001
 44
0.0000000001
 40
0.0
 40
0.0
 40
0.0
 40
0.0
 40
0.2471681797
 40
1.0
 40
1.0
 40
1.0
 40
1.0
 10
32.6951090431
 20
31.2269425065
 30
0.0
 10
32.6865900075
 20
31.1810313815
 30
0.0
 10
32.6528958184
 20
30.9951387291
 30
0.0
 10
32.6220139264
 20
30.8087496225
 30
0.0
 10
32.5992597677
 20
30.6683572413
 30
0.0
  0
LINE
  5
425
100
AcDbEntity
  8
0
100
AcDbLine
 62
7
  6
CONTINUOUS
 10
32.6964896801
 20
31.2464182235
 11
32.6951090431
 21
31.2269425065
  0
LINE
  5
426
100
AcDbEntity
  8
0
100
AcDbLine
 62
7
  6
CONTINUOUS
 10
31.506947164
 20
29.1689858316
 11
31.490960499
 21
29.1581809483
  0
SPLINE
  5
427
100
AcDbEntity
  8
0
100
AcDbSpline
 62
7
  6
CONTINUOUS
 70
0
 71
3
 72
9
 73
5
 74
0
 42
0.0000001
 43
0.0000001
 44
0.0000000001
 40
0.0
 40
0.0
 40
0.0
 40
0.0
 40
0.2527844159
 40
1.0
 40
1.0
 40
1.0
 40
1.0
 10
31.9427639069
 20
29.5312724388
 30
0.0
 10
31.9057600706
 20
29.5010864215
 30
0.0
 10
31.7594981673
 20
29.3815238307
 30
0.0
 10
31.6142671768
 20
29.2606825663
 30
0.0
 10
31.506947164
 20
29.1689858316
 30
0.0
  0
LINE
  5
428
100
AcDbEntity
  8
0
100
AcDbLine
 62
7
  6
CONTINUOUS
 10
32.4708780059
 20
29.2916467454
 11
32.4943952918
 21
29.3101074609
  0
SPLINE
  5
429
100
AcDbEntity
  8
0
100
AcDbSpline
 62
7
  6
CONTINUOUS
 70
0
 71
3
 72
9
 73
5
 74
0
 42
0.0000001
 43
0.0000001
 44
0.0000000001
 40
0.0
 40
0.0
 40
0.0
 40
0.0
 40
0.4994995182
 40
1.0
 40
1.0
 40
1.0
 40
1.0
 10
32.4943952918
 20
29.3101074609
 30
0.0
 10
32.5856713978
 20
29.3116820011
 30
0.0
 10
32.768372057
 20
29.3168081334
 30
0.0
 10
32.9509930402
 20
29.3240151299
 30
0.0
 10
33.0423842099
 20
29.3278745414
 30
0.0
  0
SPLINE
  5
42A
100
AcDbEntity
  8
0
100
AcDbSpline
 62
7
  6
CONTINUOUS
 70
0
 71
3
 72
9
 73
5
 74
0
 42
0.0000001
 43
0.0000001
 44
0.0000000001
 40
0.0
 40
0.0
 40
0.0
 40
0.0
 40
0.2503395791
 40
1.0
 40
1.0
 40
1.0
 40
1.0
 10
33.325243655
 20
29.8178013201
 30
0.0
 10
33.3040607076
 20
29.8583557549
 30
0.0
 10
33.2191985429
 20
30.020222817
 30
0.0
 10
33.1330926138
 20
30.181456815
 30
0.0
 10
33.0666488065
 20
30.3012797943
 30
0.0
  0
LINE
  5
42B
100
AcDbEntity
  8
0
100
AcDbLine
 62
7
  6
CONTINUOUS
 10
33.0666488065
 20
30.3012797943
 11
33.0708777444
 21
30.3308773799
  0
SPLINE
  5
42C
100
AcDbEntity
  8
0
100
AcDbSpline
 62
7
  6
CONTINUOUS
 70
0
 71
3
 72
18
 73
14
 74
0
 42
0.0000001
 43
0.0000001
 44
0.0000000001
 40
0.0
 40
0.0
 40
0.0
 40
0.0
 40
0.1532362046
 40
0.3046768461
 40
0.4507144807
 40
0.5873386056
 40
0.6510853088
 40
0.7112412467
 40
0.8198159391
 40
0.8687443894
 40
0.914520182
 40
0.9579351479
 40
1.0
 40
1.0
 40
1.0
 40
1.0
 10
35.0902527576
 20
29.2224314169
 30
0.0
 10
35.1164562014
 20
29.1245885229
 30
0.0
 10
35.1456430068
 20
28.9231968799
 30
0.0
 10
35.1219501769
 20
28.6239279337
 30
0.0
 10
35.0378580007
 20
28.3472644174
 30
0.0
 10
34.923862297
 20
28.1461275532
 30
0.0
 10
34.8126109529
 20
28.0140606883
 30
0.0
 10
34.6991454656
 20
27.9100986673
 30
0.0
 10
34.5732101845
 20
27.8348108798
 30
0.0
 10
34.4430560951
 20
27.7987101542
 30
0.0
 10
34.3513364868
 20
27.7918749953
 30
0.0
 10
34.26476605
 20
27.804429359
 30
0.0
 10
34.2117048285
 20
27.8256499572
 30
0.0
 10
34.1873371659
 20
27.8390423098
 30
0.0
  0
LINE
  5
42D
100
AcDbEntity
  8
0
100
AcDbLine
 62
7
  6
CONTINUOUS
 10
32.1752378592
 20
31.5471453658
 11
32.1568890133
 21
31.5377041125
  0
SPLINE
  5
42E
100
AcDbEntity
  8
0
100
AcDbSpline
 62
7
  6
CONTINUOUS
 70
0
 71
3
 72
9
 73
5
 74
0
 42
0.0000001
 43
0.0000001
 44
0.0000000001
 40
0.0
 40
0.0
 40
0.0
 40
0.0
 40
0.2489617228
 40
1.0
 40
1.0
 40
1.0
 40
1.0
 10
31.6708342628
 20
31.2044186949
 30
0.0
 10
31.7101468892
 20
31.2335233277
 30
0.0
 10
31.8692426254
 20
31.34881834
 30
0.0
 10
32.0325400189
 20
31.4582652942
 30
0.0
 10
32.1568890133
 20
31.5377041125
 30
0.0
  0
SPLINE
  5
42F
100
AcDbEntity
  8
0
100
AcDbSpline
 62
7
  6
CONTINUOUS
 70
0
 71
3
 72
9
 73
5
 74
0
 42
0.0000001
 43
0.0000001
 44
0.0000000001
 40
0.0
 40
0.0
 40
0.0
 40
0.0
 40
0.2510765717
 40
1.0
 40
1.0
 40
1.0
 40
1.0
 10
30.9687271211
 20
29.4797474452
 30
0.0
 10
30.970941053
 20
29.5290272224
 30
0.0
 10
30.981234041
 20
29.7252277788
 30
0.0
 10
30.9976453035
 20
29.9211415002
 30
0.0
 10
31.0143383529
 20
30.0673339208
 30
0.0
  0
LINE
  5
430
100
AcDbEntity
  8
0
100
AcDbLine
 62
7
  6
CONTINUOUS
 10
30.9687271211
 20
29.4797474452
 11
30.969737024
 21
29.4588917247
  0
SPLINE
  5
431
100
AcDbEntity
  8
0
100
AcDbSpline
 62
250
  6
CONTINUOUS
 70
0
 71
3
 72
15
 73
11
 74
0
 42
0.0000001
 43
0.0000001
 44
0.0000000001
 40
0.0
 40
0.0
 40
0.0
 40
0.0
 40
0.137325895
 40
0.2717943924
 40
0.4025747608
 40
0.5291722796
 40
0.6515406488
 40
0.7701216562
 40
0.8858313275
 40
1.0
 40
1.0
 40
1.0
 40
1.0
 10
34.1861507139
 20
29.6869006662
 30
0.0
 10
34.2329997067
 20
29.8222455156
 30
0.0
 10
34.307377938
 20
30.096927839
 30
0.0
 10
34.3582109908
 20
30.5151584994
 30
0.0
 10
34.3460368558
 20
30.9253130031
 30
0.0
 10
34.2708790531
 20
31.3160214895
 30
0.0
 10
34.134505651
 20
31.6764324424
 30
0.0
 10
33.9402568037
 20
31.9963148866
 30
0.0
 10
33.6934611532
 20
32.2662223874
 30
0.0
 10
33.4976462466
 20
32.4079754929
 30
0.0
 10
33.3945285184
 20
32.4675143768
 30
0.0
  0
SPLINE
  5
432
100
AcDbEntity
  8
0
100
AcDbSpline
 62
250
  6
CONTINUOUS
 70
0
 71
3
 72
23
 73
19
 74
0
 42
0.0000001
 43
0.0000001
 44
0.0000000001
 40
0.0
 40
0.0
 40
0.0
 40
0.0
 40
0.0686481964
 40
0.1358517535
 40
0.2012051311
 40
0.2644787539
 40
0.3256583729
 40
0.3849682358
 40
0.4428668993
 40
0.5000050241
 40
0.5571428278
 40
0.6150405749
 40
0.6743490555
 40
0.7355270079
 40
0.7987988792
 40
0.8641506103
 40
0.9313527885
 40
1.0
 40
1.0
 40
1.0
 40
1.0
 10
34.0080479758
 20
29.7897254943
 30
0.0
 10
34.0508427702
 20
29.9175416715
 30
0.0
 10
34.1183313176
 20
30.1766679849
 30
0.0
 10
34.1627287117
 20
30.5705805904
 30
0.0
 10
34.1482478612
 20
30.9563636057
 30
0.0
 10
34.0750143861
 20
31.3235001701
 30
0.0
 10
33.9447063556
 20
31.6619789787
 30
0.0
 10
33.7605276939
 20
31.9623438379
 30
0.0
 10
33.5272764424
 20
32.2159609223
 30
0.0
 10
33.2513780746
 20
32.4153458907
 30
0.0
 10
32.9407658942
 20
32.5546051914
 30
0.0
 10
32.604510227
 20
32.629814452
 30
0.0
 10
32.2523053325
 20
32.6391505934
 30
0.0
 10
31.8940273081
 20
32.5827748509
 30
0.0
 10
31.5394673542
 20
32.4626403375
 30
0.0
 10
31.1981344291
 20
32.282299233
 30
0.0
 10
30.8791990648
 20
32.046900999
 30
0.0
 10
30.688535994
 20
31.8588949372
 30
0.0
 10
30.5992423924
 20
31.7579271158
 30
0.0
  0
SPLINE
  5
433
100
AcDbEntity
  8
0
100
AcDbSpline
 62
250
  6
CONTINUOUS
 70
0
 71
3
 72
23
 73
19
 74
0
 42
0.0000001
 43
0.0000001
 44
0.0000000001
 40
0.0
 40
0.0
 40
0.0
 40
0.0
 40
0.0686481964
 40
0.1358517535
 40
0.2012051311
 40
0.2644787539
 40
0.3256583729
 40
0.3849682358
 40
0.4428668993
 40
0.5000050241
 40
0.5571428278
 40
0.6150405749
 40
0.6743490555
 40
0.7355270079
 40
0.7987988792
 40
0.8641506103
 40
0.9313527885
 40
1.0
 40
1.0
 40
1.0
 40
1.0
 10
29.9992423924
 20
30.7186966323
 30
0.0
 10
29.9564475979
 20
30.5908804552
 30
0.0
 10
29.8889590506
 20
30.3317541417
 30
0.0
 10
29.8445616565
 20
29.9378415363
 30
0.0
 10
29.859042507
 20
29.552058521
 30
0.0
 10
29.9322759821
 20
29.1849219566
 30
0.0
 10
30.0625840126
 20
28.846443148
 30
0.0
 10
30.2467626743
 20
28.5460782887
 30
0.0
 10
30.4800139258
 20
28.2924612044
 30
0.0
 10
30.7559122936
 20
28.093076236
 30
0.0
 10
31.0665244739
 20
27.9538169353
 30
0.0
 10
31.4027801412
 20
27.8786076747
 30
0.0
 10
31.7549850356
 20
27.8692715333
 30
0.0
 10
32.1132630601
 20
27.9256472758
 30
0.0
 10
32.467823014
 20
28.0457817892
 30
0.0
 10
32.8091559391
 20
28.2261228937
 30
0.0
 10
33.1280913034
 20
28.4615211277
 30
0.0
 10
33.3187543741
 20
28.6495271895
 30
0.0
 10
33.4080479758
 20
28.7504950109
 30
0.0
  0
SPLINE
  5
434
100
AcDbEntity
  8
0
100
AcDbSpline
 62
250
  6
CONTINUOUS
 70
0
 71
3
 72
15
 73
11
 74
0
 42
0.0000001
 43
0.0000001
 44
0.0000000001
 40
0.0
 40
0.0
 40
0.0
 40
0.0
 40
0.1141704729
 40
0.2298808123
 40
0.3484616368
 40
0.4708293291
 40
0.5974262195
 40
0.7282057862
 40
0.862673692
 40
1.0
 40
1.0
 40
1.0
 40
1.0
 10
30.7823154157
 20
27.9430285673
 30
0.0
 10
30.8854327069
 20
27.8834899358
 30
0.0
 10
31.1060944007
 20
27.7847743042
 30
0.0
 10
31.4632303044
 20
27.7059794606
 30
0.0
 10
31.8373732337
 20
27.6976804892
 30
0.0
 10
32.2176780957
 20
27.7597692241
 30
0.0
 10
32.59361394
 20
27.8900233405
 30
0.0
 10
32.954899023
 20
28.0845475422
 30
0.0
 10
33.2916752663
 20
28.3376774996
 30
0.0
 10
33.4923645105
 20
28.5394273677
 30
0.0
 10
33.5861507139
 20
28.6476701828
 30
0.0
  0
SPLINE
  5
435
100
AcDbEntity
  8
0
100
AcDbSpline
 62
7
  6
CONTINUOUS
 70
0
 71
3
 72
10
 73
6
 74
0
 42
0.0000001
 43
0.0000001
 44
0.0000000001
 40
0.0
 40
0.0
 40
0.0
 40
0.0
 40
0.3574592193
 40
0.6349878592
 40
1.0
 40
1.0
 40
1.0
 40
1.0
 10
31.844140037
 20
27.2153267235
 30
0.0
 10
31.8452155983
 20
27.2141132308
 30
0.0
 10
31.8470337095
 20
27.2118342381
 30
0.0
 10
31.8493576495
 20
27.2080511133
 30
0.0
 10
31.8499519832
 20
27.2046756835
 30
0.0
 10
31.8491263604
 20
27.2032404019
 30
0.0
  0
SPLINE
  5
436
100
AcDbEntity
  8
0
100
AcDbSpline
 62
7
  6
CONTINUOUS
 70
0
 71
3
 72
9
 73
5
 74
0
 42
0.0000001
 43
0.0000001
 44
0.0000000001
 40
0.0
 40
0.0
 40
0.0
 40
0.0
 40
0.4994995182
 40
1.0
 40
1.0
 40
1.0
 40
1.0
 10
32.2573600848
 20
30.7685529791
 30
0.0
 10
32.1660839789
 20
30.7669784389
 30
0.0
 10
31.9833833197
 20
30.7618523066
 30
0.0
 10
31.8007623365
 20
30.75464531
 30
0.0
 10
31.7093711668
 20
30.7507858986
 30
0.0
  0
LINE
  5
437
100
AcDbEntity
  8
0
100
AcDbLine
 62
7
  6
CONTINUOUS
 10
32.2573600848
 20
30.7685529791
 11
32.6228362143
 21
30.4969136864
  0
LINE
  5
438
100
AcDbEntity
  8
0
100
AcDbLine
 62
7
  6
CONTINUOUS
 10
31.6708342628
 20
31.2044186949
 11
32.0642348033
 21
30.9120794872
  0
LINE
  5
439
100
AcDbEntity
  8
0
100
AcDbLine
 62
7
  6
CONTINUOUS
 10
31.9049922054
 20
30.5746857825
 11
31.6883545246
 21
30.7472219245
  0
LINE
  5
43A
100
AcDbEntity
  8
0
100
AcDbLine
 62
7
  6
CONTINUOUS
 10
31.9050091778
 20
30.5747273923
 11
31.5192693357
 21
30.7973268494
  0
LINE
  5
43B
100
AcDbEntity
  8
0
100
AcDbLine
 62
7
  6
CONTINUOUS
 10
31.6767217406
 20
30.1793552836
 11
31.2911818274
 21
30.4022828648
  0
SPLINE
  5
43C
100
AcDbEntity
  8
0
100
AcDbSpline
 62
7
  6
CONTINUOUS
 70
0
 71
3
 72
9
 73
5
 74
0
 42
0.0000001
 43
0.0000001
 44
0.0000000001
 40
0.0
 40
0.0
 40
0.0
 40
0.0
 40
0.500585407
 40
1.0
 40
1.0
 40
1.0
 40
1.0
 10
31.4192038706
 20
30.2805371682
 30
0.0
 10
31.4621725448
 20
30.2636263689
 30
0.0
 10
31.5479444421
 20
30.2296786619
 30
0.0
 10
31.6339758028
 20
30.1963927179
 30
0.0
 10
31.6768439781
 20
30.1795214712
 30
0.0
  0
SPLINE
  5
43D
100
AcDbEntity
  8
0
100
AcDbSpline
 62
7
  6
CONTINUOUS
 70
0
 71
3
 72
9
 73
5
 74
0
 42
0.0000001
 43
0.0000001
 44
0.0000000001
 40
0.0
 40
0.0
 40
0.0
 40
0.0
 40
0.2503395791
 40
1.0
 40
1.0
 40
1.0
 40
1.0
 10
31.4265117217
 20
30.2608591199
 30
0.0
 10
31.4476946691
 20
30.220304685
 30
0.0
 10
31.5325568338
 20
30.058437623
 30
0.0
 10
31.6186627628
 20
29.897203625
 30
0.0
 10
31.6851065702
 20
29.7773806457
 30
0.0
  0
LINE
  5
43E
100
AcDbEntity
  8
0
100
AcDbLine
 62
7
  6
CONTINUOUS
 10
32.1031127301
 20
29.5967262069
 11
31.6923220509
 21
29.7742620011
  0
LINE
  5
43F
100
AcDbEntity
  8
0
100
AcDbLine
 62
7
  6
CONTINUOUS
 10
31.4642345606
 20
29.8728491439
 11
31.0143383529
 21
30.0673339208
  0
LINE
  5
440
100
AcDbEntity
  8
0
100
AcDbLine
 62
7
  6
CONTINUOUS
 10
31.6851065702
 20
29.7773806457
 11
31.6808776323
 21
29.7477830601
  0
SPLINE
  5
441
100
AcDbEntity
  8
0
100
AcDbSpline
 62
7
  6
CONTINUOUS
 70
0
 71
3
 72
10
 73
6
 74
0
 42
0.0000001
 43
0.0000001
 44
0.0000000001
 40
0.0
 40
0.0
 40
0.0
 40
0.0
 40
0.3651245329
 40
0.6426230144
 40
1.0
 40
1.0
 40
1.0
 40
1.0
 10
34.5686536284
 20
31.9135997972
 30
0.0
 10
34.56782288
 20
31.912166158
 30
0.0
 10
34.5646021583
 20
31.9109907176
 30
0.0
 10
34.5601618652
 20
31.9111097227
 30
0.0
 10
34.5572784564
 20
31.9115437787
 30
0.0
 10
34.5556894096
 20
31.9118679992
 30
0.0
  0
LINE
  5
442
100
AcDbEntity
  8
0
100
AcDbLine
 62
7
  6
CONTINUOUS
 10
31.5071884058
 20
29.1906840448
 11
30.969737024
 21
29.4588917247
  0
SPLINE
  5
443
100
AcDbEntity
  8
TRASH
100
AcDbSpline
 62
7
  6
CONTINUOUS
 70
0
 71
3
 72
9
 73
5
 74
0
 42
0.0000001
 43
0.0000001
 44
0.0000000001
 40
0.0
 40
0.0
 40
0.0
 40
0.0
 40
0.4934628355
 40
1.0
 40
1.0
 40
1.0
 40
1.0
 10
32.1031139398
 20
29.5967324936
 30
0.0
 10
32.0415631651
 20
29.6899805459
 30
0.0
 10
31.9112897993
 20
29.8752679083
 30
0.0
 10
31.7766905736
 20
30.0573331255
 30
0.0
 10
31.7080198208
 20
30.1491933505
 30
0.0
  0
SPLINE
  5
444
100
AcDbEntity
  8
TRASH
100
AcDbSpline
 62
7
  6
CONTINUOUS
 70
0
 71
3
 72
9
 73
5
 74
0
 42
0.0000001
 43
0.0000001
 44
0.0000000001
 40
0.0
 40
0.0
 40
0.0
 40
0.0
 40
0.5065386847
 40
1.0
 40
1.0
 40
1.0
 40
1.0
 10
31.9468415572
 20
30.5628531446
 30
0.0
 10
32.0607309574
 20
30.5493111528
 30
0.0
 10
32.285703922
 20
30.5237689741
 30
0.0
 10
32.5113056175
 20
30.5035971313
 30
0.0
 10
32.6228362145
 20
30.4969136859
 30
0.0
  0
LINE
  5
445
100
AcDbEntity
  8
0
100
AcDbLine
 62
7
  6
CONTINUOUS
 10
32.2808773707
 20
30.7870136946
 11
32.2573600848
 21
30.7685529791
  0
LINE
  5
446
100
AcDbEntity
  8
0
100
AcDbLine
 62
7
  6
CONTINUOUS
 10
32.1752378592
 20
31.5471453658
 11
32.6762902332
 21
31.2158153501
  0
SPLINE
  5
447
100
AcDbEntity
  8
RACCORDO
100
AcDbSpline
 62
7
  6
CONTINUOUS
 70
0
 71
3
 72
11
 73
7
 74
0
 42
0.0000001
 43
0.0000001
 44
0.0000000001
 40
0.0
 40
0.0
 40
0.0
 40
0.0
 40
0.2305373852
 40
0.4767357709
 40
0.7347204238
 40
1.0
 40
1.0
 40
1.0
 40
1.0
 10
89.1815312209
 20
-58.9152225098
 30
0.0
 10
88.9081139759
 20
-59.0730902002
 30
0.0
 10
88.3160572022
 20
-59.3545202871
 30
0.0
 10
87.3565039479
 20
-59.6649945649
 30
0.0
 10
86.320922041
 20
-59.8712072856
 30
0.0
 10
85.6056282879
 20
-59.9352704206
 30
0.0
 10
85.2425856113
 20
-59.9489266309
 30
0.0
  0
SPLINE
  5
448
100
AcDbEntity
  8
RACCORDO
100
AcDbSpline
 62
7
  6
CONTINUOUS
 70
0
 71
3
 72
10
 73
6
 74
0
 42
0.0000001
 43
0.0000001
 44
0.0000000001
 40
0.0
 40
0.0
 40
0.0
 40
0.0
 40
0.4747150797
 40
0.7309811381
 40
1.0
 40
1.0
 40
1.0
 40
1.0
 10
90.6304516627
 20
-57.6165916034
 30
0.0
 10
90.4600784333
 20
-57.8757743871
 30
0.0
 10
90.1360200385
 20
-58.2361301776
 30
0.0
 10
89.6235989897
 20
-58.642112549
 30
0.0
 10
89.3337495989
 20
-58.8273335262
 30
0.0
 10
89.1815312211
 20
-58.9152225097
 30
0.0
  0
SPLINE
  5
449
100
AcDbEntity
  8
RACCORDO
100
AcDbSpline
 62
250
  6
CONTINUOUS
 70
0
 71
3
 72
11
 73
7
 74
0
 42
0.0000001
 43
0.0000001
 44
0.0000000001
 40
0.0
 40
0.0
 40
0.0
 40
0.0
 40
0.2305199118
 40
0.4764906713
 40
0.7343352396
 40
1.0
 40
1.0
 40
1.0
 40
1.0
 10
89.1491658482
 20
-58.8517382132
 30
0.0
 10
88.8942511712
 20
-58.9928053283
 30
0.0
 10
88.3460469197
 20
-59.2468511114
 30
0.0
 10
87.4618411324
 20
-59.5347815853
 30
0.0
 10
86.5086949771
 20
-59.7361022329
 30
0.0
 10
85.8498224926
 20
-59.8085521971
 30
0.0
 10
85.5147129031
 20
-59.8294766817
 30
0.0
  0
SPLINE
  5
44A
100
AcDbEntity
  8
RACCORDO
100
AcDbSpline
 62
250
  6
CONTINUOUS
 70
0
 71
3
 72
10
 73
6
 74
0
 42
0.0000001
 43
0.0000001
 44
0.0000000001
 40
0.0
 40
0.0
 40
0.0
 40
0.0
 40
0.4719981747
 40
0.7291776291
 40
1.0
 40
1.0
 40
1.0
 40
1.0
 10
90.5898795798
 20
-57.6352153213
 30
0.0
 10
90.4255226054
 20
-57.8640843087
 30
0.0
 10
90.1220104439
 20
-58.1834218769
 30
0.0
 10
89.6495376138
 20
-58.5487864314
 30
0.0
 10
89.3828598355
 20
-58.7179427628
 30
0.0
 10
89.2428487834
 20
-58.7987833896
 30
0.0
  0
SPLINE
  5
44B
100
AcDbEntity
  8
RACCORDO
100
AcDbSpline
 62
7
  6
CONTINUOUS
 70
0
 71
3
 72
22
 73
18
 74
0
 42
0.0000001
 43
0.0000001
 44
0.0000000001
 40
0.0
 40
0.0
 40
0.0
 40
0.0
 40
0.0616250238
 40
0.1267844618
 40
0.1948060977
 40
0.2650203793
 40
0.4084740468
 40
0.4799803933
 40
0.5500812771
 40
0.6179356962
 40
0.6828371649
 40
0.7442526645
 40
0.8018893825
 40
0.8557644152
 40
0.9062303843
 40
0.9539638413
 40
1.0
 40
1.0
 40
1.0
 40
1.0
 10
7.8642513845
 20
-93.6185629426
 30
0.0
 10
7.6477447017
 20
-93.7435711877
 30
0.0
 10
7.1856302476
 20
-93.9725270705
 30
0.0
 10
6.4427245026
 20
-94.2457352257
 30
0.0
 10
5.6430046933
 20
-94.4541820808
 30
0.0
 10
4.5146893382
 20
-94.6422238327
 30
0.0
 10
3.3521252722
 20
-94.6862966102
 30
0.0
 10
2.1989367095
 20
-94.5872310591
 30
0.0
 10
1.3604317271
 20
-94.4424333969
 30
0.0
 10
0.564252605
 20
-94.2295676605
 30
0.0
 10
-0.1745833618
 20
-93.9523872906
 30
0.0
 10
-0.8421507713
 20
-93.6150961823
 30
0.0
 10
-1.4260869765
 20
-93.2225336349
 30
0.0
 10
-1.9149585141
 20
-92.7794748272
 30
0.0
 10
-2.2976682726
 20
-92.2910663432
 30
0.0
 10
-2.5622598206
 20
-91.7644645284
 30
0.0
 10
-2.6531653017
 20
-91.3907393906
 30
0.0
 10
-2.6746983123
 20
-91.2052223944
 30
0.0
  0
SPLINE
  5
44C
100
AcDbEntity
  8
RACCORDO
100
AcDbSpline
 62
7
  6
CONTINUOUS
 70
0
 71
3
 72
9
 73
5
 74
0
 42
0.0000001
 43
0.0000001
 44
0.0000000001
 40
0.0
 40
0.0
 40
0.0
 40
0.0
 40
0.2416691207
 40
1.0
 40
1.0
 40
1.0
 40
1.0
 10
8.6489728883
 20
-93.0657311599
 30
0.0
 10
8.5904470075
 20
-93.1163707913
 30
0.0
 10
8.3426852898
 20
-93.3194247246
 30
0.0
 10
8.0745623775
 20
-93.4971320112
 30
0.0
 10
7.8642513846
 20
-93.6185629426
 30
0.0
  0
SPLINE
  5
44D
100
AcDbEntity
  8
RACCORDO
100
AcDbSpline
 62
250
  6
CONTINUOUS
 70
0
 71
3
 72
22
 73
18
 74
0
 42
0.0000001
 43
0.0000001
 44
0.0000000001
 40
0.0
 40
0.0
 40
0.0
 40
0.0
 40
0.0623157022
 40
0.1283695219
 40
0.1974383963
 40
0.2687606597
 40
0.4143531441
 40
0.4868085311
 40
0.557722214
 40
0.6262069293
 40
0.6914836834
 40
0.7529351094
 40
0.8101500625
 40
0.8630068559
 40
0.9117428883
 40
0.9570270214
 40
1.0
 40
1.0
 40
1.0
 40
1.0
 10
7.8318860118
 20
-93.5550786461
 30
0.0
 10
7.6128242562
 20
-93.6763051296
 30
0.0
 10
7.1458614228
 20
-93.8983224527
 30
0.0
 10
6.3966143287
 20
-94.1624665803
 30
0.0
 10
5.5905569159
 20
-94.3632028511
 30
0.0
 10
4.4544880922
 20
-94.5420702923
 30
0.0
 10
3.2861463319
 20
-94.5787010596
 30
0.0
 10
2.1289704534
 20
-94.4736527776
 30
0.0
 10
1.2896464671
 20
-94.3255052151
 30
0.0
 10
0.4946508045
 20
-94.1107707555
 30
0.0
 10
-0.2405076485
 20
-93.8336225523
 30
0.0
 10
-0.9014914769
 20
-93.4994670381
 30
0.0
 10
-1.4753668306
 20
-93.1143082817
 30
0.0
 10
-1.9509472055
 20
-92.6851723515
 30
0.0
 10
-2.3185227461
 20
-92.2192276378
 30
0.0
 10
-2.5691374977
 20
-91.7247544495
 30
0.0
 10
-2.6546971814
 20
-91.3765438248
 30
0.0
 10
-2.6746964013
 20
-91.2050522848
 30
0.0
  0
SPLINE
  5
44E
100
AcDbEntity
  8
RACCORDO
100
AcDbSpline
 62
250
  6
CONTINUOUS
 70
0
 71
3
 72
9
 73
5
 74
0
 42
0.0000001
 43
0.0000001
 44
0.0000000001
 40
0.0
 40
0.0
 40
0.0
 40
0.0
 40
0.2430168391
 40
1.0
 40
1.0
 40
1.0
 40
1.0
 10
8.5171279637
 20
-93.1067242587
 30
0.0
 10
8.4715663603
 20
-93.1420690336
 30
0.0
 10
8.2813926966
 20
-93.2840268101
 30
0.0
 10
8.0811213339
 20
-93.4123098237
 30
0.0
 10
7.9255689469
 20
-93.5021238224
 30
0.0
  0
SPLINE
  5
44F
100
AcDbEntity
  8
RACCORDO
100
AcDbSpline
 62
7
  6
CONTINUOUS
 70
0
 71
3
 72
18
 73
14
 74
0
 42
0.0000001
 43
0.0000001
 44
0.0000000001
 40
0.0
 40
0.0
 40
0.0
 40
0.0
 40
0.1388396224
 40
0.2756372413
 40
0.408614814
 40
0.5364623408
 40
0.658604803
 40
0.7177029036
 40
0.7755968625
 40
0.8324897923
 40
0.888640599
 40
0.944381891
 40
1.0
 40
1.0
 40
1.0
 40
1.0
 10
-10.3702438475
 20
11.5344600294
 30
0.0
 10
-10.0498909634
 20
12.0893275005
 30
0.0
 10
-9.5044891364
 20
13.2462370781
 30
0.0
 10
-8.9959562197
 20
15.0711890298
 30
0.0
 10
-8.8190394795
 20
16.9078661643
 30
0.0
 10
-8.9815390194
 20
18.6785590129
 30
0.0
 10
-9.4004380467
 20
20.054569632
 30
0.0
 10
-9.8953550351
 20
21.0432319082
 30
0.0
 10
-10.3359599286
 20
21.7161621124
 30
0.0
 10
-10.8451105352
 20
22.3211888201
 30
0.0
 10
-11.4175484662
 20
22.8523997917
 30
0.0
 10
-12.0472133859
 20
23.3041741989
 30
0.0
 10
-12.500634919
 20
23.5494503472
 30
0.0
 10
-12.7336348713
 20
23.6570903043
 30
0.0
  0
SPLINE
  5
450
100
AcDbEntity
  8
RACCORDO
100
AcDbSpline
 62
7
  6
CONTINUOUS
 70
0
 71
3
 72
18
 73
14
 74
0
 42
0.0000001
 43
0.0000001
 44
0.0000000001
 40
0.0
 40
0.0
 40
0.0
 40
0.0
 40
0.0556186749
 40
0.1113605537
 40
0.1675117898
 40
0.2244049869
 40
0.2822990431
 40
0.3413970592
 40
0.4635389054
 40
0.591385459
 40
0.7243621623
 40
0.8611595139
 40
1.0
 40
1.0
 40
1.0
 40
1.0
 10
-22.0493536696
 20
7.5197125693
 30
0.0
 10
-21.8396355526
 20
7.371784284
 30
0.0
 10
-21.4005169785
 20
7.1018170537
 30
0.0
 10
-20.6944649572
 20
6.7824926693
 30
0.0
 10
-19.948247836
 20
6.5524360983
 30
0.0
 10
-19.1697622935
 20
6.4140839132
 30
0.0
 10
-18.3667555854
 20
6.3690320896
 30
0.0
 10
-17.2631997337
 20
6.4348120906
 30
0.0
 10
-15.8622447829
 20
6.76007614
 30
0.0
 10
-14.24771899
 20
7.5046800978
 30
0.0
 10
-12.7457463645
 20
8.5761693794
 30
0.0
 10
-11.4197070263
 20
9.9289446434
 30
0.0
 10
-10.6905690287
 20
10.9796405412
 30
0.0
 10
-10.3702438475
 20
11.5344600294
 30
0.0
  0
SPLINE
  5
451
100
AcDbEntity
  8
0
100
AcDbSpline
 62
7
  6
CONTINUOUS
 70
0
 71
3
 72
15
 73
11
 74
0
 42
0.0000001
 43
0.0000001
 44
0.0000000001
 40
0.0
 40
0.0
 40
0.0
 40
0.0
 40
0.1343045427
 40
0.2634831456
 40
0.3881816745
 40
0.5096553266
 40
0.62965397
 40
0.7501714191
 40
0.8731142072
 40
1.0
 40
1.0
 40
1.0
 40
1.0
 10
-8.9179298094
 20
16.0327439229
 30
0.0
 10
-8.9687778406
 20
16.3475113127
 30
0.0
 10
-9.1179008584
 20
16.9585320396
 30
0.0
 10
-9.4894309862
 20
17.8070869173
 30
0.0
 10
-9.9942629141
 20
18.5480412226
 30
0.0
 10
-10.6185624631
 20
19.1613094774
 30
0.0
 10
-11.3455953094
 20
19.6306942637
 30
0.0
 10
-12.1561255642
 20
19.9437089331
 30
0.0
 10
-13.0282531706
 20
20.0920147301
 30
0.0
 10
-13.6251884374
 20
20.0784623591
 30
0.0
 10
-13.9245870548
 20
20.0452476864
 30
0.0
  0
SPLINE
  5
452
100
AcDbEntity
  8
0
100
AcDbSpline
 62
7
  6
CONTINUOUS
 70
0
 71
3
 72
11
 73
7
 74
0
 42
0.0000001
 43
0.0000001
 44
0.0000000001
 40
0.0
 40
0.0
 40
0.0
 40
0.0
 40
0.2397372542
 40
0.487759794
 40
0.7421432354
 40
1.0
 40
1.0
 40
1.0
 40
1.0
 10
-15.1546730268
 20
20.5954146103
 30
0.0
 10
-15.6088113956
 20
20.4560716504
 30
0.0
 10
-16.5041242329
 20
20.071232646
 30
0.0
 10
-17.7228329355
 20
19.2334894833
 30
0.0
 10
-18.7938846662
 20
18.1630536781
 30
0.0
 10
-19.378752708
 20
17.3261293201
 30
0.0
 10
-19.6342218728
 20
16.8836437473
 30
0.0
  0
SPLINE
  5
453
100
AcDbEntity
  8
0
100
AcDbSpline
 62
7
  6
CONTINUOUS
 70
0
 71
3
 72
15
 73
11
 74
0
 42
0.0000001
 43
0.0000001
 44
0.0000000001
 40
0.0
 40
0.0
 40
0.0
 40
0.0
 40
0.1283304657
 40
0.2535906265
 40
0.3766892533
 40
0.4987421823
 40
0.6209733962
 40
0.7445898726
 40
0.8706544022
 40
1.0
 40
1.0
 40
1.0
 40
1.0
 10
-8.9679954459
 20
16.3050636755
 30
0.0
 10
-9.0558160992
 20
16.4849313196
 30
0.0
 10
-9.2547556521
 20
16.8287210098
 30
0.0
 10
-9.6231881614
 20
17.2892135863
 30
0.0
 10
-10.0515301792
 20
17.6805250203
 30
0.0
 10
-10.5326815288
 20
17.9962270455
 30
0.0
 10
-11.058850054
 20
18.2312608778
 30
0.0
 10
-11.6215637926
 20
18.3817497568
 30
0.0
 10
-12.2115173112
 20
18.4451332556
 30
0.0
 10
-12.6111840113
 20
18.4286947039
 30
0.0
 10
-12.8116975832
 20
18.4064348634
 30
0.0
  0
SPLINE
  5
454
100
AcDbEntity
  8
0
100
AcDbSpline
 62
7
  6
CONTINUOUS
 70
0
 71
3
 72
11
 73
7
 74
0
 42
0.0000001
 43
0.0000001
 44
0.0000000001
 40
0.0
 40
0.0
 40
0.0
 40
0.0
 40
0.2395914664
 40
0.4875919704
 40
0.7420380758
 40
1.0
 40
1.0
 40
1.0
 40
1.0
 10
-13.8266149097
 20
18.7831729599
 30
0.0
 10
-14.2051110558
 20
18.667039254
 30
0.0
 10
-14.9514739423
 20
18.3461543782
 30
0.0
 10
-15.9675998683
 20
17.6475273243
 30
0.0
 10
-16.8609069855
 20
16.7546121103
 30
0.0
 10
-17.3487960991
 20
16.056424643
 30
0.0
 10
-17.5619302353
 20
15.6872654906
 30
0.0
  0
SPLINE
  5
455
100
AcDbEntity
  8
0
100
AcDbSpline
 62
7
  6
CONTINUOUS
 70
0
 71
3
 72
15
 73
11
 74
0
 42
0.0000001
 43
0.0000001
 44
0.0000000001
 40
0.0
 40
0.0
 40
0.0
 40
0.0
 40
0.1268864016
 40
0.2498295078
 40
0.3703469969
 40
0.4903455058
 40
0.6118189561
 40
0.7365172819
 40
0.8656956707
 40
1.0
 40
1.0
 40
1.0
 40
1.0
 10
-19.5171912532
 20
10.3572927609
 30
0.0
 10
-19.3962212703
 20
10.0814054985
 30
0.0
 10
-19.1094218623
 20
9.5576883318
 30
0.0
 10
-18.5448231931
 20
8.8766098188
 30
0.0
 10
-17.8683938214
 20
8.3312524729
 30
0.0
 10
-17.0983093408
 20
7.9364106112
 30
0.0
 10
-16.2550046386
 20
7.7024961002
 30
0.0
 10
-15.3608763335
 20
7.6358989594
 30
0.0
 10
-14.4402371854
 20
7.7385526651
 30
0.0
 10
-13.8365290621
 20
7.9150072213
 30
0.0
 10
-13.5385184064
 20
8.0283991455
 30
0.0
  0
SPLINE
  5
456
100
AcDbEntity
  8
0
100
AcDbSpline
 62
7
  6
CONTINUOUS
 70
0
 71
3
 72
11
 73
7
 74
0
 42
0.0000001
 43
0.0000001
 44
0.0000000001
 40
0.0
 40
0.0
 40
0.0
 40
0.0
 40
0.2578572641
 40
0.5122415051
 40
0.7602640649
 40
1.0
 40
1.0
 40
1.0
 40
1.0
 10
-19.6342218728
 20
16.8836437473
 30
0.0
 10
-19.889733722
 20
16.4410842431
 30
0.0
 10
-20.3221574625
 20
15.5159484722
 30
0.0
 10
-20.71366363
 20
14.0529106419
 30
0.0
 10
-20.8297384472
 20
12.5783539721
 30
0.0
 10
-20.7152526594
 20
11.6104217642
 30
0.0
 10
-20.6087886535
 20
11.1473930521
 30
0.0
  0
SPLINE
  5
457
100
AcDbEntity
  8
SMUSSO
100
AcDbSpline
 62
7
  6
CONTINUOUS
 70
0
 71
3
 72
18
 73
14
 74
0
 42
0.0000001
 43
0.0000001
 44
0.0000000001
 40
0.0
 40
0.0
 40
0.0
 40
0.0
 40
0.136982775
 40
0.2722360659
 40
0.4042573572
 40
0.5319229421
 40
0.6547010225
 40
0.7143708291
 40
0.7729570824
 40
0.8306054989
 40
0.8875065261
 40
0.9438869753
 40
1.0
 40
1.0
 40
1.0
 40
1.0
 10
-25.0546922389
 20
20.0132065519
 30
0.0
 10
-25.4787847897
 20
19.2786567075
 30
0.0
 10
-26.2064406953
 20
17.748651186
 30
0.0
 10
-26.9066600873
 20
15.3342969443
 30
0.0
 10
-27.1878004869
 20
12.8926216417
 30
0.0
 10
-27.0372840937
 20
10.5162058766
 30
0.0
 10
-26.5486268063
 20
8.6445177666
 30
0.0
 10
-25.9485766171
 20
7.2753189234
 30
0.0
 10
-25.4051060011
 20
6.3287837406
 30
0.0
 10
-24.7692073327
 20
5.4628567192
 30
0.0
 10
-24.0469558275
 20
4.685863724
 30
0.0
 10
-23.2454397362
 20
4.0056591404
 30
0.0
 10
-22.6625747983
 20
3.6206653262
 30
0.0
 10
-22.3616673337
 20
3.4469586758
 30
0.0
  0
SPLINE
  5
458
100
AcDbEntity
  8
SMUSSO
100
AcDbSpline
 62
7
  6
CONTINUOUS
 70
0
 71
3
 72
18
 73
14
 74
0
 42
0.0000001
 43
0.0000001
 44
0.0000000001
 40
0.0
 40
0.0
 40
0.0
 40
0.0
 40
0.136983392
 40
0.2722364259
 40
0.4042570079
 40
0.5319218487
 40
0.6546994965
 40
0.7143692634
 40
0.772955614
 40
0.8306042602
 40
0.887505631
 40
0.943886506
 40
1.0
 40
1.0
 40
1.0
 40
1.0
 10
-25.0546922389
 20
20.0132065519
 30
0.0
 10
-24.6306382418
 20
20.7476896192
 30
0.0
 10
-23.6695438144
 20
22.1427354153
 30
0.0
 10
-21.9289637145
 20
23.9561771299
 30
0.0
 10
-19.9552212365
 20
25.420399344
 30
0.0
 10
-17.8221830472
 20
26.4782322192
 30
0.0
 10
-15.9571376032
 20
26.990928481
 30
0.0
 10
-14.4715059574
 20
27.1559433022
 30
0.0
 10
-13.3801499993
 20
27.1586256582
 30
0.0
 10
-12.3123749505
 20
27.0409775747
 30
0.0
 10
-11.2784261127
 20
26.8040963055
 30
0.0
 10
-10.2886473208
 20
26.4501913995
 30
0.0
 10
-9.6638221039
 20
26.1380065309
 30
0.0
 10
-9.3629408333
 20
25.9643150016
 30
0.0
  0
SPLINE
  5
459
100
AcDbEntity
  8
0
100
AcDbSpline
 62
7
  6
CONTINUOUS
 70
0
 71
3
 72
15
 73
11
 74
0
 42
0.0000001
 43
0.0000001
 44
0.0000000001
 40
0.0
 40
0.0
 40
0.0
 40
0.0
 40
0.1293471787
 40
0.2554133995
 40
0.3790313158
 40
0.5012633931
 40
0.6233164741
 40
0.746414184
 40
0.8716724527
 40
1.0
 40
1.0
 40
1.0
 40
1.0
 10
-17.5414953563
 20
10.21317289
 30
0.0
 10
-17.4605046006
 20
10.0284176674
 30
0.0
 10
-17.2748872526
 20
9.6741274129
 30
0.0
 10
-16.9250108608
 20
9.1949757631
 30
0.0
 10
-16.5133358999
 20
8.7829612129
 30
0.0
 10
-16.0467320186
 20
8.4448605954
 30
0.0
 10
-15.5327930431
 20
8.1860672344
 30
0.0
 10
-14.97979284
 20
8.010798334
 30
0.0
 10
-14.3968453265
 20
7.9219878589
 30
0.0
 10
-13.9996927097
 20
7.9215970446
 30
0.0
 10
-13.8000369784
 20
7.9354728804
 30
0.0
  0
SPLINE
  5
45A
100
AcDbEntity
  8
0
100
AcDbSpline
 62
7
  6
CONTINUOUS
 70
0
 71
3
 72
11
 73
7
 74
0
 42
0.0000001
 43
0.0000001
 44
0.0000000001
 40
0.0
 40
0.0
 40
0.0
 40
0.0
 40
0.2579622906
 40
0.5124091768
 40
0.7604097639
 40
1.0
 40
1.0
 40
1.0
 40
1.0
 10
-17.5619302353
 20
15.6872654906
 30
0.0
 10
-17.775099866
 20
15.31804486
 30
0.0
 10
-18.1358533764
 20
14.5462910522
 30
0.0
 10
-18.4624933857
 20
13.3259885477
 30
0.0
 10
-18.5593946987
 20
12.096473519
 30
0.0
 10
-18.4640162554
 20
11.2895373856
 30
0.0
 10
-18.3752852469
 20
10.903631523
 30
0.0
  0
SPLINE
  5
45B
100
AcDbEntity
  8
0
100
AcDbSpline
 62
250
  6
CONTINUOUS
 70
0
 71
3
 72
14
 73
10
 74
0
 42
0.0000001
 43
0.0000001
 44
0.0000000001
 40
0.0
 40
0.0
 40
0.0
 40
0.0
 40
0.2613213029
 40
0.3881412701
 40
0.5127134464
 40
0.635544628
 40
0.7572437834
 40
0.8784920979
 40
1.0
 40
1.0
 40
1.0
 40
1.0
 10
-13.8266150512
 20
18.7831712744
 30
0.0
 10
-13.4584815311
 20
18.8961511032
 30
0.0
 10
-12.8904068441
 20
19.0059635538
 30
0.0
 10
-12.1335132415
 20
19.013815353
 30
0.0
 10
-11.5840614262
 20
18.951292562
 30
0.0
 10
-11.0544612486
 20
18.8209333924
 30
0.0
 10
-10.5509522763
 20
18.6241317104
 30
0.0
 10
-10.0797096132
 20
18.3633818577
 30
0.0
 10
-9.7915018452
 20
18.1493999011
 30
0.0
 10
-9.6550376937
 20
18.0334800947
 30
0.0
  0
SPLINE
  5
45C
100
AcDbEntity
  8
0
100
AcDbSpline
 62
7
  6
CONTINUOUS
 70
0
 71
3
 72
11
 73
7
 74
0
 42
0.0000001
 43
0.0000001
 44
0.0000000001
 40
0.0
 40
0.0
 40
0.0
 40
0.0
 40
0.2378864658
 40
0.4855610979
 40
0.7407394861
 40
1.0
 40
1.0
 40
1.0
 40
1.0
 10
-12.048460409
 20
18.4200525123
 30
0.0
 10
-12.4779394492
 20
18.3019112959
 30
0.0
 10
-13.3291339156
 20
17.9595330528
 30
0.0
 10
-14.4909354412
 20
17.1864939532
 30
0.0
 10
-15.5144220854
 20
16.1807311674
 30
0.0
 10
-16.0718372382
 20
15.3876558219
 30
0.0
 10
-16.3145641784
 20
14.9672404298
 30
0.0
  0
SPLINE
  5
45D
100
AcDbEntity
  8
0
100
AcDbSpline
 62
7
  6
CONTINUOUS
 70
0
 71
3
 72
10
 73
6
 74
0
 42
0.0000001
 43
0.0000001
 44
0.0000000001
 40
0.0
 40
0.0
 40
0.0
 40
0.0
 40
0.5092792921
 40
0.7567709906
 40
1.0
 40
1.0
 40
1.0
 40
1.0
 10
-20.1827536458
 20
9.2942713289
 30
0.0
 10
-20.0600749458
 20
8.7605938162
 30
0.0
 10
-19.7961424947
 20
7.9820071421
 30
0.0
 10
-19.2833770242
 20
7.0350632139
 30
0.0
 10
-18.9792412177
 20
6.6020017232
 30
0.0
 10
-18.8162771276
 20
6.3974531112
 30
0.0
  0
SPLINE
  5
45E
100
AcDbEntity
  8
RACCORDO
100
AcDbSpline
 62
250
  6
CONTINUOUS
 70
0
 71
3
 72
13
 73
9
 74
0
 42
0.0000001
 43
0.0000001
 44
0.0000000001
 40
0.0
 40
0.0
 40
0.0
 40
0.0
 40
0.2682565627
 40
0.527021129
 40
0.6511284074
 40
0.7710659535
 40
0.8871035292
 40
1.0
 40
1.0
 40
1.0
 40
1.0
 10
-11.9800710364
 20
12.4647146471
 30
0.0
 10
-11.8407654315
 20
12.7059990325
 30
0.0
 10
-11.5009723017
 20
13.1451770622
 30
0.0
 10
-10.9454890636
 20
13.5494478058
 30
0.0
 10
-10.4606275502
 20
13.7490203433
 30
0.0
 10
-10.0938450639
 20
13.8315946495
 30
0.0
 10
-9.7297983632
 20
13.8462289822
 30
0.0
 10
-9.4929852448
 20
13.8096347592
 30
0.0
 10
-9.3795393622
 20
13.7799937221
 30
0.0
  0
SPLINE
  5
45F
100
AcDbEntity
  8
0
100
AcDbSpline
 62
7
  6
CONTINUOUS
 70
0
 71
3
 72
11
 73
7
 74
0
 42
0.0000001
 43
0.0000001
 44
0.0000000001
 40
0.0
 40
0.0
 40
0.0
 40
0.0
 40
0.26430611
 40
0.5218835266
 40
0.7677233006
 40
1.0
 40
1.0
 40
1.0
 40
1.0
 10
-11.5800710364
 20
12.2338042985
 30
0.0
 10
-11.4630873087
 20
12.4364260584
 30
0.0
 10
-11.185260819
 20
12.8115757436
 30
0.0
 10
-10.6598228521
 20
13.2527631215
 30
0.0
 10
-10.0657784256
 20
13.5370899498
 30
0.0
 10
-9.6405798011
 20
13.6067764957
 30
0.0
 10
-9.4349652368
 20
13.6067122779
 30
0.0
  0
SPLINE
  5
460
100
AcDbEntity
  8
0
100
AcDbSpline
 62
250
  6
CONTINUOUS
 70
0
 71
3
 72
15
 73
11
 74
0
 42
0.0000001
 43
0.0000001
 44
0.0000000001
 40
0.0
 40
0.0
 40
0.0
 40
0.0
 40
0.1320078387
 40
0.2602204395
 40
0.3852159231
 40
0.5079051447
 40
0.629454212
 40
0.7511609555
 40
0.8743047257
 40
1.0
 40
1.0
 40
1.0
 40
1.0
 10
-20.6087871597
 20
11.1473942788
 30
0.0
 10
-20.5378928607
 20
10.8389733703
 30
0.0
 10
-20.3532878116
 20
10.2400924988
 30
0.0
 10
-19.9443516679
 20
9.4077451622
 30
0.0
 10
-19.4156326196
 20
8.6725341629
 30
0.0
 10
-18.7784147224
 20
8.0514449107
 30
0.0
 10
-18.0467408473
 20
7.5587662851
 30
0.0
 10
-17.2370981224
 20
7.2058602214
 30
0.0
 10
-16.3682917758
 20
7.0005232418
 30
0.0
 10
-15.7694520272
 20
6.9652048149
 30
0.0
 10
-15.4681956712
 20
6.9719027259
 30
0.0
  0
SPLINE
  5
461
100
AcDbEntity
  8
0
100
AcDbSpline
 62
7
  6
CONTINUOUS
 70
0
 71
3
 72
11
 73
7
 74
0
 42
0.0000001
 43
0.0000001
 44
0.0000000001
 40
0.0
 40
0.0
 40
0.0
 40
0.0
 40
0.2610747828
 40
0.5171707857
 40
0.7642423944
 40
1.0
 40
1.0
 40
1.0
 40
1.0
 10
-15.4145641784
 20
14.4476921453
 30
0.0
 10
-15.1463716625
 20
14.9122152085
 30
0.0
 10
-14.5225591302
 20
15.7825210737
 30
0.0
 10
-13.3633236319
 20
16.8575419065
 30
0.0
 10
-12.0476464992
 20
17.6383530058
 30
0.0
 10
-11.0895879662
 20
17.9379142683
 30
0.0
 10
-10.6123497137
 20
18.0207282937
 30
0.0
  0
SPLINE
  5
462
100
AcDbEntity
  8
0
100
AcDbSpline
 62
7
  6
CONTINUOUS
 70
0
 71
3
 72
9
 73
5
 74
0
 42
0.0000001
 43
0.0000001
 44
0.0000000001
 40
0.0
 40
0.0
 40
0.0
 40
0.0
 40
0.5113683474
 40
1.0
 40
1.0
 40
1.0
 40
1.0
 10
-15.3056392904
 20
18.0895578619
 30
0.0
 10
-14.8152133894
 20
18.511805513
 30
0.0
 10
-13.7658643079
 20
19.239454948
 30
0.0
 10
-12.5744455878
 20
19.7074309173
 30
0.0
 10
-11.9742898485
 20
19.8564576924
 30
0.0
  0
SPLINE
  5
463
100
AcDbEntity
  8
0
100
AcDbSpline
 62
7
  6
CONTINUOUS
 70
0
 71
3
 72
11
 73
7
 74
0
 42
0.0000001
 43
0.0000001
 44
0.0000000001
 40
0.0
 40
0.0
 40
0.0
 40
0.0
 40
0.263531653
 40
0.5184550486
 40
0.7638101608
 40
1.0
 40
1.0
 40
1.0
 40
1.0
 10
-16.902678357
 20
19.7791453594
 30
0.0
 10
-16.4482737582
 20
20.1677057226
 30
0.0
 10
-15.4899314729
 20
20.8609924997
 30
0.0
 10
-13.9223417386
 20
21.6210623678
 30
0.0
 10
-12.2994264279
 20
22.0591728173
 30
0.0
 10
-11.1991653281
 20
22.1247437547
 30
0.0
 10
-10.6640320515
 20
22.0970250076
 30
0.0
  0
SPLINE
  5
464
100
AcDbEntity
  8
RACCORDO
100
AcDbSpline
 62
250
  6
CONTINUOUS
 70
0
 71
3
 72
17
 73
13
 74
0
 42
0.0000001
 43
0.0000001
 44
0.0000000001
 40
0.0
 40
0.0
 40
0.0
 40
0.0
 40
0.136264134
 40
0.2709926667
 40
0.4027986734
 40
0.5306211491
 40
0.6538700087
 40
0.7725573964
 40
0.830462774
 40
0.8875436836
 40
0.943984936
 40
1.0
 40
1.0
 40
1.0
 40
1.0
 10
-23.5078522032
 20
19.1199644947
 30
0.0
 10
-23.2175656956
 20
19.6227554741
 30
0.0
 10
-22.5631007534
 20
20.580398941
 30
0.0
 10
-21.3845591906
 20
21.8370658723
 30
0.0
 10
-20.0496694259
 20
22.8698036908
 30
0.0
 10
-18.6033289114
 20
23.6420128727
 30
0.0
 10
-17.0947134399
 20
24.1259638561
 30
0.0
 10
-15.8160983748
 20
24.2742230923
 30
0.0
 10
-14.819796159
 20
24.2311878146
 30
0.0
 10
-14.0962234511
 20
24.1209526231
 30
0.0
 10
-13.3971962089
 20
23.933330846
 30
0.0
 10
-12.9502982397
 20
23.7571697245
 30
0.0
 10
-12.7336404634
 20
23.657079111
 30
0.0
  0
SPLINE
  5
465
100
AcDbEntity
  8
0
100
AcDbSpline
 62
7
  6
CONTINUOUS
 70
0
 71
3
 72
13
 73
9
 74
0
 42
0.0000001
 43
0.0000001
 44
0.0000000001
 40
0.0
 40
0.0
 40
0.0
 40
0.0
 40
0.2654938266
 40
0.523361802
 40
0.6479023499
 40
0.768805829
 40
0.8860608888
 40
1.0
 40
1.0
 40
1.0
 40
1.0
 10
-19.9065952
 20
17.0410778894
 30
0.0
 10
-19.4200535641
 20
17.883792722
 30
0.0
 10
-18.2538801494
 20
19.4346816815
 30
0.0
 10
-16.3763507841
 20
20.9357025842
 30
0.0
 10
-14.7240015336
 20
21.7682963713
 30
0.0
 10
-13.4576254666
 20
22.1894165675
 30
0.0
 10
-12.1797683262
 20
22.4035656148
 30
0.0
 10
-11.3275580299
 20
22.4044214697
 30
0.0
 10
-10.9115308838
 20
22.3681236511
 30
0.0
  0
SPLINE
  5
466
100
AcDbEntity
  8
0
100
AcDbSpline
 62
250
  6
CONTINUOUS
 70
0
 71
3
 72
12
 73
8
 74
0
 42
0.0000001
 43
0.0000001
 44
0.0000000001
 40
0.0
 40
0.0
 40
0.0
 40
0.0
 40
0.2621030426
 40
0.5186137207
 40
0.7651453705
 40
0.8841109121
 40
1.0
 40
1.0
 40
1.0
 40
1.0
 10
-17.0695571578
 20
15.4029902908
 30
0.0
 10
-17.3050806346
 20
14.995051663
 30
0.0
 10
-17.6880656351
 20
14.1363086839
 30
0.0
 10
-17.9720637704
 20
12.7805115514
 30
0.0
 10
-17.9486657774
 20
11.6509327172
 30
0.0
 10
-17.7674717385
 20
10.8029596893
 30
0.0
 10
-17.625105031
 20
10.4039331419
 30
0.0
 10
-17.5414844475
 20
10.2131830911
 30
0.0
  0
SPLINE
  5
467
100
AcDbEntity
  8
0
100
AcDbSpline
 62
250
  6
CONTINUOUS
 70
0
 71
3
 72
13
 73
9
 74
0
 42
0.0000001
 43
0.0000001
 44
0.0000000001
 40
0.0
 40
0.0
 40
0.0
 40
0.0
 40
0.2619986319
 40
0.3914016294
 40
0.5188034377
 40
0.7652371613
 40
0.8841557747
 40
1.0
 40
1.0
 40
1.0
 40
1.0
 10
-18.9592181157
 20
16.4939253881
 30
0.0
 10
-19.2377084798
 20
16.0115659284
 30
0.0
 10
-19.5799498574
 20
15.2441743838
 30
0.0
 10
-19.8620714256
 20
14.1761763759
 30
0.0
 10
-20.0206642679
 20
13.1165458264
 30
0.0
 10
-19.9986650864
 20
12.0572317524
 30
0.0
 10
-19.7844111278
 20
11.0546868924
 30
0.0
 10
-19.6160749565
 20
10.5828396526
 30
0.0
 10
-19.5171958576
 20
10.357289302
 30
0.0
  0
SPLINE
  5
468
100
AcDbEntity
  8
0
100
AcDbSpline
 62
250
  6
CONTINUOUS
 70
0
 71
3
 72
12
 73
8
 74
0
 42
0.0000001
 43
0.0000001
 44
0.0000000001
 40
0.0
 40
0.0
 40
0.0
 40
0.0
 40
0.2621037259
 40
0.5186136395
 40
0.76514474
 40
0.884110404
 40
1.0
 40
1.0
 40
1.0
 40
1.0
 10
-17.0695571578
 20
15.4029902908
 30
0.0
 10
-16.8340646462
 20
15.8108752853
 30
0.0
 10
-16.2819495116
 20
16.5718253078
 30
0.0
 10
-15.2499681818
 20
17.4955849471
 30
0.0
 10
-14.2601946619
 20
18.0400950551
 30
0.0
 10
-13.4353639213
 20
18.3071935593
 30
0.0
 10
-13.0186759425
 20
18.3834438309
 30
0.0
 10
-12.8117005231
 20
18.4064200894
 30
0.0
  0
SPLINE
  5
469
100
AcDbEntity
  8
0
100
AcDbSpline
 62
7
  6
CONTINUOUS
 70
0
 71
3
 72
9
 73
5
 74
0
 42
0.0000001
 43
0.0000001
 44
0.0000000001
 40
0.0
 40
0.0
 40
0.0
 40
0.0
 40
0.2534553713
 40
1.0
 40
1.0
 40
1.0
 40
1.0
 10
-18.0176978801
 20
9.3482514411
 30
0.0
 10
-17.9955253328
 20
9.2518121138
 30
0.0
 10
-17.8997973711
 20
8.8732724035
 30
0.0
 10
-17.7704729428
 20
8.5031077627
 30
0.0
 10
-17.6549777899
 20
8.2354969461
 30
0.0
  0
SPLINE
  5
46A
100
AcDbEntity
  8
0
100
AcDbSpline
 62
250
  6
CONTINUOUS
 70
0
 71
3
 72
13
 73
9
 74
0
 42
0.0000001
 43
0.0000001
 44
0.0000000001
 40
0.0
 40
0.0
 40
0.0
 40
0.0
 40
0.2619991515
 40
0.3914017445
 40
0.5188030381
 40
0.7652363059
 40
0.8841551445
 40
1.0
 40
1.0
 40
1.0
 40
1.0
 10
-18.9592181157
 20
16.4939253881
 30
0.0
 10
-18.6807668778
 20
16.976217079
 30
0.0
 10
-18.1873882101
 20
17.6562113647
 30
0.0
 10
-17.4036740375
 20
18.4344491445
 30
0.0
 10
-16.5654559993
 20
19.1015510761
 30
0.0
 10
-15.6372328997
 20
19.6121417173
 30
0.0
 10
-14.6620432613
 20
19.9279062588
 30
0.0
 10
-14.169321896
 20
20.0180857866
 30
0.0
 10
-13.9245866971
 20
20.0452537397
 30
0.0
  0
SPLINE
  5
46B
100
AcDbEntity
  8
0
100
AcDbSpline
 62
7
  6
CONTINUOUS
 70
0
 71
3
 72
11
 73
7
 74
0
 42
0.0000001
 43
0.0000001
 44
0.0000000001
 40
0.0
 40
0.0
 40
0.0
 40
0.0
 40
0.2643051313
 40
0.5218833169
 40
0.7677238246
 40
1.0
 40
1.0
 40
1.0
 40
1.0
 10
-11.5800710364
 20
12.2338042985
 30
0.0
 10
-11.6970672662
 20
12.0311608844
 30
0.0
 10
-11.8830588722
 20
11.6029310215
 30
0.0
 10
-12.0024119769
 20
10.9272149105
 30
0.0
 10
-11.9515861017
 20
10.2705218554
 30
0.0
 10
-11.7992908331
 20
9.8674106839
 30
0.0
 10
-11.6964012087
 20
9.6893650786
 30
0.0
  0
SPLINE
  5
46C
100
AcDbEntity
  8
RACCORDO
100
AcDbSpline
 62
250
  6
CONTINUOUS
 70
0
 71
3
 72
13
 73
9
 74
0
 42
0.0000001
 43
0.0000001
 44
0.0000000001
 40
0.0
 40
0.0
 40
0.0
 40
0.0
 40
0.2711591448
 40
0.5304447452
 40
0.6538254281
 40
0.7725906078
 40
0.8875102686
 40
1.0
 40
1.0
 40
1.0
 40
1.0
 10
-13.1871778176
 20
13.1616271763
 30
0.0
 10
-12.9687024466
 20
13.5400376188
 30
0.0
 10
-12.4253975112
 20
14.2199644691
 30
0.0
 10
-11.5233842363
 20
14.8060640539
 30
0.0
 10
-10.7469411064
 20
15.0454982066
 30
0.0
 10
-10.1703031504
 20
15.1038914305
 30
0.0
 10
-9.6117370365
 20
15.0406166838
 30
0.0
 10
-9.2626209457
 20
14.9171653152
 30
0.0
 10
-9.0999440368
 20
14.8372009144
 30
0.0
  0
SPLINE
  5
46D
100
AcDbEntity
  8
SMUSSO
100
AcDbSpline
 62
7
  6
CONTINUOUS
 70
0
 71
3
 72
33
 73
29
 74
0
 42
0.0000001
 43
0.0000001
 44
0.0000000001
 40
0.0
 40
0.0
 40
0.0
 40
0.0
 40
0.0684739886
 40
0.1360830109
 40
0.1693537586
 40
0.2021391025
 40
0.2343771281
 40
0.2660243343
 40
0.3273980899
 40
0.3572256762
 40
0.3865113962
 40
0.4153285357
 40
0.4437719634
 40
0.4719549825
 40
0.500004397
 40
0.5280537177
 40
0.5562364603
 40
0.584679443
 40
0.6134959914
 40
0.6427810027
 40
0.6726077952
 40
0.7339798386
 40
0.7656262006
 40
0.7978634292
 40
0.8306480509
 40
0.8639181747
 40
0.9315263167
 40
1.0
 40
1.0
 40
1.0
 40
1.0
 10
-24.5369252859
 20
19.7141149082
 30
0.0
 10
-24.8794474999
 20
19.1208490315
 30
0.0
 10
-25.4671270652
 20
17.8853527256
 30
0.0
 10
-25.941182696
 20
16.2503421149
 30
0.0
 10
-26.148730181
 20
14.9278550004
 30
0.0
 10
-26.2167917656
 20
13.9455601049
 30
0.0
 10
-26.1972800554
 20
12.9771750724
 30
0.0
 10
-26.0565368701
 20
11.7307134794
 30
0.0
 10
-25.7436637056
 20
10.5319789239
 30
0.0
 10
-25.2591122747
 20
9.4262139036
 30
0.0
 10
-24.8201753016
 20
8.6617074216
 30
0.0
 10
-24.306665247
 20
7.9622694058
 30
0.0
 10
-23.7233714246
 20
7.3347122058
 30
0.0
 10
-23.0759665842
 20
6.7852547862
 30
0.0
 10
-22.3707785233
 20
6.3192896247
 30
0.0
 10
-21.6146704345
 20
5.941520317
 30
0.0
 10
-20.8151471038
 20
5.6555392381
 30
0.0
 10
-19.9800422396
 20
5.4641306468
 30
0.0
 10
-19.1175778234
 20
5.3690982474
 30
0.0
 10
-18.2360480219
 20
5.3711839401
 30
0.0
 10
-17.0361786801
 20
5.5043854808
 30
0.0
 10
-15.8416300008
 20
5.8327550874
 30
0.0
 10
-14.6918118459
 20
6.3340628212
 30
0.0
 10
-13.8434236355
 20
6.8013337586
 30
0.0
 10
-13.0267739702
 20
7.3514036669
 30
0.0
 10
-11.9852515834
 20
8.1923673211
 30
0.0
 10
-10.8063278474
 20
9.4204010926
 30
0.0
 10
-10.0302035679
 20
10.5470852165
 30
0.0
 10
-9.687682881
 20
11.1403484483
 30
0.0
  0
SPLINE
  5
46E
100
AcDbEntity
  8
RACCORDO
100
AcDbSpline
 62
250
  6
CONTINUOUS
 70
0
 71
3
 72
13
 73
9
 74
0
 42
0.0000001
 43
0.0000001
 44
0.0000000001
 40
0.0
 40
0.0
 40
0.0
 40
0.0
 40
0.1124889264
 40
0.2274081771
 40
0.3461735401
 40
0.469554992
 40
0.728842155
 40
1.0
 40
1.0
 40
1.0
 40
1.0
 10
-12.5944240329
 20
8.7838592829
 30
0.0
 10
-12.7450367421
 20
8.8847529127
 30
0.0
 10
-13.0265537
 20
9.1253666122
 30
0.0
 10
-13.3606974756
 20
9.5774786147
 30
0.0
 10
-13.5984992277
 20
10.1060951888
 30
0.0
 10
-13.7794184321
 20
10.8983014419
 30
0.0
 10
-13.722876992
 20
11.972623624
 30
0.0
 10
-13.4056724233
 20
12.7831834185
 30
0.0
 10
-13.1871778176
 20
13.1616271763
 30
0.0
  0
SPLINE
  5
46F
100
AcDbEntity
  8
SMUSSO
100
AcDbSpline
 62
7
  6
CONTINUOUS
 70
0
 71
3
 72
33
 73
29
 74
0
 42
0.0000001
 43
0.0000001
 44
0.0000000001
 40
0.0
 40
0.0
 40
0.0
 40
0.0
 40
0.0684736833
 40
0.1360818253
 40
0.1693519491
 40
0.2021365708
 40
0.2343737994
 40
0.2660201614
 40
0.3273922048
 40
0.3572189973
 40
0.3865040086
 40
0.415320557
 40
0.4437635397
 40
0.4719462823
 40
0.499995603
 40
0.5280450175
 40
0.5562280366
 40
0.5846714643
 40
0.6134886038
 40
0.6427743238
 40
0.6726019101
 40
0.7339756657
 40
0.7656228719
 40
0.7978608975
 40
0.8306462414
 40
0.8639169891
 40
0.9315260114
 40
1.0
 40
1.0
 40
1.0
 40
1.0
 10
-24.5369252859
 20
19.7141149082
 30
0.0
 10
-24.194404599
 20
20.30737814
 30
0.0
 10
-23.4182803195
 20
21.4340622639
 30
0.0
 10
-22.2393565836
 20
22.6620960354
 30
0.0
 10
-21.1978341967
 20
23.5030596896
 30
0.0
 10
-20.3811845314
 20
24.0531295979
 30
0.0
 10
-19.5327963211
 20
24.5204005353
 30
0.0
 10
-18.3829781661
 20
25.0217082691
 30
0.0
 10
-17.1884294868
 20
25.3500778757
 30
0.0
 10
-15.988560145
 20
25.4832794164
 30
0.0
 10
-15.1070303436
 20
25.4853651091
 30
0.0
 10
-14.2445659274
 20
25.3903327097
 30
0.0
 10
-13.4094610631
 20
25.1989241184
 30
0.0
 10
-12.6099377325
 20
24.9129430395
 30
0.0
 10
-11.8538296437
 20
24.5351737317
 30
0.0
 10
-11.1486415827
 20
24.0692085703
 30
0.0
 10
-10.5012367424
 20
23.5197511507
 30
0.0
 10
-9.9179429199
 20
22.8921939507
 30
0.0
 10
-9.4044328653
 20
22.1927559349
 30
0.0
 10
-8.9654958923
 20
21.4282494529
 30
0.0
 10
-8.4809444613
 20
20.3224844326
 30
0.0
 10
-8.1680712969
 20
19.1237498771
 30
0.0
 10
-8.0273281115
 20
17.8772882841
 30
0.0
 10
-8.0078164014
 20
16.9089032516
 30
0.0
 10
-8.0758779859
 20
15.9266083561
 30
0.0
 10
-8.283425471
 20
14.6041212416
 30
0.0
 10
-8.7574811017
 20
12.9691106309
 30
0.0
 10
-9.3451606671
 20
11.733614325
 30
0.0
 10
-9.687682881
 20
11.1403484483
 30
0.0
  0
SPLINE
  5
470
100
AcDbEntity
  8
0
100
AcDbSpline
 62
7
  6
CONTINUOUS
 70
0
 71
3
 72
11
 73
7
 74
0
 42
0.0000001
 43
0.0000001
 44
0.0000000001
 40
0.0
 40
0.0
 40
0.0
 40
0.0
 40
0.259258721
 40
0.5144371456
 40
0.7621126886
 40
1.0
 40
1.0
 40
1.0
 40
1.0
 10
-16.3145641784
 20
14.9672404298
 30
0.0
 10
-16.5573112403
 20
14.5467901856
 30
0.0
 10
-16.965456229
 20
13.6674370863
 30
0.0
 10
-17.3247357242
 20
12.2780596491
 30
0.0
 10
-17.4132762638
 20
10.8852587668
 30
0.0
 10
-17.2841414804
 20
9.976832742
 30
0.0
 10
-17.1716863348
 20
9.5457869371
 30
0.0
  0
SPLINE
  5
471
100
AcDbEntity
  8
0
100
AcDbSpline
 62
7
  6
CONTINUOUS
 70
0
 71
3
 72
11
 73
7
 74
0
 42
0.0000001
 43
0.0000001
 44
0.0000000001
 40
0.0
 40
0.0
 40
0.0
 40
0.0
 40
0.2610749078
 40
0.5171720208
 40
0.7642439337
 40
1.0
 40
1.0
 40
1.0
 40
1.0
 10
-15.4145641784
 20
14.4476921453
 30
0.0
 10
-15.6828044425
 20
13.9830863796
 30
0.0
 10
-16.1246688904
 20
13.0075102837
 30
0.0
 10
-16.4760348894
 20
11.4657752356
 30
0.0
 10
-16.494276824
 20
9.9356831868
 30
0.0
 10
-16.2745169046
 20
8.9560506672
 30
0.0
 10
-16.1075218319
 20
8.5012898327
 30
0.0
  0
SPLINE
  5
472
100
AcDbEntity
  8
0
100
AcDbSpline
 62
7
  6
CONTINUOUS
 70
0
 71
3
 72
9
 73
5
 74
0
 42
0.0000001
 43
0.0000001
 44
0.0000000001
 40
0.0
 40
0.0
 40
0.0
 40
0.0
 40
0.2468434291
 40
1.0
 40
1.0
 40
1.0
 40
1.0
 10
-11.1557903347
 20
19.4937422942
 30
0.0
 10
-11.2515214166
 20
19.4825614564
 30
0.0
 10
-11.6382409773
 20
19.4281533517
 30
0.0
 10
-12.0197384959
 20
19.3376188353
 30
0.0
 10
-12.3008764102
 20
19.2513528166
 30
0.0
  0
SPLINE
  5
473
100
AcDbEntity
  8
0
100
AcDbSpline
 62
7
  6
CONTINUOUS
 70
0
 71
3
 72
9
 73
5
 74
0
 42
0.0000001
 43
0.0000001
 44
0.0000000001
 40
0.0
 40
0.0
 40
0.0
 40
0.0
 40
0.5113700844
 40
1.0
 40
1.0
 40
1.0
 40
1.0
 10
-18.5141591895
 20
12.5319886482
 30
0.0
 10
-18.6346255116
 20
11.8960109479
 30
0.0
 10
-18.7400687916
 20
10.6231613034
 30
0.0
 10
-18.5494819714
 20
9.3571355788
 30
0.0
 10
-18.3783610835
 20
8.7627765662
 30
0.0
  0
SPLINE
  5
474
100
AcDbEntity
  8
0
100
AcDbSpline
 62
250
  6
CONTINUOUS
 70
0
 71
3
 72
14
 73
10
 74
0
 42
0.0000001
 43
0.0000001
 44
0.0000000001
 40
0.0
 40
0.0
 40
0.0
 40
0.0
 40
0.2613212306
 40
0.388141655
 40
0.5127144423
 40
0.6355461569
 40
0.7572454997
 40
0.8784933846
 40
1.0
 40
1.0
 40
1.0
 40
1.0
 10
-18.3752840937
 20
10.9036323792
 30
0.0
 10
-18.2890326721
 20
10.5283988985
 30
0.0
 10
-18.1000747928
 20
9.9816319859
 30
0.0
 10
-17.7284458515
 20
9.3223439945
 30
0.0
 10
-17.3996072924
 20
8.877848428
 30
0.0
 10
-17.021965734
 20
8.484448351
 30
0.0
 10
-16.5998458464
 20
8.1468481853
 30
0.0
 10
-16.1384927708
 20
7.869146524
 30
0.0
 10
-15.8091375356
 20
7.726549038
 30
0.0
 10
-15.6405482403
 20
7.6663274681
 30
0.0
  0
SPLINE
  5
475
100
AcDbEntity
  8
0
100
AcDbSpline
 62
7
  6
CONTINUOUS
 70
0
 71
3
 72
11
 73
7
 74
0
 42
0.0000001
 43
0.0000001
 44
0.0000000001
 40
0.0
 40
0.0
 40
0.0
 40
0.0
 40
0.2587514311
 40
0.5136699611
 40
0.7615019258
 40
1.0
 40
1.0
 40
1.0
 40
1.0
 10
-17.8752243501
 20
15.8682902556
 30
0.0
 10
-18.1637151151
 20
15.3686095937
 30
0.0
 10
-18.6516053334
 20
14.3247595669
 30
0.0
 10
-19.09268993
 20
12.675856235
 30
0.0
 10
-19.2225098385
 20
11.0186383782
 30
0.0
 10
-19.0928917673
 20
9.9327889545
 30
0.0
 10
-18.9726818292
 20
9.4147336958
 30
0.0
  0
SPLINE
  5
476
100
AcDbEntity
  8
0
100
AcDbSpline
 62
7
  6
CONTINUOUS
 70
0
 71
3
 72
10
 73
6
 74
0
 42
0.0000001
 43
0.0000001
 44
0.0000000001
 40
0.0
 40
0.0
 40
0.0
 40
0.0
 40
0.2432290689
 40
0.490720794
 40
1.0
 40
1.0
 40
1.0
 40
1.0
 10
-10.1449810037
 20
21.4185884329
 30
0.0
 10
-10.403608789
 20
21.4574142885
 30
0.0
 10
-10.9307179886
 20
21.5042105632
 30
0.0
 10
-12.0071615243
 20
21.4746830373
 30
0.0
 10
-12.8133752103
 20
21.3138727881
 30
0.0
 10
-13.3368683955
 20
21.1532205234
 30
0.0
  0
SPLINE
  5
477
100
AcDbEntity
  8
0
100
AcDbSpline
 62
7
  6
CONTINUOUS
 70
0
 71
3
 72
11
 73
7
 74
0
 42
0.0000001
 43
0.0000001
 44
0.0000000001
 40
0.0
 40
0.0
 40
0.0
 40
0.0
 40
0.2635324815
 40
0.5184564527
 40
0.763811353
 40
1.0
 40
1.0
 40
1.0
 40
1.0
 10
-20.7759511265
 20
13.0701035906
 30
0.0
 10
-20.8852407188
 20
12.4822282019
 30
0.0
 10
-21.006432942
 20
11.3054999992
 30
0.0
 10
-20.8807610901
 20
9.5677093026
 30
0.0
 10
-20.4485511447
 20
7.9430261323
 30
0.0
 10
-19.955063338
 20
6.9573275908
 30
0.0
 10
-19.6634151268
 20
6.5077321952
 30
0.0
  0
SPLINE
  5
478
100
AcDbEntity
  8
0
100
AcDbSpline
 62
7
  6
CONTINUOUS
 70
0
 71
3
 72
13
 73
9
 74
0
 42
0.0000001
 43
0.0000001
 44
0.0000000001
 40
0.0
 40
0.0
 40
0.0
 40
0.0
 40
0.2654931118
 40
0.5233620131
 40
0.6479030332
 40
0.7688066878
 40
0.8860615202
 40
1.0
 40
1.0
 40
1.0
 40
1.0
 10
-19.9065952
 20
17.0410778894
 30
0.0
 10
-20.3931919445
 20
16.198267606
 30
0.0
 10
-21.1532804436
 20
14.4126653128
 30
0.0
 10
-21.514397744
 20
12.0358713335
 30
0.0
 10
-21.4091622493
 20
10.1883825535
 30
0.0
 10
-21.140559335
 20
8.8809718641
 30
0.0
 10
-20.6869419425
 20
7.6671368876
 30
0.0
 10
-20.2614596314
 20
6.9286298291
 30
0.0
 10
-20.0219490672
 20
6.5864758843
 30
0.0
  0
SPLINE
  5
479
100
AcDbEntity
  8
RACCORDO
100
AcDbSpline
 62
250
  6
CONTINUOUS
 70
0
 71
3
 72
31
 73
27
 74
0
 42
0.0000001
 43
0.0000001
 44
0.0000000001
 40
0.0
 40
0.0
 40
0.0
 40
0.0
 40
0.0684499947
 40
0.1360515501
 40
0.1693213531
 40
0.2021100487
 40
0.2343551722
 40
0.2660119364
 40
0.3274088289
 40
0.3864587027
 40
0.4152871217
 40
0.4437415465
 40
0.4719355178
 40
0.4999959199
 40
0.5280564122
 40
0.5562506632
 40
0.5847055506
 40
0.6135345641
 40
0.6725859629
 40
0.7339845173
 40
0.7656420864
 40
0.7978879237
 40
0.8306772455
 40
0.8639475771
 40
0.9315498387
 40
1.0
 40
1.0
 40
1.0
 40
1.0
 10
-10.2238336861
 20
11.4499152036
 30
0.0
 10
-10.5414552729
 20
10.8997784782
 30
0.0
 10
-11.2612172113
 20
9.8548586533
 30
0.0
 10
-12.3544584216
 20
8.715751408
 30
0.0
 10
-13.320493159
 20
7.935561411
 30
0.0
 10
-14.0780526887
 20
7.425112913
 30
0.0
 10
-14.8650934717
 20
6.9914032951
 30
0.0
 10
-15.9322204957
 20
6.5260815509
 30
0.0
 10
-17.3025813023
 20
6.1486338744
 30
0.0
 10
-18.6972365726
 20
6.0650235242
 30
0.0
 10
-19.7723947305
 20
6.1835053538
 30
0.0
 10
-20.5474365588
 20
6.3610759873
 30
0.0
 10
-21.289392794
 20
6.6264310653
 30
0.0
 10
-21.9910612497
 20
6.9769975522
 30
0.0
 10
-22.6454706364
 20
7.4094180753
 30
0.0
 10
-23.2462321897
 20
7.9193299652
 30
0.0
 10
-23.7875086016
 20
8.5017908945
 30
0.0
 10
-24.4276674902
 20
9.3737146306
 30
0.0
 10
-25.0525479284
 20
10.6233840038
 30
0.0
 10
-25.4108215024
 20
11.9989197255
 30
0.0
 10
-25.5413798241
 20
13.1557721654
 30
0.0
 10
-25.5592831458
 20
14.0542442663
 30
0.0
 10
-25.4959896871
 20
14.9655508307
 30
0.0
 10
-25.3033299948
 20
16.1922718299
 30
0.0
 10
-24.8634463987
 20
17.7086107919
 30
0.0
 10
-24.3183968406
 20
18.8544100887
 30
0.0
 10
-24.0007744809
 20
19.4045481529
 30
0.0
  0
SPLINE
  5
47A
100
AcDbEntity
  8
RACCORDO
100
AcDbSpline
 62
250
  6
CONTINUOUS
 70
0
 71
3
 72
31
 73
27
 74
0
 42
0.0000001
 43
0.0000001
 44
0.0000000001
 40
0.0
 40
0.0
 40
0.0
 40
0.0
 40
0.0684499947
 40
0.1360515501
 40
0.1693213531
 40
0.2021100487
 40
0.2343551722
 40
0.2660119364
 40
0.3274088289
 40
0.3864587027
 40
0.4152871217
 40
0.4437415465
 40
0.4719355178
 40
0.4999959199
 40
0.5280564122
 40
0.5562506632
 40
0.5847055506
 40
0.6135345641
 40
0.6725859629
 40
0.7339845173
 40
0.7656420864
 40
0.7978879237
 40
0.8306772455
 40
0.8639475771
 40
0.9315498387
 40
1.0
 40
1.0
 40
1.0
 40
1.0
 10
-24.0007744809
 20
19.4045481529
 30
0.0
 10
-23.683152894
 20
19.9546848783
 30
0.0
 10
-22.9633909556
 20
20.9996047032
 30
0.0
 10
-21.8701497454
 20
22.1387119485
 30
0.0
 10
-20.9041150079
 20
22.9189019455
 30
0.0
 10
-20.1465554782
 20
23.4293504434
 30
0.0
 10
-19.3595146952
 20
23.8630600614
 30
0.0
 10
-18.2923876712
 20
24.3283818056
 30
0.0
 10
-16.9220268647
 20
24.7058294821
 30
0.0
 10
-15.5273715943
 20
24.7894398323
 30
0.0
 10
-14.4522134365
 20
24.6709580027
 30
0.0
 10
-13.6771716081
 20
24.4933873692
 30
0.0
 10
-12.9352153729
 20
24.2280322911
 30
0.0
 10
-12.2335469172
 20
23.8774658042
 30
0.0
 10
-11.5791375306
 20
23.4450452811
 30
0.0
 10
-10.9783759772
 20
22.9351333913
 30
0.0
 10
-10.4370995653
 20
22.352672462
 30
0.0
 10
-9.7969406768
 20
21.4807487259
 30
0.0
 10
-9.1720602385
 20
20.2310793527
 30
0.0
 10
-8.8137866646
 20
18.855543631
 30
0.0
 10
-8.6832283428
 20
17.6986911911
 30
0.0
 10
-8.6653250211
 20
16.8002190902
 30
0.0
 10
-8.7286184798
 20
15.8889125258
 30
0.0
 10
-8.9212781722
 20
14.6621915266
 30
0.0
 10
-9.3611617683
 20
13.1458525646
 30
0.0
 10
-9.9062113263
 20
12.0000532678
 30
0.0
 10
-10.2238336861
 20
11.4499152036
 30
0.0
  0
SPLINE
  5
47B
100
AcDbEntity
  8
RACCORDO
100
AcDbSpline
 62
250
  6
CONTINUOUS
 70
0
 71
3
 72
13
 73
9
 74
0
 42
0.0000001
 43
0.0000001
 44
0.0000000001
 40
0.0
 40
0.0
 40
0.0
 40
0.0
 40
0.1128957383
 40
0.2289329942
 40
0.3488707989
 40
0.4729788326
 40
0.7317447591
 40
1.0
 40
1.0
 40
1.0
 40
1.0
 10
-11.8187048681
 20
9.5546591312
 30
0.0
 10
-11.9011166096
 20
9.6380847001
 30
0.0
 10
-12.0512520257
 20
9.8248779455
 30
0.0
 10
-12.2206496136
 20
10.1474901619
 30
0.0
 10
-12.332568313
 20
10.5064542376
 30
0.0
 10
-12.40220201
 20
11.0262011045
 30
0.0
 10
-12.3298517582
 20
11.7094823219
 30
0.0
 10
-12.1193918607
 20
12.2234039011
 30
0.0
 10
-11.9800710364
 20
12.4647146471
 30
0.0
  0
SPLINE
  5
47C
100
AcDbEntity
  8
0
100
AcDbSpline
 62
250
  6
CONTINUOUS
 70
0
 71
3
 72
15
 73
11
 74
0
 42
0.0000001
 43
0.0000001
 44
0.0000000001
 40
0.0
 40
0.0
 40
0.0
 40
0.0
 40
0.1320078092
 40
0.2602203627
 40
0.3852157916
 40
0.5079049655
 40
0.6294540091
 40
0.7511607684
 40
0.8743046049
 40
1.0
 40
1.0
 40
1.0
 40
1.0
 10
-15.1546733009
 20
20.5954123706
 30
0.0
 10
-14.852134473
 20
20.6882608233
 30
0.0
 10
-14.241197975
 20
20.8278971276
 30
0.0
 10
-13.3158976942
 20
20.8900239061
 30
0.0
 10
-12.4148119959
 20
20.799842993
 30
0.0
 10
-11.5582932141
 20
20.5586317725
 30
0.0
 10
-10.7657382116
 20
20.171405262
 30
0.0
 10
-10.0552315449
 20
19.6467589805
 30
0.0
 10
-9.4429293711
 20
18.997079076
 30
0.0
 10
-9.1128684437
 20
18.4961589446
 30
0.0
 10
-8.9680124416
 20
18.2319275639
 30
0.0
  0
SPLINE
  5
47D
100
AcDbEntity
  8
RACCORDO
100
AcDbSpline
 62
250
  6
CONTINUOUS
 70
0
 71
3
 72
17
 73
13
 74
0
 42
0.0000001
 43
0.0000001
 44
0.0000000001
 40
0.0
 40
0.0
 40
0.0
 40
0.0
 40
0.056014704
 40
0.1124556493
 40
0.1695363143
 40
0.2274416093
 40
0.3461290922
 40
0.4693784504
 40
0.5972015265
 40
0.7290079777
 40
0.8637365672
 40
1.0
 40
1.0
 40
1.0
 40
1.0
 10
-22.04934679
 20
7.5197229757
 30
0.0
 10
-22.2443895635
 20
7.6573008077
 30
0.0
 10
-22.6204681256
 20
7.9562304866
 30
0.0
 10
-23.1325607185
 20
8.4677981027
 30
0.0
 10
-23.5899102431
 20
9.0393256012
 30
0.0
 10
-24.1254456141
 20
9.8806751949
 30
0.0
 10
-24.6364882546
 20
11.0622044856
 30
0.0
 10
-24.9717926404
 20
12.6108237856
 30
0.0
 10
-25.0262794154
 20
14.2496645382
 30
0.0
 10
-24.799372916
 20
15.9222608762
 30
0.0
 10
-24.3003189874
 20
17.5714149124
 30
0.0
 10
-23.7981661444
 20
18.6171259991
 30
0.0
 10
-23.5078522032
 20
19.1199644947
 30
0.0
  0
SPLINE
  5
47E
100
AcDbEntity
  8
0
100
AcDbSpline
 62
7
  6
CONTINUOUS
 70
0
 71
3
 72
11
 73
7
 74
0
 42
0.0000001
 43
0.0000001
 44
0.0000000001
 40
0.0
 40
0.0
 40
0.0
 40
0.0
 40
0.2384991125
 40
0.4863306745
 40
0.7412483731
 40
1.0
 40
1.0
 40
1.0
 40
1.0
 10
-12.8361466555
 20
20.0450574893
 30
0.0
 10
-13.3447896287
 20
19.8900974602
 30
0.0
 10
-14.3497393212
 20
19.4593970497
 30
0.0
 10
-15.7196980764
 20
18.5184343396
 30
0.0
 10
-16.9268689848
 20
17.3121637351
 30
0.0
 10
-17.5867863394
 20
16.3678795445
 30
0.0
 10
-17.8752243501
 20
15.8682902556
 30
0.0
  0
SPLINE
  5
47F
100
AcDbEntity
  8
ASSI
100
AcDbSpline
 62
7
  6
CONTINUOUS
 70
0
 71
3
 72
11
 73
7
 74
0
 42
0.0000001
 43
0.0000001
 44
0.0000000001
 40
0.0
 40
0.0
 40
0.0
 40
0.0
 40
0.2366021832
 40
0.4893807324
 40
0.7476601365
 40
1.0
 40
1.0
 40
1.0
 40
1.0
 10
8.9997919577
 20
-92.931289065
 30
0.0
 10
8.7462361519
 20
-93.0409841523
 30
0.0
 10
8.1980991392
 20
-93.2148155761
 30
0.0
 10
7.3311844589
 20
-93.3418124155
 30
0.0
 10
6.4367187991
 20
-93.3393488191
 30
0.0
 10
5.8444814838
 20
-93.2489314682
 30
0.0
 10
5.5579702274
 20
-93.1801861755
 30
0.0
  0
SPLINE
  5
480
100
AcDbEntity
  8
ASSI
100
AcDbSpline
 62
7
  6
CONTINUOUS
 70
0
 71
3
 72
18
 73
14
 74
0
 42
0.0000001
 43
0.0000001
 44
0.0000000001
 40
0.0
 40
0.0
 40
0.0
 40
0.0
 40
0.0561130747
 40
0.1124934388
 40
0.1693944621
 40
0.2270429951
 40
0.2856291306
 40
0.3452989199
 40
0.4680770724
 40
0.5957427747
 40
0.7277631349
 40
0.8630215792
 40
1.0
 40
1.0
 40
1.0
 40
1.0
 10
-12.0380838408
 20
31.088082576
 30
0.0
 10
-11.6654209847
 20
30.8729532851
 30
0.0
 10
-10.9435765269
 20
30.3961350496
 30
0.0
 10
-9.9509281568
 20
29.553732591
 30
0.0
 10
-9.0564260063
 20
28.5914731966
 30
0.0
 10
-8.268917544
 20
27.5190343311
 30
0.0
 10
-7.5958378137
 20
26.3467951746
 30
0.0
 10
-6.8526833581
 20
24.6511002484
 30
0.0
 10
-6.2475121007
 20
22.3330780802
 30
0.0
 10
-6.0611252466
 20
19.3899855376
 30
0.0
 10
-6.4092573867
 20
16.3660220979
 30
0.0
 10
-7.2765146978
 20
13.3759515591
 30
0.0
 10
-8.1776790174
 20
11.481089727
 30
0.0
 10
-8.7028849064
 20
10.5714064439
 30
0.0
  0
SPLINE
  5
481
100
AcDbEntity
  8
ASSI
100
AcDbSpline
 62
7
  6
CONTINUOUS
 70
0
 71
3
 72
14
 73
10
 74
0
 42
0.0000001
 43
0.0000001
 44
0.0000000001
 40
0.0
 40
0.0
 40
0.0
 40
0.0
 40
0.1124568344
 40
0.2269834657
 40
0.3452394254
 40
0.4681977114
 40
0.5960502481
 40
0.7282658405
 40
1.0
 40
1.0
 40
1.0
 40
1.0
 10
0.0507815444
 20
-30.2791485017
 30
0.0
 10
0.1411070047
 20
-30.3312912221
 30
0.0
 10
0.3112983322
 20
-30.4592199676
 30
0.0
 10
0.5164198041
 20
-30.7086320475
 30
0.0
 10
0.6651236596
 20
-31.0060860894
 30
0.0
 10
0.7521042316
 20
-31.3394577628
 30
0.0
 10
0.7746667531
 20
-31.6961102059
 30
0.0
 10
0.7182199632
 20
-32.1878868796
 30
0.0
 10
0.5807427087
 20
-32.5458344149
 30
0.0
 10
0.4547359116
 20
-32.7640845894
 30
0.0
  0
SPLINE
  5
482
100
AcDbEntity
  8
ASSI
100
AcDbSpline
 62
7
  6
CONTINUOUS
 70
0
 71
3
 72
13
 73
9
 74
0
 42
0.0000001
 43
0.0000001
 44
0.0000000001
 40
0.0
 40
0.0
 40
0.0
 40
0.0
 40
0.2720175263
 40
0.5313143734
 40
0.6544007694
 40
0.7727800858
 40
0.8874249218
 40
1.0
 40
1.0
 40
1.0
 40
1.0
 10
-88.6209440017
 20
-7.718232865
 30
0.0
 10
-88.847102141
 20
-8.1099502524
 30
0.0
 10
-89.1711177909
 20
-8.950399127
 30
0.0
 10
-89.2101411307
 20
-10.0627682568
 30
0.0
 10
-88.9986134123
 20
-10.8734409267
 30
0.0
 10
-88.7317389619
 20
-11.4073874287
 30
0.0
 10
-88.3636228223
 20
-11.8550459359
 30
0.0
 10
-88.0581807971
 20
-12.0846822638
 30
0.0
 10
-87.8960702675
 20
-12.1782828518
 30
0.0
  0
SPLINE
  5
483
100
AcDbEntity
  8
ASSI
100
AcDbSpline
 62
7
  6
CONTINUOUS
 70
0
 71
3
 72
13
 73
9
 74
0
 42
0.0000001
 43
0.0000001
 44
0.0000000001
 40
0.0
 40
0.0
 40
0.0
 40
0.0
 40
0.112576333
 40
0.227221119
 40
0.3455995135
 40
0.4686846642
 40
0.7279800389
 40
1.0
 40
1.0
 40
1.0
 40
1.0
 10
-26.3960702675
 20
94.3428417032
 30
0.0
 10
-26.5581797217
 20
94.4364416702
 30
0.0
 10
-26.9097588739
 20
94.5861621159
 30
0.0
 10
-27.4814865277
 20
94.6811578756
 30
0.0
 10
-28.0773225895
 20
94.6453289505
 30
0.0
 10
-28.8851360894
 20
94.4232086619
 30
0.0
 10
-29.828955483
 20
93.8332481302
 30
0.0
 10
-30.3947878592
 20
93.1324277986
 30
0.0
 10
-30.6209440017
 20
92.7407138697
 30
0.0
  0
SPLINE
  5
484
100
AcDbEntity
  8
ASSI
100
AcDbSpline
 62
7
  6
CONTINUOUS
 70
0
 71
3
 72
14
 73
10
 74
0
 42
0.0000001
 43
0.0000001
 44
0.0000000001
 40
0.0
 40
0.0
 40
0.0
 40
0.0
 40
0.1124568344
 40
0.2269834657
 40
0.3452394254
 40
0.4681977114
 40
0.5960502481
 40
0.7282658405
 40
1.0
 40
1.0
 40
1.0
 40
1.0
 10
35.2257815444
 20
30.6457385913
 30
0.0
 10
35.3161070047
 20
30.5935958709
 30
0.0
 10
35.4862983322
 20
30.4656671255
 30
0.0
 10
35.6914198041
 20
30.2162550455
 30
0.0
 10
35.8401236596
 20
29.9188010036
 30
0.0
 10
35.9271042316
 20
29.5854293302
 30
0.0
 10
35.9496667531
 20
29.2287768871
 30
0.0
 10
35.8932199632
 20
28.7370002134
 30
0.0
 10
35.7557427087
 20
28.3790526781
 30
0.0
 10
35.6297359116
 20
28.1608025036
 30
0.0
  0
SPLINE
  5
485
100
AcDbEntity
  8
ASSI
100
AcDbSpline
 62
7
  6
CONTINUOUS
 70
0
 71
3
 72
14
 73
10
 74
0
 42
0.0000001
 43
0.0000001
 44
0.0000000001
 40
0.0
 40
0.0
 40
0.0
 40
0.0
 40
0.1124568344
 40
0.2269834657
 40
0.3452394254
 40
0.4681977114
 40
0.5960502481
 40
0.7282658405
 40
1.0
 40
1.0
 40
1.0
 40
1.0
 10
-1.4347306977
 20
8.6265631939
 30
0.0
 10
-1.3444052375
 20
8.5744204735
 30
0.0
 10
-1.1742139099
 20
8.4464917281
 30
0.0
 10
-0.9690924381
 20
8.1970796481
 30
0.0
 10
-0.8203885825
 20
7.8996256062
 30
0.0
 10
-0.7334080106
 20
7.5662539328
 30
0.0
 10
-0.7108454891
 20
7.2096014897
 30
0.0
 10
-0.7672922789
 20
6.717824816
 30
0.0
 10
-0.9047695334
 20
6.3598772807
 30
0.0
 10
-1.0307763305
 20
6.1416271062
 30
0.0
  0
SPLINE
  5
486
100
AcDbEntity
  8
ASSI
100
AcDbSpline
 62
7
  6
CONTINUOUS
 70
0
 71
3
 72
14
 73
10
 74
0
 42
0.0000001
 43
0.0000001
 44
0.0000000001
 40
0.0
 40
0.0
 40
0.0
 40
0.0
 40
0.1124568344
 40
0.2269834657
 40
0.3452394254
 40
0.4681977114
 40
0.5960502481
 40
0.7282658405
 40
1.0
 40
1.0
 40
1.0
 40
1.0
 10
-36.790069757
 20
29.0402928603
 30
0.0
 10
-36.6997442968
 20
28.9881501399
 30
0.0
 10
-36.5295529692
 20
28.8602213944
 30
0.0
 10
-36.3244314974
 20
28.6108093145
 30
0.0
 10
-36.1757276418
 20
28.3133552726
 30
0.0
 10
-36.0887470699
 20
27.9799835992
 30
0.0
 10
-36.0661845484
 20
27.6233311561
 30
0.0
 10
-36.1226313382
 20
27.1315544824
 30
0.0
 10
-36.2601085927
 20
26.773606947
 30
0.0
 10
-36.3861153898
 20
26.5553567726
 30
0.0
  0
SPLINE
  5
487
100
AcDbEntity
  8
ASSI
100
AcDbSpline
 62
7
  6
CONTINUOUS
 70
0
 71
3
 72
14
 73
10
 74
0
 42
0.0000001
 43
0.0000001
 44
0.0000000001
 40
0.0
 40
0.0
 40
0.0
 40
0.0
 40
0.1124568344
 40
0.2269834657
 40
0.3452394254
 40
0.4681977114
 40
0.5960502481
 40
0.7282658405
 40
1.0
 40
1.0
 40
1.0
 40
1.0
 10
-36.0505819992
 20
71.7998175987
 30
0.0
 10
-35.9602565389
 20
71.7476748784
 30
0.0
 10
-35.7900652114
 20
71.6197461329
 30
0.0
 10
-35.5849437395
 20
71.3703340529
 30
0.0
 10
-35.436239884
 20
71.0728800111
 30
0.0
 10
-35.349259312
 20
70.7395083376
 30
0.0
 10
-35.3266967905
 20
70.3828558945
 30
0.0
 10
-35.3831435804
 20
69.8910792209
 30
0.0
 10
-35.5206208349
 20
69.5331316855
 30
0.0
 10
-35.646627632
 20
69.3148815111
 30
0.0
  0
SPLINE
  5
488
100
AcDbEntity
  8
ASSI
100
AcDbSpline
 62
7
  6
CONTINUOUS
 70
0
 71
3
 72
14
 73
10
 74
0
 42
0.0000001
 43
0.0000001
 44
0.0000000001
 40
0.0
 40
0.0
 40
0.0
 40
0.0
 40
0.1124568344
 40
0.2269834657
 40
0.3452394254
 40
0.4681977114
 40
0.5960502481
 40
0.7282658405
 40
1.0
 40
1.0
 40
1.0
 40
1.0
 10
-71.2255819992
 20
10.8749305057
 30
0.0
 10
-71.1352565389
 20
10.8227877854
 30
0.0
 10
-70.9650652114
 20
10.6948590399
 30
0.0
 10
-70.7599437395
 20
10.4454469599
 30
0.0
 10
-70.611239884
 20
10.1479929181
 30
0.0
 10
-70.524259312
 20
9.8146212446
 30
0.0
 10
-70.5016967905
 20
9.4579688015
 30
0.0
 10
-70.5581435804
 20
8.9661921279
 30
0.0
 10
-70.6956208349
 20
8.6082445925
 30
0.0
 10
-70.821627632
 20
8.3899944181
 30
0.0
  0
SPLINE
  5
489
100
AcDbEntity
  8
ASSI
100
AcDbSpline
 62
7
  6
CONTINUOUS
 70
0
 71
3
 72
15
 73
11
 74
0
 42
0.0000001
 43
0.0000001
 44
0.0000000001
 40
0.0
 40
0.0
 40
0.0
 40
0.0
 40
0.1193833394
 40
0.2455123051
 40
0.3760062055
 40
0.5081785917
 40
0.6392358974
 40
0.7664568314
 40
0.8873762325
 40
1.0
 40
1.0
 40
1.0
 40
1.0
 10
15.9957803035
 20
-56.8620890099
 30
0.0
 10
15.8233388244
 20
-56.9366918495
 30
0.0
 10
15.4577553876
 20
-57.0655301445
 30
0.0
 10
14.8792783821
 20
-57.1955491128
 30
0.0
 10
14.2701695544
 20
-57.2648648595
 30
0.0
 10
13.6494773681
 20
-57.2712829666
 30
0.0
 10
13.0364925991
 20
-57.2146156528
 30
0.0
 10
12.450224275
 20
-57.096598392
 30
0.0
 10
11.9089593392
 20
-56.9209307212
 30
0.0
 10
11.575690571
 20
-56.7624380641
 30
0.0
 10
11.4221908992
 20
-56.6738092774
 30
0.0
  0
SPLINE
  5
48A
100
AcDbEntity
  8
ASSI
100
AcDbSpline
 62
7
  6
CONTINUOUS
 70
0
 71
3
 72
14
 73
10
 74
0
 42
0.0000001
 43
0.0000001
 44
0.0000000001
 40
0.0
 40
0.0
 40
0.0
 40
0.0
 40
0.1039949454
 40
0.2107015327
 40
0.3224978429
 40
0.4412061781
 40
0.5680170599
 40
0.7035126726
 40
1.0
 40
1.0
 40
1.0
 40
1.0
 10
94.5776809797
 20
-54.8969755407
 30
0.0
 10
94.5776801554
 20
-54.9753124916
 30
0.0
 10
94.5614779991
 20
-55.1344665588
 30
0.0
 10
94.4894652854
 20
-55.367946126
 30
0.0
 10
94.3711922259
 20
-55.5941987977
 30
0.0
 10
94.2087901263
 20
-55.8101370058
 30
0.0
 10
94.0047201409
 20
-56.0132038183
 30
0.0
 10
93.6710186417
 20
-56.2710786106
 30
0.0
 10
93.3813754545
 20
-56.4255378297
 30
0.0
 10
93.1763986019
 20
-56.5142163503
 30
0.0
  0
SPLINE
  5
48B
100
AcDbEntity
  8
ASSI
100
AcDbSpline
 62
7
  6
CONTINUOUS
 70
0
 71
3
 72
12
 73
8
 74
0
 42
0.0000001
 43
0.0000001
 44
0.0000000001
 40
0.0
 40
0.0
 40
0.0
 40
0.0
 40
0.1081651034
 40
0.2183690415
 40
0.451373731
 40
0.7104218133
 40
1.0
 40
1.0
 40
1.0
 40
1.0
 10
94.5776809797
 20
-46.7322727728
 30
0.0
 10
94.5776816768
 20
-46.6660080927
 30
0.0
 10
94.5661564113
 20
-46.5319526761
 30
0.0
 10
94.4965341393
 20
-46.2631984389
 30
0.0
 10
94.3177767494
 20
-45.9336702747
 30
0.0
 10
93.9848602622
 20
-45.5839569718
 30
0.0
 10
93.7061896326
 20
-45.3920174461
 30
0.0
 10
93.5525566659
 20
-45.3033116967
 30
0.0
  0
SPLINE
  5
48C
100
AcDbEntity
  8
ASSI
100
AcDbSpline
 62
7
  6
CONTINUOUS
 70
0
 71
3
 72
11
 73
7
 74
0
 42
0.0000001
 43
0.0000001
 44
0.0000000001
 40
0.0
 40
0.0
 40
0.0
 40
0.0
 40
0.2810273852
 40
0.5374083369
 40
0.7742073114
 40
1.0
 40
1.0
 40
1.0
 40
1.0
 10
-89.2938378201
 20
-28.0130763718
 30
0.0
 10
-89.4011696708
 20
-28.0957847881
 30
0.0
 10
-89.5948931522
 20
-28.2701875663
 30
0.0
 10
-89.8207068292
 20
-28.5709094009
 30
0.0
 10
-89.960825867
 20
-28.8918302795
 30
0.0
 10
-89.9928728602
 20
-29.1159787708
 30
0.0
 10
-89.9928738092
 20
-29.224848497
 30
0.0
  0
SPLINE
  5
48D
100
AcDbEntity
  8
ASSI
100
AcDbSpline
 62
7
  6
CONTINUOUS
 70
0
 71
3
 72
13
 73
9
 74
0
 42
0.0000001
 43
0.0000001
 44
0.0000000001
 40
0.0
 40
0.0
 40
0.0
 40
0.0
 40
0.2720199611
 40
0.5313153358
 40
0.6544004865
 40
0.772778881
 40
0.887423667
 40
1.0
 40
1.0
 40
1.0
 40
1.0
 10
-2.3036641652
 20
-57.556190456
 30
0.0
 10
-2.5298203078
 20
-57.9479043849
 30
0.0
 10
-3.0956526839
 20
-58.6487247165
 30
0.0
 10
-4.0394720776
 20
-59.2386852483
 30
0.0
 10
-4.8472855775
 20
-59.4608055368
 30
0.0
 10
-5.4431216392
 20
-59.496634462
 30
0.0
 10
-6.014849293
 20
-59.4016387023
 30
0.0
 10
-6.3664284453
 20
-59.2519182566
 30
0.0
 10
-6.5285378994
 20
-59.1583182895
 30
0.0
  0
SPLINE
  5
48E
100
AcDbEntity
  8
ASSI
100
AcDbSpline
 62
7
  6
CONTINUOUS
 70
0
 71
3
 72
21
 73
17
 74
0
 42
0.0000001
 43
0.0000001
 44
0.0000000001
 40
0.0
 40
0.0
 40
0.0
 40
0.0
 40
0.0450561045
 40
0.0909617391
 40
0.1384895158
 40
0.1882784203
 40
0.2408046223
 40
0.2963772584
 40
0.3551501404
 40
0.4171397351
 40
0.4822456892
 40
0.5502697058
 40
0.6209322477
 40
0.6938880645
 40
0.8449774975
 40
1.0
 40
1.0
 40
1.0
 40
1.0
 10
-90.8546219356
 20
-52.782755611
 30
0.0
 10
-91.1497115104
 20
-52.612372402
 30
0.0
 10
-91.7170633181
 20
-52.2164563272
 30
0.0
 10
-92.4667030744
 20
-51.478641679
 30
0.0
 10
-93.1114213797
 20
-50.6029679643
 30
0.0
 10
-93.6452360808
 20
-49.5992631202
 30
0.0
 10
-94.0639879236
 20
-48.4777560326
 30
0.0
 10
-94.3644542537
 20
-47.2493858289
 30
0.0
 10
-94.5443852977
 20
-45.9258092162
 30
0.0
 10
-94.602460762
 20
-44.5194835393
 30
0.0
 10
-94.5383627748
 20
-43.0436377634
 30
0.0
 10
-94.3528255911
 20
-41.5122147408
 30
0.0
 10
-94.0476933706
 20
-39.9396683723
 30
0.0
 10
-93.4786469699
 20
-37.7833178487
 30
0.0
 10
-92.4863067276
 20
-35.0860020185
 30
0.0
 10
-91.4403830145
 20
-33.0143877721
 30
0.0
 10
-90.8541871755
 20
-31.9990667968
 30
0.0
  0
SPLINE
  5
48F
100
AcDbEntity
  8
ASSI
100
AcDbSpline
 62
7
  6
CONTINUOUS
 70
0
 71
3
 72
15
 73
11
 74
0
 42
0.0000001
 43
0.0000001
 44
0.0000000001
 40
0.0
 40
0.0
 40
0.0
 40
0.0
 40
0.1088955668
 40
0.2196939926
 40
0.3341381544
 40
0.4536901274
 40
0.5794646672
 40
0.7122169639
 40
0.852357751
 40
1.0
 40
1.0
 40
1.0
 40
1.0
 10
-27.2150116288
 20
-89.5274690105
 30
0.0
 10
-26.9312005363
 20
-89.6913400815
 30
0.0
 10
-26.3302141444
 20
-89.9752172815
 30
0.0
 10
-25.3597751716
 20
-90.2536165856
 30
0.0
 10
-24.3265199368
 20
-90.3844304182
 30
0.0
 10
-23.2406386919
 20
-90.3671996597
 30
0.0
 10
-22.1118645812
 20
-90.2030400577
 30
0.0
 10
-20.9500461943
 20
-89.8940780954
 30
0.0
 10
-19.7652492152
 20
-89.4435704028
 30
0.0
 10
-18.9865947679
 20
-89.0613566768
 30
0.0
 10
-18.5960766109
 20
-88.849398001
 30
0.0
  0
SPLINE
  5
490
100
AcDbEntity
  8
ASSI
100
AcDbSpline
 62
7
  6
CONTINUOUS
 70
0
 71
3
 72
11
 73
7
 74
0
 42
0.0000001
 43
0.0000001
 44
0.0000000001
 40
0.0
 40
0.0
 40
0.0
 40
0.0
 40
0.2352561727
 40
0.4821728798
 40
0.7384826284
 40
1.0
 40
1.0
 40
1.0
 40
1.0
 10
-70.8394781873
 20
9.7077147661
 30
0.0
 10
-70.8027603949
 20
9.6145205689
 30
0.0
 10
-70.7533881689
 20
9.4125705775
 30
0.0
 10
-70.753271021
 20
9.0955654712
 30
0.0
 10
-70.8239556762
 20
8.7753062582
 30
0.0
 10
-70.9152176781
 20
8.5726385452
 30
0.0
 10
-70.9708917007
 20
8.4762083094
 30
0.0
  0
SPLINE
  5
491
100
AcDbEntity
  8
ASSI
100
AcDbSpline
 62
7
  6
CONTINUOUS
 70
0
 71
3
 72
11
 73
7
 74
0
 42
0.0000001
 43
0.0000001
 44
0.0000000001
 40
0.0
 40
0.0
 40
0.0
 40
0.0
 40
0.2352561727
 40
0.4821728798
 40
0.7384826284
 40
1.0
 40
1.0
 40
1.0
 40
1.0
 10
0.4368853563
 20
-31.4463642414
 30
0.0
 10
0.4736031487
 20
-31.5395584385
 30
0.0
 10
0.5229753747
 20
-31.7415084299
 30
0.0
 10
0.5230925226
 20
-32.0585135363
 30
0.0
 10
0.4524078674
 20
-32.3787727492
 30
0.0
 10
0.3611458656
 20
-32.5814404622
 30
0.0
 10
0.3054718429
 20
-32.6778706981
 30
0.0
  0
SPLINE
  5
492
100
AcDbEntity
  8
ASSI
100
AcDbSpline
 62
7
  6
CONTINUOUS
 70
0
 71
3
 72
11
 73
7
 74
0
 42
0.0000001
 43
0.0000001
 44
0.0000000001
 40
0.0
 40
0.0
 40
0.0
 40
0.0
 40
0.2352561727
 40
0.4821728798
 40
0.7384826284
 40
1.0
 40
1.0
 40
1.0
 40
1.0
 10
-35.6644781873
 20
70.6326018591
 30
0.0
 10
-35.6277603949
 20
70.5394076619
 30
0.0
 10
-35.5783881689
 20
70.3374576706
 30
0.0
 10
-35.578271021
 20
70.0204525642
 30
0.0
 10
-35.6489556762
 20
69.7001933512
 30
0.0
 10
-35.7402176781
 20
69.4975256382
 30
0.0
 10
-35.7958917007
 20
69.4010954024
 30
0.0
  0
SPLINE
  5
493
100
AcDbEntity
  8
ASSI
100
AcDbSpline
 62
7
  6
CONTINUOUS
 70
0
 71
3
 72
14
 73
10
 74
0
 42
0.0000001
 43
0.0000001
 44
0.0000000001
 40
0.0
 40
0.0
 40
0.0
 40
0.0
 40
0.1039949454
 40
0.2107015327
 40
0.3224978429
 40
0.4412061781
 40
0.5680170599
 40
0.7035126726
 40
1.0
 40
1.0
 40
1.0
 40
1.0
 10
29.5238571105
 20
-49.9984695194
 30
0.0
 10
29.5238562863
 20
-50.0768064703
 30
0.0
 10
29.50765413
 20
-50.2359605375
 30
0.0
 10
29.4356414162
 20
-50.4694401046
 30
0.0
 10
29.3173683567
 20
-50.6956927764
 30
0.0
 10
29.1549662571
 20
-50.9116309845
 30
0.0
 10
28.9508962718
 20
-51.114697797
 30
0.0
 10
28.6171947726
 20
-51.3725725893
 30
0.0
 10
28.3275515854
 20
-51.5270318084
 30
0.0
 10
28.1225747327
 20
-51.615710329
 30
0.0
  0
SPLINE
  5
494
100
AcDbEntity
  8
ASSI
100
AcDbSpline
 62
7
  6
CONTINUOUS
 70
0
 71
3
 72
14
 73
10
 74
0
 42
0.0000001
 43
0.0000001
 44
0.0000000001
 40
0.0
 40
0.0
 40
0.0
 40
0.0
 40
0.2710324972
 40
0.4031045576
 40
0.5310325682
 40
0.6542529253
 40
0.7728489458
 40
0.8876153733
 40
1.0
 40
1.0
 40
1.0
 40
1.0
 10
-35.7958917007
 20
69.4010954024
 30
0.0
 10
-35.8805794109
 20
69.2544119858
 30
0.0
 10
-36.0416716874
 20
69.0535615108
 30
0.0
 10
-36.3066286044
 20
68.8518852546
 30
0.0
 10
-36.5202992694
 20
68.7408004406
 30
0.0
 10
-36.7427262765
 20
68.6732433564
 30
0.0
 10
-36.966177514
 20
68.6519074168
 30
0.0
 10
-37.1823767142
 20
68.6779750119
 30
0.0
 10
-37.3172027381
 20
68.7269911938
 30
0.0
 10
-37.379942527
 20
68.7585549854
 30
0.0
  0
SPLINE
  5
495
100
AcDbEntity
  8
ASSI
100
AcDbSpline
 62
7
  6
CONTINUOUS
 70
0
 71
3
 72
14
 73
10
 74
0
 42
0.0000001
 43
0.0000001
 44
0.0000000001
 40
0.0
 40
0.0
 40
0.0
 40
0.0
 40
0.2710324831
 40
0.4031045405
 40
0.5310325523
 40
0.6542529143
 40
0.7728489413
 40
0.8876153739
 40
1.0
 40
1.0
 40
1.0
 40
1.0
 10
35.4804718429
 20
28.2470163949
 30
0.0
 10
35.395784182
 20
28.1003330637
 30
0.0
 10
35.2346920196
 20
27.8994826951
 30
0.0
 10
34.9697353019
 20
27.6978064877
 30
0.0
 10
34.7560647909
 20
27.5867216543
 30
0.0
 10
34.5336379308
 20
27.5191644908
 30
0.0
 10
34.3101868186
 20
27.4978284105
 30
0.0
 10
34.0939877066
 20
27.5238958066
 30
0.0
 10
33.9591617026
 20
27.5729118224
 30
0.0
 10
33.8964219122
 20
27.6044755274
 30
0.0
  0
SPLINE
  5
496
100
AcDbEntity
  8
ASSI
100
AcDbSpline
 62
7
  6
CONTINUOUS
 70
0
 71
3
 72
14
 73
10
 74
0
 42
0.0000001
 43
0.0000001
 44
0.0000000001
 40
0.0
 40
0.0
 40
0.0
 40
0.0
 40
0.2710324972
 40
0.4031045576
 40
0.5310325682
 40
0.6542529253
 40
0.7728489458
 40
0.8876153733
 40
1.0
 40
1.0
 40
1.0
 40
1.0
 10
0.3054718429
 20
-32.6778706981
 30
0.0
 10
0.2207841327
 20
-32.8245541147
 30
0.0
 10
0.0596918562
 20
-33.0254045896
 30
0.0
 10
-0.2052650608
 20
-33.2270808459
 30
0.0
 10
-0.4189357258
 20
-33.3381656599
 30
0.0
 10
-0.6413627329
 20
-33.405722744
 30
0.0
 10
-0.8648139704
 20
-33.4270586837
 30
0.0
 10
-1.0810131706
 20
-33.4009910886
 30
0.0
 10
-1.2158391945
 20
-33.3519749067
 30
0.0
 10
-1.2785789834
 20
-33.3204111151
 30
0.0
  0
SPLINE
  5
497
100
AcDbEntity
  8
ASSI
100
AcDbSpline
 62
7
  6
CONTINUOUS
 70
0
 71
3
 72
14
 73
10
 74
0
 42
0.0000001
 43
0.0000001
 44
0.0000000001
 40
0.0
 40
0.0
 40
0.0
 40
0.0
 40
0.2710324972
 40
0.4031045576
 40
0.5310325682
 40
0.6542529253
 40
0.7728489458
 40
0.8876153733
 40
1.0
 40
1.0
 40
1.0
 40
1.0
 10
-70.9708917007
 20
8.4762083094
 30
0.0
 10
-71.0555794109
 20
8.3295248928
 30
0.0
 10
-71.2166716874
 20
8.1286744178
 30
0.0
 10
-71.4816286044
 20
7.9269981616
 30
0.0
 10
-71.6952992694
 20
7.8159133475
 30
0.0
 10
-71.9177262765
 20
7.7483562634
 30
0.0
 10
-72.141177514
 20
7.7270203238
 30
0.0
 10
-72.3573767142
 20
7.7530879188
 30
0.0
 10
-72.4922027381
 20
7.8021041008
 30
0.0
 10
-72.554942527
 20
7.8336678924
 30
0.0
  0
SPLINE
  5
498
100
AcDbEntity
  8
ASSI
100
AcDbSpline
 62
7
  6
CONTINUOUS
 70
0
 71
3
 72
11
 73
7
 74
0
 42
0.0000001
 43
0.0000001
 44
0.0000000001
 40
0.0
 40
0.0
 40
0.0
 40
0.0
 40
0.247197156
 40
0.4955477333
 40
0.7461553053
 40
1.0
 40
1.0
 40
1.0
 40
1.0
 10
-12.0623040835
 20
28.6772752684
 30
0.0
 10
-11.7412398116
 20
28.4918967817
 30
0.0
 10
-11.1191833536
 20
28.0814197318
 30
0.0
 10
-10.262915758
 20
27.3570442774
 30
0.0
 10
-9.4903608621
 20
26.5303531539
 30
0.0
 10
-9.0392682005
 20
25.9206301991
 30
0.0
 10
-8.8300576782
 20
25.6025575965
 30
0.0
  0
SPLINE
  5
499
100
AcDbEntity
  8
ASSI
100
AcDbSpline
 62
7
  6
CONTINUOUS
 70
0
 71
3
 72
23
 73
19
 74
0
 42
0.0000001
 43
0.0000001
 44
0.0000000001
 40
0.0
 40
0.0
 40
0.0
 40
0.0
 40
0.0570292352
 40
0.1157114012
 40
0.1761826817
 40
0.2384194121
 40
0.3022530322
 40
0.3673935875
 40
0.4334579402
 40
0.4999999886
 40
0.5665420376
 40
0.6326063918
 40
0.6977469495
 40
0.761580573
 40
0.8238173071
 40
0.8842885916
 40
0.9429707615
 40
1.0
 40
1.0
 40
1.0
 40
1.0
 10
-8.8300576782
 20
25.6025575965
 30
0.0
 10
-8.5060190999
 20
25.1099064966
 30
0.0
 10
-7.9332058845
 20
24.0521959476
 30
0.0
 10
-7.3300805051
 20
22.3259208858
 30
0.0
 10
-6.9827714868
 20
20.4759297116
 30
0.0
 10
-6.8981839861
 20
18.5429069432
 30
0.0
 10
-7.0772802607
 20
16.5682808539
 30
0.0
 10
-7.5157131574
 20
14.5944259294
 30
0.0
 10
-8.2037465082
 20
12.6636050261
 30
0.0
 10
-9.1264453254
 20
10.8171907409
 30
0.0
 10
-10.2639449164
 20
9.0947756999
 30
0.0
 10
-11.5918935856
 20
7.5333623091
 30
0.0
 10
-13.0819327784
 20
6.1665740416
 30
0.0
 10
-14.7023332409
 20
5.0239776972
 30
0.0
 10
-16.4185739593
 20
4.1305291569
 30
0.0
 10
-18.1942980468
 20
3.5061131799
 30
0.0
 10
-19.9908207471
 20
3.165096441
 30
0.0
 10
-21.1932279562
 20
3.1321773127
 30
0.0
 10
-21.7818994827
 20
3.1664115126
 30
0.0
  0
SPLINE
  5
49A
100
AcDbEntity
  8
ASSI
100
AcDbSpline
 62
7
  6
CONTINUOUS
 70
0
 71
3
 72
11
 73
7
 74
0
 42
0.0000001
 43
0.0000001
 44
0.0000000001
 40
0.0
 40
0.0
 40
0.0
 40
0.0
 40
0.2538451535
 40
0.5044523555
 40
0.7528024893
 40
1.0
 40
1.0
 40
1.0
 40
1.0
 10
-21.7818994827
 20
3.1664115126
 30
0.0
 10
-22.1620989387
 20
3.1885220167
 30
0.0
 10
-22.9159521422
 20
3.2742783266
 30
0.0
 10
-24.0185624471
 20
3.5300176799
 30
0.0
 10
-25.074394818
 20
3.9095028631
 30
0.0
 10
-25.7411277777
 20
4.2431208139
 30
0.0
 10
-26.0623040835
 20
4.4285639876
 30
0.0
  0
SPLINE
  5
49B
100
AcDbEntity
  8
ASSI
100
AcDbSpline
 62
7
  6
CONTINUOUS
 70
0
 71
3
 72
18
 73
14
 74
0
 42
0.0000001
 43
0.0000001
 44
0.0000000001
 40
0.0
 40
0.0
 40
0.0
 40
0.0
 40
0.155071533
 40
0.3062080132
 40
0.4497918722
 40
0.5828635729
 40
0.7035298151
 40
0.7591199987
 40
0.8116625099
 40
0.8614669738
 40
0.9090097968
 40
0.9549298545
 40
1.0
 40
1.0
 40
1.0
 40
1.0
 10
-22.2145768687
 20
-71.6301595546
 30
0.0
 10
-22.4751090018
 20
-72.0814144457
 30
0.0
 10
-22.9400103731
 20
-73.002231909
 30
0.0
 10
-23.4629757832
 20
-74.4238238908
 30
0.0
 10
-23.789506278
 20
-75.828076169
 30
0.0
 10
-23.9071574055
 20
-77.1627349699
 30
0.0
 10
-23.8241164589
 20
-78.2057767244
 30
0.0
 10
-23.6411667287
 20
-78.9540097678
 30
0.0
 10
-23.4550388215
 20
-79.4524709436
 30
0.0
 10
-23.2177922857
 20
-79.8985583435
 30
0.0
 10
-22.931249808
 20
-80.2877479641
 30
0.0
 10
-22.5980761278
 20
-80.6156648555
 30
0.0
 10
-22.3459200036
 20
-80.7916276078
 30
0.0
 10
-22.2147691147
 20
-80.8673528841
 30
0.0
  0
SPLINE
  5
49C
100
AcDbEntity
  8
ASSI
100
AcDbSpline
 62
7
  6
CONTINUOUS
 70
0
 71
3
 72
11
 73
7
 74
0
 42
0.0000001
 43
0.0000001
 44
0.0000000001
 40
0.0
 40
0.0
 40
0.0
 40
0.0
 40
0.2537198174
 40
0.5131380155
 40
0.7657262482
 40
1.0
 40
1.0
 40
1.0
 40
1.0
 10
-14.6336519861
 20
-88.3354237156
 30
0.0
 10
-14.9332169526
 20
-88.2635463256
 30
0.0
 10
-15.5527101557
 20
-88.171327601
 30
0.0
 10
-16.4859527956
 20
-88.1779307439
 30
0.0
 10
-17.3837531866
 20
-88.3248968752
 30
0.0
 10
-17.9463566742
 20
-88.5200365914
 30
0.0
 10
-18.2031975975
 20
-88.6422982721
 30
0.0
  0
SPLINE
  5
49D
100
AcDbEntity
  8
ASSI
100
AcDbSpline
 62
7
  6
CONTINUOUS
 70
0
 71
3
 72
13
 73
9
 74
0
 42
0.0000001
 43
0.0000001
 44
0.0000000001
 40
0.0
 40
0.0
 40
0.0
 40
0.0
 40
0.1125750782
 40
0.2272199142
 40
0.3455992306
 40
0.4686856266
 40
0.7279824737
 40
1.0
 40
1.0
 40
1.0
 40
1.0
 10
-84.006982971
 20
-14.4237931151
 30
0.0
 10
-83.8448724415
 20
-14.5173937031
 30
0.0
 10
-83.5394304163
 20
-14.747030031
 30
0.0
 10
-83.1713142766
 20
-15.1946885381
 30
0.0
 10
-82.9044398263
 20
-15.7286350402
 30
0.0
 10
-82.6929121078
 20
-16.5393077101
 30
0.0
 10
-82.7319354477
 20
-17.6516768399
 30
0.0
 10
-83.0559510976
 20
-18.4921257145
 30
0.0
 10
-83.2821092369
 20
-18.8838431018
 30
0.0
  0
SPLINE
  5
49E
100
AcDbEntity
  8
ASSI
100
AcDbSpline
 62
7
  6
CONTINUOUS
 70
0
 71
3
 72
13
 73
9
 74
0
 42
0.0000001
 43
0.0000001
 44
0.0000000001
 40
0.0
 40
0.0
 40
0.0
 40
0.0
 40
0.1125642055
 40
0.2272330131
 40
0.3456485501
 40
0.4687632073
 40
0.7280597791
 40
1.0
 40
1.0
 40
1.0
 40
1.0
 10
-10.43075031
 20
-56.9052864993
 30
0.0
 10
-10.592959846
 20
-56.8130287035
 30
0.0
 10
-10.9443762534
 20
-56.6658982988
 30
0.0
 10
-11.5149007372
 20
-56.5740708695
 30
0.0
 10
-12.1089117723
 20
-56.6121687335
 30
0.0
 10
-12.9136994053
 20
-56.8360601207
 30
0.0
 10
-13.8534453656
 20
-57.4257037134
 30
0.0
 10
-14.4170859396
 20
-58.1245091078
 30
0.0
 10
-14.6424989301
 20
-58.5149358596
 30
0.0
  0
SPLINE
  5
49F
100
AcDbEntity
  8
ASSI
100
AcDbSpline
 62
7
  6
CONTINUOUS
 70
0
 71
3
 72
11
 73
7
 74
0
 42
0.0000001
 43
0.0000001
 44
0.0000000001
 40
0.0
 40
0.0
 40
0.0
 40
0.0
 40
0.2600629106
 40
0.5156501173
 40
0.763065683
 40
1.0
 40
1.0
 40
1.0
 40
1.0
 10
-70.821627632
 20
8.3899944181
 30
0.0
 10
-70.896146495
 20
8.2609239614
 30
0.0
 10
-71.0682636885
 20
8.0181871397
 30
0.0
 10
-71.3860453133
 20
7.7138866013
 30
0.0
 10
-71.7468220224
 20
7.4855983721
 30
0.0
 10
-72.0105158062
 20
7.3901734483
 30
0.0
 10
-72.1428551021
 20
7.3597865313
 30
0.0
  0
SPLINE
  5
4A0
100
AcDbEntity
  8
ASSI
100
AcDbSpline
 62
7
  6
CONTINUOUS
 70
0
 71
3
 72
11
 73
7
 74
0
 42
0.0000001
 43
0.0000001
 44
0.0000000001
 40
0.0
 40
0.0
 40
0.0
 40
0.0
 40
0.2594308361
 40
0.5111709264
 40
0.7571364043
 40
1.0
 40
1.0
 40
1.0
 40
1.0
 10
-72.1428551021
 20
7.3597865313
 30
0.0
 10
-72.2326311742
 20
7.3391727141
 30
0.0
 10
-72.4133265555
 20
7.3131328462
 30
0.0
 10
-72.683466533
 20
7.3229950967
 30
0.0
 10
-72.9412627764
 20
7.3823096397
 30
0.0
 10
-73.1007099422
 20
7.454218406
 30
0.0
 10
-73.1753897114
 20
7.4973292444
 30
0.0
  0
SPLINE
  5
4A1
100
AcDbEntity
  8
ASSI
100
AcDbSpline
 62
7
  6
CONTINUOUS
 70
0
 71
3
 72
11
 73
7
 74
0
 42
0.0000001
 43
0.0000001
 44
0.0000000001
 40
0.0
 40
0.0
 40
0.0
 40
0.0
 40
0.2600629106
 40
0.5156501173
 40
0.763065683
 40
1.0
 40
1.0
 40
1.0
 40
1.0
 10
-35.646627632
 20
69.3148815111
 30
0.0
 10
-35.721146495
 20
69.1858110544
 30
0.0
 10
-35.8932636885
 20
68.9430742327
 30
0.0
 10
-36.2110453133
 20
68.6387736943
 30
0.0
 10
-36.5718220224
 20
68.4104854651
 30
0.0
 10
-36.8355158062
 20
68.3150605414
 30
0.0
 10
-36.9678551021
 20
68.2846736243
 30
0.0
  0
SPLINE
  5
4A2
100
AcDbEntity
  8
ASSI
100
AcDbSpline
 62
7
  6
CONTINUOUS
 70
0
 71
3
 72
11
 73
7
 74
0
 42
0.0000001
 43
0.0000001
 44
0.0000000001
 40
0.0
 40
0.0
 40
0.0
 40
0.0
 40
0.2594308361
 40
0.5111709264
 40
0.7571364043
 40
1.0
 40
1.0
 40
1.0
 40
1.0
 10
-36.9678551021
 20
68.2846736243
 30
0.0
 10
-37.0576311742
 20
68.2640598071
 30
0.0
 10
-37.2383265555
 20
68.2380199392
 30
0.0
 10
-37.508466533
 20
68.2478821897
 30
0.0
 10
-37.7662627764
 20
68.3071967327
 30
0.0
 10
-37.9257099422
 20
68.379105499
 30
0.0
 10
-38.0003897114
 20
68.4222163374
 30
0.0
  0
SPLINE
  5
4A3
100
AcDbEntity
  8
ASSI
100
AcDbSpline
 62
7
  6
CONTINUOUS
 70
0
 71
3
 72
14
 73
10
 74
0
 42
0.0000001
 43
0.0000001
 44
0.0000000001
 40
0.0
 40
0.0
 40
0.0
 40
0.0
 40
0.27173459
 40
0.4039494429
 40
0.5318012062
 40
0.6547590329
 40
0.7730150497
 40
0.88754226
 40
1.0
 40
1.0
 40
1.0
 40
1.0
 10
-36.3861153898
 20
26.5553567726
 30
0.0
 10
-36.512110391
 20
26.3371270294
 30
0.0
 10
-36.7533351946
 20
26.0391205579
 30
0.0
 10
-37.1509555946
 20
25.7443651588
 30
0.0
 10
-37.4710684277
 20
25.5855822929
 30
0.0
 10
-37.8032295309
 20
25.4942162857
 30
0.0
 10
-38.1351511376
 20
25.4742513303
 30
0.0
 10
-38.4536839948
 20
25.5271551266
 30
0.0
 10
-38.6495598804
 20
25.6105534226
 30
0.0
 10
-38.7398774692
 20
25.662691599
 30
0.0
  0
SPLINE
  5
4A4
100
AcDbEntity
  8
ASSI
100
AcDbSpline
 62
7
  6
CONTINUOUS
 70
0
 71
3
 72
14
 73
10
 74
0
 42
0.0000001
 43
0.0000001
 44
0.0000000001
 40
0.0
 40
0.0
 40
0.0
 40
0.0
 40
0.27173459
 40
0.4039494429
 40
0.5318012062
 40
0.6547590329
 40
0.7730150497
 40
0.88754226
 40
1.0
 40
1.0
 40
1.0
 40
1.0
 10
-1.0307763305
 20
6.1416271062
 30
0.0
 10
-1.1567713316
 20
5.923397363
 30
0.0
 10
-1.3979961353
 20
5.6253908915
 30
0.0
 10
-1.7956165353
 20
5.3306354924
 30
0.0
 10
-2.1157293684
 20
5.1718526266
 30
0.0
 10
-2.4478904715
 20
5.0804866193
 30
0.0
 10
-2.7798120783
 20
5.0605216639
 30
0.0
 10
-3.0983449355
 20
5.1134254602
 30
0.0
 10
-3.294220821
 20
5.1968237562
 30
0.0
 10
-3.3845384099
 20
5.2489619326
 30
0.0
  0
SPLINE
  5
4A5
100
AcDbEntity
  8
ASSI
100
AcDbSpline
 62
7
  6
CONTINUOUS
 70
0
 71
3
 72
14
 73
10
 74
0
 42
0.0000001
 43
0.0000001
 44
0.0000000001
 40
0.0
 40
0.0
 40
0.0
 40
0.0
 40
0.27173459
 40
0.4039494429
 40
0.5318012062
 40
0.6547590329
 40
0.7730150497
 40
0.88754226
 40
1.0
 40
1.0
 40
1.0
 40
1.0
 10
35.6297359116
 20
28.1608025036
 30
0.0
 10
35.5037409105
 20
27.9425727604
 30
0.0
 10
35.2625161069
 20
27.6445662889
 30
0.0
 10
34.8648957069
 20
27.3498108898
 30
0.0
 10
34.5447828738
 20
27.191028024
 30
0.0
 10
34.2126217706
 20
27.0996620167
 30
0.0
 10
33.8807001639
 20
27.0796970613
 30
0.0
 10
33.5621673066
 20
27.1326008576
 30
0.0
 10
33.3662914211
 20
27.2159991536
 30
0.0
 10
33.2759738322
 20
27.26813733
 30
0.0
  0
SPLINE
  5
4A6
100
AcDbEntity
  8
ASSI
100
AcDbSpline
 62
7
  6
CONTINUOUS
 70
0
 71
3
 72
11
 73
7
 74
0
 42
0.0000001
 43
0.0000001
 44
0.0000000001
 40
0.0
 40
0.0
 40
0.0
 40
0.0
 40
0.2600629106
 40
0.5156501173
 40
0.763065683
 40
1.0
 40
1.0
 40
1.0
 40
1.0
 10
0.4547359116
 20
-32.7640845894
 30
0.0
 10
0.3802170487
 20
-32.8931550461
 30
0.0
 10
0.2080998551
 20
-33.1358918677
 30
0.0
 10
-0.1096817697
 20
-33.4401924061
 30
0.0
 10
-0.4704584788
 20
-33.6684806353
 30
0.0
 10
-0.7341522626
 20
-33.7639055591
 30
0.0
 10
-0.8664915585
 20
-33.7942924761
 30
0.0
  0
SPLINE
  5
4A7
100
AcDbEntity
  8
ASSI
100
AcDbSpline
 62
7
  6
CONTINUOUS
 70
0
 71
3
 72
11
 73
7
 74
0
 42
0.0000001
 43
0.0000001
 44
0.0000000001
 40
0.0
 40
0.0
 40
0.0
 40
0.0
 40
0.2594308361
 40
0.5111709264
 40
0.7571364043
 40
1.0
 40
1.0
 40
1.0
 40
1.0
 10
-0.8664915585
 20
-33.7942924761
 30
0.0
 10
-0.9562676306
 20
-33.8149062933
 30
0.0
 10
-1.1369630119
 20
-33.8409461612
 30
0.0
 10
-1.4071029894
 20
-33.8310839107
 30
0.0
 10
-1.6648992328
 20
-33.7717693677
 30
0.0
 10
-1.8243463986
 20
-33.6998606014
 30
0.0
 10
-1.8990261678
 20
-33.656749763
 30
0.0
  0
SPLINE
  5
4A8
100
AcDbEntity
  8
ASSI
100
AcDbSpline
 62
7
  6
CONTINUOUS
 70
0
 71
3
 72
18
 73
14
 74
0
 42
0.0000001
 43
0.0000001
 44
0.0000000001
 40
0.0
 40
0.0
 40
0.0
 40
0.0
 40
0.1369790381
 40
0.2722372258
 40
0.4042568759
 40
0.5319218339
 40
0.6546995542
 40
0.7143693032
 40
0.7729555364
 40
0.8306042992
 40
0.8875056656
 40
0.9438864556
 40
1.0
 40
1.0
 40
1.0
 40
1.0
 10
-8.7028849064
 20
10.5714064439
 30
0.0
 10
-9.2280430504
 20
9.6618058574
 30
0.0
 10
-10.4183339639
 20
7.9340991292
 30
0.0
 10
-12.5739317839
 20
5.6881743222
 30
0.0
 10
-15.0183974342
 20
3.8748129732
 30
0.0
 10
-17.660066217
 20
2.5647122533
 30
0.0
 10
-19.9698545403
 20
1.9297429012
 30
0.0
 10
-21.8097554135
 20
1.7253944542
 30
0.0
 10
-23.1613567712
 20
1.7220870683
 30
0.0
 10
-24.4837599828
 20
1.8677550784
 30
0.0
 10
-25.7642621979
 20
2.1611503966
 30
0.0
 10
-26.9900618967
 20
2.5994514654
 30
0.0
 10
-27.7638939082
 20
2.9860616518
 30
0.0
 10
-28.1365243261
 20
3.2011722169
 30
0.0
  0
SPLINE
  5
4A9
100
AcDbEntity
  8
ASSI
100
AcDbSpline
 62
7
  6
CONTINUOUS
 70
0
 71
3
 72
13
 73
9
 74
0
 42
0.0000001
 43
0.0000001
 44
0.0000000001
 40
0.0
 40
0.0
 40
0.0
 40
0.0
 40
0.2720160675
 40
0.531314443
 40
0.6544005776
 40
0.7727809367
 40
0.8874225784
 40
1.0
 40
1.0
 40
1.0
 40
1.0
 10
-87.9388372205
 20
-8.1120755616
 30
0.0
 10
-88.1003777777
 20
-8.3918720139
 30
0.0
 10
-88.3318091243
 20
-8.9921942314
 30
0.0
 10
-88.3596961866
 20
-9.7867420334
 30
0.0
 10
-88.2086001822
 20
-10.3657964762
 30
0.0
 10
-88.0179703719
 20
-10.7471795813
 30
0.0
 10
-87.7550402993
 20
-11.0669435081
 30
0.0
 10
-87.5368658384
 20
-11.2309666408
 30
0.0
 10
-87.4210702675
 20
-11.2978255521
 30
0.0
  0
SPLINE
  5
4AA
100
AcDbEntity
  8
ASSI
100
AcDbSpline
 62
7
  6
CONTINUOUS
 70
0
 71
3
 72
13
 73
9
 74
0
 42
0.0000001
 43
0.0000001
 44
0.0000000001
 40
0.0
 40
0.0
 40
0.0
 40
0.0
 40
0.1125786764
 40
0.2272202681
 40
0.3455997053
 40
0.4686845946
 40
0.7279814978
 40
1.0
 40
1.0
 40
1.0
 40
1.0
 10
-26.9210702675
 20
93.4912481971
 30
0.0
 10
-27.0368650702
 20
93.5581066649
 30
0.0
 10
-27.2879913903
 20
93.6650526216
 30
0.0
 10
-27.6963700714
 20
93.7328941265
 30
0.0
 10
-28.1219635776
 20
93.7073101698
 30
0.0
 10
-28.698977805
 20
93.5486556902
 30
0.0
 10
-29.3731265254
 20
93.1272446248
 30
0.0
 10
-29.7772980896
 20
92.6266651551
 30
0.0
 10
-29.9388372205
 20
92.3468711732
 30
0.0
  0
SPLINE
  5
4AB
100
AcDbEntity
  8
ASSI
100
AcDbSpline
 62
7
  6
CONTINUOUS
 70
0
 71
3
 72
14
 73
10
 74
0
 42
0.0000001
 43
0.0000001
 44
0.0000000001
 40
0.0
 40
0.0
 40
0.0
 40
0.0
 40
0.2964873274
 40
0.4319829401
 40
0.5587938219
 40
0.6775021571
 40
0.7892984673
 40
0.8960050546
 40
1.0
 40
1.0
 40
1.0
 40
1.0
 10
93.1763986019
 20
-48.3495135824
 30
0.0
 10
93.3813754545
 20
-48.2608350618
 30
0.0
 10
93.6710186417
 20
-48.1063758427
 30
0.0
 10
94.0047201409
 20
-47.8485010504
 30
0.0
 10
94.2087901263
 20
-47.6454342379
 30
0.0
 10
94.3711922259
 20
-47.4294960298
 30
0.0
 10
94.4894652854
 20
-47.203243358
 30
0.0
 10
94.5614779991
 20
-46.9697637908
 30
0.0
 10
94.5776801554
 20
-46.8106097237
 30
0.0
 10
94.5776809797
 20
-46.7322727728
 30
0.0
  0
SPLINE
  5
4AC
100
AcDbEntity
  8
ASSI
100
AcDbSpline
 62
7
  6
CONTINUOUS
 70
0
 71
3
 72
11
 73
7
 74
0
 42
0.0000001
 43
0.0000001
 44
0.0000000001
 40
0.0
 40
0.0
 40
0.0
 40
0.0
 40
0.2523398635
 40
0.5106192676
 40
0.7633978168
 40
1.0
 40
1.0
 40
1.0
 40
1.0
 10
5.5579702274
 20
-85.0154834076
 30
0.0
 10
5.8444814838
 20
-85.0842287003
 30
0.0
 10
6.4367187991
 20
-85.1746460511
 30
0.0
 10
7.3311844589
 20
-85.1771096476
 30
0.0
 10
8.1980991392
 20
-85.0501128081
 30
0.0
 10
8.7462361519
 20
-84.8762813844
 30
0.0
 10
8.9997919577
 20
-84.766586297
 30
0.0
  0
SPLINE
  5
4AD
100
AcDbEntity
  8
ASSI
100
AcDbSpline
 62
7
  6
CONTINUOUS
 70
0
 71
3
 72
14
 73
10
 74
0
 42
0.0000001
 43
0.0000001
 44
0.0000000001
 40
0.0
 40
0.0
 40
0.0
 40
0.0
 40
0.2709465405
 40
0.4030007254
 40
0.5309364952
 40
0.6541867941
 40
0.7728228026
 40
0.8876193058
 40
1.0
 40
1.0
 40
1.0
 40
1.0
 10
-39.1188318364
 20
28.1331957898
 30
0.0
 10
-39.2407392246
 20
27.922046
 30
0.0
 10
-39.3753456959
 20
27.5767638783
 30
0.0
 10
-39.4367608875
 20
27.1013408851
 30
0.0
 10
-39.4222040989
 20
26.7548744389
 30
0.0
 10
-39.3472868555
 20
26.4285827997
 30
0.0
 10
-39.214172065
 20
26.1339706093
 30
0.0
 10
-39.027271051
 20
25.8821437049
 30
0.0
 10
-38.869896596
 20
25.7483207727
 30
0.0
 10
-38.7857363798
 20
25.6922513946
 30
0.0
  0
SPLINE
  5
4AE
100
AcDbEntity
  8
ASSI
100
AcDbSpline
 62
7
  6
CONTINUOUS
 70
0
 71
3
 72
14
 73
10
 74
0
 42
0.0000001
 43
0.0000001
 44
0.0000000001
 40
0.0
 40
0.0
 40
0.0
 40
0.0
 40
0.2709465405
 40
0.4030007254
 40
0.5309364952
 40
0.6541867941
 40
0.7728228026
 40
0.8876193058
 40
1.0
 40
1.0
 40
1.0
 40
1.0
 10
-3.7634927771
 20
7.7194661234
 30
0.0
 10
-3.8854001652
 20
7.5083163336
 30
0.0
 10
-4.0200066366
 20
7.1630342119
 30
0.0
 10
-4.0814218282
 20
6.6876112187
 30
0.0
 10
-4.0668650396
 20
6.3411447725
 30
0.0
 10
-3.9919477961
 20
6.0148531333
 30
0.0
 10
-3.8588330057
 20
5.7202409429
 30
0.0
 10
-3.6719319916
 20
5.4684140385
 30
0.0
 10
-3.5145575366
 20
5.3345911064
 30
0.0
 10
-3.4303973205
 20
5.2785217282
 30
0.0
  0
SPLINE
  5
4AF
100
AcDbEntity
  8
ASSI
100
AcDbSpline
 62
7
  6
CONTINUOUS
 70
0
 71
3
 72
13
 73
9
 74
0
 42
0.0000001
 43
0.0000001
 44
0.0000000001
 40
0.0
 40
0.0
 40
0.0
 40
0.0
 40
0.112576333
 40
0.227221119
 40
0.3455995135
 40
0.4686846642
 40
0.7279800389
 40
1.0
 40
1.0
 40
1.0
 40
1.0
 10
-11.5285378994
 20
-56.2719389312
 30
0.0
 10
-11.3664284453
 20
-56.3655388983
 30
0.0
 10
-11.014849293
 20
-56.515259344
 30
0.0
 10
-10.4431216392
 20
-56.6102551037
 30
0.0
 10
-9.8472855775
 20
-56.5744261785
 30
0.0
 10
-9.0394720776
 20
-56.35230589
 30
0.0
 10
-8.0956526839
 20
-55.7623453582
 30
0.0
 10
-7.5298203078
 20
-55.0615250266
 30
0.0
 10
-7.3036641652
 20
-54.6698110977
 30
0.0
  0
SPLINE
  5
4B0
100
AcDbEntity
  8
ASSI
100
AcDbSpline
 62
7
  6
CONTINUOUS
 70
0
 71
3
 72
14
 73
10
 74
0
 42
0.0000001
 43
0.0000001
 44
0.0000000001
 40
0.0
 40
0.0
 40
0.0
 40
0.0
 40
0.1123816332
 40
0.2271779004
 40
0.3458129359
 40
0.4690620425
 40
0.5969968966
 40
0.7290508523
 40
1.0
 40
1.0
 40
1.0
 40
1.0
 10
-1.4830672882
 20
8.6513962798
 30
0.0
 10
-1.5737015207
 20
8.6962510723
 30
0.0
 10
-1.7682761093
 20
8.7656396398
 30
0.0
 10
-2.0798077029
 20
8.8016014924
 30
0.0
 10
-2.4015001713
 20
8.7695889219
 30
0.0
 10
-2.7215299201
 20
8.6713341307
 30
0.0
 10
-3.0288522759
 20
8.5107160785
 30
0.0
 10
-3.4098695933
 20
8.2198247704
 30
0.0
 10
-3.6415864304
 20
7.9306141095
 30
0.0
 10
-3.7634927771
 20
7.7194661234
 30
0.0
  0
SPLINE
  5
4B1
100
AcDbEntity
  8
ASSI
100
AcDbSpline
 62
7
  6
CONTINUOUS
 70
0
 71
3
 72
14
 73
10
 74
0
 42
0.0000001
 43
0.0000001
 44
0.0000000001
 40
0.0
 40
0.0
 40
0.0
 40
0.0
 40
0.1124568344
 40
0.2269834657
 40
0.3452394254
 40
0.4681977114
 40
0.5960502481
 40
0.7282658405
 40
1.0
 40
1.0
 40
1.0
 40
1.0
 10
-3.3845384099
 20
5.2489619326
 30
0.0
 10
-3.4748638701
 20
5.3011046529
 30
0.0
 10
-3.6450551977
 20
5.4290333984
 30
0.0
 10
-3.8501766695
 20
5.6784454784
 30
0.0
 10
-3.9988805251
 20
5.9758995202
 30
0.0
 10
-4.085861097
 20
6.3092711937
 30
0.0
 10
-4.1084236185
 20
6.6659236368
 30
0.0
 10
-4.0519768287
 20
7.1577003104
 30
0.0
 10
-3.9144995742
 20
7.5156478458
 30
0.0
 10
-3.7884927771
 20
7.7338980202
 30
0.0
  0
SPLINE
  5
4B2
100
AcDbEntity
  8
ASSI
100
AcDbSpline
 62
7
  6
CONTINUOUS
 70
0
 71
3
 72
18
 73
14
 74
0
 42
0.0000001
 43
0.0000001
 44
0.0000000001
 40
0.0
 40
0.0
 40
0.0
 40
0.0
 40
0.1369593024
 40
0.2722036704
 40
0.4042186133
 40
0.5318891154
 40
0.6546805862
 40
0.7143583599
 40
0.772952277
 40
0.8306072117
 40
0.8875119855
 40
0.9438921782
 40
1.0
 40
1.0
 40
1.0
 40
1.0
 10
-31.4467232606
 20
23.7034164522
 30
0.0
 10
-31.9711996571
 20
22.7949966869
 30
0.0
 10
-32.8713230173
 20
20.902858834
 30
0.0
 10
-33.738416492
 20
17.9171413885
 30
0.0
 10
-34.0878896171
 20
14.8973244096
 30
0.0
 10
-33.904353137
 20
11.957703518
 30
0.0
 10
-33.3027901914
 20
9.6416966575
 30
0.0
 10
-32.5631168947
 20
7.9467741024
 30
0.0
 10
-31.8928714537
 20
6.774674181
 30
0.0
 10
-31.1084031055
 20
5.7019116571
 30
0.0
 10
-30.217095994
 20
4.7388385411
 30
0.0
 10
-29.2277400232
 20
3.8951117814
 30
0.0
 10
-28.5080819997
 20
3.417039191
 30
0.0
 10
-28.1364989665
 20
3.2011984127
 30
0.0
  0
SPLINE
  5
4B3
100
AcDbEntity
  8
ASSI
100
AcDbSpline
 62
7
  6
CONTINUOUS
 70
0
 71
3
 72
18
 73
14
 74
0
 42
0.0000001
 43
0.0000001
 44
0.0000000001
 40
0.0
 40
0.0
 40
0.0
 40
0.0
 40
0.0561130747
 40
0.1124934388
 40
0.1693944621
 40
0.2270429951
 40
0.2856291306
 40
0.3452989199
 40
0.4680770724
 40
0.5957427747
 40
0.7277631349
 40
0.8630215792
 40
1.0
 40
1.0
 40
1.0
 40
1.0
 10
-28.1365243261
 20
3.2011722169
 30
0.0
 10
-28.5091871822
 20
3.4163015077
 30
0.0
 10
-29.23103164
 20
3.8931197433
 30
0.0
 10
-30.2236800102
 20
4.7355222019
 30
0.0
 10
-31.1181821606
 20
5.6977815962
 30
0.0
 10
-31.9056906229
 20
6.7702204618
 30
0.0
 10
-32.5787703532
 20
7.9424596182
 30
0.0
 10
-33.3219248088
 20
9.6381545445
 30
0.0
 10
-33.9270960663
 20
11.9561767126
 30
0.0
 10
-34.1134829203
 20
14.8992692552
 30
0.0
 10
-33.7653507802
 20
17.9232326949
 30
0.0
 10
-32.8980934691
 20
20.9133032338
 30
0.0
 10
-31.9969291495
 20
22.8081650659
 30
0.0
 10
-31.4717232606
 20
23.717848349
 30
0.0
  0
SPLINE
  5
4B4
100
AcDbEntity
  8
ASSI
100
AcDbSpline
 62
7
  6
CONTINUOUS
 70
0
 71
3
 72
14
 73
10
 74
0
 42
0.0000001
 43
0.0000001
 44
0.0000000001
 40
0.0
 40
0.0
 40
0.0
 40
0.0
 40
0.1123816332
 40
0.2271779004
 40
0.3458129359
 40
0.4690620425
 40
0.5969968966
 40
0.7290508523
 40
1.0
 40
1.0
 40
1.0
 40
1.0
 10
-36.8384063475
 20
29.0651259462
 30
0.0
 10
-36.92904058
 20
29.1099807387
 30
0.0
 10
-37.1236151686
 20
29.1793693062
 30
0.0
 10
-37.4351467622
 20
29.2153311587
 30
0.0
 10
-37.7568392306
 20
29.1833185883
 30
0.0
 10
-38.0768689794
 20
29.085063797
 30
0.0
 10
-38.3841913352
 20
28.9244457449
 30
0.0
 10
-38.7652086527
 20
28.6335544368
 30
0.0
 10
-38.9969254897
 20
28.3443437759
 30
0.0
 10
-39.1188318364
 20
28.1331957898
 30
0.0
  0
SPLINE
  5
4B5
100
AcDbEntity
  8
ASSI
100
AcDbSpline
 62
7
  6
CONTINUOUS
 70
0
 71
3
 72
14
 73
10
 74
0
 42
0.0000001
 43
0.0000001
 44
0.0000000001
 40
0.0
 40
0.0
 40
0.0
 40
0.0
 40
0.1124568344
 40
0.2269834657
 40
0.3452394254
 40
0.4681977114
 40
0.5960502481
 40
0.7282658405
 40
1.0
 40
1.0
 40
1.0
 40
1.0
 10
-38.7398774692
 20
25.662691599
 30
0.0
 10
-38.8302029295
 20
25.7148343193
 30
0.0
 10
-39.000394257
 20
25.8427630648
 30
0.0
 10
-39.2055157289
 20
26.0921751448
 30
0.0
 10
-39.3542195844
 20
26.3896291866
 30
0.0
 10
-39.4412001564
 20
26.7230008601
 30
0.0
 10
-39.4637626779
 20
27.0796533032
 30
0.0
 10
-39.407315888
 20
27.5714299768
 30
0.0
 10
-39.2698386335
 20
27.9293775122
 30
0.0
 10
-39.1438318364
 20
28.1476276866
 30
0.0
  0
SPLINE
  5
4B6
100
AcDbEntity
  8
ASSI
100
AcDbSpline
 62
7
  6
CONTINUOUS
 70
0
 71
3
 72
13
 73
9
 74
0
 42
0.0000001
 43
0.0000001
 44
0.0000000001
 40
0.0
 40
0.0
 40
0.0
 40
0.0
 40
0.1125780415
 40
0.2272207468
 40
0.3455994937
 40
0.4686847462
 40
0.7279806182
 40
1.0
 40
1.0
 40
1.0
 40
1.0
 10
-11.0285378994
 20
-55.4059135283
 30
0.0
 10
-10.9127437114
 20
-55.4727716412
 30
0.0
 10
-10.6616162215
 20
-55.5797154473
 30
0.0
 10
-10.2532389915
 20
-55.6475649134
 30
0.0
 10
-9.8276438115
 20
-55.6219765966
 30
0.0
 10
-9.2506335903
 20
-55.4633163371
 30
0.0
 10
-8.5764777656
 20
-55.0419163196
 30
0.0
 10
-8.1723106532
 20
-54.5413314837
 30
0.0
 10
-8.0107709464
 20
-54.2615365044
 30
0.0
  0
SPLINE
  5
4B7
100
AcDbEntity
  8
ASSI
100
AcDbSpline
 62
7
  6
CONTINUOUS
 70
0
 71
3
 72
13
 73
9
 74
0
 42
0.0000001
 43
0.0000001
 44
0.0000000001
 40
0.0
 40
0.0
 40
0.0
 40
0.0
 40
0.2720169471
 40
0.5313142914
 40
0.6544007892
 40
0.772780458
 40
0.8874232133
 40
1.0
 40
1.0
 40
1.0
 40
1.0
 10
49.9892290536
 20
46.1974102303
 30
0.0
 10
50.1507701866
 20
46.47720768
 30
0.0
 10
50.3822084061
 20
47.0775287252
 30
0.0
 10
50.4100823489
 20
47.8720771561
 30
0.0
 10
50.2589933529
 20
48.4511310192
 30
0.0
 10
50.0683664817
 20
48.8325177535
 30
0.0
 10
49.80543024
 20
49.1522764435
 30
0.0
 10
49.5872570568
 20
49.3163016644
 30
0.0
 10
49.4714621006
 20
49.3831602209
 30
0.0
  0
SPLINE
  5
4B8
100
AcDbEntity
  8
ASSI
100
AcDbSpline
 62
7
  6
CONTINUOUS
 70
0
 71
3
 72
13
 73
9
 74
0
 42
0.0000001
 43
0.0000001
 44
0.0000000001
 40
0.0
 40
0.0
 40
0.0
 40
0.0
 40
0.2720175263
 40
0.5313143734
 40
0.6544007694
 40
0.7727800858
 40
0.8874249218
 40
1.0
 40
1.0
 40
1.0
 40
1.0
 10
50.6963358348
 20
45.789135637
 30
0.0
 10
50.922493974
 20
46.1808530244
 30
0.0
 10
51.2465096239
 20
47.021301899
 30
0.0
 10
51.2855329638
 20
48.1336710287
 30
0.0
 10
51.0740052454
 20
48.9443436986
 30
0.0
 10
50.807130795
 20
49.4782902007
 30
0.0
 10
50.4390146554
 20
49.9259487079
 30
0.0
 10
50.1335726301
 20
50.1555850357
 30
0.0
 10
49.9714621006
 20
50.2491856238
 30
0.0
  0
SPLINE
  5
4B9
100
AcDbEntity
  8
ASSI
100
AcDbSpline
 62
7
  6
CONTINUOUS
 70
0
 71
3
 72
33
 73
29
 74
0
 42
0.0000001
 43
0.0000001
 44
0.0000000001
 40
0.0
 40
0.0
 40
0.0
 40
0.0
 40
0.0280493392
 40
0.0562319267
 40
0.0846751995
 40
0.1134920365
 40
0.1427776126
 40
0.1726048662
 40
0.2030226813
 40
0.2340551171
 40
0.29787143
 40
0.363864346
 40
0.3975407625
 40
0.4315332644
 40
0.5000043972
 40
0.5684752247
 40
0.6024673543
 40
0.636143265
 40
0.7021348312
 40
0.7659494976
 40
0.7969810723
 40
0.8273980427
 40
0.8572245025
 40
0.8865093699
 40
0.9153256158
 40
0.9437684436
 40
0.9719507547
 40
1.0
 40
1.0
 40
1.0
 40
1.0
 10
-26.0623040835
 20
4.4285639876
 30
0.0
 10
-26.3863316804
 20
4.6156534611
 30
0.0
 10
-27.0139634745
 20
5.0303101307
 30
0.0
 10
-27.877044158
 20
5.7628753725
 30
0.0
 10
-28.6547851216
 20
6.5996364015
 30
0.0
 10
-29.3394940607
 20
7.5322222408
 30
0.0
 10
-29.9246946118
 20
8.5514841308
 30
0.0
 10
-30.4048539399
 20
9.6474285851
 30
0.0
 10
-30.7755056665
 20
10.8095123733
 30
0.0
 10
-31.1222684556
 20
12.4465241697
 30
0.0
 10
-31.2591422654
 20
14.6010532845
 30
0.0
 10
-31.0081429158
 20
16.7787144922
 30
0.0
 10
-30.5842193697
 20
18.5123280678
 30
0.0
 10
-30.0086569994
 20
20.2366430668
 30
0.0
 10
-29.0251416987
 20
22.305330067
 30
0.0
 10
-27.7253672219
 20
24.1914193618
 30
0.0
 10
-26.5198554124
 20
25.55201426
 30
0.0
 10
-25.2304800328
 20
26.7859236666
 30
0.0
 10
-23.4700960326
 20
28.092084151
 30
0.0
 10
-21.5358112216
 20
29.0507577144
 30
0.0
 10
-19.9447654266
 20
29.5689047848
 30
0.0
 10
-18.7530699387
 20
29.8289094059
 30
0.0
 10
-17.5639006778
 20
29.9610048543
 30
0.0
 10
-16.3886213455
 20
29.9637879454
 30
0.0
 10
-15.2386527819
 20
29.8370539907
 30
0.0
 10
-14.1251560261
 20
29.5818378413
 30
0.0
 10
-13.0592264666
 20
29.2006163352
 30
0.0
 10
-12.3863305966
 20
28.8643641161
 30
0.0
 10
-12.0623040835
 20
28.6772752684
 30
0.0
  0
SPLINE
  5
4BA
100
AcDbEntity
  8
ASSI
100
AcDbSpline
 62
7
  6
CONTINUOUS
 70
0
 71
3
 72
12
 73
8
 74
0
 42
0.0000001
 43
0.0000001
 44
0.0000000001
 40
0.0
 40
0.0
 40
0.0
 40
0.0
 40
0.2895781867
 40
0.548626269
 40
0.7816309585
 40
0.8918348966
 40
1.0
 40
1.0
 40
1.0
 40
1.0
 10
28.4987327967
 20
-48.5695084433
 30
0.0
 10
28.6523657634
 20
-48.6582141928
 30
0.0
 10
28.931036393
 20
-48.8501537185
 30
0.0
 10
29.2639528802
 20
-49.1998670214
 30
0.0
 10
29.4427102701
 20
-49.5293951855
 30
0.0
 10
29.5123325422
 20
-49.7981494227
 30
0.0
 10
29.5238578077
 20
-49.9322048393
 30
0.0
 10
29.5238571105
 20
-49.9984695194
 30
0.0
  0
SPLINE
  5
4BB
100
AcDbEntity
  8
ASSI
100
AcDbSpline
 62
7
  6
CONTINUOUS
 70
0
 71
3
 72
10
 73
6
 74
0
 42
0.0000001
 43
0.0000001
 44
0.0000000001
 40
0.0
 40
0.0
 40
0.0
 40
0.0
 40
0.23958295
 40
0.4836995677
 40
1.0
 40
1.0
 40
1.0
 40
1.0
 10
-89.9928738092
 20
-29.224848497
 30
0.0
 10
-89.9928743886
 20
-29.2913083732
 30
0.0
 10
-89.9812699953
 20
-29.4257852784
 30
0.0
 10
-89.9112825378
 20
-29.6952174353
 30
0.0
 10
-89.808576024
 20
-29.8840973437
 30
0.0
 10
-89.7249124878
 20
-30.0003411028
 30
0.0
  0
SPLINE
  5
4BC
100
AcDbEntity
  8
ASSI
100
AcDbSpline
 62
7
  6
CONTINUOUS
 70
0
 71
3
 72
21
 73
17
 74
0
 42
0.0000001
 43
0.0000001
 44
0.0000000001
 40
0.0
 40
0.0
 40
0.0
 40
0.0
 40
0.1550225025
 40
0.3061119355
 40
0.3790677523
 40
0.4497302942
 40
0.5177543108
 40
0.5828602649
 40
0.6448498596
 40
0.7036227416
 40
0.7591953777
 40
0.8117215797
 40
0.8615104842
 40
0.9090382609
 40
0.9549438955
 40
1.0
 40
1.0
 40
1.0
 40
1.0
 10
-27.2145768687
 20
-68.7437801963
 30
0.0
 10
-27.8007727077
 20
-69.7591011716
 30
0.0
 10
-28.8466964208
 20
-71.830715418
 30
0.0
 10
-29.8390366631
 20
-74.5280312482
 30
0.0
 10
-30.4080830638
 20
-76.6843817718
 30
0.0
 10
-30.7132152843
 20
-78.2569281403
 30
0.0
 10
-30.898752468
 20
-79.7883511629
 30
0.0
 10
-30.9628504552
 20
-81.2641969388
 30
0.0
 10
-30.9047749909
 20
-82.6705226157
 30
0.0
 10
-30.7248439469
 20
-83.9940992284
 30
0.0
 10
-30.4243776168
 20
-85.2224694321
 30
0.0
 10
-30.005625774
 20
-86.3439765197
 30
0.0
 10
-29.4718110729
 20
-87.3476813638
 30
0.0
 10
-28.8270927676
 20
-88.2233550785
 30
0.0
 10
-28.0774530113
 20
-88.9611697267
 30
0.0
 10
-27.5101012036
 20
-89.3570858015
 30
0.0
 10
-27.2150116288
 20
-89.5274690105
 30
0.0
  0
SPLINE
  5
4BD
100
AcDbEntity
  8
ASSI
100
AcDbSpline
 62
7
  6
CONTINUOUS
 70
0
 71
3
 72
18
 73
14
 74
0
 42
0.0000001
 43
0.0000001
 44
0.0000000001
 40
0.0
 40
0.0
 40
0.0
 40
0.0
 40
0.0561082911
 40
0.1124889089
 40
0.1693940248
 40
0.2270491884
 40
0.2856432023
 40
0.3453209351
 40
0.4681119733
 40
0.5957817322
 40
0.7277959668
 40
0.86304008
 40
1.0
 40
1.0
 40
1.0
 40
1.0
 10
-12.0380939179
 20
31.088047554
 30
0.0
 10
-12.4108004285
 20
31.3018672324
 30
0.0
 10
-13.1846251106
 20
31.6859569814
 30
0.0
 10
-14.4099250548
 20
32.1207448453
 30
0.0
 10
-15.6895340822
 20
32.4109666255
 30
0.0
 10
-17.0106972515
 20
32.5538402885
 30
0.0
 10
-18.360760678
 20
32.5481482456
 30
0.0
 10
-20.1982519061
 20
32.3411715817
 30
0.0
 10
-22.5044907127
 20
31.7040853815
 30
0.0
 10
-25.1417278444
 20
30.3932523134
 30
0.0
 10
-27.5819322084
 20
28.580803058
 30
0.0
 10
-29.7338421943
 20
26.3371967685
 30
0.0
 10
-30.9222946061
 20
24.6117535257
 30
0.0
 10
-31.4467232606
 20
23.7034164522
 30
0.0
  0
SPLINE
  5
4BE
100
AcDbEntity
  8
ASSI
100
AcDbSpline
 62
7
  6
CONTINUOUS
 70
0
 71
3
 72
11
 73
7
 74
0
 42
0.0000001
 43
0.0000001
 44
0.0000000001
 40
0.0
 40
0.0
 40
0.0
 40
0.0
 40
0.2342737518
 40
0.4868619845
 40
0.7462801826
 40
1.0
 40
1.0
 40
1.0
 40
1.0
 10
-18.2031975975
 20
-80.4775955042
 30
0.0
 10
-17.9463566742
 20
-80.3553338235
 30
0.0
 10
-17.3837531866
 20
-80.1601941073
 30
0.0
 10
-16.4859527956
 20
-80.013227976
 30
0.0
 10
-15.5527101557
 20
-80.006624833
 30
0.0
 10
-14.9332169526
 20
-80.0988435577
 30
0.0
 10
-14.6336519861
 20
-80.1707209476
 30
0.0
  0
SPLINE
  5
4BF
100
AcDbEntity
  8
ASSI
100
AcDbSpline
 62
7
  6
CONTINUOUS
 70
0
 71
3
 72
14
 73
10
 74
0
 42
0.0000001
 43
0.0000001
 44
0.0000000001
 40
0.0
 40
0.0
 40
0.0
 40
0.0
 40
0.271413131
 40
0.4032692683
 40
0.5309001754
 40
0.6538705971
 40
0.7723715285
 40
0.8872624411
 40
1.0
 40
1.0
 40
1.0
 40
1.0
 10
-35.7402738254
 20
69.2620428229
 30
0.0
 10
-35.8613831742
 20
69.0708010178
 30
0.0
 10
-36.086173714
 20
68.8110207694
 30
0.0
 10
-36.4488682478
 20
68.5544532264
 30
0.0
 10
-36.738222173
 20
68.4161088159
 30
0.0
 10
-37.0372434739
 20
68.3356074243
 30
0.0
 10
-37.3359430405
 20
68.3160718825
 30
0.0
 10
-37.6236834494
 20
68.3586943073
 30
0.0
 10
-37.802370638
 20
68.4283519623
 30
0.0
 10
-37.8854824686
 20
68.4723205738
 30
0.0
  0
SPLINE
  5
4C0
100
AcDbEntity
  8
ASSI
100
AcDbSpline
 62
7
  6
CONTINUOUS
 70
0
 71
3
 72
9
 73
5
 74
0
 42
0.0000001
 43
0.0000001
 44
0.0000000001
 40
0.0
 40
0.0
 40
0.0
 40
0.0
 40
0.2423504575
 40
1.0
 40
1.0
 40
1.0
 40
1.0
 10
-18.3841323097
 20
-80.56598969
 30
0.0
 10
-18.3698326174
 20
-80.5582283509
 30
0.0
 10
-18.3104677304
 20
-80.5268696119
 30
0.0
 10
-18.249746857
 20
-80.4980990868
 30
0.0
 10
-18.2031975975
 20
-80.4775955042
 30
0.0
  0
SPLINE
  5
4C1
100
AcDbEntity
  8
ASSI
100
AcDbSpline
 62
7
  6
CONTINUOUS
 70
0
 71
3
 72
14
 73
10
 74
0
 42
0.0000001
 43
0.0000001
 44
0.0000000001
 40
0.0
 40
0.0
 40
0.0
 40
0.0
 40
0.1124000229
 40
0.2270763739
 40
0.3455512662
 40
0.4686807627
 40
0.5965858078
 40
0.7287121262
 40
1.0
 40
1.0
 40
1.0
 40
1.0
 10
-36.036503708
 20
71.6752530024
 30
0.0
 10
-35.9541729588
 20
71.6235798335
 30
0.0
 10
-35.7997254445
 20
71.4988622855
 30
0.0
 10
-35.6151466495
 20
71.2607765129
 30
0.0
 10
-35.4826665747
 20
70.9800300018
 30
0.0
 10
-35.4068067464
 20
70.6675654456
 30
0.0
 10
-35.3898360089
 20
70.3347411204
 30
0.0
 10
-35.4461633386
 20
69.8771139931
 30
0.0
 10
-35.575033803
 20
69.54445444
 30
0.0
 10
-35.6923383101
 20
69.3412770736
 30
0.0
  0
SPLINE
  5
4C2
100
AcDbEntity
  8
ASSI
100
AcDbSpline
 62
7
  6
CONTINUOUS
 70
0
 71
3
 72
14
 73
10
 74
0
 42
0.0000001
 43
0.0000001
 44
0.0000000001
 40
0.0
 40
0.0
 40
0.0
 40
0.0
 40
0.2714131132
 40
0.4032692471
 40
0.5309001563
 40
0.6538705846
 40
0.7723715244
 40
0.8872624429
 40
1.0
 40
1.0
 40
1.0
 40
1.0
 10
35.5360897182
 20
28.1079638155
 30
0.0
 10
35.4149804648
 20
27.916722161
 30
0.0
 10
35.1901901369
 20
27.656942097
 30
0.0
 10
34.827495965
 20
27.4003746304
 30
0.0
 10
34.5381423159
 20
27.2620301768
 30
0.0
 10
34.2391212759
 20
27.1815286357
 30
0.0
 10
33.9404219298
 20
27.1619928363
 30
0.0
 10
33.6526816742
 20
27.204614901
 30
0.0
 10
33.4739945184
 20
27.2742722585
 30
0.0
 10
33.3908826842
 20
27.318240715
 30
0.0
  0
SPLINE
  5
4C3
100
AcDbEntity
  8
ASSI
100
AcDbSpline
 62
7
  6
CONTINUOUS
 70
0
 71
3
 72
14
 73
10
 74
0
 42
0.0000001
 43
0.0000001
 44
0.0000000001
 40
0.0
 40
0.0
 40
0.0
 40
0.0
 40
0.1124000214
 40
0.2270763786
 40
0.3455512798
 40
0.468680783
 40
0.59658583
 40
0.7287121446
 40
1.0
 40
1.0
 40
1.0
 40
1.0
 10
35.2398613913
 20
30.5211730186
 30
0.0
 10
35.3221920046
 20
30.4694997642
 30
0.0
 10
35.4766392367
 20
30.3447820881
 30
0.0
 10
35.6612176313
 20
30.1066962644
 30
0.0
 10
35.7936973638
 20
29.8259498174
 30
0.0
 10
35.8695569276
 20
29.513485418
 30
0.0
 10
35.8865274896
 20
29.1806613175
 30
0.0
 10
35.8302000514
 20
28.7230345505
 30
0.0
 10
35.7013296504
 20
28.3903752762
 30
0.0
 10
35.5840252335
 20
28.1871980662
 30
0.0
  0
SPLINE
  5
4C4
100
AcDbEntity
  8
ASSI
100
AcDbSpline
 62
7
  6
CONTINUOUS
 70
0
 71
3
 72
13
 73
9
 74
0
 42
0.0000001
 43
0.0000001
 44
0.0000000001
 40
0.0
 40
0.0
 40
0.0
 40
0.0
 40
0.2720199611
 40
0.5313153358
 40
0.6544004865
 40
0.772778881
 40
0.887423667
 40
1.0
 40
1.0
 40
1.0
 40
1.0
 10
-19.6424989301
 20
-55.6285565013
 30
0.0
 10
-19.4163427875
 20
-55.2368425724
 30
0.0
 10
-18.8505104114
 20
-54.5360222409
 30
0.0
 10
-17.9066910178
 20
-53.9460617091
 30
0.0
 10
-17.0988775179
 20
-53.7239414205
 30
0.0
 10
-16.5030414561
 20
-53.6881124954
 30
0.0
 10
-15.9313138023
 20
-53.7831082551
 30
0.0
 10
-15.57973465
 20
-53.9328287008
 30
0.0
 10
-15.4176251959
 20
-54.0264286679
 30
0.0
  0
SPLINE
  5
4C5
100
AcDbEntity
  8
ASSI
100
AcDbSpline
 62
7
  6
CONTINUOUS
 70
0
 71
3
 72
14
 73
10
 74
0
 42
0.0000001
 43
0.0000001
 44
0.0000000001
 40
0.0
 40
0.0
 40
0.0
 40
0.0
 40
0.271413131
 40
0.4032692683
 40
0.5309001754
 40
0.6538705971
 40
0.7723715285
 40
0.8872624411
 40
1.0
 40
1.0
 40
1.0
 40
1.0
 10
0.3610897182
 20
-32.8169232775
 30
0.0
 10
0.2399803694
 20
-33.0081650826
 30
0.0
 10
0.0151898296
 20
-33.267945331
 30
0.0
 10
-0.3475047042
 20
-33.5245128741
 30
0.0
 10
-0.6368586294
 20
-33.6628572845
 30
0.0
 10
-0.9358799303
 20
-33.7433586761
 30
0.0
 10
-1.2345794969
 20
-33.7628942179
 30
0.0
 10
-1.5223199058
 20
-33.7202717931
 30
0.0
 10
-1.7010070943
 20
-33.6506141382
 30
0.0
 10
-1.784118925
 20
-33.6066455266
 30
0.0
  0
SPLINE
  5
4C6
100
AcDbEntity
  8
ASSI
100
AcDbSpline
 62
7
  6
CONTINUOUS
 70
0
 71
3
 72
14
 73
10
 74
0
 42
0.0000001
 43
0.0000001
 44
0.0000000001
 40
0.0
 40
0.0
 40
0.0
 40
0.0
 40
0.1124000229
 40
0.2270763739
 40
0.3455512662
 40
0.4686807627
 40
0.5965858078
 40
0.7287121262
 40
1.0
 40
1.0
 40
1.0
 40
1.0
 10
0.0648598356
 20
-30.403713098
 30
0.0
 10
0.1471905848
 20
-30.4553862669
 30
0.0
 10
0.3016380991
 20
-30.5801038149
 30
0.0
 10
0.4862168941
 20
-30.8181895875
 30
0.0
 10
0.6186969689
 20
-31.0989360987
 30
0.0
 10
0.6945567972
 20
-31.4114006548
 30
0.0
 10
0.7115275347
 20
-31.7442249801
 30
0.0
 10
0.655200205
 20
-32.2018521073
 30
0.0
 10
0.5263297406
 20
-32.5345116604
 30
0.0
 10
0.4090252335
 20
-32.7376890268
 30
0.0
  0
SPLINE
  5
4C7
100
AcDbEntity
  8
ASSI
100
AcDbSpline
 62
7
  6
CONTINUOUS
 70
0
 71
3
 72
14
 73
10
 74
0
 42
0.0000001
 43
0.0000001
 44
0.0000000001
 40
0.0
 40
0.0
 40
0.0
 40
0.0
 40
0.27173459
 40
0.4039494429
 40
0.5318012062
 40
0.6547590329
 40
0.7730150497
 40
0.88754226
 40
1.0
 40
1.0
 40
1.0
 40
1.0
 10
-39.1438318364
 20
28.1476276866
 30
0.0
 10
-39.0178368353
 20
28.3658574299
 30
0.0
 10
-38.7766120317
 20
28.6638639014
 30
0.0
 10
-38.3789916317
 20
28.9586193004
 30
0.0
 10
-38.0588787986
 20
29.1174021663
 30
0.0
 10
-37.7267176954
 20
29.2087681736
 30
0.0
 10
-37.3947960887
 20
29.228733129
 30
0.0
 10
-37.0762632314
 20
29.1758293326
 30
0.0
 10
-36.8803873459
 20
29.0924310367
 30
0.0
 10
-36.790069757
 20
29.0402928603
 30
0.0
  0
SPLINE
  5
4C8
100
AcDbEntity
  8
ASSI
100
AcDbSpline
 62
7
  6
CONTINUOUS
 70
0
 71
3
 72
14
 73
10
 74
0
 42
0.0000001
 43
0.0000001
 44
0.0000000001
 40
0.0
 40
0.0
 40
0.0
 40
0.0
 40
0.27173459
 40
0.4039494429
 40
0.5318012062
 40
0.6547590329
 40
0.7730150497
 40
0.88754226
 40
1.0
 40
1.0
 40
1.0
 40
1.0
 10
-3.7884927771
 20
7.7338980202
 30
0.0
 10
-3.662497776
 20
7.9521277635
 30
0.0
 10
-3.4212729723
 20
8.250134235
 30
0.0
 10
-3.0236525723
 20
8.544889634
 30
0.0
 10
-2.7035397392
 20
8.7036724999
 30
0.0
 10
-2.3713786361
 20
8.7950385072
 30
0.0
 10
-2.0394570293
 20
8.8150034626
 30
0.0
 10
-1.7209241721
 20
8.7620996663
 30
0.0
 10
-1.5250482866
 20
8.6787013703
 30
0.0
 10
-1.4347306977
 20
8.6265631939
 30
0.0
  0
SPLINE
  5
4C9
100
AcDbEntity
  8
ASSI
100
AcDbSpline
 62
7
  6
CONTINUOUS
 70
0
 71
3
 72
14
 73
10
 74
0
 42
0.0000001
 43
0.0000001
 44
0.0000000001
 40
0.0
 40
0.0
 40
0.0
 40
0.0
 40
0.271413131
 40
0.4032692683
 40
0.5309001754
 40
0.6538705971
 40
0.7723715285
 40
0.8872624411
 40
1.0
 40
1.0
 40
1.0
 40
1.0
 10
-70.9152738254
 20
8.3371557299
 30
0.0
 10
-71.0363831742
 20
8.1459139248
 30
0.0
 10
-71.261173714
 20
7.8861336764
 30
0.0
 10
-71.6238682478
 20
7.6295661334
 30
0.0
 10
-71.913222173
 20
7.4912217229
 30
0.0
 10
-72.2122434739
 20
7.4107203313
 30
0.0
 10
-72.5109430405
 20
7.3911847895
 30
0.0
 10
-72.7986834494
 20
7.4338072143
 30
0.0
 10
-72.977370638
 20
7.5034648693
 30
0.0
 10
-73.0604824686
 20
7.5474334808
 30
0.0
  0
SPLINE
  5
4CA
100
AcDbEntity
  8
ASSI
100
AcDbSpline
 62
7
  6
CONTINUOUS
 70
0
 71
3
 72
14
 73
10
 74
0
 42
0.0000001
 43
0.0000001
 44
0.0000000001
 40
0.0
 40
0.0
 40
0.0
 40
0.0
 40
0.1124000229
 40
0.2270763739
 40
0.3455512662
 40
0.4686807627
 40
0.5965858078
 40
0.7287121262
 40
1.0
 40
1.0
 40
1.0
 40
1.0
 10
-71.211503708
 20
10.7503659094
 30
0.0
 10
-71.1291729588
 20
10.6986927405
 30
0.0
 10
-70.9747254445
 20
10.5739751925
 30
0.0
 10
-70.7901466495
 20
10.3358894199
 30
0.0
 10
-70.6576665747
 20
10.0551429088
 30
0.0
 10
-70.5818067464
 20
9.7426783526
 30
0.0
 10
-70.5648360089
 20
9.4098540274
 30
0.0
 10
-70.6211633386
 20
8.9522269001
 30
0.0
 10
-70.750033803
 20
8.619567347
 30
0.0
 10
-70.8673383101
 20
8.4163899806
 30
0.0
  0
SPLINE
  5
4CB
100
AcDbEntity
  8
ASSI
100
AcDbSpline
 62
7
  6
CONTINUOUS
 70
0
 71
3
 72
18
 73
14
 74
0
 42
0.0000001
 43
0.0000001
 44
0.0000000001
 40
0.0
 40
0.0
 40
0.0
 40
0.0
 40
0.1369790381
 40
0.2722372258
 40
0.4042568759
 40
0.5319218339
 40
0.6546995542
 40
0.7143693032
 40
0.7729555364
 40
0.8306042992
 40
0.8875056656
 40
0.9438864556
 40
1.0
 40
1.0
 40
1.0
 40
1.0
 10
-31.4717232606
 20
23.717848349
 30
0.0
 10
-30.9465651166
 20
24.6274489355
 30
0.0
 10
-29.756274203
 20
26.3551556636
 30
0.0
 10
-27.600676383
 20
28.6010804707
 30
0.0
 10
-25.1562107327
 20
30.4144418196
 30
0.0
 10
-22.5145419499
 20
31.7245425396
 30
0.0
 10
-20.2047536266
 20
32.3595118917
 30
0.0
 10
-18.3648527535
 20
32.5638603386
 30
0.0
 10
-17.0132513957
 20
32.5671677246
 30
0.0
 10
-15.6908481841
 20
32.4214997144
 30
0.0
 10
-14.4103459691
 20
32.1281043962
 30
0.0
 10
-13.1845462702
 20
31.6898033275
 30
0.0
 10
-12.4107142587
 20
31.303193141
 30
0.0
 10
-12.0380838408
 20
31.088082576
 30
0.0
  0
SPLINE
  5
4CC
100
AcDbEntity
  8
ASSI
100
AcDbSpline
 62
7
  6
CONTINUOUS
 70
0
 71
3
 72
14
 73
10
 74
0
 42
0.0000001
 43
0.0000001
 44
0.0000000001
 40
0.0
 40
0.0
 40
0.0
 40
0.0
 40
0.1089294887
 40
0.2197627993
 40
0.3342430564
 40
0.4538319473
 40
0.5796461449
 40
0.7124387786
 40
1.0
 40
1.0
 40
1.0
 40
1.0
 10
-22.2147691147
 20
-80.8673528841
 30
0.0
 10
-22.0886308446
 20
-80.9401839219
 30
0.0
 10
-21.8215258447
 20
-81.066351681
 30
0.0
 10
-21.3902202507
 20
-81.1900856014
 30
0.0
 10
-20.930993155
 20
-81.2482247166
 30
0.0
 10
-20.4483904837
 20
-81.2405703495
 30
0.0
 10
-19.9466702402
 20
-81.1676008023
 30
0.0
 10
-19.2397317113
 20
-80.9795875543
 30
0.0
 10
-18.7220744214
 20
-80.7494120513
 30
0.0
 10
-18.3841323097
 20
-80.56598969
 30
0.0
  0
SPLINE
  5
4CD
100
AcDbEntity
  8
ASSI
100
AcDbSpline
 62
7
  6
CONTINUOUS
 70
0
 71
3
 72
18
 73
14
 74
0
 42
0.0000001
 43
0.0000001
 44
0.0000000001
 40
0.0
 40
0.0
 40
0.0
 40
0.0
 40
0.0561133351
 40
0.1124931138
 40
0.1693944743
 40
0.22704315
 40
0.2856295407
 40
0.3452995726
 40
0.4680781368
 40
0.595744002
 40
0.7277641833
 40
0.8630220857
 40
1.0
 40
1.0
 40
1.0
 40
1.0
 10
-12.0623040835
 20
30.9866019458
 30
0.0
 10
-11.6919864624
 20
30.7727851927
 30
0.0
 10
-10.9746929265
 20
30.2988916475
 30
0.0
 10
-9.9883157381
 20
29.4616751657
 30
0.0
 10
-9.0994683436
 20
28.5053716319
 30
0.0
 10
-8.3169464093
 20
27.4395810492
 30
0.0
 10
-7.6481344247
 20
26.2746279221
 30
0.0
 10
-6.9097031877
 20
24.5894890652
 30
0.0
 10
-6.3084010974
 20
22.2859269419
 30
0.0
 10
-6.123262811
 20
19.3612213492
 30
0.0
 10
-6.4692756822
 20
16.3561695803
 30
0.0
 10
-7.331139652
 20
13.3848052795
 30
0.0
 10
-8.2266739838
 20
11.5017967517
 30
0.0
 10
-8.7485955081
 20
10.5978021386
 30
0.0
  0
SPLINE
  5
4CE
100
AcDbEntity
  8
ASSI
100
AcDbSpline
 62
7
  6
CONTINUOUS
 70
0
 71
3
 72
18
 73
14
 74
0
 42
0.0000001
 43
0.0000001
 44
0.0000000001
 40
0.0
 40
0.0
 40
0.0
 40
0.0
 40
0.1369797158
 40
0.2722382391
 40
0.4042580451
 40
0.5319228647
 40
0.654700166
 40
0.7143696606
 40
0.7729556653
 40
0.8306041737
 40
0.8875056462
 40
0.9438858645
 40
1.0
 40
1.0
 40
1.0
 40
1.0
 10
-8.7485955081
 20
10.5978021386
 30
0.0
 10
-9.2705147123
 20
9.6938115442
 30
0.0
 10
-10.4534699281
 20
7.9767661628
 30
0.0
 10
-12.5957941308
 20
5.7447207184
 30
0.0
 10
-15.0252070367
 20
3.942593541
 30
0.0
 10
-17.6506041699
 20
2.6406503492
 30
0.0
 10
-19.9461563502
 20
2.00969177
 30
0.0
 10
-21.7747039616
 20
1.8066943383
 30
0.0
 10
-23.1179574001
 20
1.8034822839
 30
0.0
 10
-24.4321870352
 20
1.9483297655
 30
0.0
 10
-25.7047595794
 20
2.2400032574
 30
0.0
 10
-26.9229636265
 20
2.675684813
 30
0.0
 10
-27.6919876966
 20
3.0599730128
 30
0.0
 10
-28.0623040835
 20
3.2737890535
 30
0.0
  0
SPLINE
  5
4CF
100
AcDbEntity
  8
ASSI
100
AcDbSpline
 62
7
  6
CONTINUOUS
 70
0
 71
3
 72
33
 73
29
 74
0
 42
0.0000001
 43
0.0000001
 44
0.0000000001
 40
0.0
 40
0.0
 40
0.0
 40
0.0
 40
0.0280473415
 40
0.0562276824
 40
0.0846683852
 40
0.1134821536
 40
0.1427640757
 40
0.1725870624
 40
0.2030000184
 40
0.2340270804
 40
0.2978316975
 40
0.3638127384
 40
0.3974836496
 40
0.4314712586
 40
0.4999353691
 40
0.5684039541
 40
0.6023970207
 40
0.6360753456
 40
0.7020761744
 40
0.7659049359
 40
0.7969446273
 40
0.8273699755
 40
0.857204613
 40
0.8864969407
 40
0.9153193948
 40
0.9437666483
 40
0.9719510385
 40
1.0
 40
1.0
 40
1.0
 40
1.0
 10
-28.0623040835
 20
3.2737890535
 30
0.0
 10
-28.4323691599
 20
3.4874599905
 30
0.0
 10
-29.1491879273
 20
3.9609971696
 30
0.0
 10
-30.1349840541
 20
4.7975140014
 30
0.0
 10
-31.0233957214
 20
5.7529600606
 30
0.0
 10
-31.8056479951
 20
6.8177916397
 30
0.0
 10
-32.4743513289
 20
7.9815765705
 30
0.0
 10
-33.0231917189
 20
9.2329199774
 30
0.0
 10
-33.4470700345
 20
10.5598002821
 30
0.0
 10
-33.8439984127
 20
12.4290009676
 30
0.0
 10
-34.0017010597
 20
14.8892725724
 30
0.0
 10
-33.7166858996
 20
17.3762417379
 30
0.0
 10
-33.2339843543
 20
19.3563174893
 30
0.0
 10
-32.5781668605
 20
21.3260016459
 30
0.0
 10
-31.4568677566
 20
23.68948384
 30
0.0
 10
-29.9743921339
 20
25.8449516428
 30
0.0
 10
-28.5990945641
 20
27.400393661
 30
0.0
 10
-27.1278421373
 20
28.8114720728
 30
0.0
 10
-25.1187411776
 20
30.3060039183
 30
0.0
 10
-22.9106623217
 20
31.404344967
 30
0.0
 10
-21.0939673675
 20
31.9992673787
 30
0.0
 10
-19.7330275119
 20
32.2987256784
 30
0.0
 10
-18.3747400491
 20
32.4522428619
 30
0.0
 10
-17.0320659733
 20
32.4581942144
 30
0.0
 10
-15.7180331801
 20
32.3163197859
 30
0.0
 10
-14.4453771554
 20
32.0277713308
 30
0.0
 10
-13.2267548492
 20
31.5953452817
 30
0.0
 10
-12.4571898855
 20
31.2132662758
 30
0.0
 10
-12.086543771
 20
31.0005552461
 30
0.0
  0
SPLINE
  5
4D0
100
AcDbEntity
  8
ASSI
100
AcDbSpline
 62
7
  6
CONTINUOUS
 70
0
 71
3
 72
13
 73
9
 74
0
 42
0.0000001
 43
0.0000001
 44
0.0000000001
 40
0.0
 40
0.0
 40
0.0
 40
0.0
 40
0.2720160675
 40
0.531314443
 40
0.6544005776
 40
0.7727809367
 40
0.8874225784
 40
1.0
 40
1.0
 40
1.0
 40
1.0
 10
49.9642290536
 20
46.2118421271
 30
0.0
 10
50.1257696108
 20
46.4916385794
 30
0.0
 10
50.3572009573
 20
47.0919607969
 30
0.0
 10
50.3850880197
 20
47.8865085989
 30
0.0
 10
50.2339920152
 20
48.4655630418
 30
0.0
 10
50.0433622049
 20
48.8469461469
 30
0.0
 10
49.7804321324
 20
49.1667100736
 30
0.0
 10
49.5622576715
 20
49.3307332063
 30
0.0
 10
49.4464621006
 20
49.3975921177
 30
0.0
  0
SPLINE
  5
4D1
100
AcDbEntity
  8
ASSI
100
AcDbSpline
 62
7
  6
CONTINUOUS
 70
0
 71
3
 72
13
 73
9
 74
0
 42
0.0000001
 43
0.0000001
 44
0.0000000001
 40
0.0
 40
0.0
 40
0.0
 40
0.0
 40
0.1125786764
 40
0.2272202681
 40
0.3455997053
 40
0.4686845946
 40
0.7279814978
 40
1.0
 40
1.0
 40
1.0
 40
1.0
 10
-11.0535378994
 20
-55.3914816315
 30
0.0
 10
-10.9377430967
 20
-55.4583400993
 30
0.0
 10
-10.6866167766
 20
-55.565286056
 30
0.0
 10
-10.2782380956
 20
-55.633127561
 30
0.0
 10
-9.8526445893
 20
-55.6075436042
 30
0.0
 10
-9.2756303619
 20
-55.4488891246
 30
0.0
 10
-8.6014816415
 20
-55.0274780593
 30
0.0
 10
-8.1973100774
 20
-54.5268985895
 30
0.0
 10
-8.0357709464
 20
-54.2471046076
 30
0.0
  0
SPLINE
  5
4D2
100
AcDbEntity
  8
0
100
AcDbSpline
 62
7
  6
CONTINUOUS
 70
0
 71
3
 72
12
 73
8
 74
0
 42
0.0000001
 43
0.0000001
 44
0.0000000001
 40
0.0
 40
0.0
 40
0.0
 40
0.0
 40
0.1081651034
 40
0.2183690415
 40
0.451373731
 40
0.7104218133
 40
1.0
 40
1.0
 40
1.0
 40
1.0
 10
94.5776809797
 20
-46.7322727728
 30
0.0
 10
94.5776816768
 20
-46.6660080927
 30
0.0
 10
94.5661564113
 20
-46.5319526761
 30
0.0
 10
94.4965341393
 20
-46.2631984389
 30
0.0
 10
94.3177767494
 20
-45.9336702747
 30
0.0
 10
93.9848602622
 20
-45.5839569718
 30
0.0
 10
93.7061896326
 20
-45.3920174461
 30
0.0
 10
93.5525566659
 20
-45.3033116967
 30
0.0
  0
SPLINE
  5
4D3
100
AcDbEntity
  8
0
100
AcDbSpline
 62
7
  6
CONTINUOUS
 70
0
 71
3
 72
15
 73
11
 74
0
 42
0.0000001
 43
0.0000001
 44
0.0000000001
 40
0.0
 40
0.0
 40
0.0
 40
0.0
 40
0.1193833394
 40
0.2455123051
 40
0.3760062055
 40
0.5081785917
 40
0.6392358974
 40
0.7664568314
 40
0.8873762325
 40
1.0
 40
1.0
 40
1.0
 40
1.0
 10
15.9957803035
 20
-56.8620890099
 30
0.0
 10
15.8233388244
 20
-56.9366918495
 30
0.0
 10
15.4577553876
 20
-57.0655301445
 30
0.0
 10
14.8792783821
 20
-57.1955491128
 30
0.0
 10
14.2701695544
 20
-57.2648648595
 30
0.0
 10
13.6494773681
 20
-57.2712829666
 30
0.0
 10
13.0364925991
 20
-57.2146156528
 30
0.0
 10
12.450224275
 20
-57.096598392
 30
0.0
 10
11.9089593392
 20
-56.9209307212
 30
0.0
 10
11.575690571
 20
-56.7624380641
 30
0.0
 10
11.4221908992
 20
-56.6738092774
 30
0.0
  0
SPLINE
  5
4D4
100
AcDbEntity
  8
0
100
AcDbSpline
 62
7
  6
CONTINUOUS
 70
0
 71
3
 72
11
 73
7
 74
0
 42
0.0000001
 43
0.0000001
 44
0.0000000001
 40
0.0
 40
0.0
 40
0.0
 40
0.0
 40
0.2352561727
 40
0.4821728798
 40
0.7384826284
 40
1.0
 40
1.0
 40
1.0
 40
1.0
 10
-70.8394781873
 20
9.7077147661
 30
0.0
 10
-70.8027603949
 20
9.6145205689
 30
0.0
 10
-70.7533881689
 20
9.4125705775
 30
0.0
 10
-70.753271021
 20
9.0955654712
 30
0.0
 10
-70.8239556762
 20
8.7753062582
 30
0.0
 10
-70.9152176781
 20
8.5726385452
 30
0.0
 10
-70.9708917007
 20
8.4762083094
 30
0.0
  0
SPLINE
  5
4D5
100
AcDbEntity
  8
0
100
AcDbSpline
 62
7
  6
CONTINUOUS
 70
0
 71
3
 72
11
 73
7
 74
0
 42
0.0000001
 43
0.0000001
 44
0.0000000001
 40
0.0
 40
0.0
 40
0.0
 40
0.0
 40
0.2352561727
 40
0.4821728798
 40
0.7384826284
 40
1.0
 40
1.0
 40
1.0
 40
1.0
 10
0.4368853563
 20
-31.4463642414
 30
0.0
 10
0.4736031487
 20
-31.5395584385
 30
0.0
 10
0.5229753747
 20
-31.7415084299
 30
0.0
 10
0.5230925226
 20
-32.0585135363
 30
0.0
 10
0.4524078674
 20
-32.3787727492
 30
0.0
 10
0.3611458656
 20
-32.5814404622
 30
0.0
 10
0.3054718429
 20
-32.6778706981
 30
0.0
  0
SPLINE
  5
4D6
100
AcDbEntity
  8
0
100
AcDbSpline
 62
7
  6
CONTINUOUS
 70
0
 71
3
 72
11
 73
7
 74
0
 42
0.0000001
 43
0.0000001
 44
0.0000000001
 40
0.0
 40
0.0
 40
0.0
 40
0.0
 40
0.2810273852
 40
0.5374083369
 40
0.7742073114
 40
1.0
 40
1.0
 40
1.0
 40
1.0
 10
-89.2938378201
 20
-28.0130763718
 30
0.0
 10
-89.4011696708
 20
-28.0957847881
 30
0.0
 10
-89.5948931522
 20
-28.2701875663
 30
0.0
 10
-89.8207068292
 20
-28.5709094009
 30
0.0
 10
-89.960825867
 20
-28.8918302795
 30
0.0
 10
-89.9928728602
 20
-29.1159787708
 30
0.0
 10
-89.9928738092
 20
-29.224848497
 30
0.0
  0
SPLINE
  5
4D7
100
AcDbEntity
  8
0
100
AcDbSpline
 62
7
  6
CONTINUOUS
 70
0
 71
3
 72
13
 73
9
 74
0
 42
0.0000001
 43
0.0000001
 44
0.0000000001
 40
0.0
 40
0.0
 40
0.0
 40
0.0
 40
0.2720199611
 40
0.5313153358
 40
0.6544004865
 40
0.772778881
 40
0.887423667
 40
1.0
 40
1.0
 40
1.0
 40
1.0
 10
-2.3036641652
 20
-57.556190456
 30
0.0
 10
-2.5298203078
 20
-57.9479043849
 30
0.0
 10
-3.0956526839
 20
-58.6487247165
 30
0.0
 10
-4.0394720776
 20
-59.2386852483
 30
0.0
 10
-4.8472855775
 20
-59.4608055368
 30
0.0
 10
-5.4431216392
 20
-59.496634462
 30
0.0
 10
-6.014849293
 20
-59.4016387023
 30
0.0
 10
-6.3664284453
 20
-59.2519182566
 30
0.0
 10
-6.5285378994
 20
-59.1583182895
 30
0.0
  0
SPLINE
  5
4D8
100
AcDbEntity
  8
0
100
AcDbSpline
 62
7
  6
CONTINUOUS
 70
0
 71
3
 72
11
 73
7
 74
0
 42
0.0000001
 43
0.0000001
 44
0.0000000001
 40
0.0
 40
0.0
 40
0.0
 40
0.0
 40
0.2352561727
 40
0.4821728798
 40
0.7384826284
 40
1.0
 40
1.0
 40
1.0
 40
1.0
 10
-35.6644781873
 20
70.6326018591
 30
0.0
 10
-35.6277603949
 20
70.5394076619
 30
0.0
 10
-35.5783881689
 20
70.3374576706
 30
0.0
 10
-35.578271021
 20
70.0204525642
 30
0.0
 10
-35.6489556762
 20
69.7001933512
 30
0.0
 10
-35.7402176781
 20
69.4975256382
 30
0.0
 10
-35.7958917007
 20
69.4010954024
 30
0.0
  0
SPLINE
  5
4D9
100
AcDbEntity
  8
ASSI
100
AcDbSpline
 62
7
  6
CONTINUOUS
 70
0
 71
3
 72
14
 73
10
 74
0
 42
0.0000001
 43
0.0000001
 44
0.0000000001
 40
0.0
 40
0.0
 40
0.0
 40
0.0
 40
0.1164620755
 40
0.2347839092
 40
0.3554449397
 40
0.4787819052
 40
0.6049791388
 40
0.734068739
 40
1.0
 40
1.0
 40
1.0
 40
1.0
 10
-23.9173879497
 20
3.5236977352
 30
0.0
 10
-24.2305200829
 20
3.8279488008
 30
0.0
 10
-24.8206342699
 20
4.4851965824
 30
0.0
 10
-25.5745493684
 20
5.5882234791
 30
0.0
 10
-26.1941607294
 20
6.8009798844
 30
0.0
 10
-26.6716294573
 20
8.1075127345
 30
0.0
 10
-27.0012458002
 20
9.4914671574
 30
0.0
 10
-27.2407892789
 20
11.433595328
 30
0.0
 10
-27.1837061089
 20
12.9271807207
 30
0.0
 10
-27.0497582772
 20
13.9150825453
 30
0.0
  0
SPLINE
  5
4DA
100
AcDbEntity
  8
ASSI
100
AcDbSpline
 62
7
  6
CONTINUOUS
 70
0
 71
3
 72
14
 73
10
 74
0
 42
0.0000001
 43
0.0000001
 44
0.0000000001
 40
0.0
 40
0.0
 40
0.0
 40
0.0
 40
0.2659309748
 40
0.395020482
 40
0.5212176817
 40
0.6445546777
 40
0.7652157984
 40
0.8835377673
 40
1.0
 40
1.0
 40
1.0
 40
1.0
 10
-20.7723699172
 20
24.7890989303
 30
0.0
 10
-19.9838753079
 20
25.399116054
 30
0.0
 10
-18.7190451589
 20
26.1954532777
 30
0.0
 10
-16.9174633129
 20
26.9592365572
 30
0.0
 10
-15.5541902616
 20
27.3658934221
 30
0.0
 10
-14.1840223864
 20
27.6058035734
 30
0.0
 10
-12.823976803
 20
27.6757327456
 30
0.0
 10
-11.4917874135
 20
27.5744911264
 30
0.0
 10
-10.6275343659
 20
27.3921666047
 30
0.0
 10
-10.207473981
 20
27.2731642884
 30
0.0
  0
SPLINE
  5
4DB
100
AcDbEntity
  8
0
100
AcDbSpline
 62
7
  6
CONTINUOUS
 70
0
 71
3
 72
14
 73
10
 74
0
 42
0.0000001
 43
0.0000001
 44
0.0000000001
 40
0.0
 40
0.0
 40
0.0
 40
0.0
 40
0.1039949454
 40
0.2107015327
 40
0.3224978429
 40
0.4412061781
 40
0.5680170599
 40
0.7035126726
 40
1.0
 40
1.0
 40
1.0
 40
1.0
 10
29.5238571105
 20
-49.9984695194
 30
0.0
 10
29.5238562863
 20
-50.0768064703
 30
0.0
 10
29.50765413
 20
-50.2359605375
 30
0.0
 10
29.4356414162
 20
-50.4694401046
 30
0.0
 10
29.3173683567
 20
-50.6956927764
 30
0.0
 10
29.1549662571
 20
-50.9116309845
 30
0.0
 10
28.9508962718
 20
-51.114697797
 30
0.0
 10
28.6171947726
 20
-51.3725725893
 30
0.0
 10
28.3275515854
 20
-51.5270318084
 30
0.0
 10
28.1225747327
 20
-51.615710329
 30
0.0
  0
SPLINE
  5
4DC
100
AcDbEntity
  8
0
100
AcDbSpline
 62
7
  6
CONTINUOUS
 70
0
 71
3
 72
13
 73
9
 74
0
 42
0.0000001
 43
0.0000001
 44
0.0000000001
 40
0.0
 40
0.0
 40
0.0
 40
0.0
 40
0.1125642055
 40
0.2272330131
 40
0.3456485501
 40
0.4687632073
 40
0.7280597791
 40
1.0
 40
1.0
 40
1.0
 40
1.0
 10
-10.43075031
 20
-56.9052864993
 30
0.0
 10
-10.592959846
 20
-56.8130287035
 30
0.0
 10
-10.9443762534
 20
-56.6658982988
 30
0.0
 10
-11.5149007372
 20
-56.5740708695
 30
0.0
 10
-12.1089117723
 20
-56.6121687335
 30
0.0
 10
-12.9136994053
 20
-56.8360601207
 30
0.0
 10
-13.8534453656
 20
-57.4257037134
 30
0.0
 10
-14.4170859396
 20
-58.1245091078
 30
0.0
 10
-14.6424989301
 20
-58.5149358596
 30
0.0
  0
SPLINE
  5
4DD
100
AcDbEntity
  8
0
100
AcDbSpline
 62
7
  6
CONTINUOUS
 70
0
 71
3
 72
14
 73
10
 74
0
 42
0.0000001
 43
0.0000001
 44
0.0000000001
 40
0.0
 40
0.0
 40
0.0
 40
0.0
 40
0.2710324972
 40
0.4031045576
 40
0.5310325682
 40
0.6542529253
 40
0.7728489458
 40
0.8876153733
 40
1.0
 40
1.0
 40
1.0
 40
1.0
 10
-35.7958917007
 20
69.4010954024
 30
0.0
 10
-35.8805794109
 20
69.2544119858
 30
0.0
 10
-36.0416716874
 20
69.0535615108
 30
0.0
 10
-36.3066286044
 20
68.8518852546
 30
0.0
 10
-36.5202992694
 20
68.7408004406
 30
0.0
 10
-36.7427262765
 20
68.6732433564
 30
0.0
 10
-36.966177514
 20
68.6519074168
 30
0.0
 10
-37.1823767142
 20
68.6779750119
 30
0.0
 10
-37.3172027381
 20
68.7269911938
 30
0.0
 10
-37.379942527
 20
68.7585549854
 30
0.0
  0
SPLINE
  5
4DE
100
AcDbEntity
  8
0
100
AcDbSpline
 62
7
  6
CONTINUOUS
 70
0
 71
3
 72
14
 73
10
 74
0
 42
0.0000001
 43
0.0000001
 44
0.0000000001
 40
0.0
 40
0.0
 40
0.0
 40
0.0
 40
0.2710324831
 40
0.4031045405
 40
0.5310325523
 40
0.6542529143
 40
0.7728489413
 40
0.8876153739
 40
1.0
 40
1.0
 40
1.0
 40
1.0
 10
35.4804718429
 20
28.2470163949
 30
0.0
 10
35.395784182
 20
28.1003330637
 30
0.0
 10
35.2346920196
 20
27.8994826951
 30
0.0
 10
34.9697353019
 20
27.6978064877
 30
0.0
 10
34.7560647909
 20
27.5867216543
 30
0.0
 10
34.5336379308
 20
27.5191644908
 30
0.0
 10
34.3101868186
 20
27.4978284105
 30
0.0
 10
34.0939877066
 20
27.5238958066
 30
0.0
 10
33.9591617026
 20
27.5729118224
 30
0.0
 10
33.8964219122
 20
27.6044755274
 30
0.0
  0
SPLINE
  5
4DF
100
AcDbEntity
  8
0
100
AcDbSpline
 62
7
  6
CONTINUOUS
 70
0
 71
3
 72
14
 73
10
 74
0
 42
0.0000001
 43
0.0000001
 44
0.0000000001
 40
0.0
 40
0.0
 40
0.0
 40
0.0
 40
0.2710324972
 40
0.4031045576
 40
0.5310325682
 40
0.6542529253
 40
0.7728489458
 40
0.8876153733
 40
1.0
 40
1.0
 40
1.0
 40
1.0
 10
0.3054718429
 20
-32.6778706981
 30
0.0
 10
0.2207841327
 20
-32.8245541147
 30
0.0
 10
0.0596918562
 20
-33.0254045896
 30
0.0
 10
-0.2052650608
 20
-33.2270808459
 30
0.0
 10
-0.4189357258
 20
-33.3381656599
 30
0.0
 10
-0.6413627329
 20
-33.405722744
 30
0.0
 10
-0.8648139704
 20
-33.4270586837
 30
0.0
 10
-1.0810131706
 20
-33.4009910886
 30
0.0
 10
-1.2158391945
 20
-33.3519749067
 30
0.0
 10
-1.2785789834
 20
-33.3204111151
 30
0.0
  0
SPLINE
  5
4E0
100
AcDbEntity
  8
0
100
AcDbSpline
 62
7
  6
CONTINUOUS
 70
0
 71
3
 72
14
 73
10
 74
0
 42
0.0000001
 43
0.0000001
 44
0.0000000001
 40
0.0
 40
0.0
 40
0.0
 40
0.0
 40
0.2710324972
 40
0.4031045576
 40
0.5310325682
 40
0.6542529253
 40
0.7728489458
 40
0.8876153733
 40
1.0
 40
1.0
 40
1.0
 40
1.0
 10
-70.9708917007
 20
8.4762083094
 30
0.0
 10
-71.0555794109
 20
8.3295248928
 30
0.0
 10
-71.2166716874
 20
8.1286744178
 30
0.0
 10
-71.4816286044
 20
7.9269981616
 30
0.0
 10
-71.6952992694
 20
7.8159133475
 30
0.0
 10
-71.9177262765
 20
7.7483562634
 30
0.0
 10
-72.141177514
 20
7.7270203238
 30
0.0
 10
-72.3573767142
 20
7.7530879188
 30
0.0
 10
-72.4922027381
 20
7.8021041008
 30
0.0
 10
-72.554942527
 20
7.8336678924
 30
0.0
  0
SPLINE
  5
4E1
100
AcDbEntity
  8
0
100
AcDbSpline
 62
7
  6
CONTINUOUS
 70
0
 71
3
 72
11
 73
7
 74
0
 42
0.0000001
 43
0.0000001
 44
0.0000000001
 40
0.0
 40
0.0
 40
0.0
 40
0.0
 40
0.247197156
 40
0.4955477333
 40
0.7461553053
 40
1.0
 40
1.0
 40
1.0
 40
1.0
 10
-12.0623040835
 20
28.6772752684
 30
0.0
 10
-11.7412398116
 20
28.4918967817
 30
0.0
 10
-11.1191833536
 20
28.0814197318
 30
0.0
 10
-10.262915758
 20
27.3570442774
 30
0.0
 10
-9.4903608621
 20
26.5303531539
 30
0.0
 10
-9.0392682005
 20
25.9206301991
 30
0.0
 10
-8.8300576782
 20
25.6025575965
 30
0.0
  0
SPLINE
  5
4E2
100
AcDbEntity
  8
0
100
AcDbSpline
 62
7
  6
CONTINUOUS
 70
0
 71
3
 72
23
 73
19
 74
0
 42
0.0000001
 43
0.0000001
 44
0.0000000001
 40
0.0
 40
0.0
 40
0.0
 40
0.0
 40
0.0570292352
 40
0.1157114012
 40
0.1761826817
 40
0.2384194121
 40
0.3022530322
 40
0.3673935875
 40
0.4334579402
 40
0.4999999886
 40
0.5665420376
 40
0.6326063918
 40
0.6977469495
 40
0.761580573
 40
0.8238173071
 40
0.8842885916
 40
0.9429707615
 40
1.0
 40
1.0
 40
1.0
 40
1.0
 10
-8.8300576782
 20
25.6025575965
 30
0.0
 10
-8.5060190999
 20
25.1099064966
 30
0.0
 10
-7.9332058845
 20
24.0521959476
 30
0.0
 10
-7.3300805051
 20
22.3259208858
 30
0.0
 10
-6.9827714868
 20
20.4759297116
 30
0.0
 10
-6.8981839861
 20
18.5429069432
 30
0.0
 10
-7.0772802607
 20
16.5682808539
 30
0.0
 10
-7.5157131574
 20
14.5944259294
 30
0.0
 10
-8.2037465082
 20
12.6636050261
 30
0.0
 10
-9.1264453254
 20
10.8171907409
 30
0.0
 10
-10.2639449164
 20
9.0947756999
 30
0.0
 10
-11.5918935856
 20
7.5333623091
 30
0.0
 10
-13.0819327784
 20
6.1665740416
 30
0.0
 10
-14.7023332409
 20
5.0239776972
 30
0.0
 10
-16.4185739593
 20
4.1305291569
 30
0.0
 10
-18.1942980468
 20
3.5061131799
 30
0.0
 10
-19.9908207471
 20
3.165096441
 30
0.0
 10
-21.1932279562
 20
3.1321773127
 30
0.0
 10
-21.7818994827
 20
3.1664115126
 30
0.0
  0
SPLINE
  5
4E3
100
AcDbEntity
  8
0
100
AcDbSpline
 62
7
  6
CONTINUOUS
 70
0
 71
3
 72
11
 73
7
 74
0
 42
0.0000001
 43
0.0000001
 44
0.0000000001
 40
0.0
 40
0.0
 40
0.0
 40
0.0
 40
0.2538451535
 40
0.5044523555
 40
0.7528024893
 40
1.0
 40
1.0
 40
1.0
 40
1.0
 10
-21.7818994827
 20
3.1664115126
 30
0.0
 10
-22.1620989387
 20
3.1885220167
 30
0.0
 10
-22.9159521422
 20
3.2742783266
 30
0.0
 10
-24.0185624471
 20
3.5300176799
 30
0.0
 10
-25.074394818
 20
3.9095028631
 30
0.0
 10
-25.7411277777
 20
4.2431208139
 30
0.0
 10
-26.0623040835
 20
4.4285639876
 30
0.0
  0
SPLINE
  5
4E4
100
AcDbEntity
  8
0
100
AcDbSpline
 62
7
  6
CONTINUOUS
 70
0
 71
3
 72
18
 73
14
 74
0
 42
0.0000001
 43
0.0000001
 44
0.0000000001
 40
0.0
 40
0.0
 40
0.0
 40
0.0
 40
0.155071533
 40
0.3062080132
 40
0.4497918722
 40
0.5828635729
 40
0.7035298151
 40
0.7591199987
 40
0.8116625099
 40
0.8614669738
 40
0.9090097968
 40
0.9549298545
 40
1.0
 40
1.0
 40
1.0
 40
1.0
 10
-22.2145768687
 20
-71.6301595546
 30
0.0
 10
-22.4751090018
 20
-72.0814144457
 30
0.0
 10
-22.9400103731
 20
-73.002231909
 30
0.0
 10
-23.4629757832
 20
-74.4238238908
 30
0.0
 10
-23.789506278
 20
-75.828076169
 30
0.0
 10
-23.9071574055
 20
-77.1627349699
 30
0.0
 10
-23.8241164589
 20
-78.2057767244
 30
0.0
 10
-23.6411667287
 20
-78.9540097678
 30
0.0
 10
-23.4550388215
 20
-79.4524709436
 30
0.0
 10
-23.2177922857
 20
-79.8985583435
 30
0.0
 10
-22.931249808
 20
-80.2877479641
 30
0.0
 10
-22.5980761278
 20
-80.6156648555
 30
0.0
 10
-22.3459200036
 20
-80.7916276078
 30
0.0
 10
-22.2147691147
 20
-80.8673528841
 30
0.0
  0
SPLINE
  5
4E5
100
AcDbEntity
  8
0
100
AcDbSpline
 62
7
  6
CONTINUOUS
 70
0
 71
3
 72
14
 73
10
 74
0
 42
0.0000001
 43
0.0000001
 44
0.0000000001
 40
0.0
 40
0.0
 40
0.0
 40
0.0
 40
0.2964873274
 40
0.4319829401
 40
0.5587938219
 40
0.6775021571
 40
0.7892984673
 40
0.8960050546
 40
1.0
 40
1.0
 40
1.0
 40
1.0
 10
93.1763986019
 20
-48.3495135824
 30
0.0
 10
93.3813754545
 20
-48.2608350618
 30
0.0
 10
93.6710186417
 20
-48.1063758427
 30
0.0
 10
94.0047201409
 20
-47.8485010504
 30
0.0
 10
94.2087901263
 20
-47.6454342379
 30
0.0
 10
94.3711922259
 20
-47.4294960298
 30
0.0
 10
94.4894652854
 20
-47.203243358
 30
0.0
 10
94.5614779991
 20
-46.9697637908
 30
0.0
 10
94.5776801554
 20
-46.8106097237
 30
0.0
 10
94.5776809797
 20
-46.7322727728
 30
0.0
  0
SPLINE
  5
4E6
100
AcDbEntity
  8
0
100
AcDbSpline
 62
7
  6
CONTINUOUS
 70
0
 71
3
 72
11
 73
7
 74
0
 42
0.0000001
 43
0.0000001
 44
0.0000000001
 40
0.0
 40
0.0
 40
0.0
 40
0.0
 40
0.2523398635
 40
0.5106192676
 40
0.7633978168
 40
1.0
 40
1.0
 40
1.0
 40
1.0
 10
5.5579702274
 20
-85.0154834076
 30
0.0
 10
5.8444814838
 20
-85.0842287003
 30
0.0
 10
6.4367187991
 20
-85.1746460511
 30
0.0
 10
7.3311844589
 20
-85.1771096476
 30
0.0
 10
8.1980991392
 20
-85.0501128081
 30
0.0
 10
8.7462361519
 20
-84.8762813844
 30
0.0
 10
8.9997919577
 20
-84.766586297
 30
0.0
  0
SPLINE
  5
4E7
100
AcDbEntity
  8
0
100
AcDbSpline
 62
7
  6
CONTINUOUS
 70
0
 71
3
 72
12
 73
8
 74
0
 42
0.0000001
 43
0.0000001
 44
0.0000000001
 40
0.0
 40
0.0
 40
0.0
 40
0.0
 40
0.2895781867
 40
0.548626269
 40
0.7816309585
 40
0.8918348966
 40
1.0
 40
1.0
 40
1.0
 40
1.0
 10
28.4987327967
 20
-48.5695084433
 30
0.0
 10
28.6523657634
 20
-48.6582141928
 30
0.0
 10
28.931036393
 20
-48.8501537185
 30
0.0
 10
29.2639528802
 20
-49.1998670214
 30
0.0
 10
29.4427102701
 20
-49.5293951855
 30
0.0
 10
29.5123325422
 20
-49.7981494227
 30
0.0
 10
29.5238578077
 20
-49.9322048393
 30
0.0
 10
29.5238571105
 20
-49.9984695194
 30
0.0
  0
SPLINE
  5
4E8
100
AcDbEntity
  8
0
100
AcDbSpline
 62
7
  6
CONTINUOUS
 70
0
 71
3
 72
14
 73
10
 74
0
 42
0.0000001
 43
0.0000001
 44
0.0000000001
 40
0.0
 40
0.0
 40
0.0
 40
0.0
 40
0.1089294887
 40
0.2197627993
 40
0.3342430564
 40
0.4538319473
 40
0.5796461449
 40
0.7124387786
 40
1.0
 40
1.0
 40
1.0
 40
1.0
 10
-22.2147691147
 20
-80.8673528841
 30
0.0
 10
-22.0886308446
 20
-80.9401839219
 30
0.0
 10
-21.8215258447
 20
-81.066351681
 30
0.0
 10
-21.3902202507
 20
-81.1900856014
 30
0.0
 10
-20.930993155
 20
-81.2482247166
 30
0.0
 10
-20.4483904837
 20
-81.2405703495
 30
0.0
 10
-19.9466702402
 20
-81.1676008023
 30
0.0
 10
-19.2397317113
 20
-80.9795875543
 30
0.0
 10
-18.7220744214
 20
-80.7494120513
 30
0.0
 10
-18.3841323097
 20
-80.56598969
 30
0.0
  0
SPLINE
  5
4E9
100
AcDbEntity
  8
0
100
AcDbSpline
 62
7
  6
CONTINUOUS
 70
0
 71
3
 72
10
 73
6
 74
0
 42
0.0000001
 43
0.0000001
 44
0.0000000001
 40
0.0
 40
0.0
 40
0.0
 40
0.0
 40
0.23958295
 40
0.4836995677
 40
1.0
 40
1.0
 40
1.0
 40
1.0
 10
-89.9928738092
 20
-29.224848497
 30
0.0
 10
-89.9928743886
 20
-29.2913083732
 30
0.0
 10
-89.9812699953
 20
-29.4257852784
 30
0.0
 10
-89.9112825378
 20
-29.6952174353
 30
0.0
 10
-89.808576024
 20
-29.8840973437
 30
0.0
 10
-89.7249124878
 20
-30.0003411028
 30
0.0
  0
SPLINE
  5
4EA
100
AcDbEntity
  8
0
100
AcDbSpline
 62
7
  6
CONTINUOUS
 70
0
 71
3
 72
9
 73
5
 74
0
 42
0.0000001
 43
0.0000001
 44
0.0000000001
 40
0.0
 40
0.0
 40
0.0
 40
0.0
 40
0.2423504575
 40
1.0
 40
1.0
 40
1.0
 40
1.0
 10
-18.3841323097
 20
-80.56598969
 30
0.0
 10
-18.3698326174
 20
-80.5582283509
 30
0.0
 10
-18.3104677304
 20
-80.5268696119
 30
0.0
 10
-18.249746857
 20
-80.4980990868
 30
0.0
 10
-18.2031975975
 20
-80.4775955042
 30
0.0
  0
SPLINE
  5
4EB
100
AcDbEntity
  8
0
100
AcDbSpline
 62
7
  6
CONTINUOUS
 70
0
 71
3
 72
33
 73
29
 74
0
 42
0.0000001
 43
0.0000001
 44
0.0000000001
 40
0.0
 40
0.0
 40
0.0
 40
0.0
 40
0.0280493392
 40
0.0562319267
 40
0.0846751995
 40
0.1134920365
 40
0.1427776126
 40
0.1726048662
 40
0.2030226813
 40
0.2340551171
 40
0.29787143
 40
0.363864346
 40
0.3975407625
 40
0.4315332644
 40
0.5000043972
 40
0.5684752247
 40
0.6024673543
 40
0.636143265
 40
0.7021348312
 40
0.7659494976
 40
0.7969810723
 40
0.8273980427
 40
0.8572245025
 40
0.8865093699
 40
0.9153256158
 40
0.9437684436
 40
0.9719507547
 40
1.0
 40
1.0
 40
1.0
 40
1.0
 10
-26.0623040835
 20
4.4285639876
 30
0.0
 10
-26.3863316804
 20
4.6156534611
 30
0.0
 10
-27.0139634745
 20
5.0303101307
 30
0.0
 10
-27.877044158
 20
5.7628753725
 30
0.0
 10
-28.6547851216
 20
6.5996364015
 30
0.0
 10
-29.3394940607
 20
7.5322222408
 30
0.0
 10
-29.9246946118
 20
8.5514841308
 30
0.0
 10
-30.4048539399
 20
9.6474285851
 30
0.0
 10
-30.7755056665
 20
10.8095123733
 30
0.0
 10
-31.1222684556
 20
12.4465241697
 30
0.0
 10
-31.2591422654
 20
14.6010532845
 30
0.0
 10
-31.0081429158
 20
16.7787144922
 30
0.0
 10
-30.5842193697
 20
18.5123280678
 30
0.0
 10
-30.0086569994
 20
20.2366430668
 30
0.0
 10
-29.0251416987
 20
22.305330067
 30
0.0
 10
-27.7253672219
 20
24.1914193618
 30
0.0
 10
-26.5198554124
 20
25.55201426
 30
0.0
 10
-25.2304800328
 20
26.7859236666
 30
0.0
 10
-23.4700960326
 20
28.092084151
 30
0.0
 10
-21.5358112216
 20
29.0507577144
 30
0.0
 10
-19.9447654266
 20
29.5689047848
 30
0.0
 10
-18.7530699387
 20
29.8289094059
 30
0.0
 10
-17.5639006778
 20
29.9610048543
 30
0.0
 10
-16.3886213455
 20
29.9637879454
 30
0.0
 10
-15.2386527819
 20
29.8370539907
 30
0.0
 10
-14.1251560261
 20
29.5818378413
 30
0.0
 10
-13.0592264666
 20
29.2006163352
 30
0.0
 10
-12.3863305966
 20
28.8643641161
 30
0.0
 10
-12.0623040835
 20
28.6772752684
 30
0.0
  0
SPLINE
  5
4EC
100
AcDbEntity
  8
0
100
AcDbSpline
 62
7
  6
CONTINUOUS
 70
0
 71
3
 72
11
 73
7
 74
0
 42
0.0000001
 43
0.0000001
 44
0.0000000001
 40
0.0
 40
0.0
 40
0.0
 40
0.0
 40
0.2342737518
 40
0.4868619845
 40
0.7462801826
 40
1.0
 40
1.0
 40
1.0
 40
1.0
 10
-18.2031975975
 20
-80.4775955042
 30
0.0
 10
-17.9463566742
 20
-80.3553338235
 30
0.0
 10
-17.3837531866
 20
-80.1601941073
 30
0.0
 10
-16.4859527956
 20
-80.013227976
 30
0.0
 10
-15.5527101557
 20
-80.006624833
 30
0.0
 10
-14.9332169526
 20
-80.0988435577
 30
0.0
 10
-14.6336519861
 20
-80.1707209476
 30
0.0
  0
SPLINE
  5
4ED
100
AcDbEntity
  8
0
100
AcDbSpline
 62
7
  6
CONTINUOUS
 70
0
 71
3
 72
11
 73
7
 74
0
 42
0.0000001
 43
0.0000001
 44
0.0000000001
 40
0.0
 40
0.0
 40
0.0
 40
0.0
 40
0.2366021832
 40
0.4893807324
 40
0.7476601365
 40
1.0
 40
1.0
 40
1.0
 40
1.0
 10
8.9997919577
 20
-92.931289065
 30
0.0
 10
8.7462361519
 20
-93.0409841523
 30
0.0
 10
8.1980991392
 20
-93.2148155761
 30
0.0
 10
7.3311844589
 20
-93.3418124155
 30
0.0
 10
6.4367187991
 20
-93.3393488191
 30
0.0
 10
5.8444814838
 20
-93.2489314682
 30
0.0
 10
5.5579702274
 20
-93.1801861755
 30
0.0
  0
SPLINE
  5
4EE
100
AcDbEntity
  8
0
100
AcDbSpline
 62
7
  6
CONTINUOUS
 70
0
 71
3
 72
14
 73
10
 74
0
 42
0.0000001
 43
0.0000001
 44
0.0000000001
 40
0.0
 40
0.0
 40
0.0
 40
0.0
 40
0.1039949454
 40
0.2107015327
 40
0.3224978429
 40
0.4412061781
 40
0.5680170599
 40
0.7035126726
 40
1.0
 40
1.0
 40
1.0
 40
1.0
 10
94.5776809797
 20
-54.8969755407
 30
0.0
 10
94.5776801554
 20
-54.9753124916
 30
0.0
 10
94.5614779991
 20
-55.1344665588
 30
0.0
 10
94.4894652854
 20
-55.367946126
 30
0.0
 10
94.3711922259
 20
-55.5941987977
 30
0.0
 10
94.2087901263
 20
-55.8101370058
 30
0.0
 10
94.0047201409
 20
-56.0132038183
 30
0.0
 10
93.6710186417
 20
-56.2710786106
 30
0.0
 10
93.3813754545
 20
-56.4255378297
 30
0.0
 10
93.1763986019
 20
-56.5142163503
 30
0.0
  0
SPLINE
  5
4EF
100
AcDbEntity
  8
0
100
AcDbSpline
 62
7
  6
CONTINUOUS
 70
0
 71
3
 72
13
 73
9
 74
0
 42
0.0000001
 43
0.0000001
 44
0.0000000001
 40
0.0
 40
0.0
 40
0.0
 40
0.0
 40
0.2720175263
 40
0.5313143734
 40
0.6544007694
 40
0.7727800858
 40
0.8874249218
 40
1.0
 40
1.0
 40
1.0
 40
1.0
 10
-88.6209440017
 20
-7.718232865
 30
0.0
 10
-88.847102141
 20
-8.1099502524
 30
0.0
 10
-89.1711177909
 20
-8.950399127
 30
0.0
 10
-89.2101411307
 20
-10.0627682568
 30
0.0
 10
-88.9986134123
 20
-10.8734409267
 30
0.0
 10
-88.7317389619
 20
-11.4073874287
 30
0.0
 10
-88.3636228223
 20
-11.8550459359
 30
0.0
 10
-88.0581807971
 20
-12.0846822638
 30
0.0
 10
-87.8960702675
 20
-12.1782828518
 30
0.0
  0
SPLINE
  5
4F0
100
AcDbEntity
  8
0
100
AcDbSpline
 62
7
  6
CONTINUOUS
 70
0
 71
3
 72
13
 73
9
 74
0
 42
0.0000001
 43
0.0000001
 44
0.0000000001
 40
0.0
 40
0.0
 40
0.0
 40
0.0
 40
0.112576333
 40
0.227221119
 40
0.3455995135
 40
0.4686846642
 40
0.7279800389
 40
1.0
 40
1.0
 40
1.0
 40
1.0
 10
-26.3960702675
 20
94.3428417032
 30
0.0
 10
-26.5581797217
 20
94.4364416702
 30
0.0
 10
-26.9097588739
 20
94.5861621159
 30
0.0
 10
-27.4814865277
 20
94.6811578756
 30
0.0
 10
-28.0773225895
 20
94.6453289505
 30
0.0
 10
-28.8851360894
 20
94.4232086619
 30
0.0
 10
-29.828955483
 20
93.8332481302
 30
0.0
 10
-30.3947878592
 20
93.1324277986
 30
0.0
 10
-30.6209440017
 20
92.7407138697
 30
0.0
  0
SPLINE
  5
4F1
100
AcDbEntity
  8
ASSI
100
AcDbSpline
 62
7
  6
CONTINUOUS
 70
0
 71
3
 72
14
 73
10
 74
0
 42
0.0000001
 43
0.0000001
 44
0.0000000001
 40
0.0
 40
0.0
 40
0.0
 40
0.0
 40
0.2717349131
 40
0.4039494158
 40
0.531801404
 40
0.6547589238
 40
0.7730148682
 40
0.8875422032
 40
1.0
 40
1.0
 40
1.0
 40
1.0
 10
-1.4300403992
 20
6.3721599655
 30
0.0
 10
-1.5172678318
 20
6.2210776205
 30
0.0
 10
-1.6842696238
 20
6.0147653912
 30
0.0
 10
-1.9595449411
 20
5.8107034019
 30
0.0
 10
-2.1811608658
 20
5.700775514
 30
0.0
 10
-2.4111196226
 20
5.6375257045
 30
0.0
 10
-2.6409110986
 20
5.6237045671
 30
0.0
 10
-2.8614342669
 20
5.6603273477
 30
0.0
 10
-2.9970416977
 20
5.7180630378
 30
0.0
 10
-3.0595693151
 20
5.7541587082
 30
0.0
  0
SPLINE
  5
4F2
100
AcDbEntity
  8
ASSI
100
AcDbSpline
 62
7
  6
CONTINUOUS
 70
0
 71
3
 72
14
 73
10
 74
0
 42
0.0000001
 43
0.0000001
 44
0.0000000001
 40
0.0
 40
0.0
 40
0.0
 40
0.0
 40
0.2717349131
 40
0.4039494158
 40
0.531801404
 40
0.6547589238
 40
0.7730148682
 40
0.8875422032
 40
1.0
 40
1.0
 40
1.0
 40
1.0
 10
-36.7853794585
 20
26.7858896318
 30
0.0
 10
-36.8726068911
 20
26.6348072869
 30
0.0
 10
-37.0396086831
 20
26.4284950576
 30
0.0
 10
-37.3148840005
 20
26.2244330683
 30
0.0
 10
-37.5364999251
 20
26.1145051803
 30
0.0
 10
-37.7664586819
 20
26.0512553709
 30
0.0
 10
-37.9962501579
 20
26.0374342335
 30
0.0
 10
-38.2167733263
 20
26.0740570141
 30
0.0
 10
-38.3523807571
 20
26.1317927041
 30
0.0
 10
-38.4149083744
 20
26.1678883746
 30
0.0
  0
SPLINE
  5
4F3
100
AcDbEntity
  8
0
100
AcDbSpline
 62
7
  6
CONTINUOUS
 70
0
 71
3
 72
21
 73
17
 74
0
 42
0.0000001
 43
0.0000001
 44
0.0000000001
 40
0.0
 40
0.0
 40
0.0
 40
0.0
 40
0.0450561045
 40
0.0909617391
 40
0.1384895158
 40
0.1882784203
 40
0.2408046223
 40
0.2963772584
 40
0.3551501404
 40
0.4171397351
 40
0.4822456892
 40
0.5502697058
 40
0.6209322477
 40
0.6938880645
 40
0.8449774975
 40
1.0
 40
1.0
 40
1.0
 40
1.0
 10
-90.8546219356
 20
-52.782755611
 30
0.0
 10
-91.1497115104
 20
-52.612372402
 30
0.0
 10
-91.7170633181
 20
-52.2164563272
 30
0.0
 10
-92.4667030744
 20
-51.478641679
 30
0.0
 10
-93.1114213797
 20
-50.6029679643
 30
0.0
 10
-93.6452360808
 20
-49.5992631202
 30
0.0
 10
-94.0639879236
 20
-48.4777560326
 30
0.0
 10
-94.3644542537
 20
-47.2493858289
 30
0.0
 10
-94.5443852977
 20
-45.9258092162
 30
0.0
 10
-94.602460762
 20
-44.5194835393
 30
0.0
 10
-94.5383627748
 20
-43.0436377634
 30
0.0
 10
-94.3528255911
 20
-41.5122147408
 30
0.0
 10
-94.0476933706
 20
-39.9396683723
 30
0.0
 10
-93.4786469699
 20
-37.7833178487
 30
0.0
 10
-92.4863067276
 20
-35.0860020185
 30
0.0
 10
-91.4403830145
 20
-33.0143877721
 30
0.0
 10
-90.8541871755
 20
-31.9990667968
 30
0.0
  0
SPLINE
  5
4F4
100
AcDbEntity
  8
0
100
AcDbSpline
 62
7
  6
CONTINUOUS
 70
0
 71
3
 72
15
 73
11
 74
0
 42
0.0000001
 43
0.0000001
 44
0.0000000001
 40
0.0
 40
0.0
 40
0.0
 40
0.0
 40
0.1088955668
 40
0.2196939926
 40
0.3341381544
 40
0.4536901274
 40
0.5794646672
 40
0.7122169639
 40
0.852357751
 40
1.0
 40
1.0
 40
1.0
 40
1.0
 10
-27.2150116288
 20
-89.5274690105
 30
0.0
 10
-26.9312005363
 20
-89.6913400815
 30
0.0
 10
-26.3302141444
 20
-89.9752172815
 30
0.0
 10
-25.3597751716
 20
-90.2536165856
 30
0.0
 10
-24.3265199368
 20
-90.3844304182
 30
0.0
 10
-23.2406386919
 20
-90.3671996597
 30
0.0
 10
-22.1118645812
 20
-90.2030400577
 30
0.0
 10
-20.9500461943
 20
-89.8940780954
 30
0.0
 10
-19.7652492152
 20
-89.4435704028
 30
0.0
 10
-18.9865947679
 20
-89.0613566768
 30
0.0
 10
-18.5960766109
 20
-88.849398001
 30
0.0
  0
SPLINE
  5
4F5
100
AcDbEntity
  8
ASSI
100
AcDbSpline
 62
7
  6
CONTINUOUS
 70
0
 71
3
 72
14
 73
10
 74
0
 42
0.0000001
 43
0.0000001
 44
0.0000000001
 40
0.0
 40
0.0
 40
0.0
 40
0.0
 40
0.1124568908
 40
0.2269836473
 40
0.3452395354
 40
0.4681975143
 40
0.5960502753
 40
0.728265517
 40
1.0
 40
1.0
 40
1.0
 40
1.0
 10
-37.0650388518
 20
28.5062322911
 30
0.0
 10
-37.0025057851
 20
28.4701334749
 30
0.0
 10
-36.8846818929
 20
28.3815656792
 30
0.0
 10
-36.7426770367
 20
28.2088939614
 30
0.0
 10
-36.6397277775
 20
28.002964958
 30
0.0
 10
-36.5795068166
 20
27.7721700513
 30
0.0
 10
-36.5638880468
 20
27.5252567419
 30
0.0
 10
-36.6029672512
 20
27.1847959864
 30
0.0
 10
-36.6981438593
 20
26.9369861217
 30
0.0
 10
-36.7853794585
 20
26.7858896318
 30
0.0
  0
SPLINE
  5
4F6
100
AcDbEntity
  8
ASSI
100
AcDbSpline
 62
7
  6
CONTINUOUS
 70
0
 71
3
 72
14
 73
10
 74
0
 42
0.0000001
 43
0.0000001
 44
0.0000000001
 40
0.0
 40
0.0
 40
0.0
 40
0.0
 40
0.1124568908
 40
0.2269836473
 40
0.3452395354
 40
0.4681975143
 40
0.5960502753
 40
0.728265517
 40
1.0
 40
1.0
 40
1.0
 40
1.0
 10
-1.7096997925
 20
8.0925026247
 30
0.0
 10
-1.6471667258
 20
8.0564038085
 30
0.0
 10
-1.5293428336
 20
7.9678360128
 30
0.0
 10
-1.3873379774
 20
7.7951642951
 30
0.0
 10
-1.2843887182
 20
7.5892352916
 30
0.0
 10
-1.2241677573
 20
7.3584403849
 30
0.0
 10
-1.2085489875
 20
7.1115270755
 30
0.0
 10
-1.2476281918
 20
6.77106632
 30
0.0
 10
-1.3428048
 20
6.5232564554
 30
0.0
 10
-1.4300403992
 20
6.3721599655
 30
0.0
  0
SPLINE
  5
4F7
100
AcDbEntity
  8
0
100
AcDbSpline
 62
7
  6
CONTINUOUS
 70
0
 71
3
 72
13
 73
9
 74
0
 42
0.0000001
 43
0.0000001
 44
0.0000000001
 40
0.0
 40
0.0
 40
0.0
 40
0.0
 40
0.1125750782
 40
0.2272199142
 40
0.3455992306
 40
0.4686856266
 40
0.7279824737
 40
1.0
 40
1.0
 40
1.0
 40
1.0
 10
-84.006982971
 20
-14.4237931151
 30
0.0
 10
-83.8448724415
 20
-14.5173937031
 30
0.0
 10
-83.5394304163
 20
-14.747030031
 30
0.0
 10
-83.1713142766
 20
-15.1946885381
 30
0.0
 10
-82.9044398263
 20
-15.7286350402
 30
0.0
 10
-82.6929121078
 20
-16.5393077101
 30
0.0
 10
-82.7319354477
 20
-17.6516768399
 30
0.0
 10
-83.0559510976
 20
-18.4921257145
 30
0.0
 10
-83.2821092369
 20
-18.8838431018
 30
0.0
  0
SPLINE
  5
4F8
100
AcDbEntity
  8
0
100
AcDbSpline
 62
7
  6
CONTINUOUS
 70
0
 71
3
 72
11
 73
7
 74
0
 42
0.0000001
 43
0.0000001
 44
0.0000000001
 40
0.0
 40
0.0
 40
0.0
 40
0.0
 40
0.2537198174
 40
0.5131380155
 40
0.7657262482
 40
1.0
 40
1.0
 40
1.0
 40
1.0
 10
-14.6336519861
 20
-88.3354237156
 30
0.0
 10
-14.9332169526
 20
-88.2635463256
 30
0.0
 10
-15.5527101557
 20
-88.171327601
 30
0.0
 10
-16.4859527956
 20
-88.1779307439
 30
0.0
 10
-17.3837531866
 20
-88.3248968752
 30
0.0
 10
-17.9463566742
 20
-88.5200365914
 30
0.0
 10
-18.2031975975
 20
-88.6422982721
 30
0.0
  0
SPLINE
  5
4F9
100
AcDbEntity
  8
ASSI
100
AcDbSpline
 62
7
  6
CONTINUOUS
 70
0
 71
3
 72
14
 73
10
 74
0
 42
0.0000001
 43
0.0000001
 44
0.0000000001
 40
0.0
 40
0.0
 40
0.0
 40
0.0
 40
0.1124568908
 40
0.2269836473
 40
0.3452395354
 40
0.4681975143
 40
0.5960502753
 40
0.728265517
 40
1.0
 40
1.0
 40
1.0
 40
1.0
 10
-38.4149083744
 20
26.1678883746
 30
0.0
 10
-38.4774414412
 20
26.2039871908
 30
0.0
 10
-38.5952653334
 20
26.2925549865
 30
0.0
 10
-38.7372701896
 20
26.4652267042
 30
0.0
 10
-38.8402194488
 20
26.6711557077
 30
0.0
 10
-38.9004404096
 20
26.9019506144
 30
0.0
 10
-38.9160591794
 20
27.1488639238
 30
0.0
 10
-38.8769799751
 20
27.4893246793
 30
0.0
 10
-38.7818033669
 20
27.7371345439
 30
0.0
 10
-38.6945677677
 20
27.8882310338
 30
0.0
  0
SPLINE
  5
4FA
100
AcDbEntity
  8
0
100
AcDbSpline
 62
7
  6
CONTINUOUS
 70
0
 71
3
 72
13
 73
9
 74
0
 42
0.0000001
 43
0.0000001
 44
0.0000000001
 40
0.0
 40
0.0
 40
0.0
 40
0.0
 40
0.2720175263
 40
0.5313143734
 40
0.6544007694
 40
0.7727800858
 40
0.8874249218
 40
1.0
 40
1.0
 40
1.0
 40
1.0
 10
50.6963358348
 20
45.789135637
 30
0.0
 10
50.922493974
 20
46.1808530244
 30
0.0
 10
51.2465096239
 20
47.021301899
 30
0.0
 10
51.2855329638
 20
48.1336710287
 30
0.0
 10
51.0740052454
 20
48.9443436986
 30
0.0
 10
50.807130795
 20
49.4782902007
 30
0.0
 10
50.4390146554
 20
49.9259487079
 30
0.0
 10
50.1335726301
 20
50.1555850357
 30
0.0
 10
49.9714621006
 20
50.2491856238
 30
0.0
  0
SPLINE
  5
4FB
100
AcDbEntity
  8
0
100
AcDbSpline
 62
7
  6
CONTINUOUS
 70
0
 71
3
 72
13
 73
9
 74
0
 42
0.0000001
 43
0.0000001
 44
0.0000000001
 40
0.0
 40
0.0
 40
0.0
 40
0.0
 40
0.112576333
 40
0.227221119
 40
0.3455995135
 40
0.4686846642
 40
0.7279800389
 40
1.0
 40
1.0
 40
1.0
 40
1.0
 10
-11.5285378994
 20
-56.2719389312
 30
0.0
 10
-11.3664284453
 20
-56.3655388983
 30
0.0
 10
-11.014849293
 20
-56.515259344
 30
0.0
 10
-10.4431216392
 20
-56.6102551037
 30
0.0
 10
-9.8472855775
 20
-56.5744261785
 30
0.0
 10
-9.0394720776
 20
-56.35230589
 30
0.0
 10
-8.0956526839
 20
-55.7623453582
 30
0.0
 10
-7.5298203078
 20
-55.0615250266
 30
0.0
 10
-7.3036641652
 20
-54.6698110977
 30
0.0
  0
SPLINE
  5
4FC
100
AcDbEntity
  8
ASSI
100
AcDbSpline
 62
7
  6
CONTINUOUS
 70
0
 71
3
 72
14
 73
10
 74
0
 42
0.0000001
 43
0.0000001
 44
0.0000000001
 40
0.0
 40
0.0
 40
0.0
 40
0.0
 40
0.1124568908
 40
0.2269836473
 40
0.3452395354
 40
0.4681975143
 40
0.5960502753
 40
0.728265517
 40
1.0
 40
1.0
 40
1.0
 40
1.0
 10
-3.0595693151
 20
5.7541587082
 30
0.0
 10
-3.1221023818
 20
5.7902575244
 30
0.0
 10
-3.2399262741
 20
5.8788253201
 30
0.0
 10
-3.3819311302
 20
6.0514970378
 30
0.0
 10
-3.4848803894
 20
6.2574260413
 30
0.0
 10
-3.5451013503
 20
6.488220948
 30
0.0
 10
-3.5607201201
 20
6.7351342574
 30
0.0
 10
-3.5216409158
 20
7.0755950129
 30
0.0
 10
-3.4264643076
 20
7.3234048775
 30
0.0
 10
-3.3392287084
 20
7.4745013674
 30
0.0
  0
SPLINE
  5
4FD
100
AcDbEntity
  8
ASSI
100
AcDbSpline
 62
7
  6
CONTINUOUS
 70
0
 71
3
 72
14
 73
10
 74
0
 42
0.0000001
 43
0.0000001
 44
0.0000000001
 40
0.0
 40
0.0
 40
0.0
 40
0.0
 40
0.2717349131
 40
0.4039494158
 40
0.531801404
 40
0.6547589238
 40
0.7730148682
 40
0.8875422032
 40
1.0
 40
1.0
 40
1.0
 40
1.0
 10
-3.3392287084
 20
7.4745013674
 30
0.0
 10
-3.2520012758
 20
7.6255837124
 30
0.0
 10
-3.0849994839
 20
7.8318959416
 30
0.0
 10
-2.8097241665
 20
8.035957931
 30
0.0
 10
-2.5881082418
 20
8.1458858189
 30
0.0
 10
-2.3581494851
 20
8.2091356284
 30
0.0
 10
-2.1283580091
 20
8.2229567658
 30
0.0
 10
-1.9078348407
 20
8.1863339852
 30
0.0
 10
-1.7722274099
 20
8.1285982951
 30
0.0
 10
-1.7096997925
 20
8.0925026247
 30
0.0
  0
SPLINE
  5
4FE
100
AcDbEntity
  8
ASSI
100
AcDbSpline
 62
7
  6
CONTINUOUS
 70
0
 71
3
 72
14
 73
10
 74
0
 42
0.0000001
 43
0.0000001
 44
0.0000000001
 40
0.0
 40
0.0
 40
0.0
 40
0.0
 40
0.2717349131
 40
0.4039494158
 40
0.531801404
 40
0.6547589238
 40
0.7730148682
 40
0.8875422032
 40
1.0
 40
1.0
 40
1.0
 40
1.0
 10
-38.6945677677
 20
27.8882310338
 30
0.0
 10
-38.6073403351
 20
28.0393133787
 30
0.0
 10
-38.4403385432
 20
28.245625608
 30
0.0
 10
-38.1650632258
 20
28.4496875974
 30
0.0
 10
-37.9434473011
 20
28.5596154853
 30
0.0
 10
-37.7134885444
 20
28.6228652948
 30
0.0
 10
-37.4836970684
 20
28.6366864322
 30
0.0
 10
-37.2631739
 20
28.6000636516
 30
0.0
 10
-37.1275664692
 20
28.5423279615
 30
0.0
 10
-37.0650388518
 20
28.5062322911
 30
0.0
  0
SPLINE
  5
4FF
100
AcDbEntity
  8
0
100
AcDbSpline
 62
7
  6
CONTINUOUS
 70
0
 71
3
 72
13
 73
9
 74
0
 42
0.0000001
 43
0.0000001
 44
0.0000000001
 40
0.0
 40
0.0
 40
0.0
 40
0.0
 40
0.2720199611
 40
0.5313153358
 40
0.6544004865
 40
0.772778881
 40
0.887423667
 40
1.0
 40
1.0
 40
1.0
 40
1.0
 10
-19.6424989301
 20
-55.6285565013
 30
0.0
 10
-19.4163427875
 20
-55.2368425724
 30
0.0
 10
-18.8505104114
 20
-54.5360222409
 30
0.0
 10
-17.9066910178
 20
-53.9460617091
 30
0.0
 10
-17.0988775179
 20
-53.7239414205
 30
0.0
 10
-16.5030414561
 20
-53.6881124954
 30
0.0
 10
-15.9313138023
 20
-53.7831082551
 30
0.0
 10
-15.57973465
 20
-53.9328287008
 30
0.0
 10
-15.4176251959
 20
-54.0264286679
 30
0.0
  0
SPLINE
  5
500
100
AcDbEntity
  8
0
100
AcDbSpline
 62
7
  6
CONTINUOUS
 70
0
 71
3
 72
14
 73
10
 74
0
 42
0.0000001
 43
0.0000001
 44
0.0000000001
 40
0.0
 40
0.0
 40
0.0
 40
0.0
 40
0.271413131
 40
0.4032692683
 40
0.5309001754
 40
0.6538705971
 40
0.7723715285
 40
0.8872624411
 40
1.0
 40
1.0
 40
1.0
 40
1.0
 10
-35.7402738254
 20
69.2620428229
 30
0.0
 10
-35.8613831742
 20
69.0708010178
 30
0.0
 10
-36.086173714
 20
68.8110207694
 30
0.0
 10
-36.4488682478
 20
68.5544532264
 30
0.0
 10
-36.738222173
 20
68.4161088159
 30
0.0
 10
-37.0372434739
 20
68.3356074243
 30
0.0
 10
-37.3359430405
 20
68.3160718825
 30
0.0
 10
-37.6236834494
 20
68.3586943073
 30
0.0
 10
-37.802370638
 20
68.4283519623
 30
0.0
 10
-37.8854824686
 20
68.4723205738
 30
0.0
  0
SPLINE
  5
501
100
AcDbEntity
  8
0
100
AcDbSpline
 62
7
  6
CONTINUOUS
 70
0
 71
3
 72
14
 73
10
 74
0
 42
0.0000001
 43
0.0000001
 44
0.0000000001
 40
0.0
 40
0.0
 40
0.0
 40
0.0
 40
0.1124000229
 40
0.2270763739
 40
0.3455512662
 40
0.4686807627
 40
0.5965858078
 40
0.7287121262
 40
1.0
 40
1.0
 40
1.0
 40
1.0
 10
-36.036503708
 20
71.6752530024
 30
0.0
 10
-35.9541729588
 20
71.6235798335
 30
0.0
 10
-35.7997254445
 20
71.4988622855
 30
0.0
 10
-35.6151466495
 20
71.2607765129
 30
0.0
 10
-35.4826665747
 20
70.9800300018
 30
0.0
 10
-35.4068067464
 20
70.6675654456
 30
0.0
 10
-35.3898360089
 20
70.3347411204
 30
0.0
 10
-35.4461633386
 20
69.8771139931
 30
0.0
 10
-35.575033803
 20
69.54445444
 30
0.0
 10
-35.6923383101
 20
69.3412770736
 30
0.0
  0
SPLINE
  5
502
100
AcDbEntity
  8
0
100
AcDbSpline
 62
7
  6
CONTINUOUS
 70
0
 71
3
 72
14
 73
10
 74
0
 42
0.0000001
 43
0.0000001
 44
0.0000000001
 40
0.0
 40
0.0
 40
0.0
 40
0.0
 40
0.2714131132
 40
0.4032692471
 40
0.5309001563
 40
0.6538705846
 40
0.7723715244
 40
0.8872624429
 40
1.0
 40
1.0
 40
1.0
 40
1.0
 10
35.5360897182
 20
28.1079638155
 30
0.0
 10
35.4149804648
 20
27.916722161
 30
0.0
 10
35.1901901369
 20
27.656942097
 30
0.0
 10
34.827495965
 20
27.4003746304
 30
0.0
 10
34.5381423159
 20
27.2620301768
 30
0.0
 10
34.2391212759
 20
27.1815286357
 30
0.0
 10
33.9404219298
 20
27.1619928363
 30
0.0
 10
33.6526816742
 20
27.204614901
 30
0.0
 10
33.4739945184
 20
27.2742722585
 30
0.0
 10
33.3908826842
 20
27.318240715
 30
0.0
  0
SPLINE
  5
503
100
AcDbEntity
  8
0
100
AcDbSpline
 62
7
  6
CONTINUOUS
 70
0
 71
3
 72
14
 73
10
 74
0
 42
0.0000001
 43
0.0000001
 44
0.0000000001
 40
0.0
 40
0.0
 40
0.0
 40
0.0
 40
0.1124000214
 40
0.2270763786
 40
0.3455512798
 40
0.468680783
 40
0.59658583
 40
0.7287121446
 40
1.0
 40
1.0
 40
1.0
 40
1.0
 10
35.2398613913
 20
30.5211730186
 30
0.0
 10
35.3221920046
 20
30.4694997642
 30
0.0
 10
35.4766392367
 20
30.3447820881
 30
0.0
 10
35.6612176313
 20
30.1066962644
 30
0.0
 10
35.7936973638
 20
29.8259498174
 30
0.0
 10
35.8695569276
 20
29.513485418
 30
0.0
 10
35.8865274896
 20
29.1806613175
 30
0.0
 10
35.8302000514
 20
28.7230345505
 30
0.0
 10
35.7013296504
 20
28.3903752762
 30
0.0
 10
35.5840252335
 20
28.1871980662
 30
0.0
  0
SPLINE
  5
504
100
AcDbEntity
  8
0
100
AcDbSpline
 62
7
  6
CONTINUOUS
 70
0
 71
3
 72
14
 73
10
 74
0
 42
0.0000001
 43
0.0000001
 44
0.0000000001
 40
0.0
 40
0.0
 40
0.0
 40
0.0
 40
0.271413131
 40
0.4032692683
 40
0.5309001754
 40
0.6538705971
 40
0.7723715285
 40
0.8872624411
 40
1.0
 40
1.0
 40
1.0
 40
1.0
 10
0.3610897182
 20
-32.8169232775
 30
0.0
 10
0.2399803694
 20
-33.0081650826
 30
0.0
 10
0.0151898296
 20
-33.267945331
 30
0.0
 10
-0.3475047042
 20
-33.5245128741
 30
0.0
 10
-0.6368586294
 20
-33.6628572845
 30
0.0
 10
-0.9358799303
 20
-33.7433586761
 30
0.0
 10
-1.2345794969
 20
-33.7628942179
 30
0.0
 10
-1.5223199058
 20
-33.7202717931
 30
0.0
 10
-1.7010070943
 20
-33.6506141382
 30
0.0
 10
-1.784118925
 20
-33.6066455266
 30
0.0
  0
SPLINE
  5
505
100
AcDbEntity
  8
0
100
AcDbSpline
 62
7
  6
CONTINUOUS
 70
0
 71
3
 72
14
 73
10
 74
0
 42
0.0000001
 43
0.0000001
 44
0.0000000001
 40
0.0
 40
0.0
 40
0.0
 40
0.0
 40
0.1124000229
 40
0.2270763739
 40
0.3455512662
 40
0.4686807627
 40
0.5965858078
 40
0.7287121262
 40
1.0
 40
1.0
 40
1.0
 40
1.0
 10
0.0648598356
 20
-30.403713098
 30
0.0
 10
0.1471905848
 20
-30.4553862669
 30
0.0
 10
0.3016380991
 20
-30.5801038149
 30
0.0
 10
0.4862168941
 20
-30.8181895875
 30
0.0
 10
0.6186969689
 20
-31.0989360987
 30
0.0
 10
0.6945567972
 20
-31.4114006548
 30
0.0
 10
0.7115275347
 20
-31.7442249801
 30
0.0
 10
0.655200205
 20
-32.2018521073
 30
0.0
 10
0.5263297406
 20
-32.5345116604
 30
0.0
 10
0.4090252335
 20
-32.7376890268
 30
0.0
  0
SPLINE
  5
506
100
AcDbEntity
  8
0
100
AcDbSpline
 62
7
  6
CONTINUOUS
 70
0
 71
3
 72
14
 73
10
 74
0
 42
0.0000001
 43
0.0000001
 44
0.0000000001
 40
0.0
 40
0.0
 40
0.0
 40
0.0
 40
0.271413131
 40
0.4032692683
 40
0.5309001754
 40
0.6538705971
 40
0.7723715285
 40
0.8872624411
 40
1.0
 40
1.0
 40
1.0
 40
1.0
 10
-70.9152738254
 20
8.3371557299
 30
0.0
 10
-71.0363831742
 20
8.1459139248
 30
0.0
 10
-71.261173714
 20
7.8861336764
 30
0.0
 10
-71.6238682478
 20
7.6295661334
 30
0.0
 10
-71.913222173
 20
7.4912217229
 30
0.0
 10
-72.2122434739
 20
7.4107203313
 30
0.0
 10
-72.5109430405
 20
7.3911847895
 30
0.0
 10
-72.7986834494
 20
7.4338072143
 30
0.0
 10
-72.977370638
 20
7.5034648693
 30
0.0
 10
-73.0604824686
 20
7.5474334808
 30
0.0
  0
SPLINE
  5
507
100
AcDbEntity
  8
0
100
AcDbSpline
 62
7
  6
CONTINUOUS
 70
0
 71
3
 72
14
 73
10
 74
0
 42
0.0000001
 43
0.0000001
 44
0.0000000001
 40
0.0
 40
0.0
 40
0.0
 40
0.0
 40
0.1124000229
 40
0.2270763739
 40
0.3455512662
 40
0.4686807627
 40
0.5965858078
 40
0.7287121262
 40
1.0
 40
1.0
 40
1.0
 40
1.0
 10
-71.211503708
 20
10.7503659094
 30
0.0
 10
-71.1291729588
 20
10.6986927405
 30
0.0
 10
-70.9747254445
 20
10.5739751925
 30
0.0
 10
-70.7901466495
 20
10.3358894199
 30
0.0
 10
-70.6576665747
 20
10.0551429088
 30
0.0
 10
-70.5818067464
 20
9.7426783526
 30
0.0
 10
-70.5648360089
 20
9.4098540274
 30
0.0
 10
-70.6211633386
 20
8.9522269001
 30
0.0
 10
-70.750033803
 20
8.619567347
 30
0.0
 10
-70.8673383101
 20
8.4163899806
 30
0.0
  0
SPLINE
  5
508
100
AcDbEntity
  8
0
100
AcDbSpline
 62
7
  6
CONTINUOUS
 70
0
 71
3
 72
18
 73
14
 74
0
 42
0.0000001
 43
0.0000001
 44
0.0000000001
 40
0.0
 40
0.0
 40
0.0
 40
0.0
 40
0.0561133351
 40
0.1124931138
 40
0.1693944743
 40
0.22704315
 40
0.2856295407
 40
0.3452995726
 40
0.4680781368
 40
0.595744002
 40
0.7277641833
 40
0.8630220857
 40
1.0
 40
1.0
 40
1.0
 40
1.0
 10
-12.0623040835
 20
30.9866019458
 30
0.0
 10
-11.6919864624
 20
30.7727851927
 30
0.0
 10
-10.9746929265
 20
30.2988916475
 30
0.0
 10
-9.9883157381
 20
29.4616751657
 30
0.0
 10
-9.0994683436
 20
28.5053716319
 30
0.0
 10
-8.3169464093
 20
27.4395810492
 30
0.0
 10
-7.6481344247
 20
26.2746279221
 30
0.0
 10
-6.9097031877
 20
24.5894890652
 30
0.0
 10
-6.3084010974
 20
22.2859269419
 30
0.0
 10
-6.123262811
 20
19.3612213492
 30
0.0
 10
-6.4692756822
 20
16.3561695803
 30
0.0
 10
-7.331139652
 20
13.3848052795
 30
0.0
 10
-8.2266739838
 20
11.5017967517
 30
0.0
 10
-8.7485955081
 20
10.5978021386
 30
0.0
  0
SPLINE
  5
509
100
AcDbEntity
  8
0
100
AcDbSpline
 62
7
  6
CONTINUOUS
 70
0
 71
3
 72
18
 73
14
 74
0
 42
0.0000001
 43
0.0000001
 44
0.0000000001
 40
0.0
 40
0.0
 40
0.0
 40
0.0
 40
0.1369797158
 40
0.2722382391
 40
0.4042580451
 40
0.5319228647
 40
0.654700166
 40
0.7143696606
 40
0.7729556653
 40
0.8306041737
 40
0.8875056462
 40
0.9438858645
 40
1.0
 40
1.0
 40
1.0
 40
1.0
 10
-8.7485955081
 20
10.5978021386
 30
0.0
 10
-9.2705147123
 20
9.6938115442
 30
0.0
 10
-10.4534699281
 20
7.9767661628
 30
0.0
 10
-12.5957941308
 20
5.7447207184
 30
0.0
 10
-15.0252070367
 20
3.942593541
 30
0.0
 10
-17.6506041699
 20
2.6406503492
 30
0.0
 10
-19.9461563502
 20
2.00969177
 30
0.0
 10
-21.7747039616
 20
1.8066943383
 30
0.0
 10
-23.1179574001
 20
1.8034822839
 30
0.0
 10
-24.4321870352
 20
1.9483297655
 30
0.0
 10
-25.7047595794
 20
2.2400032574
 30
0.0
 10
-26.9229636265
 20
2.675684813
 30
0.0
 10
-27.6919876966
 20
3.0599730128
 30
0.0
 10
-28.0623040835
 20
3.2737890535
 30
0.0
  0
SPLINE
  5
50A
100
AcDbEntity
  8
0
100
AcDbSpline
 62
7
  6
CONTINUOUS
 70
0
 71
3
 72
21
 73
17
 74
0
 42
0.0000001
 43
0.0000001
 44
0.0000000001
 40
0.0
 40
0.0
 40
0.0
 40
0.0
 40
0.1550225025
 40
0.3061119355
 40
0.3790677523
 40
0.4497302942
 40
0.5177543108
 40
0.5828602649
 40
0.6448498596
 40
0.7036227416
 40
0.7591953777
 40
0.8117215797
 40
0.8615104842
 40
0.9090382609
 40
0.9549438955
 40
1.0
 40
1.0
 40
1.0
 40
1.0
 10
-27.2145768687
 20
-68.7437801963
 30
0.0
 10
-27.8007727077
 20
-69.7591011716
 30
0.0
 10
-28.8466964208
 20
-71.830715418
 30
0.0
 10
-29.8390366631
 20
-74.5280312482
 30
0.0
 10
-30.4080830638
 20
-76.6843817718
 30
0.0
 10
-30.7132152843
 20
-78.2569281403
 30
0.0
 10
-30.898752468
 20
-79.7883511629
 30
0.0
 10
-30.9628504552
 20
-81.2641969388
 30
0.0
 10
-30.9047749909
 20
-82.6705226157
 30
0.0
 10
-30.7248439469
 20
-83.9940992284
 30
0.0
 10
-30.4243776168
 20
-85.2224694321
 30
0.0
 10
-30.005625774
 20
-86.3439765197
 30
0.0
 10
-29.4718110729
 20
-87.3476813638
 30
0.0
 10
-28.8270927676
 20
-88.2233550785
 30
0.0
 10
-28.0774530113
 20
-88.9611697267
 30
0.0
 10
-27.5101012036
 20
-89.3570858015
 30
0.0
 10
-27.2150116288
 20
-89.5274690105
 30
0.0
  0
SPLINE
  5
50B
100
AcDbEntity
  8
0
100
AcDbSpline
 62
7
  6
CONTINUOUS
 70
0
 71
3
 72
33
 73
29
 74
0
 42
0.0000001
 43
0.0000001
 44
0.0000000001
 40
0.0
 40
0.0
 40
0.0
 40
0.0
 40
0.0280473415
 40
0.0562276824
 40
0.0846683852
 40
0.1134821536
 40
0.1427640757
 40
0.1725870624
 40
0.2030000184
 40
0.2340270804
 40
0.2978316975
 40
0.3638127384
 40
0.3974836496
 40
0.4314712586
 40
0.4999353691
 40
0.5684039541
 40
0.6023970207
 40
0.6360753456
 40
0.7020761744
 40
0.7659049359
 40
0.7969446273
 40
0.8273699755
 40
0.857204613
 40
0.8864969407
 40
0.9153193948
 40
0.9437666483
 40
0.9719510385
 40
1.0
 40
1.0
 40
1.0
 40
1.0
 10
-28.0623040835
 20
3.2737890535
 30
0.0
 10
-28.4323691599
 20
3.4874599905
 30
0.0
 10
-29.1491879273
 20
3.9609971696
 30
0.0
 10
-30.1349840541
 20
4.7975140014
 30
0.0
 10
-31.0233957214
 20
5.7529600606
 30
0.0
 10
-31.8056479951
 20
6.8177916397
 30
0.0
 10
-32.4743513289
 20
7.9815765705
 30
0.0
 10
-33.0231917189
 20
9.2329199774
 30
0.0
 10
-33.4470700345
 20
10.5598002821
 30
0.0
 10
-33.8439984127
 20
12.4290009676
 30
0.0
 10
-34.0017010597
 20
14.8892725724
 30
0.0
 10
-33.7166858996
 20
17.3762417379
 30
0.0
 10
-33.2339843543
 20
19.3563174893
 30
0.0
 10
-32.5781668605
 20
21.3260016459
 30
0.0
 10
-31.4568677566
 20
23.68948384
 30
0.0
 10
-29.9743921339
 20
25.8449516428
 30
0.0
 10
-28.5990945641
 20
27.400393661
 30
0.0
 10
-27.1278421373
 20
28.8114720728
 30
0.0
 10
-25.1187411776
 20
30.3060039183
 30
0.0
 10
-22.9106623217
 20
31.404344967
 30
0.0
 10
-21.0939673675
 20
31.9992673787
 30
0.0
 10
-19.7330275119
 20
32.2987256784
 30
0.0
 10
-18.3747400491
 20
32.4522428619
 30
0.0
 10
-17.0320659733
 20
32.4581942144
 30
0.0
 10
-15.7180331801
 20
32.3163197859
 30
0.0
 10
-14.4453771554
 20
32.0277713308
 30
0.0
 10
-13.2267548492
 20
31.5953452817
 30
0.0
 10
-12.4571898855
 20
31.2132662758
 30
0.0
 10
-12.086543771
 20
31.0005552461
 30
0.0
  0
ELLIPSE
  5
50C
100
AcDbEntity
  8
0
100
AcDbEllipse
 62
7
  6
CONTINUOUS
 10
347.4622509971
 20
-116.8971197879
 30
0.0
 11
266.226098434
 21
461.1783421239
 31
0.0
 40
0.8205099907
 41
-4.520074748
 42
-4.5196729167
  0
ELLIPSE
  5
50D
100
AcDbEntity
  8
0
100
AcDbEllipse
 62
7
  6
CONTINUOUS
 10
382.6372509971
 20
-55.9722326949
 30
0.0
 11
266.226098434
 21
461.1783421239
 31
0.0
 40
0.8205099907
 41
-4.520074748
 42
-4.5196729167
  0
ELLIPSE
  5
50E
100
AcDbEntity
  8
0
100
AcDbEllipse
 62
7
  6
CONTINUOUS
 10
418.7386145407
 20
-158.0511987954
 30
0.0
 11
266.226098434
 21
461.1783421239
 31
0.0
 40
0.8205099907
 41
-4.520074748
 42
-4.5196729167
  0
ELLIPSE
  5
50F
100
AcDbEntity
  8
0
100
AcDbEllipse
 62
7
  6
CONTINUOUS
 10
223.6903425838
 20
525.7726240603
 30
0.0
 11
267.531915865
 21
463.4368787899
 31
0.0
 40
0.8125289757
 41
-2.9492750779
 42
-2.9488732466
  0
ELLIPSE
  5
510
100
AcDbEntity
  8
0
100
AcDbEllipse
 62
7
  6
CONTINUOUS
 10
-158.9385873965
 20
-465.6939638828
 30
0.0
 11
267.5319151771
 21
463.4368794631
 31
0.0
 40
0.8125289753
 41
0.1923175734
 42
0.1927194048
  0
ELLIPSE
  5
511
100
AcDbEntity
  8
ASSI
100
AcDbEllipse
 62
7
  6
CONTINUOUS
 10
51.4714621006
 20
45.3419501308
 30
0.0
 11
-1.1378016761
 21
4.2458598268
 31
0.0
 40
0.5176380897
 41
-2.0485001956
 42
-0.4777038688
  0
ELLIPSE
  5
512
100
AcDbEntity
  8
0
100
AcDbEllipse
 62
7
  6
CONTINUOUS
 10
51.4714621006
 20
45.3419501308
 30
0.0
 11
-1.1378016761
 21
4.2458598268
 31
0.0
 40
0.5176380897
 41
-2.0485001956
 42
-0.4777038688
  0
ENDSEC
  0
SECTION
  2
OBJECTS
  0
DICTIONARY
  5
C
100
AcDbDictionary
280
0
281
1
  3
ACAD_GROUP
350
D
  3
ACAD_MLINESTYLE
350
17
  3
ACAD_LAYOUT
350
1A
  3
ACAD_PLOTSETTINGS
350
19
  3
ACAD_PLOTSTYLENAME
350
E
  0
DICTIONARY
  5
D
102
{ACAD_REACTORS
330
C
102
}
100
AcDbDictionary
280
0
281
1
  0
ACDBDICTIONARYWDFLT
  5
E
102
{ACAD_REACTORS
330
C
102
}
100
AcDbDictionary
281
1
  3
Normal
350
F
100
AcDbDictionaryWithDefault
340
F
  0
DICTIONARY
  5
17
102
{ACAD_REACTORS
330
C
102
}
100
AcDbDictionary
280
0
281
1
  3
Standard
350
18
  0
DICTIONARY
  5
19
102
{ACAD_REACTORS
330
C
102
}
100
AcDbDictionary
281
1
  0
DICTIONARY
  5
1A
102
{ACAD_REACTORS
330
C
102
}
100
AcDbDictionary
281
1
  3
Model
350
513
  3
Layout1
350
514
  0
ACDBPLACEHOLDER
  5
F
102
{ACAD_REACTORS
330
E
102
}
  0
MLINESTYLE
  5
18
102
{ACAD_REACTORS
330
17
102
}
100
AcDbMlineStyle
  2
STANDARD
 70
0
  3

 62
256
 51
90.0
 52
90.0
 71
2
 49
0.5
 62
256
  6
BYLAYER
 49
-0.5
 62
256
  6
BYLAYER
  0
LAYOUT
  5
513
102
{ACAD_REACTORS
330
1A
102
}
100
AcDbPlotSettings
  1

  2
none_device
  4
ISO_A4_(297.00_x_210.00_MM)
  6

 40
0.0
 41
0.0
 42
0.0
 43
0.0
 44
297.0
 45
210.0
 46
0.0
 47
0.0
 48
0.0
 49
0.0
140
0.0
141
0.0
142
1.0
143
1.0
 70
1024
 72
1
 73
0
 74
0
  7

 75
0
147
1.0
148
0.0
149
0.0
100
AcDbLayout
  1
Model
 70
0
 71
0
 10
0.0
 20
0.0
 11
297.0
 21
210.0
 12
0.0
 22
0.0
 32
0.0
 14
0.0
 24
0.0
 34
0.0
 15
0.0
 25
0.0
 35
0.0
146
0.0
 13
0.0
 23
0.0
 33
0.0
 16
1.0
 26
0.0
 36
0.0
 17
0.0
 27
1.0
 37
0.0
 76
0
330
213
345
0
346
0
  0
LAYOUT
  5
514
102
{ACAD_REACTORS
330
1A
102
}
100
AcDbPlotSettings
  1

  2
none_device
  4
ISO_A4_(297.00_x_210.00_MM)
  6

 40
0.0
 41
0.0
 42
0.0
 43
0.0
 44
297.0
 45
210.0
 46
0.0
 47
0.0
 48
0.0
 49
0.0
140
0.0
141
0.0
142
1.0
143
1.0
 70
0
 72
1
 73
0
 74
0
  7

 75
0
147
1.0
148
0.0
149
0.0
100
AcDbLayout
  1
Layout1
 70
0
 71
1
 10
0.0
 20
0.0
 11
297.0
 21
210.0
 12
0.0
 22
0.0
 32
0.0
 14
0.0
 24
0.0
 34
0.0
 15
0.0
 25
0.0
 35
0.0
146
0.0
 13
0.0
 23
0.0
 33
0.0
 16
1.0
 26
0.0
 36
0.0
 17
0.0
 27
1.0
 37
0.0
 76
0
330
214
345
0
346
0
  0
ENDSEC
  0
EOF
