  0
SECTION
  2
HEADER
  9
$ACADVER
  1
AC1024
  9
$DWGCODEPAGE
  3
ANSI_1252
  9
$EXTMAX
 10
210.0
 20
297.0
 30
0.0
  9
$EXTMIN
 10
0.0
 20
0.0
 30
0.0
  9
$LIMMIN
 10
0.0
 20
0.0
  9
$LIMMAX
 10
210.0
 20
297.0
  9
$VIEWCTR
 10
105.0
 20
148.5
  9
$VIEWSIZE
 40
297.0
  9
$CLAYER
  8
0
  9
$LTSCALE
 40
19.36
  9
$CELTYPE
  6
BYLAYER
  9
$DIMSCALE
 40
1.0
  9
$DIMASZ
 40
3.0
  9
$DIMEXO
 40
0.5
  9
$DIMDLI
 40
13.376
  9
$DIMEXE
 40
1.5
  9
$DIMCEN
 40
3.168
  9
$DIMLFAC
 40
1.0
  9
$DIMBLK
  1
_FILLED
  9
$DIMALT
 70
0
  9
$DIMALTF
 40
0.0393700787
  9
$DIMTXT
 40
3.0
  9
$DIMTOL
 70
1
  9
$DIMLIM
 70
0
  9
$DIMTFAC
 40
1.0
  9
$DIMTP
 40
0.01
  9
$DIMTM
 40
0.01
  9
$DIMGAP
 40
0.625
  9
$DIMDSEP
 70
44
  9
$AUNITS
 70
0
  9
$PDMODE
 70
3
  9
$PDSIZE
 40
3.0
  9
$HANDSEED
  5
2C4
  9
$TILEMODE
 70
1
  9
$MEASUREMENT
 70
1
  9
$INSUNITS
 70
4
  0
ENDSEC
  0
SECTION
  2
CLASSES
  0
CLASS
  1
ACDBDICTIONARYWDFLT
  2
AcDbDictionaryWithDefault
  3
AutoCAD 2000
 90
0
 91
1
280
0
281
0
  0
CLASS
  1
ACDBPLACEHOLDER
  2
AcDbPlaceHolder
  3
AutoCAD 2000
 90
0
 91
1
280
0
281
0
  0
CLASS
  1
LAYOUT
  2
AcDbLayout
  3
AutoCAD 2000
 90
0
 91
0
280
0
281
0
  0
ENDSEC
  0
SECTION
  2
TABLES
  0
TABLE
  2
VPORT
  5
8
100
AcDbSymbolTable
 70
2
  0
VPORT
  5
1F4
100
AcDbSymbolTableRecord
100
AcDbViewportTableRecord
  2
*ACTIVE
 70
0
 10
0.0
 20
0.0
 11
1.0
 21
1.0
 12
105.0
 22
148.5
 13
0.0
 23
0.0
 14
1.0
 24
1.0
 15
0.0
 25
0.0
 16
0.0
 26
0.0
 36
1.0
 17
0.0
 27
0.0
 37
0.0
 40
297.0
 41
0.7070707071
 42
50.0
 43
0.0
 44
0.0
 50
0.0
 51
0.0
 71
0
 72
100
 73
1
 74
1
 75
0
 76
0
 77
0
 78
0
  0
ENDTAB
  0
TABLE
  2
LTYPE
  5
5
100
AcDbSymbolTable
 70
6
  0
LTYPE
  5
14
100
AcDbSymbolTableRecord
100
AcDbLinetypeTableRecord
  2
BYBLOCK
 70
0
  3

 72
65
 73
0
 40
0.0
  0
LTYPE
  5
15
100
AcDbSymbolTableRecord
100
AcDbLinetypeTableRecord
  2
BYLAYER
 70
0
  3

 72
65
 73
0
 40
0.0
  0
LTYPE
  5
16
100
AcDbSymbolTableRecord
100
AcDbLinetypeTableRecord
  2
CONTINUOUS
 70
64
  3
Solid line
 72
65
 73
0
 40
0.0
  0
LTYPE
  5
1F5
100
AcDbSymbolTableRecord
100
AcDbLinetypeTableRecord
  2
CENTER
 70
64
  3
____ _ ____ _ ____ _ ____ _ ____ _ ____ _ ____
 72
65
 73
4
 40
0.6
 49
0.375
 74
0
 49
-0.075
 74
0
 49
0.075
 74
0
 49
-0.075
 74
0
  0
LTYPE
  5
1F6
100
AcDbSymbolTableRecord
100
AcDbLinetypeTableRecord
  2
HIDDEN
 70
64
  3
- - - - - - - - - - - - - - - - - - - -
 72
65
 73
2
 40
0.2
 49
0.1
 74
0
 49
-0.1
 74
0
  0
LTYPE
  5
1F7
100
AcDbSymbolTableRecord
100
AcDbLinetypeTableRecord
  2
PHANTOM
 70
64
  3
_____ _ _ _____ _ _ _____ _ _ _____
 72
65
 73
6
 40
0.8
 49
0.45
 74
0
 49
-0.05
 74
0
 49
0.1
 74
0
 49
-0.05
 74
0
 49
0.1
 74
0
 49
-0.05
 74
0
  0
LTYPE
  5
1F8
100
AcDbSymbolTableRecord
100
AcDbLinetypeTableRecord
  2
DOT
 70
64
  3
. . . . . . . . . . . . . . . . . . . .
 72
65
 73
2
 40
0.2
 49
0.1
 74
0
 49
-0.1
 74
0
  0
LTYPE
  5
1F9
100
AcDbSymbolTableRecord
100
AcDbLinetypeTableRecord
  2
DASHED
 70
64
  3
- - - - - - - - - - - - - - - - - - - -
 72
65
 73
2
 40
0.2
 49
0.1
 74
0
 49
-0.1
 74
0
  0
ENDTAB
  0
TABLE
  2
LAYER
  5
2
100
AcDbSymbolTable
 70
36
  0
LAYER
  5
10
100
AcDbSymbolTableRecord
100
AcDbLayerTableRecord
  2
0
 70
0
 62
7
  6
CONTINUOUS
370
-3
390
F
  0
LAYER
  5
1FA
100
AcDbSymbolTableRecord
100
AcDbLayerTableRecord
  2
DEFAULT_1
 70
0
 62
7
  6
CENTER
370
-3
390
F
  0
LAYER
  5
1FB
100
AcDbSymbolTableRecord
100
AcDbLayerTableRecord
  2
DEFAULT_2
 70
0
 62
7
  6
HIDDEN
370
-3
390
F
  0
LAYER
  5
1FC
100
AcDbSymbolTableRecord
100
AcDbLayerTableRecord
  2
DEFAULT_3
 70
0
 62
7
  6
PHANTOM
370
-3
390
F
  0
LAYER
  5
1FD
100
AcDbSymbolTableRecord
100
AcDbLayerTableRecord
  2
ASSI
 70
0
 62
7
  6
CONTINUOUS
370
-3
390
F
  0
LAYER
  5
1FE
100
AcDbSymbolTableRecord
100
AcDbLayerTableRecord
  2
COORDINATE
 70
0
 62
7
  6
CONTINUOUS
370
-3
390
F
  0
LAYER
  5
1FF
100
AcDbSymbolTableRecord
100
AcDbLayerTableRecord
  2
COPY_PUBLISH
 70
0
 62
7
  6
CONTINUOUS
370
-3
390
F
  0
LAYER
  5
200
100
AcDbSymbolTableRecord
100
AcDbLayerTableRecord
  2
COSMETICI
 70
0
 62
7
  6
CONTINUOUS
370
-3
390
F
  0
LAYER
  5
201
100
AcDbSymbolTableRecord
100
AcDbLayerTableRecord
  2
CURVE
 70
0
 62
7
  6
CONTINUOUS
370
-3
390
F
  0
LAYER
  5
202
100
AcDbSymbolTableRecord
100
AcDbLayerTableRecord
  2
DRAFT
 70
0
 62
7
  6
CONTINUOUS
370
-3
390
F
  0
LAYER
  5
203
100
AcDbSymbolTableRecord
100
AcDbLayerTableRecord
  2
IMPORT_IGES
 70
0
 62
7
  6
CONTINUOUS
370
-3
390
F
  0
LAYER
  5
204
100
AcDbSymbolTableRecord
100
AcDbLayerTableRecord
  2
NOTE
 70
0
 62
7
  6
CONTINUOUS
370
-3
390
F
  0
LAYER
  5
205
100
AcDbSymbolTableRecord
100
AcDbLayerTableRecord
  2
PIANI
 70
0
 62
7
  6
CONTINUOUS
370
-3
390
F
  0
LAYER
  5
206
100
AcDbSymbolTableRecord
100
AcDbLayerTableRecord
  2
PUNTI
 70
0
 62
7
  6
CONTINUOUS
370
-3
390
F
  0
LAYER
  5
207
100
AcDbSymbolTableRecord
100
AcDbLayerTableRecord
  2
RACCORDO
 70
0
 62
7
  6
CONTINUOUS
370
-3
390
F
  0
LAYER
  5
208
100
AcDbSymbolTableRecord
100
AcDbLayerTableRecord
  2
SIMBOLI
 70
0
 62
7
  6
CONTINUOUS
370
-3
390
F
  0
LAYER
  5
209
100
AcDbSymbolTableRecord
100
AcDbLayerTableRecord
  2
SMUSSO
 70
0
 62
7
  6
CONTINUOUS
370
-3
390
F
  0
LAYER
  5
20A
100
AcDbSymbolTableRecord
100
AcDbLayerTableRecord
  2
SNAPLINE
 70
0
 62
7
  6
CONTINUOUS
370
-3
390
F
  0
LAYER
  5
20B
100
AcDbSymbolTableRecord
100
AcDbLayerTableRecord
  2
SUPERFICI
 70
0
 62
7
  6
CONTINUOUS
370
-3
390
F
  0
LAYER
  5
20C
100
AcDbSymbolTableRecord
100
AcDbLayerTableRecord
  2
TRASH
 70
0
 62
7
  6
CONTINUOUS
370
-3
390
F
  0
ENDTAB
  0
TABLE
  2
STYLE
  5
3
100
AcDbSymbolTable
 70
1
  0
STYLE
  5
11
100
AcDbSymbolTableRecord
100
AcDbTextStyleTableRecord
  2
STANDARD
 70
0
 40
0.0
 41
0.8
 50
0.0
 71
0
 42
0.2
  3
txt
  4

  0
STYLE
  5
20D
100
AcDbSymbolTableRecord
100
AcDbTextStyleTableRecord
  2
TEXTSTYLE_1
 70
0
 40
0.0
 41
0.8
 50
0.0
 71
0
 42
0.2
  3
gdt
  4

  0
ENDTAB
  0
TABLE
  2
VIEW
  5
6
100
AcDbSymbolTable
 70
0
  0
ENDTAB
  0
TABLE
  2
UCS
  5
7
100
AcDbSymbolTable
 70
0
  0
ENDTAB
  0
TABLE
  2
APPID
  5
9
100
AcDbSymbolTable
 70
1
  0
APPID
  5
20E
100
AcDbSymbolTableRecord
100
AcDbRegAppTableRecord
  2
ACAD
 70
0
  0
ENDTAB
  0
TABLE
  2
BLOCK_RECORD
  5
1
100
AcDbSymbolTable
 70
0
  0
BLOCK_RECORD
  5
20F
100
AcDbSymbolTableRecord
100
AcDbBlockTableRecord
  2
*Model_Space
  0
BLOCK_RECORD
  5
210
100
AcDbSymbolTableRecord
100
AcDbBlockTableRecord
  2
*Paper_Space
  0
BLOCK_RECORD
  5
211
100
AcDbSymbolTableRecord
100
AcDbBlockTableRecord
  2
_FILLED
  0
ENDTAB
  0
TABLE
  2
DIMSTYLE
  5
A
100
AcDbSymbolTable
 70
1
100
AcDbDimStyleTable
 71
0
  0
DIMSTYLE
105
212
100
AcDbSymbolTableRecord
100
AcDbDimStyleTableRecord
  2
STANDARD
 70
0
  3

  4

 40
1.0
 41
3.0
 42
0.5
 43
0.38
 44
1.5
 45
0.0
 46
0.0
 47
0.01
 48
0.01
140
3.0
141
0.09
142
0.0
143
25.4
144
1.0
145
0.0
146
1.0
147
0.625
 71
1
 72
0
 73
0
 74
0
 75
0
 76
0
 77
1
 78
8
 79
2
170
0
171
1
172
0
173
0
174
0
175
0
176
0
177
0
178
0
270
2
179
2
271
2
272
2
273
2
274
2
275
0
280
0
281
0
282
0
283
1
284
8
285
0
286
0
287
3
288
0
340
11
278
44
341
211
342
211
343
211
344
211
  0
ENDTAB
  0
ENDSEC
  0
SECTION
  2
BLOCKS
  0
BLOCK
  5
20
100
AcDbEntity
  8
0
100
AcDbBlockBegin
  2
*Model_Space
 70
0
 10
0.0
 20
0.0
 30
0.0
  3
*Model_Space
  1

  0
ENDBLK
  5
21
100
AcDbEntity
  8
0
100
AcDbBlockEnd
  0
BLOCK
  5
1C
100
AcDbEntity
  8
0
100
AcDbBlockBegin
  2
*Paper_Space
 70
0
 10
0.0
 20
0.0
 30
0.0
  3
*Paper_Space
  1

  0
ENDBLK
  5
1D
100
AcDbEntity
  8
0
100
AcDbBlockEnd
  0
BLOCK
  5
213
100
AcDbEntity
  8
0
100
AcDbBlockBegin
  2
_FILLED
 70
64
 10
0.0
 20
0.0
  3
_FILLED
  1

  0
SOLID
  5
214
100
AcDbEntity
  8
0
  6
BYBLOCK
 62
0
100
AcDbTrace
 10
0.0
 20
0.0
 11
-1.0
 21
0.3166666667
 12
-1.0
 22
-0.3166666667
 13
-1.0
 23
-0.3166666667
  0
ENDBLK
  5
215
100
AcDbEntity
  8
0
  6
BYBLOCK
 62
0
100
AcDbBlockEnd
  0
ENDSEC
  0
SECTION
  2
ENTITIES
  0
LWPOLYLINE
  5
216
100
AcDbEntity
  8
RACCORDO
100
AcDbPolyline
 62
7
  6
CONTINUOUS
 90
19
 70
0
 10
-8.5264988643
 20
16.5896429123
 10
-8.8738278477
 20
16.361271918
 10
-9.2058640649
 20
16.1064100112
 10
-9.5217528307
 20
15.8254030315
 10
-9.820636766
 20
15.5187039185
 10
-10.1017959066
 20
15.1867316668
 10
-10.3646375194
 20
14.8298071739
 10
-10.6086191074
 20
14.4481778877
 10
-10.8329196665
 20
14.0425953167
 10
-11.0366718402
 20
13.614216755
 10
-11.2194240151
 20
13.1636430224
 10
-11.3806950201
 20
12.6916527194
 10
-11.5198382193
 20
12.1999056017
 10
-11.636578347
 20
11.6893709574
 10
-11.730719508
 20
11.1608631093
 10
-11.801991328
 20
10.61604632
 10
-11.850309045
 20
10.056206793
 10
-11.8756761048
 20
9.4821557412
 10
-11.8780928576
 20
8.8949594225
  0
LINE
  5
217
100
AcDbEntity
  8
DRAFT
100
AcDbLine
 62
7
  6
CONTINUOUS
 10
-8.0985084255
 20
16.8491122813
 11
-8.5264988643
 21
16.5896429123
  0
LINE
  5
218
100
AcDbEntity
  8
DRAFT
100
AcDbLine
 62
7
  6
CONTINUOUS
 10
-7.9010459943
 20
16.9631246143
 11
-8.0985084255
 21
16.8491122813
  0
LINE
  5
219
100
AcDbEntity
  8
RACCORDO
100
AcDbLine
 62
250
  6
CONTINUOUS
 10
-8.5264988643
 20
16.5896429123
 11
-8.3277753916
 21
16.7043438568
  0
LINE
  5
21A
100
AcDbEntity
  8
DRAFT
100
AcDbLine
 62
7
  6
CONTINUOUS
 10
-7.4623571526
 20
17.2040649997
 11
-7.9010459943
 21
16.9631246143
  0
LINE
  5
21B
100
AcDbEntity
  8
RACCORDO
100
AcDbLine
 62
250
  6
CONTINUOUS
 10
-8.3277753916
 20
16.7043438568
 11
-7.9517504113
 21
16.8918755623
  0
LWPOLYLINE
  5
21C
100
AcDbEntity
  8
DRAFT
100
AcDbPolyline
 62
7
  6
CONTINUOUS
 90
3
 70
0
 10
-7.1308744025
 20
17.3103033051
 10
-7.5231254634
 20
17.151659794
 10
-7.9010459943
 20
16.9631246143
  0
LINE
  5
21D
100
AcDbEntity
  8
RACCORDO
100
AcDbLine
 62
250
  6
CONTINUOUS
 10
-7.9517504113
 20
16.8918755623
 11
-7.5601865209
 21
17.0502826138
  0
LWPOLYLINE
  5
21E
100
AcDbEntity
  8
RACCORDO
100
AcDbPolyline
 62
250
  6
CONTINUOUS
 90
61
 70
0
 10
-7.5601865209
 20
17.0502826138
 10
-7.1538937393
 20
17.1792375358
 10
-6.733711259
 20
17.2784741831
 10
-6.3005065543
 20
17.3477876883
 10
-5.8551743087
 20
17.3870347279
 10
-5.3986355326
 20
17.3961339656
 10
-4.9318347124
 20
17.3750665669
 10
-4.4557372298
 20
17.3238762282
 10
-3.9713266068
 20
17.2426688234
 10
-3.4796033465
 20
17.13161209
 10
-2.981583367
 20
16.9909353927
 10
-2.4782963721
 20
16.8209295119
 10
-1.9707830195
 20
16.6219459599
 10
-1.4600924569
 20
16.3943961193
 10
-0.947280025
 20
16.1387502591
 10
-0.4334055186
 20
15.8555367185
 10
0.0804689224
 20
15.5453408862
 10
0.5932812321
 20
15.2088038764
 10
1.1039717266
 20
14.8466211014
 10
1.6114851334
 20
14.459540911
 10
2.1147722338
 20
14.0483634919
 10
2.6127922716
 20
13.6139391375
 10
3.1045154862
 20
13.1571662052
 10
3.5889260211
 20
12.6789884427
 10
4.0650234528
 20
12.1803933905
 10
4.5318243024
 20
11.6624108656
 10
4.9883631394
 20
11.1261120134
 10
5.4336954185
 20
10.572606406
 10
5.8669001002
 20
10.0030389842
 10
6.2870825358
 20
9.4185861924
 10
6.6933752886
 20
8.8204545843
 10
7.0849392107
 20
8.2098793085
 10
7.460964232
 20
7.5881232999
 10
7.8206721573
 20
6.9564733069
 10
8.1633189782
 20
6.3162360804
 10
8.4881972424
 20
5.6687337777
 10
8.7946363907
 20
5.0153028619
 10
9.0820035046
 20
4.3572926042
 10
9.3497039556
 20
3.6960642349
 10
9.5971836793
 20
3.0329863094
 10
9.8239308505
 20
2.3694305694
 10
10.0294773911
 20
1.7067672379
 10
10.2133990412
 20
1.0463640966
 10
10.3753158436
 20
0.3895849406
 10
10.5148927004
 20
-0.2622115593
 10
10.6318407613
 20
-0.9076765488
 10
10.725918263
 20
-1.5454749604
 10
10.7969310495
 20
-2.1742896223
 10
10.8447325123
 20
-2.7928222498
 10
10.8692238009
 20
-3.3997951163
 10
10.8703541564
 20
-3.993952914
 10
10.8481212222
 20
-4.5740667615
 10
10.802571014
 20
-5.1389373403
 10
10.7337977013
 20
-5.6873975061
 10
10.6419434228
 20
-6.218313874
 10
10.5271980226
 20
-6.7305891667
 10
10.3897986755
 20
-7.2231645437
 10
10.2300293581
 20
-7.6950219654
 10
10.0482202854
 20
-8.1451861841
 10
9.8447472345
 20
-8.5727267642
 10
9.6200307547
 20
-8.9767600428
  0
LWPOLYLINE
  5
21F
100
AcDbEntity
  8
RACCORDO
100
AcDbPolyline
 62
250
  6
CONTINUOUS
 90
10
 70
0
 10
-10.7327737731
 20
13.4407259355
 10
-10.9480080227
 20
13.0397904059
 10
-11.1416180789
 20
12.6152653392
 10
-11.3131757071
 20
12.1680897203
 10
-11.4623014537
 20
11.6992526213
 10
-11.5886654817
 20
11.2097910152
 10
-11.6919883008
 20
10.7007874653
 10
-11.772041365
 20
10.1733678398
 10
-11.8286475991
 20
9.6286988177
 10
-11.8616818071
 20
9.067985274
  0
LWPOLYLINE
  5
220
100
AcDbEntity
  8
RACCORDO
100
AcDbPolyline
 62
250
  6
CONTINUOUS
 90
21
 70
0
 10
-0.871562559
 20
-16.9208169266
 10
-0.5725269192
 20
-17.066400207
 10
-0.2751210567
 20
-17.1930734657
 10
0.0198456248
 20
-17.3004919773
 10
0.3115705482
 20
-17.3883634877
 10
0.5992600875
 20
-17.4564489375
 10
0.8821316033
 20
-17.5045630503
 10
1.1594150772
 20
-17.5325747966
 10
1.430355467
 20
-17.5404079207
 10
1.694215045
 20
-17.5280412212
 10
1.9502763013
 20
-17.4955084571
 10
2.1978433211
 20
-17.4428980117
 10
2.4362428212
 20
-17.3703527501
 10
2.6648254913
 20
-17.2780700353
 10
2.8829687083
 20
-17.1663011562
 10
3.0900792703
 20
-17.0353499835
 10
3.2855931144
 20
-16.8855730929
 10
3.4689766634
 20
-16.7173796153
 10
3.6397307423
 20
-16.5312282888
 10
3.7973915907
 20
-16.3276256712
 10
3.9415305483
 20
-16.1071262435
  0
LWPOLYLINE
  5
221
100
AcDbEntity
  8
RACCORDO
100
AcDbPolyline
 62
250
  6
CONTINUOUS
 90
20
 70
0
 10
-10.6129692369
 20
13.1252576032
 10
-10.8234999281
 20
12.7329425024
 10
-11.0125157371
 20
12.3185322552
 10
-11.1798740767
 20
11.8818804757
 10
-11.3257175341
 20
11.4231335499
 10
-11.4490817716
 20
10.9453247958
 10
-11.5498178326
 20
10.4483278371
 10
-11.6280746736
 20
9.93226905
 10
-11.6833348261
 20
9.400560882
 10
-11.7154460909
 20
8.8531010071
 10
-11.7245606673
 20
8.2899917512
 10
-11.7106176846
 20
7.7149525386
 10
-11.6734637089
 20
7.1278996972
 10
-11.6132521742
 20
6.5289168992
 10
-11.5303825115
 20
5.9219745855
 10
-11.4246708085
 20
5.3069284818
 10
-11.2963009774
 20
4.6839228623
 10
-11.1462241857
 20
4.057360991
 10
-10.9747574892
 20
3.4287106225
 10
-10.7815838321
 20
2.7965040021
  0
LWPOLYLINE
  5
222
100
AcDbEntity
  8
DRAFT
100
AcDbPolyline
 62
7
  6
CONTINUOUS
 90
16
 70
0
 10
-7.6290499405
 20
13.4108588031
 10
-7.9031732735
 20
13.185777028
 10
-8.1614904862
 20
12.9364813679
 10
-8.4028045119
 20
12.6641396014
 10
-8.6273187005
 20
12.3682271957
 10
-8.8348297021
 20
12.0492686836
 10
-9.0235304016
 20
11.7100054431
 10
-9.1930765195
 20
11.3506804414
 10
-9.3438123352
 20
10.9710507114
 10
-9.4749635723
 20
10.5731287289
 10
-9.5865197376
 20
10.15646836
 10
-9.6784913242
 20
9.7215157385
 10
-9.7501355347
 20
9.2716217425
 10
-9.8012047701
 20
8.8079033312
 10
-9.8319466295
 20
8.3292435453
 10
-9.8334508334
 20
8.2579508296
  0
LINE
  5
223
100
AcDbEntity
  8
DRAFT
100
AcDbLine
 62
7
  6
CONTINUOUS
 10
-7.3672363038
 20
13.5920507313
 11
-7.6290499405
 21
13.4108588031
  0
LWPOLYLINE
  5
224
100
AcDbEntity
  8
DRAFT
100
AcDbPolyline
 62
7
  6
CONTINUOUS
 90
17
 70
0
 10
-7.4316901829
 20
12.8102577475
 10
-7.5807571657
 20
12.7154103309
 10
-7.8641606277
 20
12.508196016
 10
-8.1316799689
 20
12.275316282
 10
-8.3817171886
 20
12.0181822499
 10
-8.6143598989
 20
11.7363926123
 10
-8.8295204877
 20
11.4303486765
 10
-9.0253381192
 20
11.1026654864
 10
-9.2015305426
 20
10.7534002175
 10
-9.3583800086
 20
10.3824956942
 10
-9.4948724333
 20
9.9923954328
 10
-9.6109298881
 20
9.5827788173
 10
-9.7066303016
 20
9.1539664638
 10
-9.781193376
 20
8.7093637369
 10
-9.8343590118
 20
8.2501057583
 10
-9.8663873085
 20
7.7750574062
 10
-9.877278266
 20
7.2842186809
  0
LINE
  5
225
100
AcDbEntity
  8
DRAFT
100
AcDbLine
 62
7
  6
CONTINUOUS
 10
-6.9432116344
 20
13.1063980756
 11
-7.4320018817
 21
12.8100687991
  0
LWPOLYLINE
  5
226
100
AcDbEntity
  8
DRAFT
100
AcDbPolyline
 62
7
  6
CONTINUOUS
 90
18
 70
0
 10
-7.6092757946
 20
13.4730504623
 10
-7.8398400051
 20
13.3365628801
 10
-8.1305604784
 20
13.135364879
 10
-8.4049451118
 20
12.9100676842
 10
-8.6635085763
 20
12.660533455
 10
-8.905052344
 20
12.3879316117
 10
-9.1297796474
 20
12.0917376248
 10
-9.337487254
 20
11.7724760239
 10
-9.5263669392
 20
11.4328898178
 10
-9.6960744714
 20
11.0732213908
 10
-9.8469540822
 20
10.6932283587
 10
-9.9782302417
 20
10.2949265771
 10
-10.0898921431
 20
9.8778704115
 10
-10.1819505932
 20
9.4425054964
 10
-10.2536624825
 20
8.9921845909
 10
-10.3047801078
 20
8.5280252814
 10
-10.3355511722
 20
8.0489099815
 10
-10.3459756759
 20
7.5548386912
  0
LWPOLYLINE
  5
227
100
AcDbEntity
  8
DRAFT
100
AcDbPolyline
 62
7
  6
CONTINUOUS
 90
16
 70
0
 10
-6.9428996245
 20
13.1065872126
 10
-6.7921036806
 20
13.1933727827
 10
-6.4761924496
 20
13.3494089019
 10
-6.1472496432
 20
13.4783526193
 10
-5.8055690738
 20
13.5798791738
 10
-5.4508569292
 20
13.6543133263
 10
-5.0851003671
 20
13.701228032
 10
-4.7077480028
 20
13.7204524901
 10
-4.3193512211
 20
13.7121575012
 10
-3.9235513349
 20
13.6764284223
 10
-3.5208270712
 20
13.6131325448
 10
-3.1106997031
 20
13.5224025772
 10
-2.6953743622
 20
13.4047220018
 10
-2.2742326062
 20
13.259705272
 10
-1.8478928774
 20
13.0877379344
 10
-1.609941423
 20
12.9779249656
  0
LINE
  5
228
100
AcDbEntity
  8
RACCORDO
100
AcDbLine
 62
250
  6
CONTINUOUS
 10
3.9415305483
 20
-16.1071262435
 11
4.8787272453
 21
-16.3445892681
  0
LWPOLYLINE
  5
229
100
AcDbEntity
  8
RACCORDO
100
AcDbPolyline
 62
7
  6
CONTINUOUS
 90
16
 70
0
 10
-0.7898375693
 20
-16.9858587524
 10
-0.4382730468
 20
-17.184830296
 10
-0.0866861371
 20
-17.3614505999
 10
0.2640584161
 20
-17.5152504282
 10
0.6135252442
 20
-17.6459412653
 10
0.960400972
 20
-17.7529154455
 10
1.3025571032
 20
-17.8355514424
 10
1.6391663954
 20
-17.8937974328
 10
1.969439334
 20
-17.9276500875
 10
2.2914079619
 20
-17.9371548494
 10
2.6038762063
 20
-17.9226984331
 10
2.9065571511
 20
-17.8847183658
 10
3.1988375731
 20
-17.8236526291
 10
3.4799700779
 20
-17.740009179
 10
3.7491490368
 20
-17.6344019334
 10
4.0056495301
 20
-17.5075205012
  0
LWPOLYLINE
  5
22A
100
AcDbEntity
  8
RACCORDO
100
AcDbPolyline
 62
250
  6
CONTINUOUS
 90
3
 70
0
 10
-1.2729958946
 20
-16.6970315886
 10
-1.1714141792
 20
-16.756719807
 10
-0.871562559
 20
-16.9208169266
  0
LINE
  5
22B
100
AcDbEntity
  8
DRAFT
100
AcDbLine
 62
7
  6
CONTINUOUS
 10
-1.2729958946
 20
-16.6970315886
 11
-0.7898375693
 21
-16.9858587524
  0
LWPOLYLINE
  5
22C
100
AcDbEntity
  8
RACCORDO
100
AcDbPolyline
 62
7
  6
CONTINUOUS
 90
22
 70
0
 10
-1.2729958946
 20
-16.6970315886
 10
-1.5739075459
 20
-16.5082083667
 10
-1.8725489842
 20
-16.3029754218
 10
-2.1682474574
 20
-16.0819314089
 10
-2.4603597868
 20
-15.8456822913
 10
-2.748220736
 20
-15.5948808433
 10
-3.0311250725
 20
-15.3302533889
 10
-3.3083943903
 20
-15.0525473478
 10
-3.5794384611
 20
-14.7624592014
 10
-3.8436764604
 20
-14.4607008724
 10
-4.1004883488
 20
-14.1480612649
 10
-4.3492937022
 20
-13.8253213908
 10
-4.589572323
 20
-13.493215437
 10
-4.8207589697
 20
-13.1525700921
 10
-5.0423072464
 20
-12.8042291126
 10
-5.2537359067
 20
-12.4489733164
 10
-5.4545313252
 20
-12.087674566
 10
-5.6442059113
 20
-11.7212100835
 10
-5.822335747
 20
-11.3503785254
 10
-5.9884835656
 20
-10.9760434411
 10
-6.1422073454
 20
-10.5991384624
 10
-6.2831045901
 20
-10.2205743103
  0
LWPOLYLINE
  5
22D
100
AcDbEntity
  8
RACCORDO
100
AcDbPolyline
 62
250
  6
CONTINUOUS
 90
68
 70
0
 10
-11.8047632217
 20
10.5774490519
 10
-11.7344143903
 20
11.1191507431
 10
-11.6412164417
 20
11.6433656657
 10
-11.5253621035
 20
12.1490100807
 10
-11.3870908113
 20
12.6350392225
 10
-11.2266882606
 20
13.1004488799
 10
-11.0444859076
 20
13.5442772231
 10
-10.8408603623
 20
13.9656067702
 10
-10.6162325075
 20
14.363566616
 10
-10.3710665548
 20
14.7373343015
 10
-10.1058692656
 20
15.0861372046
 10
-9.8211889903
 20
15.4092541443
 10
-9.5176144302
 20
15.706017091
 10
-9.1957728284
 20
15.9758130224
 10
-8.8563287923
 20
16.2180847759
 10
-8.4999833334
 20
16.4323317968
 10
-8.1274733761
 20
16.6181108105
 10
-7.7395697456
 20
16.7750373963
 10
-7.3370748934
 20
16.9027871386
 10
-6.9208201657
 20
17.0010963814
 10
-6.4916649177
 20
17.0697621738
 10
-6.05049546
 20
17.1086425304
 10
-5.5982242038
 20
17.1176568713
 10
-5.1357868244
 20
17.0967865373
 10
-4.6641396924
 20
17.0460748193
 10
-4.1842571273
 20
16.9656266029
 10
-3.697130266
 20
16.8556080556
 10
-3.203765523
 20
16.7162463941
 10
-2.705182986
 20
16.5478296816
 10
-2.2024135957
 20
16.3507061477
 10
-1.6964966975
 20
16.1252833323
 10
-1.1884777656
 20
15.872027108
 10
-0.6794066887
 20
15.5914608764
 10
-0.1703356821
 20
15.2841645566
 10
0.337683117
 20
14.9507732699
 10
0.8435999372
 20
14.5919759235
 10
1.3463693768
 20
14.2085138657
 10
1.8449520151
 20
13.8011798093
 10
2.3383168069
 20
13.3708161143
 10
2.8254436037
 20
12.9183127554
 10
3.3053260571
 20
12.4446046506
 10
3.7769731154
 20
11.950670089
 10
4.2394105061
 20
11.4375292442
 10
4.6916818055
 20
10.9062432656
 10
5.1328512727
 20
10.3579113831
 10
5.5620064619
 20
9.7936678592
 10
5.9782611038
 20
9.2146781248
 10
6.380755892
 20
8.6221374254
 10
6.7686595338
 20
8.0172693435
 10
7.1411695154
 20
7.40132503
 10
7.4975148969
 20
6.7755792367
 10
7.8369586171
 20
6.1413265173
 10
8.1587998462
 20
5.4998766578
 10
8.4623743006
 20
4.8525536154
 10
8.7470549762
 20
4.2006940544
 10
9.0122528041
 20
3.5456464789
 10
9.2574189084
 20
2.8887666273
 10
9.4820462626
 20
2.231413368
 10
9.6856711407
 20
1.5749441707
 10
9.8678732121
 20
0.9207141634
 10
10.0282760434
 20
0.2700745585
 10
10.1665477292
 20
-0.3756288422
 10
10.2824021895
 20
-1.0150601541
 10
10.3755999439
 20
-1.6468971636
 10
10.445948546
 20
-2.2698346033
 10
10.4933026843
 20
-2.8825855345
 10
10.5175644784
 20
-3.4838835269
 10
10.5186837717
 20
-4.0724857413
  0
LWPOLYLINE
  5
22E
100
AcDbEntity
  8
RACCORDO
100
AcDbPolyline
 62
250
  6
CONTINUOUS
 90
28
 70
0
 10
0.192484961
 20
-15.9744328136
 10
0.2850325408
 20
-16.0233775045
 10
0.3754111113
 20
-16.0636632414
 10
0.4636206724
 20
-16.0952900245
 10
0.5505396325
 20
-16.11800573
 10
0.6352895832
 20
-16.1320624816
 10
0.7152352995
 20
-16.1382166502
 10
0.789743787
 20
-16.1359207017
 10
0.85944804
 20
-16.1257221702
 10
0.9236118166
 20
-16.1100200293
 10
0.98173016
 20
-16.0888777072
 10
1.0343080269
 20
-16.0622317755
 10
1.0821240449
 20
-16.0322909227
 10
1.1250847102
 20
-15.9993559906
 10
1.1632835266
 20
-15.9631261374
 10
1.1977796334
 20
-15.9249075256
 10
1.2286190032
 20
-15.8850360432
 10
1.2557556633
 20
-15.8431758023
 10
1.2801108356
 20
-15.7996253016
 10
1.3017840947
 20
-15.7549275475
 10
1.3206758659
 20
-15.7085395337
 10
1.3374086471
 20
-15.6591307398
 10
1.3523276906
 20
-15.6067554285
 10
1.3650877441
 20
-15.5513593371
 10
1.3752755482
 20
-15.491449157
 10
1.3827533501
 20
-15.4265271184
 10
1.3876589026
 20
-15.3570909911
 10
1.3899922059
 20
-15.283140775
  0
LWPOLYLINE
  5
22F
100
AcDbEntity
  8
RACCORDO
100
AcDbPolyline
 62
250
  6
CONTINUOUS
 90
14
 70
0
 10
0.3215807549
 20
-15.7372218212
 10
0.4016991671
 20
-15.7810854691
 10
0.4808580386
 20
-15.8172339284
 10
0.558595673
 20
-15.8456358637
 10
0.6349889148
 20
-15.8664062251
 10
0.7090903085
 20
-15.8794073693
 10
0.7791011308
 20
-15.884716461
 10
0.8446782126
 20
-15.8828608923
 10
0.9059609377
 20
-15.8744762743
 10
0.9622249108
 20
-15.8604265088
 10
1.0133713421
 20
-15.8415441788
 10
1.0598697202
 20
-15.8184857824
 10
1.1019782822
 20
-15.7919301506
 10
1.1258465758
 20
-15.77407342
  0
LINE
  5
230
100
AcDbEntity
  8
RACCORDO
100
AcDbLine
 62
250
  6
CONTINUOUS
 10
-2.7380693733
 20
-14.2823674695
 11
0.192484961
 21
-15.9744328136
  0
LINE
  5
231
100
AcDbEntity
  8
RACCORDO
100
AcDbLine
 62
250
  6
CONTINUOUS
 10
-2.6089737004
 20
-14.0451565737
 11
0.3215806339
 21
-15.7372219179
  0
LINE
  5
232
100
AcDbEntity
  8
DRAFT
100
AcDbLine
 62
7
  6
CONTINUOUS
 10
-11.8695089549
 20
8.3321189348
 11
-11.8780928576
 21
8.8949594225
  0
LWPOLYLINE
  5
233
100
AcDbEntity
  8
RACCORDO
100
AcDbPolyline
 62
250
  6
CONTINUOUS
 90
3
 70
0
 10
-11.8616818071
 20
9.067985274
 10
-11.8710709537
 20
8.4924672793
 10
-11.8695089549
 20
8.3321189348
  0
LINE
  5
234
100
AcDbEntity
  8
RACCORDO
100
AcDbLine
 62
250
  6
CONTINUOUS
 10
-11.8763792896
 20
9.4460998939
 11
-11.8756761048
 21
9.4821557412
  0
LINE
  5
235
100
AcDbEntity
  8
RACCORDO
100
AcDbLine
 62
250
  6
CONTINUOUS
 10
-11.8521174695
 20
10.0193807701
 11
-11.850309045
 21
10.056206793
  0
LINE
  5
236
100
AcDbEntity
  8
RACCORDO
100
AcDbLine
 62
7
  6
CONTINUOUS
 10
-1.365216686
 20
-13.3270380278
 11
1.3308319786
 21
-14.8837027373
  0
LWPOLYLINE
  5
237
100
AcDbEntity
  8
RACCORDO
100
AcDbPolyline
 62
7
  6
CONTINUOUS
 90
22
 70
0
 10
-1.365216686
 20
-13.3270380278
 10
-1.4443638412
 20
-13.2780048258
 10
-1.5229884878
 20
-13.2224114157
 10
-1.6006916274
 20
-13.160579977
 10
-1.677119952
 20
-13.0928613278
 10
-1.7518325432
 20
-13.0196435725
 10
-1.8243064596
 20
-12.9413630081
 10
-1.8941065993
 20
-12.8585204083
 10
-1.9609259741
 20
-12.7715459775
 10
-2.0244452607
 20
-12.6808026659
 10
-2.0843532914
 20
-12.5867011365
 10
-2.1402725694
 20
-12.4898461059
 10
-2.1918125987
 20
-12.3909139333
 10
-2.2386384308
 20
-12.290533893
 10
-2.2805500085
 20
-12.1891807901
 10
-2.3173926721
 20
-12.0873126365
 10
-2.348947353
 20
-11.9854103849
 10
-2.3749979275
 20
-11.884101218
 10
-2.3954280303
 20
-11.7840561499
 10
-2.4101220236
 20
-11.6858510602
 10
-2.4189527563
 20
-11.5899673101
 10
-2.4218407256
 20
-11.4969115086
  0
LWPOLYLINE
  5
238
100
AcDbEntity
  8
DRAFT
100
AcDbPolyline
 62
7
  6
CONTINUOUS
 90
51
 70
0
 10
-10.3459756759
 20
7.5548386912
 10
-10.3355511722
 20
7.0487294454
 10
-10.3047801078
 20
6.5340804915
 10
-10.2536624825
 20
6.0108918296
 10
-10.1819505932
 20
5.4777598319
 10
-10.0898921431
 20
4.9360881262
 10
-9.9782302417
 20
4.3900875958
 10
-9.8469540822
 20
3.8401913958
 10
-9.6960744714
 20
3.285966371
 10
-9.5263669392
 20
2.7303239397
 10
-9.337487254
 20
2.1726242075
 10
-9.1297796474
 20
1.6135070688
 10
-8.905052344
 20
1.0578036251
 10
-8.6635085763
 20
0.5062730933
 10
-8.4049451118
 20
-0.0418437436
 10
-8.1305604784
 20
-0.5839934353
 10
-7.8398400051
 20
-1.1209081518
 10
-7.5332983629
 20
-1.6518557232
 10
-7.2136780931
 20
-2.1720861893
 10
-6.8813573139
 20
-2.680786216
 10
-6.5359579071
 20
-3.1787691374
 10
-6.1790880594
 20
-3.6637249967
 10
-5.8101883014
 20
-4.1362137214
 10
-5.4298181025
 20
-4.595675384
 10
-5.0412640566
 20
-5.0381202448
 10
-4.6449131879
 20
-5.4629248609
 10
-4.2403784721
 20
-5.8707126753
 10
-3.8297854315
 20
-6.2593642769
 10
-3.4127485437
 20
-6.6290916604
 10
-2.9896533309
 20
-6.9796828311
 10
-2.5637818819
 20
-7.3083823947
 10
-2.1353028141
 20
-7.614870417
 10
-1.7040475101
 20
-7.8994668322
 10
-1.2727922061
 20
-8.1603760485
 10
-0.8415369022
 20
-8.3974696475
 10
-0.4102815982
 20
-8.6108760475
 10
0.0181974696
 20
-8.7991849124
 10
0.4440689186
 20
-8.9622710233
 10
0.8671641314
 20
-9.100259599
 10
1.2842010192
 20
-9.2121159603
 10
1.6947940599
 20
-9.2976069101
 10
2.0993287756
 20
-9.3569656454
 10
2.4956796444
 20
-9.3898570776
 10
2.8842336902
 20
-9.3961046895
 10
3.2646038891
 20
-9.3758849984
 10
3.6335036471
 20
-9.3293924673
 10
3.9903734948
 20
-9.256540963
 10
4.3357729016
 20
-9.1574166187
 10
4.6680936808
 20
-9.032472298
 10
4.9877139506
 20
-8.8813313078
 10
5.2217882816
 20
-8.7495747813
  0
LWPOLYLINE
  5
239
100
AcDbEntity
  8
RACCORDO
100
AcDbPolyline
 62
250
  6
CONTINUOUS
 90
9
 70
0
 10
-6.1653817571
 20
-10.2576825044
 10
-6.1911624395
 20
-10.2573757932
 10
-6.2141199193
 20
-10.2555520681
 10
-6.2340833348
 20
-10.2522249023
 10
-6.2509041079
 20
-10.2474190582
 10
-6.2644570495
 20
-10.2411703034
 10
-6.2746412917
 20
-10.2335251445
 10
-6.2813810379
 20
-10.2245404808
 10
-6.2831045901
 20
-10.2205743103
  0
LWPOLYLINE
  5
23A
100
AcDbEntity
  8
RACCORDO
100
AcDbPolyline
 62
250
  6
CONTINUOUS
 90
28
 70
0
 10
-2.7380693733
 20
-11.2357154424
 10
-2.8306169531
 20
-11.1867707515
 10
-2.9209955236
 20
-11.1464850146
 10
-3.0092050847
 20
-11.1148582315
 10
-3.0961240448
 20
-11.0921425261
 10
-3.1808739955
 20
-11.0780857745
 10
-3.2608197117
 20
-11.0719316058
 10
-3.3353281992
 20
-11.0742275543
 10
-3.4050324523
 20
-11.0844260858
 10
-3.4691962288
 20
-11.1001282267
 10
-3.5273145723
 20
-11.1212705489
 10
-3.5798924392
 20
-11.1479164805
 10
-3.6277084572
 20
-11.1778573333
 10
-3.6706691225
 20
-11.2107922654
 10
-3.7088679389
 20
-11.2470221186
 10
-3.7433640457
 20
-11.2852407304
 10
-3.7742034155
 20
-11.3251122128
 10
-3.8013400756
 20
-11.3669724537
 10
-3.8256952479
 20
-11.4105229544
 10
-3.847368507
 20
-11.4552207085
 10
-3.8662602782
 20
-11.5016087223
 10
-3.8829930594
 20
-11.5510175162
 10
-3.8979121029
 20
-11.6033928275
 10
-3.9106721563
 20
-11.6587889189
 10
-3.9208599605
 20
-11.7186990991
 10
-3.9283377623
 20
-11.7836211376
 10
-3.9332433149
 20
-11.8530572649
 10
-3.9355766182
 20
-11.927007481
  0
LINE
  5
23B
100
AcDbEntity
  8
RACCORDO
100
AcDbLine
 62
250
  6
CONTINUOUS
 10
0.4490838332
 20
-13.1694164895
 11
-0.3215806339
 21
-12.7244444849
  0
LINE
  5
23C
100
AcDbEntity
  8
RACCORDO
100
AcDbLine
 62
7
  6
CONTINUOUS
 10
0.2339810661
 20
-13.0193740347
 11
-2.7042340705
 21
-11.3229175476
  0
LINE
  5
23D
100
AcDbEntity
  8
RACCORDO
100
AcDbLine
 62
250
  6
CONTINUOUS
 10
0.192484961
 20
-12.9277807865
 11
-2.7380693733
 21
-11.2357154424
  0
LINE
  5
23E
100
AcDbEntity
  8
RACCORDO
100
AcDbLine
 62
7
  6
CONTINUOUS
 10
-2.6966528491
 20
-11.3272628146
 11
-2.6967785944
 21
-11.327190028
  0
LWPOLYLINE
  5
23F
100
AcDbEntity
  8
RACCORDO
100
AcDbPolyline
 62
7
  6
CONTINUOUS
 90
22
 70
0
 10
0.2339810662
 20
-13.0193740347
 10
0.2671237898
 20
-13.0391141373
 10
0.3508426191
 20
-13.094299336
 10
0.4350914023
 20
-13.1575803749
 10
0.519241068
 20
-13.2287620797
 10
0.6024943325
 20
-13.3074135157
 10
0.6838820811
 20
-13.3927889621
 10
0.7626936269
 20
-13.4842498055
 10
0.8383715325
 20
-13.5812301635
 10
0.9102657498
 20
-13.6829668259
 10
0.9778025636
 20
-13.7886694737
 10
1.0405161162
 20
-13.8976230998
 10
1.0979986882
 20
-14.0091137197
 10
1.1498537975
 20
-14.122394846
 10
1.1956877186
 20
-14.2365548786
 10
1.2351409691
 20
-14.3505971275
 10
1.2680057619
 20
-14.4637590922
 10
1.2940990524
 20
-14.5751194644
 10
1.3132462885
 20
-14.6834125447
 10
1.3254948244
 20
-14.7876665519
 10
1.3310284682
 20
-14.8872383504
 10
1.3314136415
 20
-14.920166391
  0
LWPOLYLINE
  5
240
100
AcDbEntity
  8
RACCORDO
100
AcDbPolyline
 62
250
  6
CONTINUOUS
 90
25
 70
0
 10
3.215032488
 20
-13.4041292581
 10
3.2001880433
 20
-13.3952340185
 10
3.149246329
 20
-13.3594586787
 10
3.0989937981
 20
-13.3188877827
 10
3.0498263227
 20
-13.273840686
 10
3.0021322163
 20
-13.2246729066
 10
2.9562931604
 20
-13.1717787712
 10
2.9126772678
 20
-13.115586527
 10
2.8716193694
 20
-13.0565312048
 10
2.8334275006
 20
-12.995054157
 10
2.7983454467
 20
-12.9315228134
 10
2.766725103
 20
-12.8665471498
 10
2.738949405
 20
-12.8009705508
 10
2.7150583911
 20
-12.7349417391
 10
2.6953518809
 20
-12.6693522316
 10
2.6802214218
 20
-12.6061348405
 10
2.669576532
 20
-12.5465855588
 10
2.6629107857
 20
-12.4900763722
 10
2.659914923
 20
-12.435613953
 10
2.6605120397
 20
-12.3839068155
 10
2.6645849712
 20
-12.334790405
 10
2.6724747495
 20
-12.2863628594
 10
2.6847646831
 20
-12.2386092669
 10
2.7017181437
 20
-12.1930228791
 10
2.7236510677
 20
-12.1504001448
  0
LWPOLYLINE
  5
241
100
AcDbEntity
  8
RACCORDO
100
AcDbPolyline
 62
250
  6
CONTINUOUS
 90
8
 70
0
 10
0.2339014852
 20
-13.0193281588
 10
0.2296395563
 20
-13.0166480536
 10
0.2186536741
 20
-13.0073031862
 10
0.2094270427
 20
-12.9954980599
 10
0.2021005003
 20
-12.9814128717
 10
0.1967858814
 20
-12.9652626221
 10
0.19356431
 20
-12.9472938334
 10
0.192484961
 20
-12.9277807865
  0
LWPOLYLINE
  5
242
100
AcDbEntity
  8
RACCORDO
100
AcDbPolyline
 62
250
  6
CONTINUOUS
 90
8
 70
0
 10
-2.6967785944
 20
-11.327190028
 10
-2.7009131919
 20
-11.3245837922
 10
-2.7118992953
 20
-11.3152392702
 10
-2.7211262343
 20
-11.3034343694
 10
-2.7284531338
 20
-11.2893492022
 10
-2.7337680964
 20
-11.2731987026
 10
-2.7369899241
 20
-11.2552293623
 10
-2.7380693733
 20
-11.2357154424
  0
LWPOLYLINE
  5
243
100
AcDbEntity
  8
RACCORDO
100
AcDbPolyline
 62
250
  6
CONTINUOUS
 90
4
 70
0
 10
-0.3215807531
 20
-12.7244445537
 10
-0.4011080889
 20
-12.6740411433
 10
-0.479777023
 20
-12.6173488336
 10
-0.5233827879
 20
-12.5820817104
  0
LWPOLYLINE
  5
244
100
AcDbEntity
  8
RACCORDO
100
AcDbPolyline
 62
250
  6
CONTINUOUS
 90
3
 70
0
 10
0.3202849552
 20
-13.0099293429
 10
0.2576965544
 20
-12.968127323
 10
0.192484961
 20
-12.9277807865
  0
LWPOLYLINE
  5
245
100
AcDbEntity
  8
DRAFT
100
AcDbPolyline
 62
7
  6
CONTINUOUS
 90
48
 70
0
 10
-9.877278266
 20
7.2842186809
 10
-9.8663873085
 20
6.7808033508
 10
-9.8343590118
 20
6.2687695246
 10
-9.781193376
 20
5.7481172023
 10
-9.7066303016
 20
5.2174109061
 10
-9.6109298881
 20
4.6780861139
 10
-9.4948724333
 20
4.1344492587
 10
-9.3583800086
 20
3.5867309666
 10
-9.2015305426
 20
3.0347006115
 10
-9.0253381192
 20
2.4819727485
 10
-8.8295204877
 20
1.9281642659
 10
-8.6143598989
 20
1.3736582753
 10
-8.3817171886
 20
0.8232186672
 10
-8.1316799689
 20
0.2773479212
 10
-7.8641606277
 20
-0.2644564423
 10
-7.5807571657
 20
-0.7989379714
 10
-7.2810470702
 20
-1.3265807995
 10
-6.9654528538
 20
-1.8469007931
 10
-6.6368400549
 20
-2.3551890999
 10
-6.2955021027
 20
-2.8507824932
 10
-5.9411455681
 20
-3.3343441998
 10
-5.5757557011
 20
-3.8031550482
 10
-5.1987816916
 20
-4.2576804526
 10
-4.8107743498
 20
-4.6974549989
 10
-4.4153713566
 20
-5.1183632729
 10
-4.0130509843
 20
-5.5197204113
 10
-3.6033349606
 20
-5.9022112773
 10
-3.1884261493
 20
-6.2637750468
 10
-2.7677066865
 20
-6.6047400399
 10
-2.341794436
 20
-6.9247779364
 10
-1.9147458526
 20
-7.2208429523
 10
-1.4871555326
 20
-7.4923572291
 10
-1.0584288797
 20
-7.7398986252
 10
-0.6308385597
 20
-7.962154932
 10
-0.2037899763
 20
-8.1592349159
 10
0.2221222742
 20
-8.3310298104
 10
0.642841737
 20
-8.4759011073
 10
1.0577505484
 20
-8.5934636331
 10
1.467466572
 20
-8.6841025613
 10
1.8697869443
 20
-8.7473349043
 10
2.2651899375
 20
-8.7830280958
 10
2.6531972793
 20
-8.7913147021
 10
3.0301712888
 20
-8.7721094346
 10
3.3955611558
 20
-8.7252416457
 10
3.7499176905
 20
-8.6508819831
 10
4.0912556426
 20
-8.549457101
 10
4.4198684415
 20
-8.4206426174
 10
4.735983694
 20
-8.264727604
  0
LWPOLYLINE
  5
246
100
AcDbEntity
  8
RACCORDO
100
AcDbPolyline
 62
250
  6
CONTINUOUS
 90
25
 70
0
 10
3.3538083948
 20
-13.1728249757
 10
3.3383042424
 20
-13.1635173719
 10
3.2996011724
 20
-13.136337421
 10
3.2617142269
 20
-13.1057925665
 10
3.2246625858
 20
-13.0718019208
 10
3.1884270692
 20
-13.0344463714
 10
3.1538573083
 20
-12.9946036824
 10
3.1209970961
 20
-12.9522233355
 10
3.0898026395
 20
-12.907355849
 10
3.060992191
 20
-12.8610305419
 10
3.0345990639
 20
-12.8131256344
 10
3.0105899449
 20
-12.7637629063
 10
2.9895831459
 20
-12.7143370159
 10
2.9717099899
 20
-12.6646111366
 10
2.956839154
 20
-12.614822095
 10
2.945194982
 20
-12.5670750297
 10
2.9370077638
 20
-12.5221568948
 10
2.9320472094
 20
-12.4792807361
 10
2.9298467927
 20
-12.4381908301
 10
2.9300900371
 20
-12.3990253637
 10
2.933093419
 20
-12.3616461499
 10
2.9393398417
 20
-12.3253829037
 10
2.948990273
 20
-12.2900121967
 10
2.9618837449
 20
-12.2557574573
 10
2.9780202577
 20
-12.2226186856
  0
LWPOLYLINE
  5
247
100
AcDbEntity
  8
RACCORDO
100
AcDbPolyline
 62
250
  6
CONTINUOUS
 90
40
 70
0
 10
-5.4210554385
 20
-9.4144669885
 10
-5.3871694379
 20
-9.5021661805
 10
-5.3494137454
 20
-9.5875922538
 10
-5.307788361
 20
-9.6707452083
 10
-5.2620255669
 20
-9.7519900744
 10
-5.2123930809
 20
-9.8309618218
 10
-5.1596940566
 20
-9.9065653594
 10
-5.1037897847
 20
-9.9789144302
 10
-5.0448189746
 20
-10.0478952912
 10
-4.9840009076
 20
-10.1120716217
 10
-4.9213131994
 20
-10.1713256072
 10
-4.8567782343
 20
-10.2257750622
 10
-4.7916824472
 20
-10.2743371095
 10
-4.7260081014
 20
-10.3168983797
 10
-4.6597729337
 20
-10.3535722422
 10
-4.5943165897
 20
-10.3836159279
 10
-4.5296576073
 20
-10.4068931694
 10
-4.4657774486
 20
-10.4235402341
 10
-4.4039601464
 20
-10.4332231552
 10
-4.3442468885
 20
-10.4358014275
 10
-4.2865964871
 20
-10.4314155561
 10
-4.2321694106
 20
-10.4201530895
 10
-4.1810300211
 20
-10.4018734971
 10
-4.1331139566
 20
-10.3767173093
 10
-4.0893886002
 20
-10.3451936668
 10
-4.0499056537
 20
-10.3069884389
 10
-4.0146134154
 20
-10.2624157561
 10
-3.9843241635
 20
-10.2129271508
 10
-3.9593167607
 20
-10.1579566539
 10
-3.9393123442
 20
-10.0980702345
 10
-3.9242866037
 20
-10.0364173315
 10
-3.9145166041
 20
-9.9740215076
 10
-3.9097252804
 20
-9.9098592
 10
-3.9090571273
 20
-9.8440091605
 10
-3.9119446664
 20
-9.7773477194
 10
-3.9189553761
 20
-9.7089985462
 10
-3.9309361861
 20
-9.6364114012
 10
-3.948169406
 20
-9.5587362042
 10
-3.9703727262
 20
-9.4768230354
 10
-3.9975461466
 20
-9.3906718946
  0
LWPOLYLINE
  5
248
100
AcDbEntity
  8
RACCORDO
100
AcDbPolyline
 62
250
  6
CONTINUOUS
 90
43
 70
0
 10
-6.1653817571
 20
-10.2576825044
 10
-6.0276810219
 20
-10.6274410588
 10
-5.8776588282
 20
-10.9946256304
 10
-5.7153151759
 20
-11.359236219
 10
-5.5400476979
 20
-11.7224909863
 10
-5.3524587614
 20
-12.0831717708
 10
-5.1543554682
 20
-12.4376240877
 10
-4.945768717
 20
-12.7855175426
 10
-4.7266676092
 20
-13.12718253
 10
-4.4987665505
 20
-13.4599557486
 10
-4.2619601163
 20
-13.7838202531
 10
-4.0163537311
 20
-14.0987929888
 10
-3.7639780754
 20
-14.4022614897
 10
-3.5047914043
 20
-14.6941118735
 10
-3.2388354626
 20
-14.9744580225
 10
-2.9682661643
 20
-15.2410291179
 10
-2.6930423296
 20
-15.49371705
 10
-2.4132051383
 20
-15.7326299283
 10
-2.1310340444
 20
-15.9558212632
 10
-1.8465108912
 20
-16.1631618603
 10
-1.5596538355
 20
-16.354780914
 10
-1.2727968014
 20
-16.5291195172
 10
-0.9859398428
 20
-16.6860367623
 10
-0.6990829058
 20
-16.8256735569
 10
-0.4145597533
 20
-16.9468937178
 10
-0.1323883917
 20
-17.0495471257
 10
0.1474491853
 20
-17.1337838999
 10
0.4226732348
 20
-17.198918214
 10
0.6932422965
 20
-17.2447943876
 10
0.9591978306
 20
-17.2715681011
 10
1.2183844748
 20
-17.2790205697
 10
1.4707609387
 20
-17.2669896542
 10
1.7163685126
 20
-17.2356374937
 10
1.9531757056
 20
-17.1852317211
 10
2.1810766877
 20
-17.115633666
 10
2.4001772888
 20
-17.0269819989
 10
2.6087635085
 20
-16.9199603641
 10
2.8068659936
 20
-16.7942746522
 10
2.9944540972
 20
-16.6502189727
 10
3.1697218783
 20
-16.4893592985
 10
3.3320673564
 20
-16.3122176206
 10
3.4820925119
 20
-16.1182719481
 10
3.6197973449
 20
-15.9075222808
  0
LINE
  5
249
100
AcDbEntity
  8
RACCORDO
100
AcDbLine
 62
7
  6
CONTINUOUS
 10
-10.6844260473
 20
2.1978493239
 11
-6.2831045901
 21
-10.2205743103
  0
LINE
  5
24A
100
AcDbEntity
  8
RACCORDO
100
AcDbLine
 62
250
  6
CONTINUOUS
 10
-10.5667032143
 20
2.1607411298
 11
-6.1653817571
 21
-10.2576825044
  0
LWPOLYLINE
  5
24B
100
AcDbEntity
  8
RACCORDO
100
AcDbPolyline
 62
7
  6
CONTINUOUS
 90
13
 70
0
 10
-10.6844260473
 20
2.1978493239
 10
-10.8635794519
 20
2.7228808226
 10
-11.0288260536
 20
3.2477838214
 10
-11.1799131614
 20
3.7718352606
 10
-11.3166032183
 20
4.2943044394
 10
-11.4386797376
 20
4.8144745833
 10
-11.5459471023
 20
5.331650223
 10
-11.6382239724
 20
5.8451331354
 10
-11.7153404629
 20
6.3541960574
 10
-11.7771468062
 20
6.8581188149
 10
-11.8235143635
 20
7.3562035459
 10
-11.8543328059
 20
7.847765241
 10
-11.8695089549
 20
8.3321189348
  0
LINE
  5
24C
100
AcDbEntity
  8
RACCORDO
100
AcDbLine
 62
250
  6
CONTINUOUS
 10
-10.7815838321
 20
2.7965040021
 11
-10.5667032143
 21
2.1607411298
  0
LWPOLYLINE
  5
24D
100
AcDbEntity
  8
DRAFT
100
AcDbPolyline
 62
7
  6
CONTINUOUS
 90
16
 70
0
 10
-0.441199417
 20
-8.049672092
 10
-0.3469731596
 20
-8.1014753757
 10
0.0838711401
 20
-8.3146784028
 10
0.5119415711
 20
-8.5028077786
 10
0.937406221
 20
-8.6657383141
 10
1.3600970022
 20
-8.8035951982
 10
1.7767357837
 20
-8.9153449409
 10
2.1869380458
 20
-9.0007546837
 10
2.5910883082
 20
-9.0600572851
 10
2.9870619982
 20
-9.0929178299
 10
3.3752450586
 20
-9.0991599392
 10
3.7552515465
 20
-9.0789599919
 10
4.1237990614
 20
-9.0325122093
 10
4.4803292434
 20
-8.9597305013
 10
4.8254004524
 20
-8.860700958
 10
5.1574053669
 20
-8.7358760704
  0
LWPOLYLINE
  5
24E
100
AcDbEntity
  8
RACCORDO
100
AcDbPolyline
 62
250
  6
CONTINUOUS
 90
13
 70
0
 10
1.4519617343
 20
-12.5371494467
 10
1.4685479214
 20
-12.5546923612
 10
1.4870396299
 20
-12.5707210903
 10
1.5071545969
 20
-12.5849909666
 10
1.5285857815
 20
-12.5972841704
 10
1.5510060516
 20
-12.6074130547
 10
1.5740731776
 20
-12.615223009
 10
1.5974350558
 20
-12.6205948198
 10
1.6207350837
 20
-12.6234464904
 10
1.6436176025
 20
-12.6237344918
 10
1.6657333266
 20
-12.621454428
 10
1.6867446751
 20
-12.6166411025
 10
1.7063309244
 20
-12.6093679874
  0
LWPOLYLINE
  5
24F
100
AcDbEntity
  8
RACCORDO
100
AcDbPolyline
 62
250
  6
CONTINUOUS
 90
10
 70
0
 10
3.6197973449
 20
-15.9075222808
 10
3.6482093566
 20
-15.938505752
 10
3.6790412406
 20
-15.9677393314
 10
3.7120635299
 20
-15.9950054474
 10
3.7470304552
 20
-16.0201011713
 10
3.7836817746
 20
-16.0428397277
 10
3.8217447095
 20
-16.0630518842
 10
3.8609359759
 20
-16.0805872115
 10
3.9009638917
 20
-16.0953152024
 10
3.9415305483
 20
-16.1071262435
  0
LWPOLYLINE
  5
250
100
AcDbEntity
  8
RACCORDO
100
AcDbPolyline
 62
250
  6
CONTINUOUS
 90
39
 70
0
 10
-5.1311488664
 20
-6.1999855561
 10
-5.1686498928
 20
-6.1150381015
 10
-5.2099931073
 20
-6.0323140908
 10
-5.2554359113
 20
-5.9514561117
 10
-5.3047209036
 20
-5.8728215765
 10
-5.3570758809
 20
-5.7974827219
 10
-5.4126506536
 20
-5.7253121396
 10
-5.4712954112
 20
-5.6564372378
 10
-5.5317885194
 20
-5.5923124779
 10
-5.5941439027
 20
-5.5330659187
 10
-5.6583476365
 20
-5.4785695014
 10
-5.7231363122
 20
-5.4298935105
 10
-5.7885315165
 20
-5.3871461546
 10
-5.8545116627
 20
-5.3502192251
 10
-5.9197485819
 20
-5.3198583804
 10
-5.9842228803
 20
-5.2961988375
 10
-6.0479539519
 20
-5.2791053795
 10
-6.1096718092
 20
-5.268918014
 10
-6.1693378877
 20
-5.2657753949
 10
-6.2269907519
 20
-5.2695388683
 10
-6.2814761084
 20
-5.2801324798
 10
-6.3327280422
 20
-5.2976922509
 10
-6.3808124681
 20
-5.3220821601
 10
-6.4247728376
 20
-5.3528181885
 10
-6.4645527709
 20
-5.3901500579
 10
-6.5002086479
 20
-5.4338280466
 10
-6.5309530588
 20
-5.48261897
 10
-6.5565653766
 20
-5.5371403039
 10
-6.5772662283
 20
-5.5967745725
 10
-6.592930086
 20
-5.6584361636
 10
-6.6032519292
 20
-5.7211581332
 10
-6.6085367782
 20
-5.7859074253
 10
-6.6095741662
 20
-5.8524992594
 10
-6.6068932544
 20
-5.9201099136
 10
-6.5999648817
 20
-5.9895631097
 10
-6.5879910969
 20
-6.0631452327
 10
-6.5707059167
 20
-6.1416184111
 10
-6.5483753245
 20
-6.2242205163
 10
-6.5209993204
 20
-6.3109515485
  0
LWPOLYLINE
  5
251
100
AcDbEntity
  8
RACCORDO
100
AcDbPolyline
 62
250
  6
CONTINUOUS
 90
7
 70
0
 10
-4.0446249929
 20
-9.3758575283
 10
-4.0442530377
 20
-9.3767805815
 10
-4.0402860303
 20
-9.3818873806
 10
-4.0335079305
 20
-9.3858818641
 10
-4.0240222013
 20
-9.3887030588
 10
-4.0119736357
 20
-9.3903079012
 10
-3.9975461466
 20
-9.3906718946
  0
LWPOLYLINE
  5
252
100
AcDbEntity
  8
RACCORDO
100
AcDbPolyline
 62
250
  6
CONTINUOUS
 90
7
 70
0
 10
-5.1445791616
 20
-6.272313177
 10
-5.1441974578
 20
-6.2732639456
 10
-5.1402309912
 20
-6.2783710266
 10
-5.1334532272
 20
-6.2823658311
 10
-5.1239674944
 20
-6.2851873287
 10
-5.111918485
 20
-6.2867923893
 10
-5.0974900284
 20
-6.2871564546
  0
LINE
  5
253
100
AcDbEntity
  8
RACCORDO
100
AcDbLine
 62
250
  6
CONTINUOUS
 10
-5.0974900284
 20
-6.2871564546
 11
-5.1311488664
 21
-6.1999855561
  0
LWPOLYLINE
  5
254
100
AcDbEntity
  8
RACCORDO
100
AcDbPolyline
 62
250
  6
CONTINUOUS
 90
25
 70
0
 10
-5.1666862486
 20
-9.3378347181
 10
-5.139258239
 20
-9.4093374495
 10
-5.1080545945
 20
-9.4798881349
 10
-5.0733549295
 20
-9.5490062814
 10
-5.0355346014
 20
-9.6161035562
 10
-4.994839789
 20
-9.6808874527
 10
-4.9513261957
 20
-9.7433205268
 10
-4.9051800593
 20
-9.8031051846
 10
-4.8568039552
 20
-9.8596911095
 10
-4.8065562008
 20
-9.9126563299
 10
-4.7547939296
 20
-9.9616293927
 10
-4.7018549775
 20
-10.0062955121
 10
-4.6480870592
 20
-10.0463620204
 10
-4.5938492006
 20
-10.0815595285
 10
-4.5395151498
 20
-10.111643657
 10
-4.4854588957
 20
-10.1364070452
 10
-4.4320496559
 20
-10.1556813345
 10
-4.3796475587
 20
-10.1693373529
 10
-4.3286064433
 20
-10.177283073
 10
-4.2792724114
 20
-10.179464457
 10
-4.2319807559
 20
-10.175866515
 10
-4.1870520113
 20
-10.1665134252
 10
-4.1447901993
 20
-10.1514678998
 10
-4.1054835983
 20
-10.130831954
 10
-4.0858476298
 20
-10.1176061112
  0
LINE
  5
255
100
AcDbEntity
  8
RACCORDO
100
AcDbLine
 62
250
  6
CONTINUOUS
 10
-6.5209993204
 20
-6.3109515485
 11
-5.4210554385
 21
-9.4144669885
  0
LINE
  5
256
100
AcDbEntity
  8
RACCORDO
100
AcDbLine
 62
250
  6
CONTINUOUS
 10
-6.2666301303
 20
-6.2343192781
 11
-5.1666862485
 21
-9.3378347181
  0
LINE
  5
257
100
AcDbEntity
  8
RACCORDO
100
AcDbLine
 62
250
  6
CONTINUOUS
 10
8.3428520055
 20
-8.771238305
 11
9.2800487025
 21
-9.0087013296
  0
LWPOLYLINE
  5
258
100
AcDbEntity
  8
RACCORDO
100
AcDbPolyline
 62
250
  6
CONTINUOUS
 90
13
 70
0
 10
2.9780202577
 20
-12.2226186856
 10
2.9614340706
 20
-12.205075771
 10
2.9429423621
 20
-12.1890470419
 10
2.9228273951
 20
-12.1747771656
 10
2.9013962105
 20
-12.1624839618
 10
2.8789759404
 20
-12.1523550776
 10
2.8559088145
 20
-12.1445451233
 10
2.8325469362
 20
-12.1391733124
 10
2.8092469084
 20
-12.1363216419
 10
2.7863643896
 20
-12.1360336404
 10
2.7642486654
 20
-12.1383137042
 10
2.7432373169
 20
-12.1431270297
 10
2.7236510677
 20
-12.1504001448
  0
LWPOLYLINE
  5
259
100
AcDbEntity
  8
RACCORDO
100
AcDbPolyline
 62
250
  6
CONTINUOUS
 90
10
 70
0
 10
2.8754710263
 20
-14.2047773894
 10
2.8610423694
 20
-14.1859863699
 10
2.8489932679
 20
-14.1662359737
 10
2.8395075342
 20
-14.1458277627
 10
2.8327298396
 20
-14.1250733371
 10
2.8287634852
 20
-14.1042895066
 10
2.8276688632
 20
-14.083793454
 10
2.8294625535
 20
-14.0638980303
 10
2.8341170493
 20
-14.0449068689
 10
2.8415612309
 20
-14.0271096997
  0
LINE
  5
25A
100
AcDbEntity
  8
RACCORDO
100
AcDbLine
 62
250
  6
CONTINUOUS
 10
-3.9975461466
 20
-9.3906718946
 11
-5.0974900284
 21
-6.2871564546
  0
LWPOLYLINE
  5
25B
100
AcDbEntity
  8
RACCORDO
100
AcDbPolyline
 62
7
  6
CONTINUOUS
 90
16
 70
0
 10
-5.1445791616
 20
-6.272313177
 10
-4.0411660846
 20
-9.3857228522
 10
-4.0167086583
 20
-9.4627268635
 10
-3.997180241
 20
-9.5381456077
 10
-3.9826490702
 20
-9.6110528547
 10
-3.973023472
 20
-9.6809356057
 10
-3.9681419441
 20
-9.7476004837
 10
-3.9678845478
 20
-9.8105205072
 10
-3.9720529733
 20
-9.8690260101
 10
-3.9803502784
 20
-9.9225069637
 10
-3.9923646331
 20
-9.970376768
 10
-4.0075793638
 20
-10.0123104017
 10
-4.0254052593
 20
-10.0480656996
 10
-4.0449195642
 20
-10.0772425954
 10
-4.0657286156
 20
-10.1006201517
 10
-4.0856094602
 20
-10.1174291603
  0
LWPOLYLINE
  5
25C
100
AcDbEntity
  8
RACCORDO
100
AcDbPolyline
 62
250
  6
CONTINUOUS
 90
28
 70
0
 10
-3.9355766182
 20
-12.2082240811
 10
-3.9316870672
 20
-12.3173311566
 10
-3.9213830102
 20
-12.4276374119
 10
-3.904664447
 20
-12.5391428471
 10
-3.8808737785
 20
-12.6532414176
 10
-3.8506686038
 20
-12.7685391679
 10
-3.8160217205
 20
-12.8808542317
 10
-3.7767754624
 20
-12.9895467482
 10
-3.7330874957
 20
-13.0952565783
 10
-3.6874036157
 20
-13.1957214384
 10
-3.6400312575
 20
-13.2901807648
 10
-3.5906629862
 20
-13.3793951213
 10
-3.540822292
 20
-13.4633839165
 10
-3.4908164766
 20
-13.5418617528
 10
-3.4403382384
 20
-13.6151140278
 10
-3.3899891629
 20
-13.6840163428
 10
-3.3400371587
 20
-13.7484670936
 10
-3.2902143173
 20
-13.8085678844
 10
-3.2403184992
 20
-13.865499129
 10
-3.1907701847
 20
-13.9191330225
 10
-3.1411488936
 20
-13.9695973697
 10
-3.0899910451
 20
-14.0184559992
 10
-3.037170991
 20
-14.0661801091
 10
-2.9828143797
 20
-14.1122985011
 10
-2.9258345758
 20
-14.1569614098
 10
-2.8658693675
 20
-14.2002189131
 10
-2.8032809667
 20
-14.242020933
 10
-2.7380693733
 20
-14.2823674695
  0
LWPOLYLINE
  5
25D
100
AcDbEntity
  8
RACCORDO
100
AcDbPolyline
 62
250
  6
CONTINUOUS
 90
13
 70
0
 10
2.5519056162
 20
-10.7038216304
 10
2.5684931193
 20
-10.7213658044
 10
2.5869861096
 20
-10.7373953128
 10
2.6071021896
 20
-10.7516655228
 10
2.6285341849
 20
-10.763958666
 10
2.6509548988
 20
-10.7740871965
 10
2.6740221175
 20
-10.7818966286
 10
2.6973837054
 20
-10.7872678437
 10
2.7206830825
 20
-10.7901189539
 10
2.7435647324
 20
-10.7904065317
 10
2.7656794535
 20
-10.7881262424
 10
2.7866896935
 20
-10.7833129478
 10
2.8062748062
 20
-10.7760401711
  0
LWPOLYLINE
  5
25E
100
AcDbEntity
  8
RACCORDO
100
AcDbPolyline
 62
250
  6
CONTINUOUS
 90
11
 70
0
 10
3.9754149081
 20
-12.3714495731
 10
3.960987419
 20
-12.3526602534
 10
3.9489388534
 20
-12.3329113343
 10
3.9394531242
 20
-12.3125042694
 10
3.9326750244
 20
-12.291750558
 10
3.928708017
 20
-12.2709669912
 10
3.9276126555
 20
-12.2504708154
 10
3.92940566
 20
-12.2305748905
 10
3.9340596614
 20
-12.2115829139
 10
3.9415036196
 20
-12.1937847847
 10
3.9453354998
 20
-12.1868991357
  0
LWPOLYLINE
  5
25F
100
AcDbEntity
  8
RACCORDO
100
AcDbPolyline
 62
250
  6
CONTINUOUS
 90
28
 70
0
 10
-3.6655975957
 20
-12.2150299712
 10
-3.6635226855
 20
-12.3108827653
 10
-3.6552458394
 20
-12.4089211019
 10
-3.6409707876
 20
-12.5085463678
 10
-3.6207586565
 20
-12.609828683
 10
-3.59496401
 20
-12.711544567
 10
-3.5645531238
 20
-12.8110936977
 10
-3.5301543581
 20
-12.9074997232
 10
-3.4922484857
 20
-13.0006803672
 10
-3.4519459131
 20
-13.0894254167
 10
-3.4100171086
 20
-13.1730002946
 10
-3.3667958728
 20
-13.2516320026
 10
-3.322740965
 20
-13.3256741265
 10
-3.2783512985
 20
-13.3949162664
 10
-3.2338774213
 20
-13.4594558806
 10
-3.1892650908
 20
-13.5201258785
 10
-3.1448568002
 20
-13.5768455718
 10
-3.1007654551
 20
-13.6297330438
 10
-3.0564603617
 20
-13.679829115
 10
-3.012358438
 20
-13.7268807673
 10
-2.9683045031
 20
-13.7711491443
 10
-2.922792861
 20
-13.8141988806
 10
-2.8757527514
 20
-13.856022496
 10
-2.8273911569
 20
-13.8962612555
 10
-2.7765567236
 20
-13.9356057288
 10
-2.7229234281
 20
-13.9739609349
 10
-2.667015204
 20
-14.0106190193
 10
-2.6089737004
 20
-14.0451565737
  0
LINE
  5
260
100
AcDbEntity
  8
RACCORDO
100
AcDbLine
 62
250
  6
CONTINUOUS
 10
-3.9355766182
 20
-11.927007481
 11
-3.9355766182
 21
-12.2082240811
  0
LINE
  5
261
100
AcDbEntity
  8
RACCORDO
100
AcDbLine
 62
250
  6
CONTINUOUS
 10
-3.66559774
 20
-11.9338134545
 11
-3.66559774
 21
-12.2150300545
  0
LINE
  5
262
100
AcDbEntity
  8
RACCORDO
100
AcDbLine
 62
7
  6
CONTINUOUS
 10
-2.4218407256
 20
-11.4859358905
 11
-2.4218407256
 21
-11.4969115086
  0
LWPOLYLINE
  5
263
100
AcDbEntity
  8
RACCORDO
100
AcDbPolyline
 62
250
  6
CONTINUOUS
 90
25
 70
0
 10
1.386102655
 20
-14.8928170995
 10
1.3757985979
 20
-14.7825108441
 10
1.3590800347
 20
-14.6710054089
 10
1.3352893662
 20
-14.5569068385
 10
1.3050841916
 20
-14.4416090882
 10
1.2704373082
 20
-14.3292940243
 10
1.2311910502
 20
-14.2206015078
 10
1.1875030834
 20
-14.1148916778
 10
1.1418192034
 20
-14.0144268176
 10
1.0944468453
 20
-13.9199674912
 10
1.0450785739
 20
-13.8307531347
 10
0.9952378797
 20
-13.7467643395
 10
0.9452320643
 20
-13.6682865032
 10
0.8947538261
 20
-13.5950342282
 10
0.8444047507
 20
-13.5261319132
 10
0.7944527465
 20
-13.4616811624
 10
0.7446299051
 20
-13.4015803716
 10
0.694734087
 20
-13.344649127
 10
0.6451857725
 20
-13.2910152336
 10
0.5955644813
 20
-13.2405508863
 10
0.5444066328
 20
-13.1916922568
 10
0.4915865787
 20
-13.143968147
 10
0.4372299674
 20
-13.0978497549
 10
0.3802501635
 20
-13.0531868462
 10
0.3202849552
 20
-13.0099293429
  0
LWPOLYLINE
  5
264
100
AcDbEntity
  8
RACCORDO
100
AcDbPolyline
 62
250
  6
CONTINUOUS
 90
10
 70
0
 10
8.021118802
 20
-8.5716343423
 10
8.0495308138
 20
-8.6026178135
 10
8.0803626978
 20
-8.6318513929
 10
8.1133849871
 20
-8.6591175089
 10
8.1483519124
 20
-8.6842132328
 10
8.1850032317
 20
-8.7069517892
 10
8.2230661667
 20
-8.7271639457
 10
8.2622574331
 20
-8.744699273
 10
8.3022853489
 20
-8.7594272639
 10
8.3428520055
 20
-8.771238305
  0
LWPOLYLINE
  5
265
100
AcDbEntity
  8
RACCORDO
100
AcDbPolyline
 62
250
  6
CONTINUOUS
 90
8
 70
0
 10
1.3314136999
 20
-15.2016214182
 10
1.3316039178
 20
-15.2065229139
 10
1.3342046608
 20
-15.2207107718
 10
1.3398156597
 20
-15.2346051748
 10
1.3483512663
 20
-15.2479940346
 10
1.3596811907
 20
-15.2606729796
 10
1.3736324895
 20
-15.2724484747
 10
1.3899922059
 20
-15.283140775
  0
LWPOLYLINE
  5
266
100
AcDbEntity
  8
RACCORDO
100
AcDbPolyline
 62
250
  6
CONTINUOUS
 90
8
 70
0
 10
1.3314135621
 20
-14.9202692563
 10
1.331603773
 20
-14.9253043987
 10
1.3342041064
 20
-14.9394922754
 10
1.3398147561
 20
-14.9533868321
 10
1.348350166
 20
-14.9667759907
 10
1.3596801351
 20
-14.9794553585
 10
1.3736317835
 20
-14.9912313513
 10
1.3899922059
 20
-15.0019241749
  0
LINE
  5
267
100
AcDbEntity
  8
RACCORDO
100
AcDbLine
 62
250
  6
CONTINUOUS
 10
1.3899922059
 20
-15.0019241749
 11
1.386102655
 21
-14.8928170995
  0
LINE
  5
268
100
AcDbEntity
  8
RACCORDO
100
AcDbLine
 62
7
  6
CONTINUOUS
 10
1.3314136999
 20
-15.2016214182
 11
1.3314135621
 21
-14.9202692563
  0
LINE
  5
269
100
AcDbEntity
  8
RACCORDO
100
AcDbLine
 62
250
  6
CONTINUOUS
 10
1.3899922059
 20
-15.283140775
 11
1.3899922059
 21
-15.0019241749
  0
LWPOLYLINE
  5
26A
100
AcDbEntity
  8
RACCORDO
100
AcDbPolyline
 62
7
  6
CONTINUOUS
 90
13
 70
0
 10
1.3314136999
 20
-15.2016214183
 10
1.3313473568
 20
-15.2150746293
 10
1.3287853785
 20
-15.2856538144
 10
1.3223797373
 20
-15.3545431564
 10
1.3119686707
 20
-15.42119613
 10
1.2974584196
 20
-15.4849315672
 10
1.2788940491
 20
-15.5449023728
 10
1.2563838327
 20
-15.6004780894
 10
1.2300348244
 20
-15.6512368913
 10
1.2000415225
 20
-15.6967266174
 10
1.1665946204
 20
-15.7366496915
 10
1.1298288776
 20
-15.7708658002
 10
1.1258500033
 20
-15.7740691846
  0
LINE
  5
26B
100
AcDbEntity
  8
RACCORDO
100
AcDbLine
 62
250
  6
CONTINUOUS
 10
-5.4191730398
 20
-5.7793040577
 11
-6.2666301303
 21
-6.2343192781
  0
LWPOLYLINE
  5
26C
100
AcDbEntity
  8
RACCORDO
100
AcDbPolyline
 62
250
  6
CONTINUOUS
 90
18
 70
0
 10
-6.1168080869
 20
-5.4016265491
 10
-6.1510626529
 20
-5.4193927856
 10
-6.1873401438
 20
-5.4448237156
 10
-6.2202623643
 20
-5.4755690531
 10
-6.2495353741
 20
-5.5113795777
 10
-6.274831945
 20
-5.5517787027
 10
-6.2961548075
 20
-5.596684849
 10
-6.3132743655
 20
-5.645512875
 10
-6.3259006076
 20
-5.6966509082
 10
-6.334199781
 20
-5.74865166
 10
-6.3386758925
 20
-5.8016915262
 10
-6.3396152228
 20
-5.8565576165
 10
-6.3371300132
 20
-5.9124586953
 10
-6.3313364459
 20
-5.969485439
 10
-6.3218309569
 20
-6.030128497
 10
-6.3080352547
 20
-6.0951487061
 10
-6.2897352661
 20
-6.1633386449
 10
-6.2666301304
 20
-6.2343192781
  0
LWPOLYLINE
  5
26D
100
AcDbEntity
  8
RACCORDO
100
AcDbPolyline
 62
250
  6
CONTINUOUS
 90
13
 70
0
 10
-6.2666301303
 20
-6.2343192781
 10
-6.2862163796
 20
-6.2443343179
 10
-6.3072277281
 20
-6.2541198179
 10
-6.3293434522
 20
-6.2635264094
 10
-6.352225971
 20
-6.2724105072
 10
-6.3755259989
 20
-6.2806365018
 10
-6.3988878771
 20
-6.2880788293
 10
-6.4219550031
 20
-6.2946238877
 10
-6.4443752732
 20
-6.3001717712
 10
-6.4658064578
 20
-6.3046377953
 10
-6.4859214248
 20
-6.3079537892
 10
-6.5044131333
 20
-6.3100691368
 10
-6.5209993204
 20
-6.3109515485
  0
LINE
  5
26E
100
AcDbEntity
  8
RACCORDO
100
AcDbLine
 62
7
  6
CONTINUOUS
 10
-6.1164277103
 20
-5.401458496
 11
-6.1168080869
 21
-5.4016265491
  0
LWPOLYLINE
  5
26F
100
AcDbEntity
  8
RACCORDO
100
AcDbPolyline
 62
7
  6
CONTINUOUS
 90
24
 70
0
 10
-6.1163851591
 20
-5.4014482685
 10
-6.0955846388
 20
-5.3937401986
 10
-6.0664428113
 20
-5.3870954723
 10
-6.0333338552
 20
-5.3841494379
 10
-5.9958073512
 20
-5.3854857735
 10
-5.9545640535
 20
-5.3916632132
 10
-5.9100469591
 20
-5.4030117162
 10
-5.8627058192
 20
-5.4197688199
 10
-5.8131941762
 20
-5.4420143834
 10
-5.7622310383
 20
-5.4696246266
 10
-5.7103904053
 20
-5.5024300353
 10
-5.6581758459
 20
-5.5402374967
 10
-5.6060245909
 20
-5.5828184821
 10
-5.554399136
 20
-5.6298685403
 10
-5.5037426632
 20
-5.6810542554
 10
-5.4543535807
 20
-5.7361293478
 10
-5.406646566
 20
-5.7946769558
 10
-5.3609803644
 20
-5.8563052406
 10
-5.3175328505
 20
-5.9208439872
 10
-5.2766515914
 20
-5.9878574428
 10
-5.2386610111
 20
-6.056903242
 10
-5.2037326581
 20
-6.1277944497
 10
-5.1721670554
 20
-6.2000612452
 10
-5.1445864778
 20
-6.2722924763
  0
LWPOLYLINE
  5
270
100
AcDbEntity
  8
RACCORDO
100
AcDbPolyline
 62
250
  6
CONTINUOUS
 90
9
 70
0
 10
-10.5667032143
 20
2.1607411298
 10
-10.5924838967
 20
2.161047841
 10
-10.6154413765
 20
2.1628715661
 10
-10.635404792
 20
2.166198732
 10
-10.652225565
 20
2.1710045761
 10
-10.6657785067
 20
2.1772533308
 10
-10.6759627489
 20
2.1848984897
 10
-10.6827024951
 20
2.1938831534
 10
-10.6844260473
 20
2.1978493239
  0
LINE
  5
271
100
AcDbEntity
  8
RACCORDO
100
AcDbLine
 62
7
  6
CONTINUOUS
 10
-4.0858476298
 20
-10.1176061112
 11
-4.085660352
 21
-10.1174692942
  0
LINE
  5
272
100
AcDbEntity
  8
RACCORDO
100
AcDbLine
 62
250
  6
CONTINUOUS
 10
-5.1666862485
 20
-9.3378347181
 11
-4.2353320358
 21
-8.8377735975
  0
LWPOLYLINE
  5
273
100
AcDbEntity
  8
DRAFT
100
AcDbPolyline
 62
7
  6
CONTINUOUS
 90
49
 70
0
 10
7.3316938537
 20
-2.652026142
 10
7.3208028963
 20
-2.1486108119
 10
7.2887745996
 20
-1.6365769857
 10
7.2356089637
 20
-1.1159246634
 10
7.1610458894
 20
-0.5852183673
 10
7.0653454758
 20
-0.045893575
 10
6.949288021
 20
0.4977432802
 10
6.8127955963
 20
1.0454615723
 10
6.6559461303
 20
1.5974919274
 10
6.479753707
 20
2.1502197904
 10
6.2839360755
 20
2.704028273
 10
6.0687754866
 20
3.2585342636
 10
5.8361327764
 20
3.8089738717
 10
5.5860955566
 20
4.3548446177
 10
5.3185762155
 20
4.8966489812
 10
5.0351727534
 20
5.4311305103
 10
4.7354626579
 20
5.9587733384
 10
4.4198684415
 20
6.4790933319
 10
4.0912556426
 20
6.9873816388
 10
3.7499176905
 20
7.4829750321
 10
3.3955611558
 20
7.9665367387
 10
3.0301712888
 20
8.4353475871
 10
2.6531972793
 20
8.8898729915
 10
2.2651899375
 20
9.3296475378
 10
1.8697869443
 20
9.7505558118
 10
1.467466572
 20
10.1519129502
 10
1.0577505484
 20
10.5344038162
 10
0.642841737
 20
10.8959675857
 10
0.2221222742
 20
11.2369325787
 10
-0.2037899763
 20
11.5569704753
 10
-0.6308385597
 20
11.8530354912
 10
-1.0584288797
 20
12.124549768
 10
-1.4871555326
 20
12.3720911641
 10
-1.9147458526
 20
12.5943474709
 10
-2.341794436
 20
12.7914274548
 10
-2.7677066865
 20
12.9632223493
 10
-3.1884261493
 20
13.1080936462
 10
-3.6033349606
 20
13.225656172
 10
-4.0130509843
 20
13.3162951002
 10
-4.4153713566
 20
13.3795274432
 10
-4.8107743498
 20
13.4152206347
 10
-5.1987816916
 20
13.423507241
 10
-5.5757557011
 20
13.4043019735
 10
-5.9411455681
 20
13.3574341846
 10
-6.2955021027
 20
13.283074522
 10
-6.6368400549
 20
13.1816496399
 10
-6.9654528538
 20
13.0528351563
 10
-7.2810470702
 20
12.8969554531
 10
-7.4316901829
 20
12.8102577475
  0
LWPOLYLINE
  5
274
100
AcDbEntity
  8
RACCORDO
100
AcDbPolyline
 62
250
  6
CONTINUOUS
 90
5
 70
0
 10
4.0478997197
 20
-12.1732742552
 10
4.0343669998
 20
-12.2322095004
 10
4.0180440248
 20
-12.2846269054
 10
3.9983933276
 20
-12.3310402629
 10
3.9754149081
 20
-12.3714495731
  0
LWPOLYLINE
  5
275
100
AcDbEntity
  8
RACCORDO
100
AcDbPolyline
 62
250
  6
CONTINUOUS
 90
13
 70
0
 10
-5.1666862485
 20
-9.3378347181
 10
-5.1862714354
 20
-9.3478492398
 10
-5.2072817478
 20
-9.3576343241
 10
-5.2293965345
 20
-9.3670406153
 10
-5.2522782409
 20
-9.3759245214
 10
-5.2755776604
 20
-9.3841504453
 10
-5.2989392672
 20
-9.3915928449
 10
-5.3220064797
 20
-9.3981380937
 10
-5.3444271646
 20
-9.4036862459
 10
-5.3658591069
 20
-9.4081525855
 10
-5.3859751144
 20
-9.4114688876
 10
-5.4044680212
 20
-9.4135844716
 10
-5.4210554385
 20
-9.4144669885
  0
LWPOLYLINE
  5
276
100
AcDbEntity
  8
DRAFT
100
AcDbPolyline
 62
7
  6
CONTINUOUS
 90
51
 70
0
 10
7.8003912637
 20
-2.9226461523
 10
7.78996676
 20
-2.4165369065
 10
7.7591956955
 20
-1.9018879526
 10
7.7080780702
 20
-1.3786992907
 10
7.6363661809
 20
-0.845567293
 10
7.5443077309
 20
-0.3038955873
 10
7.4326458295
 20
0.2421049431
 10
7.30136967
 20
0.7920011431
 10
7.1504900591
 20
1.3462261679
 10
6.9807825269
 20
1.9018685992
 10
6.7919028417
 20
2.4595683314
 10
6.5841952351
 20
3.0186854701
 10
6.3594679318
 20
3.5743889138
 10
6.117924164
 20
4.1259194456
 10
5.8593606995
 20
4.6740362825
 10
5.5849760662
 20
5.2161859742
 10
5.2942555928
 20
5.7531006907
 10
4.9877139506
 20
6.2840482621
 10
4.6680936808
 20
6.8042787282
 10
4.3357729016
 20
7.3129787549
 10
3.9903734948
 20
7.8109616763
 10
3.6335036471
 20
8.2959175356
 10
3.2646038891
 20
8.7684062603
 10
2.8842336902
 20
9.2278679229
 10
2.4956796444
 20
9.6703127837
 10
2.0993287756
 20
10.0951173998
 10
1.6947940599
 20
10.5029052142
 10
1.2842010192
 20
10.8915568158
 10
0.8671641314
 20
11.2612841993
 10
0.4440689186
 20
11.61187537
 10
0.0181974696
 20
11.9405749336
 10
-0.4102815982
 20
12.2470629559
 10
-0.8415369022
 20
12.5316593711
 10
-1.2727922061
 20
12.7925685874
 10
-1.7040475101
 20
13.0296621864
 10
-2.1353028141
 20
13.2430685864
 10
-2.5637818819
 20
13.4313774513
 10
-2.9896533309
 20
13.5944635622
 10
-3.4127485437
 20
13.7324521379
 10
-3.8297854315
 20
13.8443084992
 10
-4.2403784721
 20
13.929799449
 10
-4.6449131879
 20
13.9891581843
 10
-5.0412640566
 20
14.0220496165
 10
-5.4298181025
 20
14.0282972284
 10
-5.8101883014
 20
14.0080775373
 10
-6.1790880594
 20
13.9615850062
 10
-6.5359579071
 20
13.8887335019
 10
-6.8813573139
 20
13.7896091576
 10
-7.2136780931
 20
13.6646648369
 10
-7.5332983629
 20
13.5135238467
 10
-7.6092757946
 20
13.4730504623
  0
LWPOLYLINE
  5
277
100
AcDbEntity
  8
DRAFT
100
AcDbPolyline
 62
7
  6
CONTINUOUS
 90
15
 70
0
 10
7.7914654457
 20
-3.3456869553
 10
7.7391268834
 20
-3.7977996633
 10
7.6644885838
 20
-4.242849856
 10
7.5686916133
 20
-4.6720940177
 10
7.4525173116
 20
-5.0821226009
 10
7.3158878602
 20
-5.4726141239
 10
7.1588810777
 20
-5.8438900683
 10
6.9825117598
 20
-6.1935053311
 10
6.786497149
 20
-6.52151761
 10
6.5711200028
 20
-6.8278692073
 10
6.3382433902
 20
-7.1099419266
 10
6.0879552354
 20
-7.3673337677
 10
5.8201676143
 20
-7.6004467308
 10
5.536479823
 20
-7.8078686201
 10
5.2369918882
 20
-7.9895596581
  0
LINE
  5
278
100
AcDbEntity
  8
RACCORDO
100
AcDbLine
 62
250
  6
CONTINUOUS
 10
1.4519617343
 20
-12.5371494467
 11
2.5519056162
 21
-10.7038216304
  0
LINE
  5
279
100
AcDbEntity
  8
RACCORDO
100
AcDbLine
 62
250
  6
CONTINUOUS
 10
1.7063309244
 20
-12.6093679874
 11
2.8062748062
 21
-10.7760401711
  0
LINE
  5
27A
100
AcDbEntity
  8
RACCORDO
100
AcDbLine
 62
250
  6
CONTINUOUS
 10
2.7236510677
 20
-12.1504001448
 11
3.5018404032
 21
-10.8533556513
  0
LWPOLYLINE
  5
27B
100
AcDbEntity
  8
RACCORDO
100
AcDbPolyline
 62
250
  6
CONTINUOUS
 90
6
 70
0
 10
2.8062748061
 20
-10.7760401712
 10
2.8334208499
 20
-10.7365683669
 10
2.8643200148
 20
-10.7022597352
 10
2.8987160624
 20
-10.6732909311
 10
2.9362786609
 20
-10.6498269449
 10
2.9555362626
 20
-10.6404569179
  0
LWPOLYLINE
  5
27C
100
AcDbEntity
  8
RACCORDO
100
AcDbPolyline
 62
250
  6
CONTINUOUS
 90
36
 70
0
 10
2.5519056162
 20
-10.7038216304
 10
2.5854057613
 20
-10.6556432493
 10
2.6228013926
 20
-10.6140776919
 10
2.66409251
 20
-10.5791249581
 10
2.7095627168
 20
-10.5507041532
 10
2.7589284098
 20
-10.5288961719
 10
2.8113387794
 20
-10.5139436985
 10
2.8669067512
 20
-10.5059180104
 10
2.9255193996
 20
-10.5047478301
 10
2.9859871386
 20
-10.5104620101
 10
3.0483377451
 20
-10.5232002834
 10
3.1125434422
 20
-10.542822917
 10
3.1773313132
 20
-10.5689395639
 10
3.2427180278
 20
-10.6016821264
 10
3.3086869164
 20
-10.6409187022
 10
3.3739150533
 20
-10.6858632381
 10
3.4383850332
 20
-10.7366292598
 10
3.5021142615
 20
-10.7931032415
 10
3.5638320284
 20
-10.854158552
 10
3.6234986158
 20
-10.9198875689
 10
3.6811537417
 20
-10.9901979146
 10
3.7356458509
 20
-11.0636858246
 10
3.7869118477
 20
-11.1404164028
 10
3.8350148277
 20
-11.2203245453
 10
3.8789925228
 20
-11.3018111757
 10
3.9187609213
 20
-11.3849058085
 10
3.9544040348
 20
-11.4695789292
 10
3.9852116303
 20
-11.5541429186
 10
4.011084788
 20
-11.6386621574
 10
4.0321224275
 20
-11.7230722648
 10
4.0479110751
 20
-11.805492479
 10
4.0582099497
 20
-11.8861201381
 10
4.0632598324
 20
-11.964757904
 10
4.0633695918
 20
-12.0389330007
 10
4.0581047173
 20
-12.1083349625
 10
4.0478997197
 20
-12.1732742552
  0
LINE
  5
27D
100
AcDbEntity
  8
RACCORDO
100
AcDbLine
 62
250
  6
CONTINUOUS
 10
-3.66559774
 20
-12.2150300545
 11
-2.4123362619
 21
-11.4914236487
  0
LINE
  5
27E
100
AcDbEntity
  8
RACCORDO
100
AcDbLine
 62
250
  6
CONTINUOUS
 10
2.8415612309
 20
-14.0271096997
 11
2.845391618
 21
-14.020226952
  0
LINE
  5
27F
100
AcDbEntity
  8
RACCORDO
100
AcDbLine
 62
250
  6
CONTINUOUS
 10
2.9780202577
 20
-12.2226186856
 11
3.6804527334
 21
-11.0518416869
  0
LINE
  5
280
100
AcDbEntity
  8
RACCORDO
100
AcDbLine
 62
7
  6
CONTINUOUS
 10
3.9453354998
 20
-12.1868991357
 11
2.845391618
 21
-14.020226952
  0
LINE
  5
281
100
AcDbEntity
  8
RACCORDO
100
AcDbLine
 62
250
  6
CONTINUOUS
 10
3.9754149081
 20
-12.3714495731
 11
2.8754710263
 21
-14.2047773894
  0
LWPOLYLINE
  5
282
100
AcDbEntity
  8
RACCORDO
100
AcDbPolyline
 62
7
  6
CONTINUOUS
 90
6
 70
0
 10
2.845419935
 20
-14.020179779
 10
2.8367130124
 20
-14.0337750218
 10
2.8223472905
 20
-14.0527678296
 10
2.8071393321
 20
-14.0691351049
 10
2.7910236023
 20
-14.0831047924
 10
2.7877167513
 20
-14.0855991142
  0
LWPOLYLINE
  5
283
100
AcDbEntity
  8
RACCORDO
100
AcDbPolyline
 62
250
  6
CONTINUOUS
 90
13
 70
0
 10
-2.6089737004
 20
-14.0451565737
 10
-2.6262523334
 20
-14.0581295719
 10
-2.6430790772
 20
-14.0732789994
 10
-2.6591970835
 20
-14.0903736108
 10
-2.674360322
 20
-14.1091524688
 10
-2.6883373366
 20
-14.1293289274
 10
-2.7009147779
 20
-14.150595007
 10
-2.7119006602
 20
-14.1726260959
 10
-2.7211272915
 20
-14.1950859048
 10
-2.7284538339
 20
-14.2176316005
 10
-2.7337684528
 20
-14.2399190388
 10
-2.7369900243
 20
-14.2616080175
 10
-2.7380693733
 20
-14.2823674695
  0
LWPOLYLINE
  5
284
100
AcDbEntity
  8
DRAFT
100
AcDbPolyline
 62
7
  6
CONTINUOUS
 90
18
 70
0
 10
5.2217882816
 20
-8.7495747813
 10
5.2942555928
 20
-8.7043703412
 10
5.5849760662
 20
-8.5031723402
 10
5.8593606995
 20
-8.2778751453
 10
6.117924164
 20
-8.0283409161
 10
6.3594679318
 20
-7.7557390728
 10
6.5841952351
 20
-7.4595450859
 10
6.7919028417
 20
-7.140283485
 10
6.9807825269
 20
-6.8006972789
 10
7.1504900591
 20
-6.4410288519
 10
7.30136967
 20
-6.0610358198
 10
7.4326458295
 20
-5.6627340382
 10
7.5443077309
 20
-5.2456778726
 10
7.6363661809
 20
-4.8103129575
 10
7.7080780702
 20
-4.359992052
 10
7.7591956955
 20
-3.8958327425
 10
7.78996676
 20
-3.4167174426
 10
7.8003912637
 20
-2.9226461523
  0
LWPOLYLINE
  5
285
100
AcDbEntity
  8
DRAFT
100
AcDbPolyline
 62
7
  6
CONTINUOUS
 90
17
 70
0
 10
4.735983694
 20
-8.264727604
 10
5.0351727534
 20
-8.083217792
 10
5.3185762155
 20
-7.8760034771
 10
5.5860955566
 20
-7.6431237431
 10
5.8361327764
 20
-7.3859897111
 10
6.0687754866
 20
-7.1042000734
 10
6.2839360755
 20
-6.7981561376
 10
6.479753707
 20
-6.4704729475
 10
6.6559461303
 20
-6.1212076786
 10
6.8127955963
 20
-5.7503031553
 10
6.949288021
 20
-5.3602028939
 10
7.0653454758
 20
-4.9505862784
 10
7.1610458894
 20
-4.5217739249
 10
7.2356089637
 20
-4.077171198
 10
7.2887745996
 20
-3.6179132194
 10
7.3208028963
 20
-3.1428648674
 10
7.3316938537
 20
-2.652026142
  0
LINE
  5
286
100
AcDbEntity
  8
DRAFT
100
AcDbLine
 62
7
  6
CONTINUOUS
 10
5.237248574
 20
-7.9894186911
 11
4.7362401215
 21
-8.2645867787
  0
LINE
  5
287
100
AcDbEntity
  8
DRAFT
100
AcDbLine
 62
7
  6
CONTINUOUS
 10
5.1574053669
 20
-8.7358760704
 11
5.4457542502
 21
-8.5995231432
  0
LWPOLYLINE
  5
288
100
AcDbEntity
  8
RACCORDO
100
AcDbPolyline
 62
250
  6
CONTINUOUS
 90
13
 70
0
 10
-3.66559774
 20
-11.9338134545
 10
-3.6854715294
 20
-11.9422915098
 10
-3.7070042999
 20
-11.94928986
 10
-3.7298673689
 20
-11.9547016801
 10
-3.7537117474
 20
-11.9584443625
 10
-3.778173468
 20
-11.9604607778
 10
-3.8028791394
 20
-11.9607201468
 10
-3.8274516469
 20
-11.9592185103
 10
-3.8515159085
 20
-11.9559787899
 10
-3.8747045999
 20
-11.9510504376
 10
-3.8966637621
 20
-11.9445086813
 10
-3.9170582038
 20
-11.9364533762
 10
-3.9355766182
 20
-11.927007481
  0
LWPOLYLINE
  5
289
100
AcDbEntity
  8
RACCORDO
100
AcDbPolyline
 62
250
  6
CONTINUOUS
 90
13
 70
0
 10
-3.66559774
 20
-12.2150300545
 10
-3.6854708179
 20
-12.2235078439
 10
-3.7070028801
 20
-12.2305060632
 10
-3.7298652953
 20
-12.2359178738
 10
-3.7537090948
 20
-12.2396606463
 10
-3.7781703682
 20
-12.2416772344
 10
-3.8028758225
 20
-12.2419368304
 10
-3.8274483627
 20
-12.2404354305
 10
-3.8515128904
 20
-12.2371959117
 10
-3.8747020993
 20
-12.232267673
 10
-3.8966619937
 20
-12.2257258908
 10
-3.9170572975
 20
-12.2176703839
 10
-3.9355766182
 20
-12.2082240811
  0
LWPOLYLINE
  5
28A
100
AcDbEntity
  8
RACCORDO
100
AcDbPolyline
 62
250
  6
CONTINUOUS
 90
19
 70
0
 10
-3.2956862027
 20
-11.2190755488
 10
-3.3108238399
 20
-11.2253358196
 10
-3.3573103845
 20
-11.2483873836
 10
-3.3994052284
 20
-11.2749350946
 10
-3.4371756385
 20
-11.3042777449
 10
-3.4708313119
 20
-11.3358398778
 10
-3.5010664581
 20
-11.3695332831
 10
-3.5279824613
 20
-11.404872126
 10
-3.551738052
 20
-11.4414909914
 10
-3.5729692576
 20
-11.4797857138
 10
-3.5916654289
 20
-11.5193088901
 10
-3.6079751373
 20
-11.5600281934
 10
-3.6225005186
 20
-11.6033498734
 10
-3.6351997074
 20
-11.6494612128
 10
-3.6458655237
 20
-11.6981890643
 10
-3.654520309
 20
-11.7507590428
 10
-3.6609187764
 20
-11.807706666
 10
-3.6647098747
 20
-11.8687097903
 10
-3.66559774
 20
-11.9338134545
  0
LINE
  5
28B
100
AcDbEntity
  8
RACCORDO
100
AcDbLine
 62
7
  6
CONTINUOUS
 10
-3.2943837491
 20
-11.2185634543
 11
-3.2956862027
 21
-11.2190755488
  0
LINE
  5
28C
100
AcDbEntity
  8
RACCORDO
100
AcDbLine
 62
250
  6
CONTINUOUS
 10
-3.66559774
 20
-11.9338134545
 11
-2.4622632682
 21
-11.462596421
  0
LWPOLYLINE
  5
28D
100
AcDbEntity
  8
RACCORDO
100
AcDbPolyline
 62
7
  6
CONTINUOUS
 90
12
 70
0
 10
-3.2956158389
 20
-11.2190492502
 10
-3.2903950332
 20
-11.2170271925
 10
-3.2420311906
 20
-11.202249031
 10
-3.1903408965
 20
-11.193277271
 10
-3.1355395843
 20
-11.1901437341
 10
-3.0779841318
 20
-11.1928809404
 10
-3.0181605465
 20
-11.2014197004
 10
-2.956491799
 20
-11.2156360155
 10
-2.8935846838
 20
-11.2353183204
 10
-2.8302200656
 20
-11.2600574993
 10
-2.7669719527
 20
-11.2893942683
 10
-2.7042340705
 20
-11.3229175476
  0
LWPOLYLINE
  5
28E
100
AcDbEntity
  8
RACCORDO
100
AcDbPolyline
 62
250
  6
CONTINUOUS
 90
11
 70
0
 10
10.5186837717
 20
-4.0724857413
 10
10.4966582192
 20
-4.6471760284
 10
10.4515332578
 20
-5.2067668368
 10
10.3834021028
 20
-5.7501012272
 10
10.2924056015
 20
-6.2760557237
 10
10.1787316587
 20
-6.7835439415
 10
10.0426153355
 20
-7.271516225
 10
9.8843388154
 20
-7.7389617109
 10
9.7042298826
 20
-8.1849138492
 10
9.5026608704
 20
-8.608452064
 10
9.2800487025
 20
-9.0087013296
  0
LWPOLYLINE
  5
28F
100
AcDbEntity
  8
RACCORDO
100
AcDbPolyline
 62
250
  6
CONTINUOUS
 90
68
 70
0
 10
8.021118802
 20
-8.5716343423
 10
8.2360014104
 20
-8.1840056477
 10
8.4291764701
 20
-7.7748672712
 10
8.6006439813
 20
-7.3442192129
 10
8.7507208495
 20
-6.8909599224
 10
8.8790901691
 20
-6.4161909501
 10
8.984801223
 20
-5.9232169467
 10
9.0676701972
 20
-5.4119699118
 10
9.1278809056
 20
-4.8825178458
 10
9.1650340732
 20
-4.3383694005
 10
9.1789763221
 20
-3.7794308609
 10
9.1698610302
 20
-3.205795942
 10
9.1377490556
 20
-2.621254441
 10
9.0824881939
 20
-2.0257329538
 10
9.0042306496
 20
-1.4193048845
 10
8.9034938941
 20
-0.8059802422
 10
8.7801289703
 20
-0.1857133904
 10
8.6342848354
 20
0.4414500345
 10
8.4669258328
 20
1.0713631142
 10
8.2779093757
 20
1.7040441161
 10
8.067378051
 20
2.3394747728
 10
7.8367239624
 20
2.9734533645
 10
7.5858137599
 20
3.6059702557
 10
7.3147807936
 20
4.2370350819
 10
7.0254172171
 20
4.8624750294
 10
6.7176015539
 20
5.4822528241
 10
6.3914552806
 20
6.0964057401
 10
6.0491349808
 20
6.7008727861
 10
5.6905334697
 20
7.295589775
 10
5.315757932
 20
7.8806208937
 10
4.9272865063
 20
8.4520977117
 10
4.5250284309
 20
9.009930405
 10
4.1090744675
 20
9.5542087976
 10
3.6821750388
 20
10.0813339303
 10
3.2442576085
 20
10.5911921314
 10
2.7953947129
 20
11.0838970728
 10
2.3385543837
 20
11.5561908109
 10
1.8736837474
 20
12.007938087
 10
1.4008356774
 20
12.4392741598
 10
0.9231368257
 20
12.8473468622
 10
0.4405550453
 20
13.2320020256
 10
-0.0468775169
 20
13.5933938185
 10
-0.5359377675
 20
13.9291325794
 10
-1.026636485
 20
14.2390482998
 10
-1.518962891
 20
14.5233109882
 10
-2.0096615562
 20
14.7800410081
 10
-2.49872169
 20
15.009055902
 10
-2.986154083
 20
15.2105381273
 10
-3.468735678
 20
15.3831554198
 10
-3.9464343405
 20
15.5267164961
 10
-4.4192822049
 20
15.6414126395
 10
-4.8841526179
 20
15.7264854356
 10
-5.3409927105
 20
15.7817385674
 10
-5.7898553516
 20
15.8073683519
 10
-6.227772495
 20
15.8032053262
 10
-6.6546715979
 20
15.7690520539
 10
-7.0706252031
 20
15.7051059714
 10
-7.4728828932
 20
15.6117899243
 10
-7.8613539079
 20
15.4889092797
 10
-8.2361290075
 20
15.3366586707
 10
-8.5947300554
 20
15.1560448418
 10
-8.9370498663
 20
14.9468798318
 10
-9.2631956255
 20
14.7093516021
 10
-9.5710107529
 20
14.445030781
 10
-9.8603737717
 20
14.1537398163
 10
-10.1314061587
 20
13.8356562602
 10
-10.3823157638
 20
13.4928833975
 10
-10.6129692369
 20
13.1252576032
  0
LWPOLYLINE
  5
290
100
AcDbEntity
  8
RACCORDO
100
AcDbPolyline
 62
250
  6
CONTINUOUS
 90
68
 70
0
 10
8.3428520055
 20
-8.771238305
 10
8.5624893524
 20
-8.3752959994
 10
8.7605989774
 20
-7.9555753682
 10
8.9367423495
 20
-7.5130043434
 10
9.0905297474
 20
-7.0485606338
 10
9.2216203376
 20
-6.563271863
 10
9.329723309
 20
-6.0582136377
 10
9.4145994191
 20
-5.534503747
 10
9.4760610579
 20
-4.9932998565
 10
9.5139722184
 20
-4.4357995373
 10
9.5282490752
 20
-3.8632362149
 10
9.5188601062
 20
-3.2768760288
 10
9.4858260791
 20
-2.6780155439
 10
9.4292200246
 20
-2.0679791515
 10
9.3491671368
 20
-1.4481163149
 10
9.2458444922
 20
-0.8197982142
 10
9.1194806376
 20
-0.1844146433
 10
8.9703550622
 20
0.4566290928
 10
8.7987976025
 20
1.1019151343
 10
8.6051877114
 20
1.7500162262
 10
8.3899536234
 20
2.3994988684
 10
8.1535714023
 20
3.0489265082
 10
7.8965638872
 20
3.6968627174
 10
7.6194995349
 20
4.3418743732
 10
7.3229911638
 20
4.982534821
 10
7.0076946
 20
5.6174270291
 10
6.674307227
 20
6.2451467209
 10
6.3235664426
 20
6.8643054843
 10
5.956248027
 20
7.4735338433
 10
5.5731644265
 20
8.0714842878
 10
5.1751629572
 20
8.6568342529
 10
4.7631239311
 20
9.2282890432
 10
4.3379587095
 20
9.784584696
 10
3.9006076871
 20
10.3244907782
 10
3.452038211
 20
10.8468131081
 10
2.9932424415
 20
11.3503963964
 10
2.525235158
 20
11.8341268013
 10
2.0490515143
 20
12.2969343922
 10
1.5657447485
 20
12.7377955166
 10
1.076383854
 20
13.1557350639
 10
0.5820512148
 20
13.5498286218
 10
0.0838402119
 20
13.9192045217
 10
-0.4171471963
 20
14.2630457666
 10
-0.9198029099
 20
14.5805918373
 10
-1.4230151387
 20
14.871140375
 10
-1.9256708615
 20
15.1340487349
 10
-2.4266582883
 20
15.368735408
 10
-2.9248693189
 20
15.5746813065
 10
-3.4192019933
 20
15.7514309124
 10
-3.9085629302
 20
15.8985932851
 10
-4.3918697457
 20
16.0158429266
 10
-4.8680534468
 20
16.1029205003
 10
-5.3360607949
 20
16.1596334055
 10
-5.7948566365
 20
16.1858562026
 10
-6.2434261928
 20
16.1815308912
 10
-6.6807773038
 20
16.1466670381
 10
-7.1059426216
 20
16.081341756
 10
-7.5179817509
 20
15.9856995338
 10
-7.9159833298
 20
15.8599519161
 10
-8.2990670462
 20
15.7043770356
 10
-8.666385584
 20
15.5193189976
 10
-9.0171264968
 20
15.3051871189
 10
-9.3505140038
 20
15.0624550235
 10
-9.6658107073
 20
14.7916595945
 10
-9.9623192231
 20
14.4933997868
 10
-10.239383725
 20
14.1683353005
 10
-10.496391394
 20
13.8171851223
 10
-10.7327737731
 20
13.4407259355
  0
LINE
  5
291
100
AcDbEntity
  8
RACCORDO
100
AcDbLine
 62
250
  6
CONTINUOUS
 10
3.6197973449
 20
-15.9075222808
 11
8.021118802
 21
-8.5716343423
  0
LWPOLYLINE
  5
292
100
AcDbEntity
  8
RACCORDO
100
AcDbPolyline
 62
250
  6
CONTINUOUS
 90
40
 70
0
 10
2.8754710263
 20
-14.2047773894
 10
2.8420039528
 20
-14.2529357398
 10
2.8046234427
 20
-14.2944902864
 10
2.7633294961
 20
-14.3294410292
 10
2.7178452141
 20
-14.3578771697
 10
2.6684474955
 20
-14.3797095064
 10
2.6159670366
 20
-14.3946704341
 10
2.5602716441
 20
-14.4026852272
 10
2.5014935112
 20
-14.4038286114
 10
2.4408599144
 20
-14.3980571592
 10
2.3783554643
 20
-14.3852255674
 10
2.3139955501
 20
-14.3654791391
 10
2.2490536165
 20
-14.3392103563
 10
2.1835085198
 20
-14.3062849092
 10
2.1173814036
 20
-14.2668371076
 10
2.0520091429
 20
-14.2216623623
 10
1.9874115812
 20
-14.1706471807
 10
1.9235688749
 20
-14.1139050553
 10
1.8617583683
 20
-14.0525718744
 10
1.8020188417
 20
-13.9865525099
 10
1.7443115148
 20
-13.9159420898
 10
1.6897973906
 20
-13.8421618861
 10
1.6385436118
 20
-13.7651524975
 10
1.5904830358
 20
-13.6849733253
 10
1.5465752383
 20
-13.6032238456
 10
1.5068699589
 20
-13.5196713912
 10
1.471317458
 20
-13.4345486295
 10
1.4407280926
 20
-13.3501530376
 10
1.4153581512
 20
-13.2662112691
 10
1.3949513453
 20
-13.1829966705
 10
1.3795491653
 20
-13.103626759
 10
1.3694295102
 20
-13.0294262253
 10
1.3643144812
 20
-12.9590703787
 10
1.363411872
 20
-12.891702664
 10
1.3661950543
 20
-12.8274592143
 10
1.3731906566
 20
-12.7662038966
 10
1.3851863578
 20
-12.7066717564
 10
1.4024447177
 20
-12.6484411423
 10
1.4247031765
 20
-12.5919337057
 10
1.4519617343
 20
-12.5371494467
  0
LINE
  5
293
100
AcDbEntity
  8
RACCORDO
100
AcDbLine
 62
250
  6
CONTINUOUS
 10
-2.6089737004
 20
-14.0451565737
 11
-0.3215806339
 21
-12.7244444849
  0
LINE
  5
294
100
AcDbEntity
  8
RACCORDO
100
AcDbLine
 62
250
  6
CONTINUOUS
 10
2.8062748062
 20
-10.7760401711
 11
3.1249815452
 21
-10.6322544166
  0
LINE
  5
295
100
AcDbEntity
  8
RACCORDO
100
AcDbLine
 62
7
  6
CONTINUOUS
 10
2.9555362626
 20
-10.6404569179
 11
2.9560968496
 21
-10.6402081493
  0
LWPOLYLINE
  5
296
100
AcDbEntity
  8
RACCORDO
100
AcDbPolyline
 62
7
  6
CONTINUOUS
 90
35
 70
0
 10
2.955525175
 20
-10.6404629513
 10
2.9623041354
 20
-10.6375977989
 10
2.9918335702
 20
-10.6284695424
 10
3.0243705959
 20
-10.6235493824
 10
3.0612357679
 20
-10.62296387
 10
3.1026784521
 20
-10.6273693703
 10
3.1478362507
 20
-10.6372602824
 10
3.1961849868
 20
-10.6529162637
 10
3.2471343737
 20
-10.6745056622
 10
3.3000175684
 20
-10.7020484101
 10
3.3543435044
 20
-10.7355302278
 10
3.4095645449
 20
-10.7748642961
 10
3.4650452858
 20
-10.8198190879
 10
3.5203386119
 20
-10.8702156694
 10
3.5749620033
 20
-10.9258273373
 10
3.6282901663
 20
-10.9862137169
 10
3.67975305
 20
-11.0508665268
 10
3.7288889646
 20
-11.1193480473
 10
3.7751786718
 20
-11.1910596328
 10
3.8180609342
 20
-11.2651741867
 10
3.857160456
 20
-11.3410529288
 10
3.8921462485
 20
-11.418027504
 10
3.9226535615
 20
-11.4951582621
 10
3.9484546603
 20
-11.5716317118
 10
3.9694776836
 20
-11.6468931191
 10
3.9856796072
 20
-11.7203408645
 10
3.9969994165
 20
-11.7910240865
 10
4.0035661656
 20
-11.8586215421
 10
4.0055073167
 20
-11.9232573909
 10
4.002849761
 20
-11.9842474618
 10
3.9957297229
 20
-12.0408176124
 10
3.9843483933
 20
-12.0924902116
 10
3.9690529331
 20
-12.1384768698
 10
3.9503925466
 20
-12.1781294879
 10
3.945546906
 20
-12.1865481246
  0
LWPOLYLINE
  5
297
100
AcDbEntity
  8
RACCORDO
100
AcDbPolyline
 62
250
  6
CONTINUOUS
 90
33
 70
0
 10
11.876379326
 20
-2.6993216162
 10
11.8521175859
 20
-2.0980240653
 10
11.8047634719
 20
-1.4852729382
 10
11.7344148377
 20
-0.862334986
 10
11.6412170378
 20
-0.2304976011
 10
11.5253625789
 20
0.4089337209
 10
11.3870909295
 20
1.0546369762
 10
11.2266881347
 20
1.7052764707
 10
11.0444860724
 20
2.3595064846
 10
10.8408611906
 20
3.0159757262
 10
10.6162338336
 20
3.6733290197
 10
10.3710677368
 20
4.3302088732
 10
10.1058699207
 20
4.9852564401
 10
9.821189254
 20
5.6371160005
 10
9.5176147989
 20
6.2844390622
 10
9.1957735643
 20
6.9258889484
 10
8.856329843
 20
7.5601416832
 10
8.4999844751
 20
8.1858874658
 10
8.1274745142
 20
8.8018317587
 10
7.7395708828
 20
9.4066998381
 10
7.3370760779
 20
9.9992405749
 10
6.9208214056
 20
10.5782303616
 10
6.4916662012
 20
11.1424739132
 10
6.0504967601
 20
11.6908057709
 10
5.5982255063
 20
12.2220917057
 10
5.1357881376
 20
12.7352325374
 10
4.664141042
 20
13.2291671486
 10
4.1842585236
 20
13.7028753248
 10
3.6971316924
 20
14.1553787197
 10
3.2037669425
 20
14.5857423823
 10
2.7051843802
 20
14.9930763839
 10
2.2024149777
 20
15.3765384237
 10
1.6964981021
 20
15.735335819
  0
LWPOLYLINE
  5
298
100
AcDbEntity
  8
RACCORDO
100
AcDbPolyline
 62
7
  6
CONTINUOUS
 90
34
 70
0
 10
11.8695089549
 20
-2.2301378599
 10
11.8488653591
 20
-1.637744434
 10
11.8049188602
 20
-1.034697449
 10
11.737835207
 20
-0.4222445988
 10
11.6478103426
 20
0.1984149986
 10
11.5350943003
 20
0.8259536946
 10
11.4000164705
 20
1.4588912336
 10
11.2429459514
 20
2.0958329357
 10
11.0642520999
 20
2.7355488216
 10
10.864344828
 20
3.3767665739
 10
10.6436880216
 20
4.0181527491
 10
10.4027775779
 20
4.658393869
 10
10.1421229475
 20
5.2962330995
 10
9.8622934407
 20
5.9303504186
 10
9.5638919691
 20
6.5594393197
 10
9.2475241155
 20
7.1822643446
 10
8.9138578132
 20
7.7975359885
 10
8.5635935383
 20
8.403980145
 10
8.1974255635
 20
9.0003995422
 10
7.816110711
 20
9.5855545514
 10
7.4204359521
 20
10.1582251392
 10
7.0111733452
 20
10.7172714907
 10
6.5891554039
 20
11.2615241324
 10
6.1552434951
 20
11.7898353897
 10
5.7102764674
 20
12.3011385462
 10
5.2551449466
 20
12.7943553803
 10
4.7907732137
 20
13.2684248876
 10
4.3180635385
 20
13.72235973
 10
3.837941192
 20
14.1551955592
 10
3.3513849758
 20
14.565968833
 10
2.8593784295
 20
14.9537653482
 10
2.3628967011
 20
15.3177274782
 10
1.8629197851
 20
15.6570406755
 10
1.3604422473
 20
15.9709269487
  0
LINE
  5
299
100
AcDbEntity
  8
RACCORDO
100
AcDbLine
 62
250
  6
CONTINUOUS
 10
11.8780928576
 20
-2.7929783476
 11
11.876379326
 21
-2.6993216162
  0
LINE
  5
29A
100
AcDbEntity
  8
DRAFT
100
AcDbLine
 62
7
  6
CONTINUOUS
 10
11.8695089549
 20
-2.2301378599
 11
11.8780928576
 21
-2.7929783476
  0
LWPOLYLINE
  5
29B
100
AcDbEntity
  8
DRAFT
100
AcDbPolyline
 62
7
  6
CONTINUOUS
 90
61
 70
0
 10
10.0601633307
 20
-8.7343975687
 10
10.2849557341
 20
-8.3302385046
 10
10.4885480762
 20
-7.9024752572
 10
10.6705054251
 20
-7.4519764144
 10
10.8304698035
 20
-6.9795524818
 10
10.9680531051
 20
-6.4862633805
 10
11.0828874316
 20
-5.9734610065
 10
11.1747198619
 20
-5.442536053
 10
11.243462257
 20
-4.8943242518
 10
11.2890383699
 20
-4.329385892
 10
11.3113208576
 20
-3.7483946929
 10
11.3101765713
 20
-3.1529676314
 10
11.2856144768
 20
-2.5451347379
 10
11.2377950705
 20
-1.9267873037
 10
11.1668561436
 20
-1.2986414296
 10
11.0728287872
 20
-0.6610001636
 10
10.9557074645
 20
-0.0144399293
 10
10.8157690386
 20
0.6390164106
 10
10.6535491656
 20
1.2968783393
 10
10.4696775184
 20
1.9569794118
 10
10.2644120102
 20
2.6187340826
 10
10.0377951447
 20
3.2820021298
 10
9.7899151095
 20
3.9462393196
 10
9.5214961889
 20
4.6092423009
 10
9.2335974506
 20
5.268395144
 10
8.9272622654
 20
5.9215350375
 10
8.602830186
 20
6.5681496835
 10
8.2603708516
 20
7.2081023075
 10
7.9001025094
 20
7.8408023244
 10
7.5231254634
 20
8.4641430826
 10
7.1308744025
 20
9.0757482869
 10
6.7246573496
 20
9.6737260825
 10
6.3049232009
 20
10.2575577812
 10
5.8718772835
 20
10.8269624716
 10
5.4259467537
 20
11.3812608165
 10
4.9684432932
 20
11.9187077819
 10
4.5009221311
 20
12.437469789
 10
4.0247486157
 20
12.9361202438
 10
3.5405564592
 20
13.4140821185
 10
3.0488459246
 20
13.8708683692
 10
2.5503401209
 20
14.3057463326
 10
2.0463381902
 20
14.7175225038
 10
1.5382131247
 20
15.105066166
 10
1.0271690791
 20
15.4674891027
 10
0.514115628
 20
15.8041762481
 10
-0.0
 20
16.1145149661
 10
-0.514115628
 20
16.3978640885
 10
-1.0271690791
 20
16.6536382084
 10
-1.5382131247
 20
16.8813561256
 10
-2.0463381902
 20
17.0805825526
 10
-2.5503401209
 20
17.2508151777
 10
-3.0488459246
 20
17.3915992209
 10
-3.5405564592
 20
17.5026279704
 10
-4.0247486157
 20
17.5837990614
 10
-4.5009221311
 20
17.6350218464
 10
-4.9684432932
 20
17.6561415585
 10
-5.4259467537
 20
17.6470081215
 10
-5.8718772835
 20
17.6076591748
 10
-6.3049232009
 20
17.5383250551
 10
-6.7246573496
 20
17.4391918302
 10
-7.1308744025
 20
17.3103033051
  0
LINE
  5
29C
100
AcDbEntity
  8
RACCORDO
100
AcDbLine
 62
250
  6
CONTINUOUS
 10
3.9415305483
 20
-16.1071262435
 11
8.3428520055
 21
-8.771238305
  0
LINE
  5
29D
100
AcDbEntity
  8
RACCORDO
100
AcDbLine
 62
250
  6
CONTINUOUS
 10
9.2800487025
 20
-9.0087013296
 11
4.8787272453
 21
-16.3445892681
  0
LINE
  5
29E
100
AcDbEntity
  8
RACCORDO
100
AcDbLine
 62
250
  6
CONTINUOUS
 10
9.6200307547
 20
-8.9767600428
 11
5.2187092975
 21
-16.3126479813
  0
LWPOLYLINE
  5
29F
100
AcDbEntity
  8
RACCORDO
100
AcDbPolyline
 62
250
  6
CONTINUOUS
 90
23
 70
0
 10
4.8787272453
 20
-16.3445892681
 10
4.7220333431
 20
-16.5842943106
 10
4.5506409145
 20
-16.8056284616
 10
4.3650163442
 20
-17.007989409
 10
4.1656647279
 20
-17.1908264857
 10
3.9531285512
 20
-17.3536421177
 10
3.7279862255
 20
-17.4959931961
 10
3.490850442
 20
-17.6174923407
 10
3.2423664745
 20
-17.7178089448
 10
2.9832104834
 20
-17.7966700313
 10
2.714087553
 20
-17.853861021
 10
2.4357301502
 20
-17.8892262371
 10
2.1488961521
 20
-17.9026694359
 10
1.8543667259
 20
-17.8941541629
 10
1.5529428074
 20
-17.8637037271
 10
1.2454432229
 20
-17.8114007865
 10
0.932704171
 20
-17.7373873155
 10
0.6155771402
 20
-17.6418645781
 10
0.2949251714
 20
-17.5250923442
 10
-0.0283800849
 20
-17.3873877827
 10
-0.35345795
 20
-17.2291257396
 10
-0.6794209768
 20
-17.0507383427
 10
-0.7898375693
 20
-16.9858587524
  0
LINE
  5
2A0
100
AcDbEntity
  8
RACCORDO
100
AcDbLine
 62
250
  6
CONTINUOUS
 10
0.3215806339
 20
-15.7372219179
 11
1.3314135621
 21
-14.9305582763
  0
LINE
  5
2A1
100
AcDbEntity
  8
RACCORDO
100
AcDbLine
 62
7
  6
CONTINUOUS
 10
1.1258465758
 20
-15.77407342
 11
1.1267171652
 21
-15.7733795421
  0
LWPOLYLINE
  5
2A2
100
AcDbEntity
  8
RACCORDO
100
AcDbPolyline
 62
250
  6
CONTINUOUS
 90
13
 70
0
 10
0.3215806339
 20
-15.7372219179
 10
0.304302587
 20
-15.7501944327
 10
0.2874763107
 20
-15.7653433122
 10
0.2713586395
 20
-15.7824373623
 10
0.2561956125
 20
-15.8012156738
 10
0.2422186719
 20
-15.8213916588
 10
0.2296411424
 20
-15.8426574369
 10
0.2186550389
 20
-15.8646884358
 10
0.2094281
 20
-15.8871483744
 10
0.2021012005
 20
-15.9096944615
 10
0.1967862379
 20
-15.9319825467
 10
0.1935644102
 20
-15.9536723729
 10
0.192484961
 20
-15.9744328136
  0
LINE
  5
2A3
100
AcDbEntity
  8
RACCORDO
100
AcDbLine
 62
7
  6
CONTINUOUS
 10
2.7877911365
 20
-14.085545162
 11
2.7871695429
 21
-14.0860000878
  0
LWPOLYLINE
  5
2A4
100
AcDbEntity
  8
RACCORDO
100
AcDbPolyline
 62
250
  6
CONTINUOUS
 90
6
 70
0
 10
10.486842072
 20
-8.4762740518
 10
10.5156445439
 20
-8.4567711427
 10
10.5418473047
 20
-8.4346992852
 10
10.56525534
 20
-8.4102227497
 10
10.5856944347
 20
-8.3835237034
 10
10.5950914033
 20
-8.3688382503
  0
LINE
  5
2A5
100
AcDbEntity
  8
RACCORDO
100
AcDbLine
 62
250
  6
CONTINUOUS
 10
10.0601633307
 20
-8.7343975687
 11
10.486842072
 21
-8.4762740518
  0
LINE
  5
2A6
100
AcDbEntity
  8
RACCORDO
100
AcDbLine
 62
250
  6
CONTINUOUS
 10
9.6200307547
 20
-8.9767600428
 11
10.0601633307
 21
-8.7343975687
  0
LWPOLYLINE
  5
2A7
100
AcDbEntity
  8
RACCORDO
100
AcDbPolyline
 62
250
  6
CONTINUOUS
 90
10
 70
0
 10
9.6200307547
 20
-8.9767600428
 10
9.587943065
 20
-8.9924143497
 10
9.5538006869
 20
-9.0051850192
 10
9.5178577257
 20
-9.0149770052
 10
9.4803816879
 20
-9.0217174306
 10
9.4416514896
 20
-9.0253561296
 10
9.4019553813
 20
-9.0258660212
 10
9.3615888022
 20
-9.0232433105
 10
9.3208521815
 20
-9.0175075171
 10
9.2800487025
 20
-9.0087013296
  0
LINE
  5
2A8
100
AcDbEntity
  8
RACCORDO
100
AcDbLine
 62
250
  6
CONTINUOUS
 10
2.7236510677
 20
-12.1504001448
 11
1.7063309244
 21
-12.6093679874
  0
LWPOLYLINE
  5
2A9
100
AcDbEntity
  8
RACCORDO
100
AcDbPolyline
 62
250
  6
CONTINUOUS
 90
3
 70
0
 10
-0.3215806339
 20
-12.7244444849
 10
-0.3043026525
 20
-12.7174647659
 10
-0.2936169451
 20
-12.7147456284
  0
LWPOLYLINE
  5
2AA
100
AcDbEntity
  8
RACCORDO
100
AcDbPolyline
 62
7
  6
CONTINUOUS
 90
12
 70
0
 10
10.5950914033
 20
-8.3688382503
 10
10.8321474316
 20
-7.9421181705
 10
11.0461935805
 20
-7.490500146
 10
11.2367333613
 20
-7.0148457872
 10
11.403349677
 20
-6.515940017
 10
11.5455939522
 20
-5.9948030459
 10
11.6630316777
 20
-5.4527522782
 10
11.7554201764
 20
-4.8905625434
 10
11.8224580445
 20
-4.3095651165
 10
11.8638844887
 20
-3.7121529325
 10
11.8796988933
 20
-3.0999320613
 10
11.8780991586
 20
-2.7933918629
  0
LWPOLYLINE
  5
2AB
100
AcDbEntity
  8
RACCORDO
100
AcDbPolyline
 62
250
  6
CONTINUOUS
 90
62
 70
0
 10
10.486842072
 20
-8.4762740518
 10
10.7115585052
 20
-8.0722408639
 10
10.9150315192
 20
-7.6447003835
 10
11.0968405648
 20
-7.1945362729
 10
11.2566098517
 20
-6.7226790107
 10
11.3940091824
 20
-6.2301038038
 10
11.5087546086
 20
-5.7178285476
 10
11.6006089647
 20
-5.186911878
 10
11.6693823431
 20
-4.638451235
 10
11.7149325593
 20
-4.0735804377
 10
11.7371654724
 20
-3.4934670008
 10
11.7360351355
 20
-2.8993099348
 10
11.7115439048
 20
-2.2923375321
 10
11.6637424713
 20
-1.6738047286
 10
11.5927296592
 20
-1.0449895744
 10
11.4986521177
 20
-0.4071907955
 10
11.3817040595
 20
0.2382742206
 10
11.2421272362
 20
0.8900706046
 10
11.0802104683
 20
1.5468496696
 10
10.8962888308
 20
2.2072528132
 10
10.6907422938
 20
2.8699161738
 10
10.463995126
 20
3.5334719385
 10
10.2165154115
 20
4.1965498696
 10
9.9488149715
 20
4.8577782398
 10
9.6614478658
 20
5.5157885044
 10
9.3550087183
 20
6.169219442
 10
9.0301304507
 20
6.8167217719
 10
8.6874836307
 20
7.4569590152
 10
8.3277757199
 20
8.0886090002
 10
7.9517507198
 20
8.7103649916
 10
7.5601868085
 20
9.3209402685
 10
7.1538940392
 20
9.9190719172
 10
6.7337115732
 20
10.5035247647
 10
6.3005068763
 20
11.0730922174
 10
5.855174623
 20
11.6265978034
 10
5.3986358312
 20
12.162896615
 10
4.9318350032
 20
12.6808791302
 10
4.4557375337
 20
13.179474235
 10
3.9713269332
 20
13.6576520718
 10
3.4796036835
 20
14.1144250433
 10
2.9815836861
 20
14.5488493688
 10
2.4782966601
 20
14.9600267366
 10
1.9707832889
 20
15.347106912
 10
1.4600927381
 20
15.7092897385
 10
0.9472803314
 20
16.0458268195
 10
0.4334058357
 20
16.3560226882
 10
-0.0804686271
 20
16.6392362077
 10
-0.5932809728
 20
16.8948820316
 10
-1.1039714912
 20
17.1224318624
 10
-1.6114848937
 20
17.3214154441
 10
-2.1147719782
 20
17.4914213614
 10
-2.612792011
 20
17.6320980764
 10
-3.1045152441
 20
17.7431548054
 10
-3.5889258073
 20
17.8243622046
 10
-4.0650232593
 20
17.8755525474
 10
-4.5318241118
 20
17.8966199552
 10
-4.9883629449
 20
17.8875207213
 10
-5.4336952264
 20
17.8482736805
 10
-5.8668999232
 20
17.7789601777
 10
-6.2870823788
 20
17.6797235387
 10
-6.6933751473
 20
17.550768625
 10
-7.0849390764
 20
17.3923615611
  0
LINE
  5
2AC
100
AcDbEntity
  8
DRAFT
100
AcDbLine
 62
7
  6
CONTINUOUS
 10
5.6588418735
 20
-16.0702855072
 11
10.0601633307
 21
-8.7343975687
  0
LINE
  5
2AD
100
AcDbEntity
  8
RACCORDO
100
AcDbLine
 62
250
  6
CONTINUOUS
 10
6.0855206148
 20
-15.8121619904
 11
10.486842072
 21
-8.4762740518
  0
LINE
  5
2AE
100
AcDbEntity
  8
RACCORDO
100
AcDbLine
 62
7
  6
CONTINUOUS
 10
6.1937699461
 20
-15.7047261888
 11
10.5950914033
 21
-8.3688382503
  0
LWPOLYLINE
  5
2AF
100
AcDbEntity
  8
RACCORDO
100
AcDbPolyline
 62
250
  6
CONTINUOUS
 90
5
 70
0
 10
5.2187092975
 20
-16.3126479813
 10
5.0593658967
 20
-16.5564061343
 10
4.8850754856
 20
-16.7814827029
 10
4.6963123474
 20
-16.9872652071
 10
4.4935901477
 20
-17.1731936711
  0
LWPOLYLINE
  5
2B0
100
AcDbEntity
  8
RACCORDO
100
AcDbPolyline
 62
250
  6
CONTINUOUS
 90
37
 70
0
 10
2.7871695429
 20
-14.0860000878
 10
2.74931642
 20
-14.1096812738
 10
2.7088050993
 20
-14.127604125
 10
2.6654636082
 20
-14.1399530173
 10
2.6194928621
 20
-14.1466378744
 10
2.5712730394
 20
-14.1475723343
 10
2.5211764955
 20
-14.1427436557
 10
2.4695659087
 20
-14.1321934274
 10
2.4167697573
 20
-14.1159952274
 10
2.3631293724
 20
-14.0942542786
 10
2.3089989299
 20
-14.0671111117
 10
2.2547526188
 20
-14.0347503659
 10
2.2007660271
 20
-13.9973955077
 10
2.1474082197
 20
-13.9553031023
 10
2.0950360728
 20
-13.9087558921
 10
2.044000645
 20
-13.8580660621
 10
1.9946452807
 20
-13.8035739855
 10
1.9473060411
 20
-13.7456500314
 10
1.9023059348
 20
-13.684689621
 10
1.8599514949
 20
-13.6211093193
 10
1.8205260756
 20
-13.555335878
 10
1.784291827
 20
-13.4878062532
 10
1.7514186607
 20
-13.4188070142
 10
1.7222236648
 20
-13.3489704289
 10
1.6970744776
 20
-13.2792775784
 10
1.6759663101
 20
-13.2098747525
 10
1.6590789894
 20
-13.1415417836
 10
1.6466634441
 20
-13.076141552
 10
1.6385434572
 20
-13.0149286147
 10
1.6342077029
 20
-12.9571267276
 10
1.6333664187
 20
-12.9015174954
 10
1.6359215234
 20
-12.8487014716
 10
1.6417702707
 20
-12.7985237776
 10
1.651308412
 20
-12.7490532147
 10
1.6650957954
 20
-12.7002136657
 10
1.6833396792
 20
-12.6534150393
 10
1.7063309243
 20
-12.6093679874
  0
LWPOLYLINE
  5
2B1
100
AcDbEntity
  8
RACCORDO
100
AcDbPolyline
 62
7
  6
CONTINUOUS
 90
19
 70
0
 10
0.8784232123
 20
16.2590729894
 10
0.8231400954
 20
16.2919711574
 10
0.2866980637
 20
16.5950194731
 10
-0.2496626711
 20
16.8686794877
 10
-0.7850821637
 20
17.1124332973
 10
-1.31825284
 20
17.3255957396
 10
-1.8471168438
 20
17.5073449863
 10
-2.3703535459
 20
17.6573253308
 10
-2.8872310119
 20
17.7754151014
 10
-3.3966422741
 20
17.8614239254
 10
-3.8977955859
 20
17.9152614689
 10
-4.3894863519
 20
17.9368332232
 10
-4.8700324875
 20
17.926181588
 10
-5.338348505
 20
17.8835274649
 10
-5.7936175209
 20
17.809143825
 10
-6.2345917679
 20
17.7034582974
 10
-6.6602457386
 20
17.5669983107
 10
-7.06978768
 20
17.400315898
 10
-7.4623571526
 20
17.2040649997
  0
LINE
  5
2B2
100
AcDbEntity
  8
DRAFT
100
AcDbLine
 62
7
  6
CONTINUOUS
 10
1.3604422473
 20
15.9709269487
 11
0.8772839219
 21
16.2597541126
  0
LINE
  5
2B3
100
AcDbEntity
  8
RACCORDO
100
AcDbLine
 62
250
  6
CONTINUOUS
 10
0.8784232123
 20
16.2590729894
 11
0.8772839219
 21
16.2597541126
  0
LWPOLYLINE
  5
2B4
100
AcDbEntity
  8
RACCORDO
100
AcDbPolyline
 62
250
  6
CONTINUOUS
 90
35
 70
0
 10
1.3604422473
 20
15.9709269487
 10
1.4230151387
 20
15.9333101214
 10
1.9256708615
 20
15.6157642522
 10
2.4266582883
 20
15.2719232024
 10
2.9248693189
 20
14.9025474909
 10
3.4192019933
 20
14.5084541152
 10
3.9085629302
 20
14.0905147444
 10
4.3918697457
 20
13.6496537898
 10
4.8680534468
 20
13.1868463615
 10
5.3360607949
 20
12.703116112
 10
5.7948566365
 20
12.1995329714
 10
6.2434261928
 20
11.6772107802
 10
6.6807773038
 20
11.1373048267
 10
7.1059426216
 20
10.5810092928
 10
7.5179817509
 20
10.0095546122
 10
7.9159833298
 20
9.4242047475
 10
8.2990670462
 20
8.8262543936
 10
8.666385584
 20
8.2170261153
 10
9.0171264968
 20
7.5978674221
 10
9.3505140038
 20
6.9701477902
 10
9.6658107073
 20
6.3352556313
 10
9.9623192231
 20
5.6945952218
 10
10.239383725
 20
5.0495835936
 10
10.496391394
 20
4.4016474013
 10
10.7327737731
 20
3.7522197683
 10
10.9480080227
 20
3.1027371223
 10
11.1416180789
 20
2.4546360157
 10
11.3131757071
 20
1.809349948
 10
11.4623014537
 20
1.1683061747
 10
11.5886654817
 20
0.5329225565
 10
11.6919883008
 20
-0.0953955949
 10
11.772041365
 20
-0.7152584925
 10
11.8286475991
 20
-1.3252949749
 10
11.8616818071
 20
-1.9241555938
 10
11.8695089549
 20
-2.2301378599
  0
LWPOLYLINE
  5
2B5
100
AcDbEntity
  8
RACCORDO
100
AcDbPolyline
 62
250
  6
CONTINUOUS
 90
3
 70
0
 10
1.6964981021
 20
15.735335819
 10
1.1884792067
 20
16.0687271745
 10
0.8784232123
 20
16.2590729894
  0
LWPOLYLINE
  5
2B6
100
AcDbEntity
  8
DRAFT
100
AcDbPolyline
 62
7
  6
CONTINUOUS
 90
5
 70
0
 10
4.932858687
 20
-16.9318562473
 10
5.1358224754
 20
-16.7457063478
 10
5.3248105499
 20
-16.5396787323
 10
5.4993086319
 20
-16.3143340478
 10
5.6588418735
 20
-16.0702855072
  0
LWPOLYLINE
  5
2B7
100
AcDbEntity
  8
RACCORDO
100
AcDbPolyline
 62
250
  6
CONTINUOUS
 90
4
 70
0
 10
4.4935901477
 20
-17.1731936711
 10
4.2774605394
 20
-17.3387621446
 10
4.0485116624
 20
-17.4835200803
 10
4.0056495301
 20
-17.5075205012
  0
LWPOLYLINE
  5
2B8
100
AcDbEntity
  8
RACCORDO
100
AcDbPolyline
 62
250
  6
CONTINUOUS
 90
5
 70
0
 10
6.0855206148
 20
-15.8121619904
 10
6.1143230867
 20
-15.7926590812
 10
6.1405258475
 20
-15.7705872237
 10
6.1639338828
 20
-15.7461106882
 10
6.1843729776
 20
-15.7194116419
  0
LWPOLYLINE
  5
2B9
100
AcDbEntity
  8
DRAFT
100
AcDbPolyline
 62
7
  6
CONTINUOUS
 90
3
 70
0
 10
4.5554109894
 20
-17.2024481784
 10
4.7164714942
 20
-17.0976218757
 10
4.932858687
 20
-16.9318562473
  0
LWPOLYLINE
  5
2BA
100
AcDbEntity
  8
RACCORDO
100
AcDbPolyline
 62
250
  6
CONTINUOUS
 90
7
 70
0
 10
5.1405216926
 20
-16.8415935391
 10
5.1442715894
 20
-16.83827634
 10
5.3604012539
 20
-16.6727078573
 10
5.5631234945
 20
-16.4867793865
 10
5.7518867077
 20
-16.280996825
 10
5.9261771749
 20
-16.0559201984
 10
6.0855206148
 20
-15.8121619904
  0
LWPOLYLINE
  5
2BB
100
AcDbEntity
  8
RACCORDO
100
AcDbPolyline
 62
7
  6
CONTINUOUS
 90
10
 70
0
 10
4.9834014281
 20
-16.9429788094
 10
5.1405216926
 20
-16.8415935391
 10
5.2925326648
 20
-16.7309809342
 10
5.43916616
 20
-16.6112248691
 10
5.5800981098
 20
-16.4824871944
 10
5.7151513663
 20
-16.3448259397
 10
5.8442724527
 20
-16.1981470338
 10
5.9672718831
 20
-16.0424656577
 10
6.083847412
 20
-15.8779539858
 10
6.1937699461
 20
-15.7047261888
  0
LINE
  5
2BC
100
AcDbEntity
  8
DRAFT
100
AcDbLine
 62
7
  6
CONTINUOUS
 10
4.9834014281
 20
-16.9429788094
 11
4.5554109894
 21
-17.2024481784
  0
LINE
  5
2BD
100
AcDbEntity
  8
RACCORDO
100
AcDbLine
 62
250
  6
CONTINUOUS
 10
6.0855206148
 20
-15.8121619904
 11
5.6588418735
 21
-16.0702855072
  0
LWPOLYLINE
  5
2BE
100
AcDbEntity
  8
DRAFT
100
AcDbPolyline
 62
7
  6
CONTINUOUS
 90
3
 70
0
 10
4.4443383718
 20
-17.2665801157
 10
4.4872497348
 20
-17.2425521477
 10
4.5554109894
 20
-17.2024481784
  0
LINE
  5
2BF
100
AcDbEntity
  8
RACCORDO
100
AcDbLine
 62
250
  6
CONTINUOUS
 10
5.6588418735
 20
-16.0702855072
 11
5.2187092975
 21
-16.3126479813
  0
LINE
  5
2C0
100
AcDbEntity
  8
DRAFT
100
AcDbLine
 62
7
  6
CONTINUOUS
 10
4.4443383718
 20
-17.2665801157
 11
4.0056495301
 21
-17.5075205012
  0
LWPOLYLINE
  5
2C1
100
AcDbEntity
  8
RACCORDO
100
AcDbPolyline
 62
250
  6
CONTINUOUS
 90
10
 70
0
 10
5.2187092975
 20
-16.3126479813
 10
5.1866216078
 20
-16.3283022882
 10
5.1524792297
 20
-16.3410729577
 10
5.1165362686
 20
-16.3508649437
 10
5.0790602307
 20
-16.3576053691
 10
5.0403300325
 20
-16.3612440681
 10
5.0006339242
 20
-16.3617539598
 10
4.9602673451
 20
-16.359131249
 10
4.9195307244
 20
-16.3533954556
 10
4.8787272453
 20
-16.3445892681
  0
ENDSEC
  0
SECTION
  2
OBJECTS
  0
DICTIONARY
  5
C
100
AcDbDictionary
280
0
281
1
  3
ACAD_GROUP
350
D
  3
ACAD_MLINESTYLE
350
17
  3
ACAD_LAYOUT
350
1A
  3
ACAD_PLOTSETTINGS
350
19
  3
ACAD_PLOTSTYLENAME
350
E
  0
DICTIONARY
  5
D
102
{ACAD_REACTORS
330
C
102
}
100
AcDbDictionary
280
0
281
1
  0
ACDBDICTIONARYWDFLT
  5
E
102
{ACAD_REACTORS
330
C
102
}
100
AcDbDictionary
281
1
  3
Normal
350
F
100
AcDbDictionaryWithDefault
340
F
  0
DICTIONARY
  5
17
102
{ACAD_REACTORS
330
C
102
}
100
AcDbDictionary
280
0
281
1
  3
Standard
350
18
  0
DICTIONARY
  5
19
102
{ACAD_REACTORS
330
C
102
}
100
AcDbDictionary
281
1
  0
DICTIONARY
  5
1A
102
{ACAD_REACTORS
330
C
102
}
100
AcDbDictionary
281
1
  3
Model
350
2C2
  3
Layout1
350
2C3
  0
ACDBPLACEHOLDER
  5
F
102
{ACAD_REACTORS
330
E
102
}
  0
MLINESTYLE
  5
18
102
{ACAD_REACTORS
330
17
102
}
100
AcDbMlineStyle
  2
STANDARD
 70
0
  3

 62
256
 51
90.0
 52
90.0
 71
2
 49
0.5
 62
256
  6
BYLAYER
 49
-0.5
 62
256
  6
BYLAYER
  0
LAYOUT
  5
2C2
102
{ACAD_REACTORS
330
1A
102
}
100
AcDbPlotSettings
  1

  2
none_device
  4

  6

 40
0.0
 41
0.0
 42
0.0
 43
0.0
 44
210.0
 45
297.0
 46
0.0
 47
0.0
 48
0.0
 49
0.0
140
0.0
141
0.0
142
1.0
143
1.0
 70
1024
 72
1
 73
0
 74
0
  7

 75
0
147
1.0
148
0.0
149
0.0
100
AcDbLayout
  1
Model
 70
0
 71
0
 10
0.0
 20
0.0
 11
210.0
 21
297.0
 12
0.0
 22
0.0
 32
0.0
 14
0.0
 24
0.0
 34
0.0
 15
0.0
 25
0.0
 35
0.0
146
0.0
 13
0.0
 23
0.0
 33
0.0
 16
1.0
 26
0.0
 36
0.0
 17
0.0
 27
1.0
 37
0.0
 76
0
330
20F
345
0
346
0
  0
LAYOUT
  5
2C3
102
{ACAD_REACTORS
330
1A
102
}
100
AcDbPlotSettings
  1

  2
none_device
  4

  6

 40
0.0
 41
0.0
 42
0.0
 43
0.0
 44
210.0
 45
297.0
 46
0.0
 47
0.0
 48
0.0
 49
0.0
140
0.0
141
0.0
142
1.0
143
1.0
 70
0
 72
1
 73
0
 74
0
  7

 75
0
147
1.0
148
0.0
149
0.0
100
AcDbLayout
  1
Layout1
 70
0
 71
1
 10
0.0
 20
0.0
 11
210.0
 21
297.0
 12
0.0
 22
0.0
 32
0.0
 14
0.0
 24
0.0
 34
0.0
 15
0.0
 25
0.0
 35
0.0
146
0.0
 13
0.0
 23
0.0
 33
0.0
 16
1.0
 26
0.0
 36
0.0
 17
0.0
 27
1.0
 37
0.0
 76
0
330
210
345
0
346
0
  0
ENDSEC
  0
EOF
