  0
SECTION
  2
HEADER
  9
$ACADVER
  1
AC1024
  9
$DWGCODEPAGE
  3
ANSI_1252
  9
$EXTMAX
 10
297.0
 20
210.0
 30
0.0
  9
$EXTMIN
 10
0.0
 20
0.0
 30
0.0
  9
$LIMMIN
 10
0.0
 20
0.0
  9
$LIMMAX
 10
297.0
 20
210.0
  9
$VIEWCTR
 10
148.5
 20
105.0
  9
$VIEWSIZE
 40
210.0
  9
$CLAYER
  8
0
  9
$LTSCALE
 40
16.335
  9
$CELTYPE
  6
BYLAYER
  9
$DIMSCALE
 40
1.0
  9
$DIMASZ
 40
3.0
  9
$DIMEXO
 40
0.5
  9
$DIMDLI
 40
11.286
  9
$DIMEXE
 40
1.5
  9
$DIMCEN
 40
2.673
  9
$DIMLFAC
 40
1.0
  9
$DIMBLK
  1
_FILLED
  9
$DIMALT
 70
0
  9
$DIMALTF
 40
0.0393700787
  9
$DIMTXT
 40
3.0
  9
$DIMTOL
 70
1
  9
$DIMLIM
 70
0
  9
$DIMTFAC
 40
1.0
  9
$DIMTP
 40
0.01
  9
$DIMTM
 40
0.01
  9
$DIMGAP
 40
0.625
  9
$DIMDSEP
 70
44
  9
$AUNITS
 70
0
  9
$PDMODE
 70
3
  9
$PDSIZE
 40
3.0
  9
$HANDSEED
  5
2D9
  9
$TILEMODE
 70
1
  9
$MEASUREMENT
 70
1
  9
$INSUNITS
 70
4
  0
ENDSEC
  0
SECTION
  2
CLASSES
  0
CLASS
  1
ACDBDICTIONARYWDFLT
  2
AcDbDictionaryWithDefault
  3
AutoCAD 2000
 90
0
 91
1
280
0
281
0
  0
CLASS
  1
ACDBPLACEHOLDER
  2
AcDbPlaceHolder
  3
AutoCAD 2000
 90
0
 91
1
280
0
281
0
  0
CLASS
  1
LAYOUT
  2
AcDbLayout
  3
AutoCAD 2000
 90
0
 91
0
280
0
281
0
  0
ENDSEC
  0
SECTION
  2
TABLES
  0
TABLE
  2
VPORT
  5
8
100
AcDbSymbolTable
 70
2
  0
VPORT
  5
1F4
100
AcDbSymbolTableRecord
100
AcDbViewportTableRecord
  2
*ACTIVE
 70
0
 10
0.0
 20
0.0
 11
1.0
 21
1.0
 12
148.5
 22
105.0
 13
0.0
 23
0.0
 14
1.0
 24
1.0
 15
0.0
 25
0.0
 16
0.0
 26
0.0
 36
1.0
 17
0.0
 27
0.0
 37
0.0
 40
210.0
 41
1.4142857143
 42
50.0
 43
0.0
 44
0.0
 50
0.0
 51
0.0
 71
0
 72
100
 73
1
 74
1
 75
0
 76
0
 77
0
 78
0
  0
ENDTAB
  0
TABLE
  2
LTYPE
  5
5
100
AcDbSymbolTable
 70
6
  0
LTYPE
  5
14
100
AcDbSymbolTableRecord
100
AcDbLinetypeTableRecord
  2
BYBLOCK
 70
0
  3

 72
65
 73
0
 40
0.0
  0
LTYPE
  5
15
100
AcDbSymbolTableRecord
100
AcDbLinetypeTableRecord
  2
BYLAYER
 70
0
  3

 72
65
 73
0
 40
0.0
  0
LTYPE
  5
16
100
AcDbSymbolTableRecord
100
AcDbLinetypeTableRecord
  2
CONTINUOUS
 70
64
  3
Solid line
 72
65
 73
0
 40
0.0
  0
LTYPE
  5
1F5
100
AcDbSymbolTableRecord
100
AcDbLinetypeTableRecord
  2
CENTER
 70
64
  3
____ _ ____ _ ____ _ ____ _ ____ _ ____ _ ____
 72
65
 73
4
 40
0.6
 49
0.375
 74
0
 49
-0.075
 74
0
 49
0.075
 74
0
 49
-0.075
 74
0
  0
LTYPE
  5
1F6
100
AcDbSymbolTableRecord
100
AcDbLinetypeTableRecord
  2
HIDDEN
 70
64
  3
- - - - - - - - - - - - - - - - - - - -
 72
65
 73
2
 40
0.2
 49
0.1
 74
0
 49
-0.1
 74
0
  0
LTYPE
  5
1F7
100
AcDbSymbolTableRecord
100
AcDbLinetypeTableRecord
  2
PHANTOM
 70
64
  3
_____ _ _ _____ _ _ _____ _ _ _____
 72
65
 73
6
 40
0.8
 49
0.45
 74
0
 49
-0.05
 74
0
 49
0.1
 74
0
 49
-0.05
 74
0
 49
0.1
 74
0
 49
-0.05
 74
0
  0
LTYPE
  5
1F8
100
AcDbSymbolTableRecord
100
AcDbLinetypeTableRecord
  2
DOT
 70
64
  3
. . . . . . . . . . . . . . . . . . . .
 72
65
 73
2
 40
0.2
 49
0.1
 74
0
 49
-0.1
 74
0
  0
LTYPE
  5
1F9
100
AcDbSymbolTableRecord
100
AcDbLinetypeTableRecord
  2
DASHED
 70
64
  3
- - - - - - - - - - - - - - - - - - - -
 72
65
 73
2
 40
0.2
 49
0.1
 74
0
 49
-0.1
 74
0
  0
ENDTAB
  0
TABLE
  2
LAYER
  5
2
100
AcDbSymbolTable
 70
36
  0
LAYER
  5
10
100
AcDbSymbolTableRecord
100
AcDbLayerTableRecord
  2
0
 70
0
 62
7
  6
CONTINUOUS
370
-3
390
F
  0
LAYER
  5
1FA
100
AcDbSymbolTableRecord
100
AcDbLayerTableRecord
  2
DEFAULT_1
 70
0
 62
7
  6
CENTER
370
-3
390
F
  0
LAYER
  5
1FB
100
AcDbSymbolTableRecord
100
AcDbLayerTableRecord
  2
DEFAULT_2
 70
0
 62
7
  6
HIDDEN
370
-3
390
F
  0
LAYER
  5
1FC
100
AcDbSymbolTableRecord
100
AcDbLayerTableRecord
  2
DEFAULT_3
 70
0
 62
7
  6
PHANTOM
370
-3
390
F
  0
LAYER
  5
1FD
100
AcDbSymbolTableRecord
100
AcDbLayerTableRecord
  2
ASSI
 70
0
 62
7
  6
CONTINUOUS
370
-3
390
F
  0
LAYER
  5
1FE
100
AcDbSymbolTableRecord
100
AcDbLayerTableRecord
  2
COORDINATE
 70
0
 62
7
  6
CONTINUOUS
370
-3
390
F
  0
LAYER
  5
1FF
100
AcDbSymbolTableRecord
100
AcDbLayerTableRecord
  2
COPY_PUBLISH
 70
0
 62
7
  6
CONTINUOUS
370
-3
390
F
  0
LAYER
  5
200
100
AcDbSymbolTableRecord
100
AcDbLayerTableRecord
  2
COSMETICI
 70
0
 62
7
  6
CONTINUOUS
370
-3
390
F
  0
LAYER
  5
201
100
AcDbSymbolTableRecord
100
AcDbLayerTableRecord
  2
CURVE
 70
0
 62
7
  6
CONTINUOUS
370
-3
390
F
  0
LAYER
  5
202
100
AcDbSymbolTableRecord
100
AcDbLayerTableRecord
  2
DRAFT
 70
0
 62
7
  6
CONTINUOUS
370
-3
390
F
  0
LAYER
  5
203
100
AcDbSymbolTableRecord
100
AcDbLayerTableRecord
  2
IMPORT_IGES
 70
0
 62
7
  6
CONTINUOUS
370
-3
390
F
  0
LAYER
  5
204
100
AcDbSymbolTableRecord
100
AcDbLayerTableRecord
  2
NOTE
 70
0
 62
7
  6
CONTINUOUS
370
-3
390
F
  0
LAYER
  5
205
100
AcDbSymbolTableRecord
100
AcDbLayerTableRecord
  2
PIANI
 70
0
 62
7
  6
CONTINUOUS
370
-3
390
F
  0
LAYER
  5
206
100
AcDbSymbolTableRecord
100
AcDbLayerTableRecord
  2
PUNTI
 70
0
 62
7
  6
CONTINUOUS
370
-3
390
F
  0
LAYER
  5
207
100
AcDbSymbolTableRecord
100
AcDbLayerTableRecord
  2
RACCORDO
 70
0
 62
7
  6
CONTINUOUS
370
-3
390
F
  0
LAYER
  5
208
100
AcDbSymbolTableRecord
100
AcDbLayerTableRecord
  2
SIMBOLI
 70
0
 62
7
  6
CONTINUOUS
370
-3
390
F
  0
LAYER
  5
209
100
AcDbSymbolTableRecord
100
AcDbLayerTableRecord
  2
SMUSSO
 70
0
 62
7
  6
CONTINUOUS
370
-3
390
F
  0
LAYER
  5
20A
100
AcDbSymbolTableRecord
100
AcDbLayerTableRecord
  2
SNAPLINE
 70
0
 62
7
  6
CONTINUOUS
370
-3
390
F
  0
LAYER
  5
20B
100
AcDbSymbolTableRecord
100
AcDbLayerTableRecord
  2
SUPERFICI
 70
0
 62
7
  6
CONTINUOUS
370
-3
390
F
  0
LAYER
  5
20C
100
AcDbSymbolTableRecord
100
AcDbLayerTableRecord
  2
TRASH
 70
0
 62
7
  6
CONTINUOUS
370
-3
390
F
  0
ENDTAB
  0
TABLE
  2
STYLE
  5
3
100
AcDbSymbolTable
 70
1
  0
STYLE
  5
11
100
AcDbSymbolTableRecord
100
AcDbTextStyleTableRecord
  2
STANDARD
 70
0
 40
0.0
 41
0.8
 50
0.0
 71
0
 42
0.2
  3
txt
  4

  0
STYLE
  5
20D
100
AcDbSymbolTableRecord
100
AcDbTextStyleTableRecord
  2
TEXTSTYLE_1
 70
0
 40
0.0
 41
0.8
 50
0.0
 71
0
 42
0.2
  3
gdt
  4

  0
ENDTAB
  0
TABLE
  2
VIEW
  5
6
100
AcDbSymbolTable
 70
0
  0
ENDTAB
  0
TABLE
  2
UCS
  5
7
100
AcDbSymbolTable
 70
0
  0
ENDTAB
  0
TABLE
  2
APPID
  5
9
100
AcDbSymbolTable
 70
1
  0
APPID
  5
20E
100
AcDbSymbolTableRecord
100
AcDbRegAppTableRecord
  2
ACAD
 70
0
  0
ENDTAB
  0
TABLE
  2
BLOCK_RECORD
  5
1
100
AcDbSymbolTable
 70
0
  0
BLOCK_RECORD
  5
20F
100
AcDbSymbolTableRecord
100
AcDbBlockTableRecord
  2
*Model_Space
  0
BLOCK_RECORD
  5
210
100
AcDbSymbolTableRecord
100
AcDbBlockTableRecord
  2
*Paper_Space
  0
BLOCK_RECORD
  5
211
100
AcDbSymbolTableRecord
100
AcDbBlockTableRecord
  2
_FILLED
  0
ENDTAB
  0
TABLE
  2
DIMSTYLE
  5
A
100
AcDbSymbolTable
 70
1
100
AcDbDimStyleTable
 71
0
  0
DIMSTYLE
105
212
100
AcDbSymbolTableRecord
100
AcDbDimStyleTableRecord
  2
STANDARD
 70
0
  3

  4

 40
1.0
 41
3.0
 42
0.5
 43
0.38
 44
1.5
 45
0.0
 46
0.0
 47
0.01
 48
0.01
140
3.0
141
0.09
142
0.0
143
25.4
144
1.0
145
0.0
146
1.0
147
0.625
 71
1
 72
0
 73
0
 74
0
 75
0
 76
0
 77
1
 78
8
 79
2
170
0
171
1
172
0
173
0
174
0
175
0
176
0
177
0
178
0
270
2
179
2
271
2
272
2
273
2
274
2
275
0
280
0
281
0
282
0
283
1
284
8
285
0
286
0
287
3
288
0
340
11
278
44
341
211
342
211
343
211
344
211
  0
ENDTAB
  0
ENDSEC
  0
SECTION
  2
BLOCKS
  0
BLOCK
  5
20
100
AcDbEntity
  8
0
100
AcDbBlockBegin
  2
*Model_Space
 70
0
 10
0.0
 20
0.0
 30
0.0
  3
*Model_Space
  1

  0
ENDBLK
  5
21
100
AcDbEntity
  8
0
100
AcDbBlockEnd
  0
BLOCK
  5
1C
100
AcDbEntity
  8
0
100
AcDbBlockBegin
  2
*Paper_Space
 70
0
 10
0.0
 20
0.0
 30
0.0
  3
*Paper_Space
  1

  0
ENDBLK
  5
1D
100
AcDbEntity
  8
0
100
AcDbBlockEnd
  0
BLOCK
  5
213
100
AcDbEntity
  8
0
100
AcDbBlockBegin
  2
_FILLED
 70
64
 10
0.0
 20
0.0
  3
_FILLED
  1

  0
SOLID
  5
214
100
AcDbEntity
  8
0
  6
BYBLOCK
 62
0
100
AcDbTrace
 10
0.0
 20
0.0
 11
-1.0
 21
0.3166666667
 12
-1.0
 22
-0.3166666667
 13
-1.0
 23
-0.3166666667
  0
ENDBLK
  5
215
100
AcDbEntity
  8
0
  6
BYBLOCK
 62
0
100
AcDbBlockEnd
  0
ENDSEC
  0
SECTION
  2
ENTITIES
  0
LINE
  5
216
100
AcDbEntity
  8
DRAFT
100
AcDbLine
 62
7
  6
CONTINUOUS
 10
-28.72298622
 20
17.9957095775
 11
-28.7878864131
 21
17.8567609035
  0
LINE
  5
217
100
AcDbEntity
  8
DRAFT
100
AcDbLine
 62
7
  6
CONTINUOUS
 10
-28.6545815322
 20
18.1392479177
 11
-28.72298622
 21
17.9957095775
  0
LINE
  5
218
100
AcDbEntity
  8
DRAFT
100
AcDbLine
 62
7
  6
CONTINUOUS
 10
-28.5826680102
 20
18.2874036091
 11
-28.6545815322
 21
18.1392479177
  0
LWPOLYLINE
  5
219
100
AcDbEntity
  8
DRAFT
100
AcDbPolyline
 62
7
  6
CONTINUOUS
 90
3
 70
0
 10
-28.4681871989
 20
18.5184953943
 10
-28.5072282944
 20
18.4402873908
 10
-28.5826680102
 20
18.2874036091
  0
LINE
  5
21A
100
AcDbEntity
  8
DRAFT
100
AcDbLine
 62
7
  6
CONTINUOUS
 10
-28.5313967906
 20
18.3915006913
 11
-28.473382105
 21
18.4713045251
  0
LINE
  5
21B
100
AcDbEntity
  8
DRAFT
100
AcDbLine
 62
7
  6
CONTINUOUS
 10
-28.473382105
 20
18.4713045251
 11
-28.3989895537
 21
18.5567655157
  0
LWPOLYLINE
  5
21C
100
AcDbEntity
  8
DRAFT
100
AcDbPolyline
 62
7
  6
CONTINUOUS
 90
10
 70
0
 10
-30.6411661651
 20
22.4997626017
 10
-30.6196555908
 20
22.5127443439
 10
-30.5817122008
 20
22.5415086758
 10
-30.5476713964
 20
22.5755431088
 10
-30.5176120188
 20
22.6149515128
 10
-30.4914552268
 20
22.6596300179
 10
-30.4697171757
 20
22.7086958083
 10
-30.4525699172
 20
22.761854612
 10
-30.4398413996
 20
22.819400701
 10
-30.4315316228
 20
22.8813340754
  0
LINE
  5
21D
100
AcDbEntity
  8
DRAFT
100
AcDbLine
 62
7
  6
CONTINUOUS
 10
-29.2825190787
 20
23.5015848649
 11
-30.4315316228
 21
22.8813340754
  0
LINE
  5
21E
100
AcDbEntity
  8
DRAFT
100
AcDbLine
 62
7
  6
CONTINUOUS
 10
-29.9839749852
 20
23.1720832858
 11
-31.1350939868
 21
22.5527389175
  0
LINE
  5
21F
100
AcDbEntity
  8
DRAFT
100
AcDbLine
 62
7
  6
CONTINUOUS
 10
-31.1350939868
 20
22.5527389175
 11
-31.1350939868
 21
11.9386253192
  0
LINE
  5
220
100
AcDbEntity
  8
DRAFT
100
AcDbLine
 62
7
  6
CONTINUOUS
 10
-28.7774257511
 20
17.7999765421
 11
-28.7439494925
 21
17.9302294126
  0
LINE
  5
221
100
AcDbEntity
  8
DRAFT
100
AcDbLine
 62
7
  6
CONTINUOUS
 10
-28.7439494925
 20
17.9302294126
 11
-28.7212535415
 21
17.9993632271
  0
LWPOLYLINE
  5
222
100
AcDbEntity
  8
DRAFT
100
AcDbPolyline
 62
7
  6
CONTINUOUS
 90
9
 70
0
 10
-28.8871931612
 20
17.7318981443
 10
-28.8721935655
 20
17.7422801159
 10
-28.8586031867
 20
17.7538041147
 10
-28.8455405229
 20
17.7670219978
 10
-28.8328838145
 20
17.7820007988
 10
-28.8207757777
 20
17.7984892197
 10
-28.8092639846
 20
17.8164034944
 10
-28.7983008631
 20
17.835827389
 10
-28.7878864131
 20
17.8567609035
  0
LWPOLYLINE
  5
223
100
AcDbEntity
  8
DRAFT
100
AcDbPolyline
 62
7
  6
CONTINUOUS
 90
10
 70
0
 10
-28.921019954
 20
20.5621725622
 10
-28.9304682599
 20
20.5565802437
 10
-28.9537168103
 20
20.5389982558
 10
-28.9741862386
 20
20.5176416985
 10
-28.9918685151
 20
20.4923575818
 10
-29.0067716695
 20
20.4632988958
 10
-29.0184346771
 20
20.4313212011
 10
-29.0267038631
 20
20.3967096849
 10
-29.0317329024
 20
20.3591791601
 10
-29.0335217948
 20
20.3187296268
  0
LINE
  5
224
100
AcDbEntity
  8
DRAFT
100
AcDbLine
 62
250
  6
CONTINUOUS
 10
-29.0335217948
 20
20.3187296268
 11
-28.6543018549
 21
20.5301737899
  0
LWPOLYLINE
  5
225
100
AcDbEntity
  8
DRAFT
100
AcDbPolyline
 62
7
  6
CONTINUOUS
 90
26
 70
0
 10
-29.0335217948
 20
11.7457917205
 10
-29.0317329024
 20
11.7032764189
 10
-29.0267038631
 20
11.6599384857
 10
-29.0184346771
 20
11.6157779207
 10
-29.0067716695
 20
11.5703320773
 10
-28.9918685151
 20
11.5240636021
 10
-28.9741862386
 20
11.4783604357
 10
-28.9537168103
 20
11.4333662957
 10
-28.9304682599
 20
11.3889374645
 10
-28.9049257005
 20
11.3460307295
 10
-28.8769072158
 20
11.3045167165
 10
-28.8465947221
 20
11.2645247996
 10
-28.8150190817
 20
11.2273998884
 10
-28.7823166753
 20
11.193397075
 10
-28.7483511221
 20
11.1622612673
 10
-28.7137441423
 20
11.1345720979
 10
-28.678275358
 20
11.1102758764
 10
-28.6421651472
 20
11.0894262932
 10
-28.6066963629
 20
11.0727640517
 10
-28.5720893831
 20
11.0604899483
 10
-28.5381238299
 20
11.0524031866
 10
-28.5054214235
 20
11.0486420807
 10
-28.4738457831
 20
11.0493042339
 10
-28.4435332894
 20
11.0542920428
 10
-28.4155148047
 20
11.063451012
 10
-28.3929175436
 20
11.0750296534
  0
LWPOLYLINE
  5
226
100
AcDbEntity
  8
DRAFT
100
AcDbPolyline
 62
250
  6
CONTINUOUS
 90
15
 70
0
 10
-29.4026823728
 20
16.5241966954
 10
-29.4019655252
 20
16.4612735966
 10
-29.3952642659
 20
16.3189946591
 10
-29.3815425778
 20
16.1733857912
 10
-29.360848416
 20
16.0249258688
 10
-29.333235989
 20
15.8740374345
 10
-29.2988149064
 20
15.7213404385
 10
-29.257676917
 20
15.5672587298
 10
-29.2098212036
 20
15.4119199567
 10
-29.1553275889
 20
15.2557900734
 10
-29.0943470359
 20
15.0994844992
 10
-29.0269488805
 20
14.9433655507
 10
-28.953262399
 20
14.7879387805
 10
-28.8735028798
 20
14.6338485469
 10
-28.7878864131
 20
14.4816815235
  0
LINE
  5
227
100
AcDbEntity
  8
DRAFT
100
AcDbLine
 62
7
  6
CONTINUOUS
 10
-29.0335217948
 20
11.7457917205
 11
-29.0335217948
 21
14.191008409
  0
LINE
  5
228
100
AcDbEntity
  8
DRAFT
100
AcDbLine
 62
7
  6
CONTINUOUS
 10
-29.0335217948
 20
17.8735129382
 11
-29.0335217948
 21
20.3187296268
  0
LINE
  5
229
100
AcDbEntity
  8
DRAFT
100
AcDbLine
 62
7
  6
CONTINUOUS
 10
-28.2869187104
 20
11.3147124566
 11
-28.2869187104
 21
12.3124978359
  0
LINE
  5
22A
100
AcDbEntity
  8
DRAFT
100
AcDbLine
 62
7
  6
CONTINUOUS
 10
-28.2869187104
 20
18.8898649837
 11
-28.2869187104
 21
19.8876503629
  0
LINE
  5
22B
100
AcDbEntity
  8
DRAFT
100
AcDbLine
 62
7
  6
CONTINUOUS
 10
-27.8470474542
 20
12.5845208189
 11
-27.3167173683
 21
13.5248376067
  0
LWPOLYLINE
  5
22C
100
AcDbEntity
  8
RACCORDO
100
AcDbPolyline
 62
7
  6
CONTINUOUS
 90
15
 70
0
 10
-28.887190434
 20
17.7318343588
 10
-28.9561917706
 20
17.6853619361
 10
-29.0220275895
 20
17.6304888779
 10
-29.0824782624
 20
17.5689301175
 10
-29.1376131309
 20
17.5010084777
 10
-29.1875411297
 20
17.4269478824
 10
-29.2321219491
 20
17.347348131
 10
-29.2714415013
 20
17.2625018113
 10
-29.3057851819
 20
17.1720305293
 10
-29.3350729948
 20
17.0761445999
 10
-29.3591609245
 20
16.9753463599
 10
-29.3780703545
 20
16.8694703828
 10
-29.3917037128
 20
16.7586507228
 10
-29.399930008
 20
16.6434308603
 10
-29.4026823728
 20
16.5241966954
  0
LINE
  5
22D
100
AcDbEntity
  8
RACCORDO
100
AcDbLine
 62
7
  6
CONTINUOUS
 10
-25.02549062
 20
19.635315936
 11
-26.6627938795
 21
18.6227830402
  0
LINE
  5
22E
100
AcDbEntity
  8
RACCORDO
100
AcDbLine
 62
250
  6
CONTINUOUS
 10
-24.771186804
 20
19.6131219178
 11
-26.4059814476
 21
18.6021403877
  0
LWPOLYLINE
  5
22F
100
AcDbEntity
  8
RACCORDO
100
AcDbPolyline
 62
250
  6
CONTINUOUS
 90
11
 70
0
 10
-26.6627938795
 20
18.6227830402
 10
-26.65845983
 20
18.6253733109
 10
-26.6356912535
 20
18.6363216633
 10
-26.6111281821
 20
18.6439318413
 10
-26.5849574834
 20
18.6481459491
 10
-26.5573782548
 20
18.6489319274
 10
-26.5286003097
 20
18.6462837966
 10
-26.4988425807
 20
18.6402217027
 10
-26.4683314543
 20
18.6307917643
 10
-26.4372990487
 20
18.6180657208
 10
-26.4059814476
 20
18.6021403877
  0
LINE
  5
230
100
AcDbEntity
  8
DRAFT
100
AcDbLine
 62
7
  6
CONTINUOUS
 10
-28.0629403043
 20
18.7605426591
 11
-28.4681871989
 21
18.5184953943
  0
LWPOLYLINE
  5
231
100
AcDbEntity
  8
DRAFT
100
AcDbPolyline
 62
7
  6
CONTINUOUS
 90
10
 70
0
 10
-26.7996996105
 20
19.3373487822
 10
-26.8091479163
 20
19.3317564637
 10
-26.8323964668
 20
19.3141744758
 10
-26.852865895
 20
19.2928179185
 10
-26.8705481716
 20
19.2675338018
 10
-26.8854513259
 20
19.2384751158
 10
-26.8971143336
 20
19.2064974212
 10
-26.9053835196
 20
19.1718859049
 10
-26.9104125588
 20
19.1343553801
 10
-26.9122014513
 20
19.0939058468
  0
LWPOLYLINE
  5
232
100
AcDbEntity
  8
RACCORDO
100
AcDbPolyline
 62
250
  6
CONTINUOUS
 90
19
 70
0
 10
-26.4059814482
 20
18.6021403881
 10
-26.4386400754
 20
18.583807745
 10
-26.4703259693
 20
18.5627284075
 10
-26.5012604812
 20
18.5390343964
 10
-26.5318980138
 20
18.5127633286
 10
-26.5620095576
 20
18.4839033799
 10
-26.5907096729
 20
18.4527211732
 10
-26.6179484865
 20
18.4197668407
 10
-26.6438445961
 20
18.3851821068
 10
-26.6677252033
 20
18.3489927991
 10
-26.6895134289
 20
18.3117698505
 10
-26.7093329319
 20
18.2739091216
 10
-26.7267061998
 20
18.23526072
 10
-26.7416104349
 20
18.1962855584
 10
-26.7541315419
 20
18.1575018849
 10
-26.7638557509
 20
18.1188399361
 10
-26.77067839
 20
18.0805938
 10
-26.7748713448
 20
18.0434131035
 10
-26.7765831343
 20
18.0077436104
  0
LINE
  5
233
100
AcDbEntity
  8
DRAFT
100
AcDbLine
 62
250
  6
CONTINUOUS
 10
-26.9122014513
 20
19.0939058468
 11
-26.5329815113
 21
19.3053500099
  0
LINE
  5
234
100
AcDbEntity
  8
DRAFT
100
AcDbLine
 62
7
  6
CONTINUOUS
 10
-26.8998110901
 20
18.1027836028
 11
-26.9122014513
 21
18.0961204675
  0
LWPOLYLINE
  5
235
100
AcDbEntity
  8
DRAFT
100
AcDbPolyline
 62
250
  6
CONTINUOUS
 90
34
 70
0
 10
-29.0335217948
 20
17.8735129382
 10
-29.1127425675
 20
17.8326283194
 10
-29.1877087219
 20
17.785276878
 10
-29.2584202582
 20
17.7314586139
 10
-29.3250359909
 20
17.6709990914
 10
-29.3873971054
 20
17.6040727463
 10
-29.4450271575
 20
17.5312028855
 10
-29.4978890943
 20
17.4523399805
 10
-29.5460199687
 20
17.3675335598
 10
-29.5890544951
 20
17.2774555166
 10
-29.6269499762
 20
17.1820683102
 10
-29.6597491094
 20
17.0814094812
 10
-29.6872147001
 20
16.9762635448
 10
-29.7093056058
 20
16.8666039362
 10
-29.726062969
 20
16.7524572202
 10
-29.7373730234
 20
16.6346876063
 10
-29.7431977866
 20
16.5132743412
 10
-29.743575241
 20
16.3882381781
 10
-29.7385055671
 20
16.2605055868
 10
-29.7279543338
 20
16.1300660616
 10
-29.7119559721
 20
15.9969301081
 10
-29.6906139557
 20
15.8620557125
 10
-29.6639097747
 20
15.7254666071
 10
-29.6318619389
 20
15.5871390597
 10
-29.5946294516
 20
15.4479598604
 10
-29.5522175015
 20
15.3079636354
 10
-29.5046208998
 20
15.1671157585
 10
-29.4519830845
 20
15.0261991407
 10
-29.394242823
 20
14.8850974668
 10
-29.3314613478
 20
14.743927052
 10
-29.2639657939
 20
14.6038197531
 10
-29.1918652063
 20
14.4651528558
 10
-29.1150505399
 20
14.3275490744
 10
-29.0335217948
 20
14.191008409
  0
LWPOLYLINE
  5
236
100
AcDbEntity
  8
DRAFT
100
AcDbPolyline
 62
7
  6
CONTINUOUS
 90
19
 70
0
 10
-30.4315316228
 20
10.7975739788
 10
-30.4398413996
 20
10.8691032751
 10
-30.4525699172
 20
10.9413479373
 10
-30.4697171757
 20
11.0143079653
 10
-30.4914552268
 20
11.0884763122
 10
-30.5176120188
 20
11.163360025
 10
-30.5476713964
 20
11.2374802448
 10
-30.5817122008
 20
11.3108241454
 10
-30.6196555908
 20
11.3834045531
 10
-30.660748888
 20
11.4537810875
 10
-30.7050539352
 20
11.5219079887
 10
-30.7525088896
 20
11.5878310166
 10
-30.8021755443
 20
11.650247071
 10
-30.8540986
 20
11.7090871717
 10
-30.9082333561
 20
11.7644202989
 10
-30.9635075037
 20
11.8151502932
 10
-31.0195636066
 20
11.8609117681
 10
-31.0767591009
 20
11.9020701101
 10
-31.1350939868
 20
11.9386253192
  0
LWPOLYLINE
  5
237
100
AcDbEntity
  8
DRAFT
100
AcDbPolyline
 62
7
  6
CONTINUOUS
 90
3
 70
0
 10
-29.3796490969
 20
16.4940564678
 10
-29.3943551175
 20
16.6535814533
 10
-29.3962870639
 20
16.6944549865
  0
LWPOLYLINE
  5
238
100
AcDbEntity
  8
DRAFT
100
AcDbPolyline
 62
7
  6
CONTINUOUS
 90
17
 70
0
 10
-29.0335217948
 20
17.8735129382
 10
-29.0322645042
 20
17.8488565946
 10
-29.0296565219
 20
17.8263345513
 10
-29.0256978478
 20
17.8059468083
 10
-29.0202765119
 20
17.7877352853
 10
-29.0135044844
 20
17.7716580627
 10
-29.0057176751
 20
17.7575893812
 10
-28.9969432905
 20
17.7454523156
 10
-28.9871541242
 20
17.7353237911
 10
-28.9766044674
 20
17.7273088237
 10
-28.9652961434
 20
17.7213996957
 10
-28.9532273288
 20
17.7176041248
 10
-28.9406468445
 20
17.7160502799
 10
-28.9275010875
 20
17.7167903539
 10
-28.9138436608
 20
17.719772154
 10
-28.9000841943
 20
17.724967271
 10
-28.8871931612
 20
17.7318981443
  0
LWPOLYLINE
  5
239
100
AcDbEntity
  8
DRAFT
100
AcDbPolyline
 62
7
  6
CONTINUOUS
 90
26
 70
0
 10
-28.2869187104
 20
19.8876503629
 10
-28.2887076028
 20
19.9301656645
 10
-28.2937366421
 20
19.9735035977
 10
-28.3020058281
 20
20.0176641627
 10
-28.3136688357
 20
20.0631100061
 10
-28.3285719901
 20
20.1093784813
 10
-28.3462542666
 20
20.1550816477
 10
-28.3667236949
 20
20.2000757877
 10
-28.3899722453
 20
20.2445046188
 10
-28.4155148047
 20
20.2874113539
 10
-28.4435332894
 20
20.3289253669
 10
-28.4738457831
 20
20.3689172838
 10
-28.5054214235
 20
20.406042195
 10
-28.5381238299
 20
20.4400450083
 10
-28.5720893831
 20
20.4711808161
 10
-28.6066963629
 20
20.4988699855
 10
-28.6421651472
 20
20.523166207
 10
-28.678275358
 20
20.5440157902
 10
-28.7137441423
 20
20.5606780317
 10
-28.7483511221
 20
20.5729521351
 10
-28.7823166753
 20
20.5810388968
 10
-28.8150190817
 20
20.5848000027
 10
-28.8465947221
 20
20.5841378495
 10
-28.8769072158
 20
20.5791500405
 10
-28.9049257005
 20
20.5699910714
 10
-28.921019954
 20
20.5621725622
  0
LWPOLYLINE
  5
23A
100
AcDbEntity
  8
DRAFT
100
AcDbPolyline
 62
7
  6
CONTINUOUS
 90
4
 70
0
 10
-26.9122014513
 20
10.5209679405
 10
-26.9104125588
 20
10.4784526389
 10
-26.9053835196
 20
10.4351147057
 10
-26.8998110901
 20
10.4053558355
  0
LWPOLYLINE
  5
23B
100
AcDbEntity
  8
RACCORDO
100
AcDbPolyline
 62
250
  6
CONTINUOUS
 90
9
 70
0
 10
-26.8998110775
 20
18.197465217
 10
-26.8996864861
 20
18.1910853603
 10
-26.8961218685
 20
18.1625249467
 10
-26.8876688547
 20
18.134294186
 10
-26.8744062423
 20
18.1066774258
 10
-26.8564666123
 20
18.0799559128
 10
-26.8340293367
 20
18.054395638
 10
-26.807313782
 20
18.0302455517
 10
-26.7765831343
 20
18.0077436104
  0
LWPOLYLINE
  5
23C
100
AcDbEntity
  8
RACCORDO
100
AcDbPolyline
 62
250
  6
CONTINUOUS
 90
9
 70
0
 10
-26.89981109
 20
6.9971773157
 10
-26.8996860498
 20
6.9907282656
 10
-26.8961199733
 20
6.9621701685
 10
-26.8876660056
 20
6.9339410371
 10
-26.8744028445
 20
6.9063256873
 10
-26.8564631725
 20
6.8796056375
 10
-26.8340264753
 20
6.8540469227
 10
-26.8073120693
 20
6.8298983393
 10
-26.7765831343
 20
6.8073977889
  0
LINE
  5
23D
100
AcDbEntity
  8
DRAFT
100
AcDbLine
 62
7
  6
CONTINUOUS
 10
-27.8824027933
 20
13.1563991971
 11
-27.8824027933
 21
12.5626565469
  0
LINE
  5
23E
100
AcDbEntity
  8
DRAFT
100
AcDbLine
 62
7
  6
CONTINUOUS
 10
-27.3068432925
 20
14.7781955918
 11
-27.3068432925
 21
13.5309438833
  0
LINE
  5
23F
100
AcDbEntity
  8
DRAFT
100
AcDbLine
 62
7
  6
CONTINUOUS
 10
-26.9122014513
 20
19.0939058468
 11
-26.9122014513
 21
18.0961204675
  0
LINE
  5
240
100
AcDbEntity
  8
DRAFT
100
AcDbLine
 62
7
  6
CONTINUOUS
 10
-26.9122014513
 20
11.5187533198
 11
-26.9122014513
 21
10.5209679405
  0
LINE
  5
241
100
AcDbEntity
  8
RACCORDO
100
AcDbLine
 62
7
  6
CONTINUOUS
 10
-26.8998110901
 20
6.9971842911
 11
-26.8998110901
 21
18.1975301126
  0
LINE
  5
242
100
AcDbEntity
  8
RACCORDO
100
AcDbLine
 62
250
  6
CONTINUOUS
 10
-26.7765831343
 20
6.8073977889
 11
-26.7765831343
 21
18.0077436104
  0
LINE
  5
243
100
AcDbEntity
  8
DRAFT
100
AcDbLine
 62
7
  6
CONTINUOUS
 10
-26.9704424878
 20
13.7389791871
 11
-27.3167173683
 21
13.5248376067
  0
LINE
  5
244
100
AcDbEntity
  8
DRAFT
100
AcDbLine
 62
7
  6
CONTINUOUS
 10
-28.044973934
 20
14.7267885349
 11
-27.4830478402
 21
15.0441775669
  0
LINE
  5
245
100
AcDbEntity
  8
DRAFT
100
AcDbLine
 62
7
  6
CONTINUOUS
 10
-27.3068432925
 20
14.7781955918
 11
-28.4681871989
 21
14.1764606318
  0
LINE
  5
246
100
AcDbEntity
  8
RACCORDO
100
AcDbLine
 62
250
  6
CONTINUOUS
 10
-28.4368453606
 20
15.4751743932
 11
-28.3274454313
 21
15.5317221532
  0
LWPOLYLINE
  5
247
100
AcDbEntity
  8
DRAFT
100
AcDbPolyline
 62
7
  6
CONTINUOUS
 90
10
 70
0
 10
-28.3929175436
 20
11.0750296534
 10
-28.3899722453
 20
11.0768618397
 10
-28.3667236949
 20
11.0944438276
 10
-28.3462542666
 20
11.1158003849
 10
-28.3285719901
 20
11.1410845016
 10
-28.3136688357
 20
11.1701431876
 10
-28.3020058281
 20
11.2021208822
 10
-28.2937366421
 20
11.2367323985
 10
-28.2887076028
 20
11.2742629233
 10
-28.2869187104
 20
11.3147124566
  0
LINE
  5
248
100
AcDbEntity
  8
DRAFT
100
AcDbLine
 62
7
  6
CONTINUOUS
 10
-27.8470474542
 20
12.5845208189
 11
-28.2869187104
 21
12.3124978359
  0
LINE
  5
249
100
AcDbEntity
  8
DRAFT
100
AcDbLine
 62
7
  6
CONTINUOUS
 10
-26.8998110901
 20
11.5259073353
 11
-26.9122014513
 21
11.5187533198
  0
LINE
  5
24A
100
AcDbEntity
  8
DRAFT
100
AcDbLine
 62
7
  6
CONTINUOUS
 10
-27.8824027933
 20
13.1563991971
 11
-27.3548488146
 21
13.4572275654
  0
LINE
  5
24B
100
AcDbEntity
  8
DRAFT
100
AcDbLine
 62
250
  6
CONTINUOUS
 10
-29.0335217948
 20
11.7457917205
 11
-28.2869187104
 21
12.1620801266
  0
LWPOLYLINE
  5
24C
100
AcDbEntity
  8
RACCORDO
100
AcDbPolyline
 62
7
  6
CONTINUOUS
 90
9
 70
0
 10
-28.4695710405
 20
15.5505599334
 10
-28.4565509672
 20
15.5557131861
 10
-28.4403298348
 20
15.5593744997
 10
-28.4230968034
 20
15.5606338807
 10
-28.4048903085
 20
15.5595196563
 10
-28.3861754171
 20
15.5560677763
 10
-28.3671071516
 20
15.5502902241
 10
-28.3475304897
 20
15.5421750164
 10
-28.3274454313
 20
15.5317221532
  0
LINE
  5
24D
100
AcDbEntity
  8
DRAFT
100
AcDbLine
 62
7
  6
CONTINUOUS
 10
-22.3669699
 20
19.2679441478
 11
-22.3669699
 21
19.5086334413
  0
LINE
  5
24E
100
AcDbEntity
  8
DRAFT
100
AcDbLine
 62
250
  6
CONTINUOUS
 10
-26.9122014513
 20
10.5209679405
 11
-26.8998110901
 21
10.5278765159
  0
LWPOLYLINE
  5
24F
100
AcDbEntity
  8
DRAFT
100
AcDbPolyline
 62
7
  6
CONTINUOUS
 90
15
 70
0
 10
-28.4681871989
 20
14.1764606318
 10
-28.5709544372
 20
14.3310140796
 10
-28.6690015758
 20
14.4893688465
 10
-28.7620154454
 20
14.651035238
 10
-28.8497372269
 20
14.8155887819
 10
-28.9318400971
 20
14.9824433547
 10
-29.0079569687
 20
15.1508436671
 10
-29.0777881214
 20
15.3200599962
 10
-29.1412256859
 20
15.4897585765
 10
-29.1982040146
 20
15.6597711474
 10
-29.2485957154
 20
15.8298348598
 10
-29.2921228456
 20
15.9991448933
 10
-29.3285375054
 20
16.1667282814
 10
-29.3577083434
 20
16.3317629556
 10
-29.3796490969
 20
16.4940564678
  0
LWPOLYLINE
  5
250
100
AcDbEntity
  8
DRAFT
100
AcDbPolyline
 62
7
  6
CONTINUOUS
 90
10
 70
0
 10
-27.4830478402
 20
15.0441775669
 10
-27.4641452323
 20
15.0140632376
 10
-27.4450720609
 20
14.9840866198
 10
-27.4258283261
 20
14.9542477134
 10
-27.4064118349
 20
14.9245432084
 10
-27.3868247802
 20
14.8949764148
 10
-27.3670737408
 20
14.8655572633
 10
-27.3471609095
 20
14.8362890641
 10
-27.3270840934
 20
14.8071685069
 10
-27.3068432925
 20
14.7781955918
  0
LWPOLYLINE
  5
251
100
AcDbEntity
  8
DRAFT
100
AcDbPolyline
 62
7
  6
CONTINUOUS
 90
20
 70
0
 10
-28.044973934
 20
14.7267885349
 10
-28.1420056
 20
14.8885855542
 10
-28.2333013013
 20
15.0525946061
 10
-28.3188610379
 20
15.2188156906
 10
-28.3989895537
 20
15.387971302
 10
-28.473382105
 20
15.5593389459
 10
-28.5411244602
 20
15.73075114
 10
-28.6020075154
 20
15.9017870869
 10
-28.6562403747
 20
16.0728675838
 10
-28.7035361189
 20
16.2430875405
 10
-28.7439494925
 20
16.4128584956
 10
-28.7774257511
 20
16.5817689104
 10
-28.8035137412
 20
16.7476790778
 10
-28.8220805599
 20
16.9103077377
 10
-28.8332591102
 20
17.0699361503
 10
-28.8369969479
 20
17.2252683887
 10
-28.8332591102
 20
17.3762842658
 10
-28.8220805599
 20
17.5230039686
 10
-28.8035137412
 20
17.6641921317
 10
-28.7774257511
 20
17.7999765421
  0
LWPOLYLINE
  5
252
100
AcDbEntity
  8
DRAFT
100
AcDbPolyline
 62
7
  6
CONTINUOUS
 90
21
 70
0
 10
-26.2134776373
 20
18.9006469443
 10
-26.2249339231
 20
18.9302578677
 10
-26.2454033513
 20
18.9752520077
 10
-26.2686519017
 20
19.0196808389
 10
-26.2941944611
 20
19.0625875739
 10
-26.3222129458
 20
19.1041015869
 10
-26.3525254395
 20
19.1440935038
 10
-26.3841010799
 20
19.181218415
 10
-26.4168034864
 20
19.2152212284
 10
-26.4507690396
 20
19.2463570361
 10
-26.4853760194
 20
19.2740462055
 10
-26.5208448036
 20
19.298342427
 10
-26.5569550145
 20
19.3191920102
 10
-26.5924237987
 20
19.3358542517
 10
-26.6270307785
 20
19.3481283551
 10
-26.6609963317
 20
19.3562151168
 10
-26.6936987381
 20
19.3599762227
 10
-26.7252743786
 20
19.3593140695
 10
-26.7555868722
 20
19.3543262606
 10
-26.783605357
 20
19.3451672914
 10
-26.7996996105
 20
19.3373487822
  0
LWPOLYLINE
  5
253
100
AcDbEntity
  8
RACCORDO
100
AcDbPolyline
 62
250
  6
CONTINUOUS
 90
10
 70
0
 10
-26.6753263425
 20
6.5799417411
 10
-26.6895134153
 20
6.5902942076
 10
-26.7093329196
 20
6.6085697022
 10
-26.7267061889
 20
6.6296770194
 10
-26.7416104256
 20
6.6535315388
 10
-26.754131534
 20
6.6800523065
 10
-26.7638557446
 20
6.7088899459
 10
-26.7706783856
 20
6.7398203001
 10
-26.7748713426
 20
6.7727282023
 10
-26.7765831343
 20
6.8073977889
  0
LWPOLYLINE
  5
254
100
AcDbEntity
  8
DRAFT
100
AcDbPolyline
 62
7
  6
CONTINUOUS
 90
10
 70
0
 10
-28.7878864131
 20
14.4816815235
 10
-28.7559111664
 20
14.44851672
 10
-28.7230508931
 20
14.4151706482
 10
-28.6893055932
 20
14.3816433082
 10
-28.6546775272
 20
14.347942552
 10
-28.6191644346
 20
14.3140605275
 10
-28.5827595337
 20
14.2799736789
 10
-28.5454605638
 20
14.245674154
 10
-28.5072697855
 20
14.211169805
 10
-28.4681871989
 20
14.1764606318
  0
LWPOLYLINE
  5
255
100
AcDbEntity
  8
RACCORDO
100
AcDbPolyline
 62
250
  6
CONTINUOUS
 90
15
 70
0
 10
21.2967742729
 20
-20.9495562774
 10
17.8848412043
 20
-19.2109825684
 10
14.5195828057
 20
-17.4651991601
 10
11.2008047696
 20
-15.7126506584
 10
7.9407327682
 20
-13.9605142435
 10
4.7265183843
 20
-12.2026130391
 10
1.5212779741
 20
-10.4187823967
 10
-1.6867883748
 20
-8.6017145852
 10
-4.8842057343
 20
-6.7583149822
 10
-8.0690300472
 20
-4.8891942582
 10
-11.2438025472
 20
-2.9922861245
 10
-14.404473193
 20
-1.0694178338
 10
-17.5395489946
 20
0.8727596337
 10
-20.6450609874
 20
2.8318968118
 10
-23.7242119192
 20
4.8101386451
  0
LWPOLYLINE
  5
256
100
AcDbEntity
  8
RACCORDO
100
AcDbPolyline
 62
250
  6
CONTINUOUS
 90
11
 70
0
 10
21.3999844962
 20
-21.1782805922
 10
21.3911896196
 20
-21.1734380232
 10
21.372046663
 20
-21.1598482262
 10
21.3550864462
 20
-21.1432236465
 10
21.3398964007
 20
-21.1233768938
 10
21.326802384
 20
-21.100567572
 10
21.3161830796
 20
-21.075144882
 10
21.3076755248
 20
-21.0470097251
 10
21.301340278
 20
-21.0163607875
 10
21.2976401651
 20
-20.9837374494
 10
21.2967742729
 20
-20.9495562774
  0
LINE
  5
257
100
AcDbEntity
  8
RACCORDO
100
AcDbLine
 62
250
  6
CONTINUOUS
 10
-23.7242119192
 20
4.8101386451
 11
-26.7765831343
 21
6.8073977889
  0
LWPOLYLINE
  5
258
100
AcDbEntity
  8
RACCORDO
100
AcDbPolyline
 62
7
  6
CONTINUOUS
 90
16
 70
0
 10
-26.6753363796
 20
6.5799483688
 10
-23.7198351243
 20
4.6455211863
 10
-20.6848226758
 20
2.6942568257
 10
-17.6192000381
 20
0.7584463855
 10
-14.523253953
 20
-1.1617281329
 10
-11.3972346925
 20
-3.0661143802
 10
-8.2413719602
 20
-4.9545741746
 10
-5.0559094045
 20
-6.826961326
 10
-1.8411219014
 20
-8.6831163223
 10
1.4027141646
 20
-10.522880663
 10
4.6753209874
 20
-12.3460962474
 10
7.9764436489
 20
-14.1526227117
 10
11.3058404804
 20
-15.9423280006
 10
14.6632480275
 20
-17.7150693849
 10
18.0483506279
 20
-19.4706824448
 10
21.4000816403
 20
-21.1783296964
  0
LWPOLYLINE
  5
259
100
AcDbEntity
  8
DRAFT
100
AcDbPolyline
 62
7
  6
CONTINUOUS
 90
25
 70
0
 10
-28.7878864131
 20
14.4816815235
 10
-28.7983193892
 20
14.491019589
 10
-28.8093075211
 20
14.4982263615
 10
-28.820850809
 20
14.5033018409
 10
-28.8329893451
 20
14.5062844299
 10
-28.8456830371
 20
14.5071357259
 10
-28.8588116078
 20
14.5057405211
 10
-28.872530055
 20
14.5020073931
 10
-28.8866833808
 20
14.4960277643
 10
-28.9006863148
 20
14.4879606938
 10
-28.9144687108
 20
14.4777130455
 10
-28.9281007148
 20
14.4653779555
 10
-28.9412074955
 20
14.4513938903
 10
-28.9537447627
 20
14.435768802
 10
-28.9657568064
 20
14.4184947386
 10
-28.9770016655
 20
14.3999863107
 10
-28.9874780383
 20
14.380260405
 10
-28.9971872265
 20
14.3593001349
 10
-29.0058911735
 20
14.3374694512
 10
-29.0136218934
 20
14.3148128618
 10
-29.0203473722
 20
14.2912858588
 10
-29.0257335116
 20
14.2671188692
 10
-29.0296689454
 20
14.2423887023
 10
-29.0322650398
 20
14.2170185489
 10
-29.0335217948
 20
14.191008409
  0
LINE
  5
25A
100
AcDbEntity
  8
DRAFT
100
AcDbLine
 62
7
  6
CONTINUOUS
 10
23.1707068084
 20
-6.784250369
 11
22.7464427397
 21
-6.7799749065
  0
LWPOLYLINE
  5
25B
100
AcDbEntity
  8
DRAFT
100
AcDbPolyline
 62
7
  6
CONTINUOUS
 90
11
 70
0
 10
29.6760891953
 20
-23.172989707
 10
29.6177543094
 20
-23.1421812521
 10
29.5605588151
 20
-23.1172916709
 10
29.5045027123
 20
-23.0983209634
 10
29.4492285646
 20
-23.0852217575
 10
29.3950938085
 20
-23.0780414253
 10
29.3431707528
 20
-23.0769220827
 10
29.2935040981
 20
-23.0819843292
 10
29.2460491438
 20
-23.0931075653
 10
29.2017440966
 20
-23.1100721086
 10
29.1698193305
 20
-23.1271459652
  0
LINE
  5
25C
100
AcDbEntity
  8
DRAFT
100
AcDbLine
 62
7
  6
CONTINUOUS
 10
-30.4315316228
 20
10.7975739788
 11
-26.8998110901
 21
8.7584028061
  0
LINE
  5
25D
100
AcDbEntity
  8
DRAFT
100
AcDbLine
 62
7
  6
CONTINUOUS
 10
23.4550284845
 20
-20.3158504699
 11
28.9725268313
 21
-23.5015848649
  0
LINE
  5
25E
100
AcDbEntity
  8
DRAFT
100
AcDbLine
 62
7
  6
CONTINUOUS
 10
-28.2869187104
 20
12.3124978359
 11
-26.9122014513
 21
11.5187533198
  0
LINE
  5
25F
100
AcDbEntity
  8
DRAFT
100
AcDbLine
 62
7
  6
CONTINUOUS
 10
25.4531966598
 20
-18.716371257
 11
26.8279139189
 21
-19.5101157732
  0
LINE
  5
260
100
AcDbEntity
  8
DRAFT
100
AcDbLine
 62
7
  6
CONTINUOUS
 10
-27.8470474542
 20
12.5845208189
 11
-26.8998110901
 21
12.0375984139
  0
LINE
  5
261
100
AcDbEntity
  8
DRAFT
100
AcDbLine
 62
7
  6
CONTINUOUS
 10
25.8930679159
 20
-18.444348274
 11
27.2834139388
 21
-19.2471166425
  0
LINE
  5
262
100
AcDbEntity
  8
DRAFT
100
AcDbLine
 62
7
  6
CONTINUOUS
 10
23.6656815552
 20
-16.4496009441
 11
23.088887795
 21
-16.1165674558
  0
LINE
  5
263
100
AcDbEntity
  8
DRAFT
100
AcDbLine
 62
7
  6
CONTINUOUS
 10
27.6703627572
 20
-18.2240133078
 11
26.4233980018
 21
-17.5040314862
  0
LINE
  5
264
100
AcDbEntity
  8
DRAFT
100
AcDbLine
 62
7
  6
CONTINUOUS
 10
-26.8998110901
 20
13.2841211467
 11
-27.3167173683
 21
13.5248376067
  0
LINE
  5
265
100
AcDbEntity
  8
DRAFT
100
AcDbLine
 62
7
  6
CONTINUOUS
 10
-26.9704424878
 20
13.7389791871
 11
-26.8998110901
 21
13.6981975033
  0
LINE
  5
266
100
AcDbEntity
  8
DRAFT
100
AcDbLine
 62
7
  6
CONTINUOUS
 10
27.9501621383
 20
-17.9714896072
 11
26.7696728824
 21
-17.2898899058
  0
LINE
  5
267
100
AcDbEntity
  8
DRAFT
100
AcDbLine
 62
7
  6
CONTINUOUS
 10
26.25706753
 20
-15.9846915261
 11
25.4126699388
 21
-15.4971469397
  0
LINE
  5
268
100
AcDbEntity
  8
DRAFT
100
AcDbLine
 62
7
  6
CONTINUOUS
 10
-27.4830478402
 20
15.0441775669
 11
-28.3274454313
 21
15.5317221532
  0
LWPOLYLINE
  5
269
100
AcDbEntity
  8
RACCORDO
100
AcDbPolyline
 62
250
  6
CONTINUOUS
 90
16
 70
0
 10
-26.7765831343
 20
18.0077436104
 10
-23.7726008938
 20
16.0336701705
 10
-20.7551073202
 20
14.0871259057
 10
-17.7248721398
 20
12.1679987747
 10
-14.6943133583
 20
10.2833542255
 10
-11.6527448421
 20
8.4257675535
 10
-8.5652788118
 20
6.5739236995
 10
-5.4192824223
 20
4.720991298
 10
-2.2266911325
 20
2.8747691562
 10
1.0114727367
 20
1.036415806
 10
4.2987933118
 20
-0.7955284645
 10
7.6321001177
 20
-2.6187329683
 10
10.9998921241
 20
-4.4265489716
 10
14.3981060681
 20
-6.2166806628
 10
17.8304506043
 20
-7.9909816927
 10
21.2967742729
 20
-9.7492104559
  0
LINE
  5
26A
100
AcDbEntity
  8
DRAFT
100
AcDbLine
 62
7
  6
CONTINUOUS
 10
30.7877118935
 20
-15.5754369856
 11
31.1350939868
 21
-15.7760110525
  0
LINE
  5
26B
100
AcDbEntity
  8
DRAFT
100
AcDbLine
 62
7
  6
CONTINUOUS
 10
-28.2869187104
 20
18.8898649837
 11
-26.9122014513
 21
18.0961204675
  0
LINE
  5
26C
100
AcDbEntity
  8
DRAFT
100
AcDbLine
 62
7
  6
CONTINUOUS
 10
25.4531966598
 20
-12.1390041093
 11
26.8279139189
 21
-12.9327486254
  0
LINE
  5
26D
100
AcDbEntity
  8
DRAFT
100
AcDbLine
 62
7
  6
CONTINUOUS
 10
27.5745170034
 20
-12.8558427879
 11
27.2834139388
 21
-12.6877954553
  0
LWPOLYLINE
  5
26E
100
AcDbEntity
  8
RACCORDO
100
AcDbPolyline
 62
250
  6
CONTINUOUS
 90
16
 70
0
 10
-26.4059814476
 20
18.6021403877
 10
-23.4037366254
 20
16.6302319236
 10
-20.3895168642
 20
14.6855933894
 10
-17.363322164
 20
12.7682247849
 10
-14.3365957326
 20
10.8851229124
 10
-11.2978943622
 20
9.0292909697
 10
-8.2128884294
 20
7.1797385504
 10
-5.0699315821
 20
5.3288037336
 10
-1.8806701723
 20
3.4841484404
 10
1.3542863675
 20
1.6477680275
 10
4.6385534813
 20
-0.1821055165
 10
7.9685157252
 20
-2.00370418
 10
11.3327173355
 20
-3.8097285718
 10
14.7273397246
 20
-5.5977455612
 10
18.1562014801
 20
-7.3701882787
 10
21.6193026022
 20
-9.1270567245
  0
LWPOLYLINE
  5
26F
100
AcDbEntity
  8
DRAFT
100
AcDbPolyline
 62
7
  6
CONTINUOUS
 90
11
 70
0
 10
-31.1350939868
 20
22.5527389175
 10
-31.0767591009
 20
22.5219304626
 10
-31.0195636066
 20
22.4970408814
 10
-30.9635075037
 20
22.4780701739
 10
-30.9082333561
 20
22.464970968
 10
-30.8540986
 20
22.4577906358
 10
-30.8021755443
 20
22.4566712932
 10
-30.7525088896
 20
22.4617335397
 10
-30.7050539352
 20
22.4728567758
 10
-30.660748888
 20
22.4898213191
 10
-30.6411661651
 20
22.4997626017
  0
LINE
  5
270
100
AcDbEntity
  8
RACCORDO
100
AcDbLine
 62
7
  6
CONTINUOUS
 10
-24.771186804
 20
19.6131219178
 11
23.3121820125
 21
-8.1496126107
  0
LINE
  5
271
100
AcDbEntity
  8
DRAFT
100
AcDbLine
 62
7
  6
CONTINUOUS
 10
28.9725268313
 20
-11.4178247683
 11
-30.4315316228
 21
22.8813340754
  0
LINE
  5
272
100
AcDbEntity
  8
DRAFT
100
AcDbLine
 62
7
  6
CONTINUOUS
 10
22.7464427397
 20
-6.7799749065
 11
-22.3669699
 21
19.2679441478
  0
LWPOLYLINE
  5
273
100
AcDbEntity
  8
RACCORDO
100
AcDbPolyline
 62
250
  6
CONTINUOUS
 90
19
 70
0
 10
21.6193026022
 20
-9.1270567245
 10
21.6495921166
 20
-9.1467025677
 10
21.6796981407
 20
-9.1692770874
 10
21.7093916384
 20
-9.1946085443
 10
21.7384467118
 20
-9.2225042255
 10
21.7666423199
 20
-9.2527519103
 10
21.7937639603
 20
-9.2851214847
 10
21.8196053009
 20
-9.3193666922
 10
21.8439697497
 20
-9.355227007
 10
21.8666719504
 20
-9.3924296163
 10
21.8875391924
 20
-9.4306914955
 10
21.9064127252
 20
-9.4697215615
 10
21.9231489652
 20
-9.5092228869
 10
21.9376205891
 20
-9.5488949594
 10
21.9497175017
 20
-9.5884359676
 10
21.9593476738
 20
-9.627545097
 10
21.9664378424
 20
-9.665924819
 10
21.970934068
 20
-9.7032831538
 10
21.9728021449
 20
-9.7393358922
  0
LWPOLYLINE
  5
274
100
AcDbEntity
  8
DRAFT
100
AcDbPolyline
 62
7
  6
CONTINUOUS
 90
10
 70
0
 10
27.1206307072
 20
-17.3784403265
 10
27.1987361727
 20
-17.4473833508
 10
27.2772867914
 20
-17.5137987481
 10
27.3562825633
 20
-17.5776865183
 10
27.4357973363
 20
-17.639101052
 10
27.5157572623
 20
-17.6979879586
 10
27.5959407982
 20
-17.7541840669
 10
27.6762740959
 20
-17.8076349863
 10
27.7568310033
 20
-17.8583951073
 10
27.8376115204
 20
-17.9064644299
  0
LWPOLYLINE
  5
275
100
AcDbEntity
  8
DRAFT
100
AcDbPolyline
 62
7
  6
CONTINUOUS
 90
10
 70
0
 10
25.2719281713
 20
-16.8524084611
 10
25.2328870757
 20
-16.8177372599
 10
25.1947268053
 20
-16.7832612122
 10
25.15744736
 20
-16.748980318
 10
25.1210501864
 20
-16.7149021923
 10
25.0855338379
 20
-16.6810192202
 10
25.0508939747
 20
-16.6473085564
 10
25.0171291502
 20
-16.6137625858
 10
24.984240811
 20
-16.5803889235
 10
24.952228957
 20
-16.5471875694
  0
LWPOLYLINE
  5
276
100
AcDbEntity
  8
DRAFT
100
AcDbPolyline
 62
7
  6
CONTINUOUS
 90
25
 70
0
 10
24.952228957
 20
-16.5471875694
 10
24.9418085998
 20
-16.5378580968
 10
24.9308330557
 20
-16.5306555673
 10
24.9193023248
 20
-16.5255799809
 10
24.9071756992
 20
-16.5225931622
 10
24.8944938868
 20
-16.5217332865
 10
24.8813790112
 20
-16.5231148802
 10
24.8676805917
 20
-16.5268256667
 10
24.8535491089
 20
-16.5327779225
 10
24.8395581287
 20
-16.5408230033
 10
24.8257702666
 20
-16.5510588393
 10
24.8121229071
 20
-16.5633875003
 10
24.7990017694
 20
-16.5773665513
 10
24.7864556898
 20
-16.5929849629
 10
24.774435832
 20
-16.6102537644
 10
24.7631814069
 20
-16.6287636087
 10
24.7526914493
 20
-16.6485016865
 10
24.7429669244
 20
-16.6694808069
 10
24.7342499386
 20
-16.6913300509
 10
24.7265099709
 20
-16.7140033931
 10
24.7197775424
 20
-16.7375468589
 10
24.7143863217
 20
-16.7617276052
 10
24.7104475317
 20
-16.7864680176
 10
24.7078499496
 20
-16.8118457105
 10
24.7065935753
 20
-16.8378606839
  0
LINE
  5
277
100
AcDbEntity
  8
DRAFT
100
AcDbLine
 62
7
  6
CONTINUOUS
 10
-29.9839749852
 20
23.1720832858
 11
-29.9365799495
 21
23.1484552969
  0
LINE
  5
278
100
AcDbEntity
  8
DRAFT
100
AcDbLine
 62
7
  6
CONTINUOUS
 10
30.086255987
 20
-10.7772017926
 11
23.1707068084
 21
-6.784250369
  0
LINE
  5
279
100
AcDbEntity
  8
DRAFT
100
AcDbLine
 62
7
  6
CONTINUOUS
 10
-22.3669699
 20
19.5086334413
 11
-29.2825190787
 21
23.5015848649
  0
LWPOLYLINE
  5
27A
100
AcDbEntity
  8
DRAFT
100
AcDbPolyline
 62
7
  6
CONTINUOUS
 90
15
 70
0
 10
25.2719281713
 20
-16.8524084611
 10
25.169160933
 20
-16.6978550133
 10
25.0711137943
 20
-16.5395002464
 10
24.9780999248
 20
-16.3778338549
 10
24.8903781433
 20
-16.213280311
 10
24.8082752731
 20
-16.0464257382
 10
24.7321584015
 20
-15.8780254258
 10
24.6623272488
 20
-15.7088090967
 10
24.5988896843
 20
-15.5391105164
 10
24.5419113556
 20
-15.3690979455
 10
24.4915196548
 20
-15.1990342331
 10
24.4479925246
 20
-15.0297241996
 10
24.4115778647
 20
-14.8621408115
 10
24.3824070268
 20
-14.6971061373
 10
24.3604662732
 20
-14.5348126251
  0
LWPOLYLINE
  5
27B
100
AcDbEntity
  8
DRAFT
100
AcDbPolyline
 62
7
  6
CONTINUOUS
 90
10
 70
0
 10
26.25706753
 20
-15.9846915261
 10
26.2759701379
 20
-16.0148058553
 10
26.2950433092
 20
-16.0447824731
 10
26.3142870441
 20
-16.0746213795
 10
26.3337035353
 20
-16.1043258845
 10
26.3532905899
 20
-16.1338926781
 10
26.3730416294
 20
-16.1633118296
 10
26.3929544607
 20
-16.1925800288
 10
26.4130312768
 20
-16.221700586
 10
26.4332720777
 20
-16.2506735011
  0
LWPOLYLINE
  5
27C
100
AcDbEntity
  8
DRAFT
100
AcDbPolyline
 62
7
  6
CONTINUOUS
 90
20
 70
0
 10
25.6951414361
 20
-16.302080558
 10
25.5981097702
 20
-16.1402835387
 10
25.5068140689
 20
-15.9762744868
 10
25.4212543323
 20
-15.8100534023
 10
25.3411258164
 20
-15.6408977909
 10
25.2667332652
 20
-15.469530147
 10
25.19899091
 20
-15.2981179529
 10
25.1381078547
 20
-15.127082006
 10
25.0838749954
 20
-14.9560015091
 10
25.0365792513
 20
-14.7857815524
 10
24.9961658776
 20
-14.6160105973
 10
24.9626896191
 20
-14.4471001825
 10
24.936601629
 20
-14.2811900151
 10
24.9180348103
 20
-14.1185613552
 10
24.90685626
 20
-13.9589329426
 10
24.9031184223
 20
-13.8036007042
 10
24.90685626
 20
-13.6525848272
 10
24.9180348103
 20
-13.5058651243
 10
24.936601629
 20
-13.3646769612
 10
24.9626896191
 20
-13.2288925508
  0
LINE
  5
27D
100
AcDbEntity
  8
DRAFT
100
AcDbLine
 62
250
  6
CONTINUOUS
 10
27.6713220226
 20
-14.9743098234
 11
27.5745170034
 21
-14.8112591985
  0
LWPOLYLINE
  5
27E
100
AcDbEntity
  8
RACCORDO
100
AcDbPolyline
 62
7
  6
CONTINUOUS
 90
27
 70
0
 10
27.6000160531
 20
-14.9243972665
 10
27.6362069774
 20
-14.9866852261
 10
27.7211305261
 20
-15.1414986503
 10
27.8003141963
 20
-15.2986833538
 10
27.8734608477
 20
-15.4576317364
 10
27.9402835256
 20
-15.6176922524
 10
28.0005118165
 20
-15.7781648699
 10
28.0539325305
 20
-15.9384013482
 10
28.1003677188
 20
-16.0977643799
 10
28.1396569824
 20
-16.2555571902
 10
28.171689833
 20
-16.41112223
 10
28.1964025258
 20
-16.5638625079
 10
28.2137598927
 20
-16.7131616126
 10
28.2237616645
 20
-16.858344838
 10
28.2264606323
 20
-16.9989139431
 10
28.2219269557
 20
-17.1344852525
 10
28.2102709941
 20
-17.2643582495
 10
28.1916272839
 20
-17.3881547207
 10
28.1660507432
 20
-17.5058625789
 10
28.1337496415
 20
-17.6167132228
 10
28.0948630068
 20
-17.720432751
 10
28.0491405985
 20
-17.8174645775
 10
27.9965553486
 20
-17.9073354064
 10
27.937310099
 20
-17.9892618697
 10
27.8712687361
 20
-18.0630093966
 10
27.7983651805
 20
-18.1281456268
 10
27.7110191099
 20
-18.1887812314
  0
LWPOLYLINE
  5
27F
100
AcDbEntity
  8
DRAFT
100
AcDbPolyline
 62
7
  6
CONTINUOUS
 90
7
 70
0
 10
27.6000235166
 20
-14.9243883285
 10
27.593750043
 20
-14.912512096
 10
27.5872486124
 20
-14.8966096947
 10
27.582042371
 20
-14.8785477902
 10
27.5782387258
 20
-14.8582777628
 10
27.5757302699
 20
-14.8358482323
 10
27.5745170034
 20
-14.8112591985
  0
LWPOLYLINE
  5
280
100
AcDbEntity
  8
RACCORDO
100
AcDbPolyline
 62
250
  6
CONTINUOUS
 90
19
 70
0
 10
21.6193026029
 20
-9.1270567248
 10
21.5912429596
 20
-9.1480447555
 10
21.5635083478
 20
-9.1714055057
 10
21.5362096545
 20
-9.1971987848
 10
21.5095221782
 20
-9.2257505576
 10
21.4834964263
 20
-9.2569695839
 10
21.4582531793
 20
-9.2901477389
 10
21.4343974916
 20
-9.3250554487
 10
21.4121332736
 20
-9.3617371991
 10
21.3911896267
 20
-9.3996222776
 10
21.3720466676
 20
-9.4383725728
 10
21.3550864493
 20
-9.4778842182
 10
21.3398964023
 20
-9.5177931863
 10
21.3268023835
 20
-9.5578135474
 10
21.3161830773
 20
-9.5976953004
 10
21.3076755215
 20
-9.6370597333
 10
21.3013402747
 20
-9.675587287
 10
21.297640163
 20
-9.7130525481
 10
21.2967742729
 20
-9.7492104559
  0
LINE
  5
281
100
AcDbEntity
  8
RACCORDO
100
AcDbLine
 62
250
  6
CONTINUOUS
 10
21.6193026022
 20
-9.1270567245
 11
23.3121820125
 21
-8.1496126107
  0
LINE
  5
282
100
AcDbEntity
  8
RACCORDO
100
AcDbLine
 62
250
  6
CONTINUOUS
 10
21.9728021449
 20
-9.7393358922
 11
23.6656815552
 21
-8.7618917785
  0
LWPOLYLINE
  5
283
100
AcDbEntity
  8
RACCORDO
100
AcDbPolyline
 62
250
  6
CONTINUOUS
 90
16
 70
0
 10
21.9728021449
 20
-9.7393358922
 10
21.9360418042
 20
-9.7579166987
 10
21.8961641231
 20
-9.7743939156
 10
21.8535217888
 20
-9.7885841362
 10
21.8084451958
 20
-9.8003359793
 10
21.7614041601
 20
-9.8094874111
 10
21.7130235707
 20
-9.815900541
 10
21.6638460329
 20
-9.8195092787
 10
21.614291516
 20
-9.8202885364
 10
21.5648306275
 20
-9.8182295286
 10
21.5159394877
 20
-9.8133483135
 10
21.4681113802
 20
-9.8056903305
 10
21.4218338779
 20
-9.7953321888
 10
21.3775677374
 20
-9.782377521
 10
21.3357438587
 20
-9.7669529578
 10
21.2967742729
 20
-9.7492104559
  0
LWPOLYLINE
  5
284
100
AcDbEntity
  8
DRAFT
100
AcDbPolyline
 62
7
  6
CONTINUOUS
 90
3
 70
0
 10
24.3604662732
 20
-14.5348126251
 10
24.3457602527
 20
-14.3752876396
 10
24.3438283421
 20
-14.3344148628
  0
LINE
  5
285
100
AcDbEntity
  8
RACCORDO
100
AcDbLine
 62
250
  6
CONTINUOUS
 10
21.2967742729
 20
-9.7492104559
 11
21.2967742729
 21
-20.9495562774
  0
LINE
  5
286
100
AcDbEntity
  8
RACCORDO
100
AcDbLine
 62
250
  6
CONTINUOUS
 10
21.9728021449
 20
-9.7393358922
 11
21.9728021449
 21
-20.9396817137
  0
LINE
  5
287
100
AcDbEntity
  8
DRAFT
100
AcDbLine
 62
7
  6
CONTINUOUS
 10
23.0181771168
 20
-16.797807877
 11
23.0181771168
 21
-12.715456493
  0
LINE
  5
288
100
AcDbEntity
  8
DRAFT
100
AcDbLine
 62
7
  6
CONTINUOUS
 10
23.088887795
 20
-12.674629169
 11
23.088887795
 21
-16.1165674558
  0
LINE
  5
289
100
AcDbEntity
  8
RACCORDO
100
AcDbLine
 62
7
  6
CONTINUOUS
 10
23.6656815552
 20
-8.7618917785
 11
23.6656815552
 21
-12.341596785
  0
LINE
  5
28A
100
AcDbEntity
  8
RACCORDO
100
AcDbLine
 62
7
  6
CONTINUOUS
 10
23.6656815552
 20
-16.4496009441
 11
23.6656815552
 21
-20.0293059506
  0
LWPOLYLINE
  5
28B
100
AcDbEntity
  8
RACCORDO
100
AcDbPolyline
 62
250
  6
CONTINUOUS
 90
11
 70
0
 10
21.9728021449
 20
-20.9396817137
 10
21.970934068
 20
-20.9747644525
 10
21.9664378424
 20
-21.0080004209
 10
21.9593476738
 20
-21.0391367709
 10
21.9497175017
 20
-21.0679366281
 10
21.9376205891
 20
-21.094180893
 10
21.9231489652
 20
-21.1176699084
 10
21.9064127252
 20
-21.1382249779
 10
21.8875391924
 20
-21.1556897256
 10
21.8666719504
 20
-21.1699312859
 10
21.8622859518
 20
-21.1723758609
  0
LINE
  5
28C
100
AcDbEntity
  8
DRAFT
100
AcDbLine
 62
7
  6
CONTINUOUS
 10
25.6771750659
 20
-12.2683264338
 11
25.2719281713
 21
-12.5103736987
  0
LWPOLYLINE
  5
28D
100
AcDbEntity
  8
DRAFT
100
AcDbPolyline
 62
7
  6
CONTINUOUS
 90
10
 70
0
 10
24.8190954162
 20
-10.4666965307
 10
24.8096471103
 20
-10.4722888492
 10
24.7863985599
 20
-10.4898708371
 10
24.7659291316
 20
-10.5112273944
 10
24.7482468551
 20
-10.5365115111
 10
24.7333437007
 20
-10.5655701972
 10
24.7216806931
 20
-10.5975478918
 10
24.7134115071
 20
-10.632159408
 10
24.7083824678
 20
-10.6696899328
 10
24.7065935753
 20
-10.7101394661
  0
LINE
  5
28E
100
AcDbEntity
  8
DRAFT
100
AcDbLine
 62
7
  6
CONTINUOUS
 10
23.6656815552
 20
-12.341596785
 11
23.0181771168
 21
-12.715456493
  0
LINE
  5
28F
100
AcDbEntity
  8
DRAFT
100
AcDbLine
 62
250
  6
CONTINUOUS
 10
24.7065935753
 20
-10.7101394661
 11
25.0858135153
 21
-10.498695303
  0
LINE
  5
290
100
AcDbEntity
  8
DRAFT
100
AcDbLine
 62
250
  6
CONTINUOUS
 10
26.8279139189
 20
-11.9349632461
 11
27.2071338589
 21
-11.723519083
  0
LWPOLYLINE
  5
291
100
AcDbEntity
  8
DRAFT
100
AcDbPolyline
 62
250
  6
CONTINUOUS
 90
34
 70
0
 10
24.7065935753
 20
-13.1553561547
 10
24.6273704145
 20
-13.1962421521
 10
24.5524021532
 20
-13.2435953463
 10
24.4816887915
 20
-13.2974157372
 10
24.4150715242
 20
-13.3578777318
 10
24.3527091565
 20
-13.4248069231
 10
24.2950781034
 20
-13.4976800904
 10
24.2422153783
 20
-13.5765467873
 10
24.1940839678
 20
-13.6613574601
 10
24.151049247
 20
-13.7514402276
 10
24.1131539095
 20
-13.8468326894
 10
24.0803552617
 20
-13.9474972459
 10
24.0528905977
 20
-14.0526492168
 10
24.0308010923
 20
-14.1623152435
 10
24.0140455709
 20
-14.2764686848
 10
24.0027378032
 20
-14.3942449369
 10
23.9969158069
 20
-14.5156646659
 10
23.9965415645
 20
-14.6407072058
 10
24.0016147931
 20
-14.768445955
 10
24.0121700229
 20
-14.8988917589
 10
24.0281727237
 20
-15.032033772
 10
24.0495190223
 20
-15.1669128566
 10
24.0762277245
 20
-15.3035056568
 10
24.1082800244
 20
-15.4418355283
 10
24.1455156319
 20
-15.5810134003
 10
24.187929024
 20
-15.7210033242
 10
24.2355257237
 20
-15.8618412485
 10
24.2881620089
 20
-16.0027459484
 10
24.3458984907
 20
-16.1438330635
 10
24.408674558
 20
-16.284986954
 10
24.4761646557
 20
-16.4250794758
 10
24.5482602653
 20
-16.5637345807
 10
24.6250699051
 20
-16.7013283167
 10
24.7065935753
 20
-16.8378606839
  0
LWPOLYLINE
  5
292
100
AcDbEntity
  8
RACCORDO
100
AcDbPolyline
 62
7
  6
CONTINUOUS
 90
9
 70
0
 10
25.2705443297
 20
-15.4783091595
 10
25.283564403
 20
-15.4731559069
 10
25.2997855354
 20
-15.4694945932
 10
25.3170185667
 20
-15.4682352122
 10
25.3352250617
 20
-15.4693494366
 10
25.3539399531
 20
-15.4728013166
 10
25.3730082186
 20
-15.4785788688
 10
25.3925848805
 20
-15.4866940765
 10
25.4126699388
 20
-15.4971469397
  0
LWPOLYLINE
  5
293
100
AcDbEntity
  8
DRAFT
100
AcDbPolyline
 62
7
  6
CONTINUOUS
 90
17
 70
0
 10
24.7065935753
 20
-13.1553561547
 10
24.7078509387
 20
-13.1800140162
 10
24.7104592774
 20
-13.2025374641
 10
24.7144185913
 20
-13.2229264986
 10
24.719840947
 20
-13.2411393598
 10
24.726614278
 20
-13.2572178074
 10
24.7344023849
 20
-13.2712871206
 10
24.7431779577
 20
-13.2834239662
 10
24.7529683065
 20
-13.2935516774
 10
24.7635191623
 20
-13.3015655317
 10
24.7748289916
 20
-13.3074732208
 10
24.7868993279
 20
-13.311267053
 10
24.7994805033
 20
-13.3128192311
 10
24.812625804
 20
-13.3120773426
 10
24.8262819437
 20
-13.3090937999
 10
24.8400393954
 20
-13.3038980433
 10
24.8529223584
 20
-13.2969714227
  0
LWPOLYLINE
  5
294
100
AcDbEntity
  8
DRAFT
100
AcDbPolyline
 62
7
  6
CONTINUOUS
 90
26
 70
0
 10
24.7065935753
 20
-19.2830773725
 10
24.7083824678
 20
-19.325592674
 10
24.7134115071
 20
-19.3689306072
 10
24.7216806931
 20
-19.4130911722
 10
24.7333437007
 20
-19.4585370157
 10
24.7482468551
 20
-19.5048054908
 10
24.7659291316
 20
-19.5505086572
 10
24.7863985599
 20
-19.5955027972
 10
24.8096471103
 20
-19.6399316284
 10
24.8351896697
 20
-19.6828383634
 10
24.8632081544
 20
-19.7243523764
 10
24.8935206481
 20
-19.7643442933
 10
24.9250962885
 20
-19.8014692045
 10
24.9577986949
 20
-19.8354720179
 10
24.9917642481
 20
-19.8666078256
 10
25.0263712279
 20
-19.894296995
 10
25.0618400121
 20
-19.9185932165
 10
25.097950223
 20
-19.9394427997
 10
25.1334190072
 20
-19.9561050412
 10
25.1680259871
 20
-19.9683791446
 10
25.2019915402
 20
-19.9764659063
 10
25.2346939467
 20
-19.9802270122
 10
25.2662695871
 20
-19.979564859
 10
25.2965820808
 20
-19.9745770501
 10
25.3246005655
 20
-19.9654180809
 10
25.3471978265
 20
-19.9538394395
  0
LWPOLYLINE
  5
295
100
AcDbEntity
  8
DRAFT
100
AcDbPolyline
 62
7
  6
CONTINUOUS
 90
26
 70
0
 10
25.4531966598
 20
-11.14121873
 10
25.4514077673
 20
-11.0987034284
 10
25.4463787281
 20
-11.0553654952
 10
25.4381095421
 20
-11.0112049302
 10
25.4264465345
 20
-10.9657590868
 10
25.4115433801
 20
-10.9194906116
 10
25.3938611035
 20
-10.8737874452
 10
25.3733916753
 20
-10.8287933052
 10
25.3501431249
 20
-10.7843644741
 10
25.3246005655
 20
-10.741457739
 10
25.2965820808
 20
-10.699943726
 10
25.2662695871
 20
-10.6599518091
 10
25.2346939467
 20
-10.6228268979
 10
25.2019915402
 20
-10.5888240846
 10
25.1680259871
 20
-10.5576882768
 10
25.1334190072
 20
-10.5299991074
 10
25.097950223
 20
-10.5057028859
 10
25.0618400121
 20
-10.4848533027
 10
25.0263712279
 20
-10.4681910612
 10
24.9917642481
 20
-10.4559169578
 10
24.9577986949
 20
-10.4478301961
 10
24.9250962885
 20
-10.4440690902
 10
24.8935206481
 20
-10.4447312434
 10
24.8632081544
 20
-10.4497190524
 10
24.8351896697
 20
-10.4588780215
 10
24.8190954162
 20
-10.4666965307
  0
LWPOLYLINE
  5
296
100
AcDbEntity
  8
DRAFT
100
AcDbPolyline
 62
7
  6
CONTINUOUS
 90
26
 70
0
 10
26.8279139189
 20
-20.5079011524
 10
26.8297028114
 20
-20.550416454
 10
26.8347318506
 20
-20.5937543872
 10
26.8430010366
 20
-20.6379149522
 10
26.8546640442
 20
-20.6833607956
 10
26.8695671986
 20
-20.7296292708
 10
26.8872494752
 20
-20.7753324372
 10
26.9077189034
 20
-20.8203265772
 10
26.9309674538
 20
-20.8647554083
 10
26.9565100132
 20
-20.9076621434
 10
26.9845284979
 20
-20.9491761564
 10
27.0148409916
 20
-20.9891680733
 10
27.046416632
 20
-21.0262929845
 10
27.0791190385
 20
-21.0602957978
 10
27.1130845917
 20
-21.0914316056
 10
27.1476915715
 20
-21.119120775
 10
27.1831603557
 20
-21.1434169965
 10
27.2192705666
 20
-21.1642665797
 10
27.2547393508
 20
-21.1809288212
 10
27.2893463306
 20
-21.1932029246
 10
27.3233118838
 20
-21.2012896863
 10
27.3560142902
 20
-21.2050507922
 10
27.3875899307
 20
-21.204388639
 10
27.4179024243
 20
-21.19940083
 10
27.4459209091
 20
-21.1902418609
 10
27.4685181701
 20
-21.1786632195
  0
LWPOLYLINE
  5
297
100
AcDbEntity
  8
DRAFT
100
AcDbPolyline
 62
250
  6
CONTINUOUS
 90
15
 70
0
 10
24.3374329973
 20
-14.5046723975
 10
24.3381512607
 20
-14.5676579956
 10
24.3448559758
 20
-14.709943088
 10
24.3585816684
 20
-14.8555591355
 10
24.3792803462
 20
-15.0040262124
 10
24.4068971851
 20
-15.1549187826
 10
24.4413219051
 20
-15.3076157083
 10
24.4824625225
 20
-15.4616940649
 10
24.5303195242
 20
-15.6170263189
 10
24.5848124412
 20
-15.7731457512
 10
24.6457902148
 20
-15.9294378533
 10
24.7131843536
 20
-16.0855429979
 10
24.7868660075
 20
-16.2409566128
 10
24.8666195612
 20
-16.3950336427
 10
24.952228957
 20
-16.5471875694
  0
LINE
  5
298
100
AcDbEntity
  8
DRAFT
100
AcDbLine
 62
7
  6
CONTINUOUS
 10
24.7065935753
 20
-19.2830773725
 11
24.7065935753
 21
-16.8378606839
  0
LINE
  5
299
100
AcDbEntity
  8
DRAFT
100
AcDbLine
 62
7
  6
CONTINUOUS
 10
24.7065935753
 20
-13.1553561547
 11
24.7065935753
 21
-10.7101394661
  0
LINE
  5
29A
100
AcDbEntity
  8
DRAFT
100
AcDbLine
 62
7
  6
CONTINUOUS
 10
25.4531966598
 20
-19.7141566363
 11
25.4531966598
 21
-18.716371257
  0
LINE
  5
29B
100
AcDbEntity
  8
DRAFT
100
AcDbLine
 62
7
  6
CONTINUOUS
 10
25.4531966598
 20
-12.1390041093
 11
25.4531966598
 21
-11.14121873
  0
LINE
  5
29C
100
AcDbEntity
  8
DRAFT
100
AcDbLine
 62
7
  6
CONTINUOUS
 10
25.8577125769
 20
-17.8724698958
 11
25.8577125769
 21
-18.466212546
  0
LWPOLYLINE
  5
29D
100
AcDbEntity
  8
RACCORDO
100
AcDbPolyline
 62
7
  6
CONTINUOUS
 90
15
 70
0
 10
24.3374329973
 20
-14.5046723975
 10
24.3401844014
 20
-14.3854587231
 10
24.3484100225
 20
-14.2702352615
 10
24.3620462484
 20
-14.1593905091
 10
24.3809668715
 20
-14.0534630398
 10
24.4050764907
 20
-13.9525987796
 10
24.4343921187
 20
-13.856657236
 10
24.4687681797
 20
-13.7661428696
 10
24.5081245225
 20
-13.6812638548
 10
24.552738518
 20
-13.6016539316
 10
24.6026935554
 20
-13.5276019603
 10
24.6578463105
 20
-13.4597044707
 10
24.7182926703
 20
-13.3981911596
 10
24.7840935736
 20
-13.3433797026
 10
24.8529250606
 20
-13.2970346588
  0
LWPOLYLINE
  5
29E
100
AcDbEntity
  8
DRAFT
100
AcDbPolyline
 62
7
  6
CONTINUOUS
 90
9
 70
0
 10
24.8529223584
 20
-13.2969714227
 10
24.8679226663
 20
-13.2865889459
 10
24.8815100961
 20
-13.2750669304
 10
24.8945717648
 20
-13.2618501287
 10
24.9072285719
 20
-13.2468719671
 10
24.9193370422
 20
-13.2303835791
 10
24.9308493506
 20
-13.2124686757
 10
24.9418133222
 20
-13.1930435458
 10
24.952228957
 20
-13.1721081894
  0
LWPOLYLINE
  5
29F
100
AcDbEntity
  8
DRAFT
100
AcDbPolyline
 62
7
  6
CONTINUOUS
 90
10
 70
0
 10
26.9404157597
 20
-11.6915203107
 10
26.9309674538
 20
-11.6971126292
 10
26.9077189034
 20
-11.7146946171
 10
26.8872494752
 20
-11.7360511744
 10
26.8695671986
 20
-11.7613352911
 10
26.8546640442
 20
-11.7903939771
 10
26.8430010366
 20
-11.8223716717
 10
26.8347318506
 20
-11.856983188
 10
26.8297028114
 20
-11.8945137128
 10
26.8279139189
 20
-11.9349632461
  0
LINE
  5
2A0
100
AcDbEntity
  8
RACCORDO
100
AcDbLine
 62
7
  6
CONTINUOUS
 10
23.088887795
 20
-16.1165674558
 11
23.0181771168
 21
-16.1573950553
  0
LINE
  5
2A1
100
AcDbEntity
  8
DRAFT
100
AcDbLine
 62
7
  6
CONTINUOUS
 10
30.7877118935
 20
-11.9167270699
 11
29.6760891953
 21
-12.5588761087
  0
LINE
  5
2A2
100
AcDbEntity
  8
DRAFT
100
AcDbLine
 62
7
  6
CONTINUOUS
 10
30.086255987
 20
-10.7772017926
 11
28.9725268313
 21
-11.4178247683
  0
LINE
  5
2A3
100
AcDbEntity
  8
DRAFT
100
AcDbLine
 62
7
  6
CONTINUOUS
 10
27.2834139388
 20
-12.6877954553
 11
26.8279139189
 21
-12.9327486254
  0
LINE
  5
2A4
100
AcDbEntity
  8
DRAFT
100
AcDbLine
 62
7
  6
CONTINUOUS
 10
23.6656815552
 20
-16.4496009441
 11
23.0181771168
 21
-16.797807877
  0
LINE
  5
2A5
100
AcDbEntity
  8
RACCORDO
100
AcDbLine
 62
250
  6
CONTINUOUS
 10
25.3032700096
 20
-15.5536946997
 11
25.4126699388
 21
-15.4971469397
  0
LWPOLYLINE
  5
2A6
100
AcDbEntity
  8
DRAFT
100
AcDbPolyline
 62
7
  6
CONTINUOUS
 90
26
 70
0
 10
27.5745170034
 20
-12.36604251
 10
27.5727281109
 20
-12.3235272084
 10
27.5676990717
 20
-12.2801892752
 10
27.5594298857
 20
-12.2360287102
 10
27.547766878
 20
-12.1905828668
 10
27.5328637237
 20
-12.1443143916
 10
27.5151814471
 20
-12.0986112252
 10
27.4947120189
 20
-12.0536170852
 10
27.4714634684
 20
-12.009188254
 10
27.4459209091
 20
-11.966281519
 10
27.4179024243
 20
-11.924767506
 10
27.3875899307
 20
-11.8847755891
 10
27.3560142902
 20
-11.8476506779
 10
27.3233118838
 20
-11.8136478645
 10
27.2893463306
 20
-11.7825120568
 10
27.2547393508
 20
-11.7548228874
 10
27.2192705666
 20
-11.7305266659
 10
27.1831603557
 20
-11.7096770827
 10
27.1476915715
 20
-11.6930148412
 10
27.1130845917
 20
-11.6807407378
 10
27.0791190385
 20
-11.6726539761
 10
27.046416632
 20
-11.6688928702
 10
27.0148409916
 20
-11.6695550234
 10
26.9845284979
 20
-11.6745428323
 10
26.9565100132
 20
-11.6837018015
 10
26.9404157597
 20
-11.6915203107
  0
LINE
  5
2A7
100
AcDbEntity
  8
DRAFT
100
AcDbLine
 62
7
  6
CONTINUOUS
 10
26.4332720777
 20
-16.2506735011
 11
26.4332720777
 21
-17.4979252096
  0
LINE
  5
2A8
100
AcDbEntity
  8
DRAFT
100
AcDbLine
 62
7
  6
CONTINUOUS
 10
26.8279139189
 20
-11.9349632461
 11
26.8279139189
 21
-12.9327486254
  0
LINE
  5
2A9
100
AcDbEntity
  8
DRAFT
100
AcDbLine
 62
7
  6
CONTINUOUS
 10
26.8279139189
 20
-19.5101157732
 11
26.8279139189
 21
-20.5079011524
  0
LINE
  5
2AA
100
AcDbEntity
  8
DRAFT
100
AcDbLine
 62
7
  6
CONTINUOUS
 10
27.5745170034
 20
-12.36604251
 11
27.5745170034
 21
-14.8112591985
  0
LINE
  5
2AB
100
AcDbEntity
  8
DRAFT
100
AcDbLine
 62
7
  6
CONTINUOUS
 10
27.5745170034
 20
-18.4937637277
 11
27.5745170034
 21
-20.9389804163
  0
LWPOLYLINE
  5
2AC
100
AcDbEntity
  8
DRAFT
100
AcDbPolyline
 62
7
  6
CONTINUOUS
 90
17
 70
0
 10
27.5745170034
 20
-18.4937637277
 10
27.5757312251
 20
-18.467678804
 10
27.5782500684
 20
-18.4421949854
 10
27.5820735335
 20
-18.4173122719
 10
27.5873098415
 20
-18.3929452319
 10
27.5938507712
 20
-18.369179297
 10
27.6013716586
 20
-18.3462707624
 10
27.6098461307
 20
-18.3241739569
 10
27.6193005607
 20
-18.3029345518
 10
27.6294894037
 20
-18.2829458553
 10
27.6404111789
 20
-18.2642019164
 10
27.6520673672
 20
-18.2467086862
 10
27.664216867
 20
-18.2308773262
 10
27.6769111363
 20
-18.2166997709
 10
27.6900987171
 20
-18.2041840858
 10
27.7033841339
 20
-18.193765629
 10
27.7110191608
 20
-18.1888143268
  0
LINE
  5
2AD
100
AcDbEntity
  8
DRAFT
100
AcDbLine
 62
7
  6
CONTINUOUS
 10
24.9626896191
 20
-13.2288925508
 11
24.9961658776
 21
-13.0986396803
  0
LINE
  5
2AE
100
AcDbEntity
  8
DRAFT
100
AcDbLine
 62
7
  6
CONTINUOUS
 10
24.9961658776
 20
-13.0986396803
 11
25.0188619927
 21
-13.0295053662
  0
LINE
  5
2AF
100
AcDbEntity
  8
DRAFT
100
AcDbLine
 62
7
  6
CONTINUOUS
 10
24.952228957
 20
-13.1721081894
 11
25.0170644771
 21
-13.033295777
  0
LINE
  5
2B0
100
AcDbEntity
  8
DRAFT
100
AcDbLine
 62
7
  6
CONTINUOUS
 10
25.0170644771
 20
-13.033295777
 11
25.085437843
 21
-12.8898209036
  0
LINE
  5
2B1
100
AcDbEntity
  8
DRAFT
100
AcDbLine
 62
7
  6
CONTINUOUS
 10
25.085437843
 20
-12.8898209036
 11
25.1573558365
 21
-12.7416524504
  0
LWPOLYLINE
  5
2B2
100
AcDbEntity
  8
DRAFT
100
AcDbPolyline
 62
7
  6
CONTINUOUS
 90
3
 70
0
 10
25.1573558365
 20
-12.7416524504
 10
25.2328455847
 20
-12.588665943
 10
25.2719281713
 20
-12.5103736987
  0
LINE
  5
2B3
100
AcDbEntity
  8
DRAFT
100
AcDbLine
 62
7
  6
CONTINUOUS
 10
25.2087200623
 20
-12.6373663619
 11
25.2667332652
 21
-12.5575645678
  0
LINE
  5
2B4
100
AcDbEntity
  8
DRAFT
100
AcDbLine
 62
7
  6
CONTINUOUS
 10
25.2667332652
 20
-12.5575645678
 11
25.3411258164
 21
-12.4721035772
  0
LINE
  5
2B5
100
AcDbEntity
  8
DRAFT
100
AcDbLine
 62
7
  6
CONTINUOUS
 10
26.4233980018
 20
-17.5040314862
 11
26.7696728824
 21
-17.2898899058
  0
LINE
  5
2B6
100
AcDbEntity
  8
DRAFT
100
AcDbLine
 62
7
  6
CONTINUOUS
 10
27.1206307072
 20
-17.3784403265
 11
27.0222814999
 21
-17.4357142648
  0
LINE
  5
2B7
100
AcDbEntity
  8
DRAFT
100
AcDbLine
 62
7
  6
CONTINUOUS
 10
25.8577125769
 20
-17.8724698958
 11
26.3852665556
 21
-17.5716415275
  0
LINE
  5
2B8
100
AcDbEntity
  8
DRAFT
100
AcDbLine
 62
7
  6
CONTINUOUS
 10
25.6951414361
 20
-16.302080558
 11
26.25706753
 21
-15.9846915261
  0
LINE
  5
2B9
100
AcDbEntity
  8
DRAFT
100
AcDbLine
 62
250
  6
CONTINUOUS
 10
24.7065935753
 20
-19.2830773725
 11
25.4531966598
 21
-18.8667889663
  0
LINE
  5
2BA
100
AcDbEntity
  8
RACCORDO
100
AcDbLine
 62
250
  6
CONTINUOUS
 10
23.6656815552
 20
-20.0293059506
 11
21.9728021449
 21
-20.9396817137
  0
LINE
  5
2BB
100
AcDbEntity
  8
DRAFT
100
AcDbLine
 62
7
  6
CONTINUOUS
 10
26.4332720777
 20
-16.2506735011
 11
25.2719281713
 21
-16.8524084611
  0
LWPOLYLINE
  5
2BC
100
AcDbEntity
  8
RACCORDO
100
AcDbPolyline
 62
250
  6
CONTINUOUS
 90
16
 70
0
 10
21.9728021449
 20
-20.9396817137
 10
21.936049343
 20
-20.9582590703
 10
21.8961785496
 20
-20.9747343733
 10
21.8535419168
 20
-20.9889240012
 10
21.8084692529
 20
-21.0006763385
 10
21.7614301457
 20
-21.0098289935
 10
21.7130496739
 20
-21.0162436816
 10
21.6638698048
 20
-21.0198540433
 10
21.6143110404
 20
-21.0206346099
 10
21.5648461399
 20
-21.0185764443
 10
21.5159521782
 20
-21.0136957801
 10
21.468121628
 20
-21.0060381139
 10
21.4218415917
 20
-20.9956799964
 10
21.3775727492
 20
-20.9827249946
 10
21.3357462677
 20
-20.9672997682
 10
21.2967742729
 20
-20.9495562774
  0
LWPOLYLINE
  5
2BD
100
AcDbEntity
  8
DRAFT
100
AcDbPolyline
 62
7
  6
CONTINUOUS
 90
19
 70
0
 10
30.086255987
 20
-10.7772017926
 10
30.0958054781
 20
-10.8486121982
 10
30.1095599243
 20
-10.9206158404
 10
30.1275193256
 20
-10.9932127192
 10
30.1498467097
 20
-11.0668590077
 10
30.176379049
 20
-11.1410985329
 10
30.2066272604
 20
-11.2145627756
 10
30.2406605447
 20
-11.2872377869
 10
30.2784097011
 20
-11.3591375157
 10
30.3191780447
 20
-11.428935289
 10
30.3630207842
 20
-11.4965910994
 10
30.4098827108
 20
-11.5621449544
 10
30.4589015143
 20
-11.6243902035
 10
30.510118359
 20
-11.6832668745
 10
30.5634920805
 20
-11.7388349397
 10
30.6180368751
 20
-11.7900676651
 10
30.6734241415
 20
-11.8366228064
 10
30.729982481
 20
-11.878842608
 10
30.7877118935
 20
-11.9167270699
  0
LWPOLYLINE
  5
2BE
100
AcDbEntity
  8
DRAFT
100
AcDbPolyline
 62
7
  6
CONTINUOUS
 90
19
 70
0
 10
28.9725268313
 20
-11.4178247683
 10
28.9808366081
 20
-11.4893540646
 10
28.9935651258
 20
-11.5615987268
 10
29.0107123843
 20
-11.6345587548
 10
29.0324504354
 20
-11.7087271017
 10
29.0586072273
 20
-11.7836108145
 10
29.0886666049
 20
-11.8577310343
 10
29.1227074093
 20
-11.9310749349
 10
29.1606507994
 20
-12.0036553426
 10
29.2017440966
 20
-12.074031877
 10
29.2460491438
 20
-12.1421587782
 10
29.2935040981
 20
-12.2080818061
 10
29.3431707528
 20
-12.2704978605
 10
29.3950938085
 20
-12.3293379612
 10
29.4492285646
 20
-12.3846710884
 10
29.5045027123
 20
-12.4354010827
 10
29.5605588151
 20
-12.4811625576
 10
29.6177543094
 20
-12.5223208996
 10
29.6760891953
 20
-12.5588761087
  0
LINE
  5
2BF
100
AcDbEntity
  8
DRAFT
100
AcDbLine
 62
7
  6
CONTINUOUS
 10
29.6760891953
 20
-23.172989707
 11
29.6760891953
 21
-12.5588761087
  0
LINE
  5
2C0
100
AcDbEntity
  8
DRAFT
100
AcDbLine
 62
7
  6
CONTINUOUS
 10
30.7877118935
 20
-22.4858553766
 11
30.7877118935
 21
-18.4259966385
  0
LINE
  5
2C1
100
AcDbEntity
  8
DRAFT
100
AcDbLine
 62
7
  6
CONTINUOUS
 10
30.7877118935
 20
-15.9765858081
 11
30.7877118935
 21
-11.9167270699
  0
LINE
  5
2C2
100
AcDbEntity
  8
DRAFT
100
AcDbLine
 62
7
  6
CONTINUOUS
 10
31.1350939868
 20
-15.7760110525
 11
31.1350939868
 21
-18.2111703412
  0
LWPOLYLINE
  5
2C3
100
AcDbEntity
  8
DRAFT
100
AcDbPolyline
 62
7
  6
CONTINUOUS
 90
10
 70
0
 10
25.3471978265
 20
-19.9538394395
 10
25.3501431249
 20
-19.9520072532
 10
25.3733916753
 20
-19.9344252653
 10
25.3938611035
 20
-19.913068708
 10
25.4115433801
 20
-19.8877845913
 10
25.4264465345
 20
-19.8587259053
 10
25.4381095421
 20
-19.8267482107
 10
25.4463787281
 20
-19.7921366944
 10
25.4514077673
 20
-19.7546061696
 10
25.4531966598
 20
-19.7141566363
  0
LINE
  5
2C4
100
AcDbEntity
  8
DRAFT
100
AcDbLine
 62
7
  6
CONTINUOUS
 10
25.8930679159
 20
-18.444348274
 11
25.4531966598
 21
-18.716371257
  0
LINE
  5
2C5
100
AcDbEntity
  8
DRAFT
100
AcDbLine
 62
7
  6
CONTINUOUS
 10
30.7877118935
 20
-15.9765858081
 11
31.1350939868
 21
-15.7760110525
  0
LINE
  5
2C6
100
AcDbEntity
  8
DRAFT
100
AcDbLine
 62
7
  6
CONTINUOUS
 10
27.2834139388
 20
-19.2471166425
 11
26.8279139189
 21
-19.5101157732
  0
LINE
  5
2C7
100
AcDbEntity
  8
DRAFT
100
AcDbLine
 62
250
  6
CONTINUOUS
 10
26.8279139189
 20
-20.5079011524
 11
27.5745170034
 21
-20.0916127463
  0
LINE
  5
2C8
100
AcDbEntity
  8
RACCORDO
100
AcDbLine
 62
7
  6
CONTINUOUS
 10
23.5577631248
 20
-20.260603105
 11
21.8622859518
 21
-21.1723758609
  0
LWPOLYLINE
  5
2C9
100
AcDbEntity
  8
DRAFT
100
AcDbPolyline
 62
250
  6
CONTINUOUS
 90
27
 70
0
 10
27.5745170034
 20
-18.4937637277
 10
27.6715334259
 20
-18.4423296706
 10
27.7619157142
 20
-18.3813661096
 10
27.845663868
 20
-18.3108730448
 10
27.9230283314
 20
-18.2305025221
 10
27.9937586604
 20
-18.1406024954
 10
28.0571035236
 20
-18.0422168272
 10
28.1129885371
 20
-17.9352592621
 10
28.1614880847
 20
-17.8198160553
 10
28.2020739866
 20
-17.6971898352
 10
28.2346642263
 20
-17.5672971735
 10
28.2593408202
 20
-17.4302214984
 10
28.2758216385
 20
-17.2875157228
 10
28.2840149133
 20
-17.1391091673
 10
28.2840124124
 20
-16.9850725113
 10
28.2758073086
 20
-16.8271707055
 10
28.2593049992
 20
-16.665358965
 10
28.2346000869
 20
-16.4996820747
 10
28.2019695535
 20
-16.3320393393
 10
28.1613234814
 20
-16.1624104249
 10
28.1127517881
 20
-15.9908156654
 10
28.0568012078
 20
-15.8192153682
 10
27.9933842653
 20
-15.6476021804
 10
27.9225884358
 20
-15.4759834548
 10
27.8452228789
 20
-15.3063415572
 10
27.7615573144
 20
-15.1393372763
 10
27.6713220226
 20
-14.9743098234
  0
LINE
  5
2CA
100
AcDbEntity
  8
DRAFT
100
AcDbLine
 62
7
  6
CONTINUOUS
 10
25.8930679159
 20
-18.444348274
 11
26.4233980018
 21
-17.5040314862
  0
LINE
  5
2CB
100
AcDbEntity
  8
DRAFT
100
AcDbLine
 62
7
  6
CONTINUOUS
 10
27.2834139388
 20
-19.2471166425
 11
27.5745170034
 21
-18.7544447983
  0
LWPOLYLINE
  5
2CC
100
AcDbEntity
  8
DRAFT
100
AcDbPolyline
 62
7
  6
CONTINUOUS
 90
10
 70
0
 10
27.4685181701
 20
-21.1786632195
 10
27.4714634684
 20
-21.1768310332
 10
27.4947120189
 20
-21.1592490453
 10
27.5151814471
 20
-21.137892488
 10
27.5328637237
 20
-21.1126083713
 10
27.547766878
 20
-21.0835496853
 10
27.5594298857
 20
-21.0515719906
 10
27.5676990717
 20
-21.0169604744
 10
27.5727281109
 20
-20.9794299496
 10
27.5745170034
 20
-20.9389804163
  0
LINE
  5
2CD
100
AcDbEntity
  8
DRAFT
100
AcDbLine
 62
7
  6
CONTINUOUS
 10
30.7877118935
 20
-18.4259966385
 11
31.1350939868
 21
-18.2111703412
  0
LWPOLYLINE
  5
2CE
100
AcDbEntity
  8
DRAFT
100
AcDbPolyline
 62
7
  6
CONTINUOUS
 90
10
 70
0
 10
29.1698193305
 20
-23.1271459652
 10
29.1606507994
 20
-23.1329951334
 10
29.1227074093
 20
-23.1617594653
 10
29.0886666049
 20
-23.1957938983
 10
29.0586072273
 20
-23.2352023023
 10
29.0324504354
 20
-23.2798808074
 10
29.0107123843
 20
-23.3289465978
 10
28.9935651258
 20
-23.3821054015
 10
28.9808366081
 20
-23.4396514905
 10
28.9725268313
 20
-23.5015848649
  0
LINE
  5
2CF
100
AcDbEntity
  8
DRAFT
100
AcDbLine
 62
7
  6
CONTINUOUS
 10
30.7877118935
 20
-22.4858553766
 11
29.6760891953
 21
-23.172989707
  0
LINE
  5
2D0
100
AcDbEntity
  8
DRAFT
100
AcDbLine
 62
7
  6
CONTINUOUS
 10
29.5814002534
 20
-23.1263611733
 11
28.9725268313
 21
-23.5015848649
  0
ARC
  5
2D1
100
AcDbEntity
  8
RACCORDO
100
AcDbCircle
 62
7
  6
CONTINUOUS
 10
21.6254729597
 20
-20.7320128211
 40
0.5
100
AcDbArc
 50
243.19609894
 51
298.2699256375
  0
ARC
  5
2D2
100
AcDbEntity
  8
RACCORDO
100
AcDbCircle
 62
7
  6
CONTINUOUS
 10
-26.3998110901
 20
18.1975301126
 40
0.5
100
AcDbArc
 50
121.7332683129
 51
180.0074364886
  0
ARC
  5
2D3
100
AcDbEntity
  8
RACCORDO
100
AcDbCircle
 62
7
  6
CONTINUOUS
 10
-26.3998110901
 20
6.9971842911
 40
0.5
100
AcDbArc
 50
180.0007993134
 51
236.5616758374
  0
ELLIPSE
  5
2D4
100
AcDbEntity
  8
RACCORDO
100
AcDbEllipse
 62
7
  6
CONTINUOUS
 10
23.3120743085
 20
-19.8250131963
 30
0.0
 11
-0.2500882309
 21
0.4331376414
 31
0.0
 40
0.5771558487
 41
-3.159039784
 42
-2.3563950755
  0
ELLIPSE
  5
2D5
100
AcDbEntity
  8
RACCORDO
100
AcDbEllipse
 62
7
  6
CONTINUOUS
 10
23.3120743085
 20
-8.5578477478
 30
0.0
 11
-0.2500120911
 21
0.4330057209
 31
0.0
 40
0.5775075436
 41
-2.3560905478
 42
-0.7855988075
  0
ELLIPSE
  5
2D6
100
AcDbEntity
  8
RACCORDO
100
AcDbEllipse
 62
7
  6
CONTINUOUS
 10
-24.7710791
 20
19.2047624068
 30
0.0
 11
-0.2500882309
 21
0.4331376414
 31
0.0
 40
0.5771558487
 41
-0.7852941622
 42
0.0174471304
  0
ENDSEC
  0
SECTION
  2
OBJECTS
  0
DICTIONARY
  5
C
100
AcDbDictionary
280
0
281
1
  3
ACAD_GROUP
350
D
  3
ACAD_MLINESTYLE
350
17
  3
ACAD_LAYOUT
350
1A
  3
ACAD_PLOTSETTINGS
350
19
  3
ACAD_PLOTSTYLENAME
350
E
  0
DICTIONARY
  5
D
102
{ACAD_REACTORS
330
C
102
}
100
AcDbDictionary
280
0
281
1
  0
ACDBDICTIONARYWDFLT
  5
E
102
{ACAD_REACTORS
330
C
102
}
100
AcDbDictionary
281
1
  3
Normal
350
F
100
AcDbDictionaryWithDefault
340
F
  0
DICTIONARY
  5
17
102
{ACAD_REACTORS
330
C
102
}
100
AcDbDictionary
280
0
281
1
  3
Standard
350
18
  0
DICTIONARY
  5
19
102
{ACAD_REACTORS
330
C
102
}
100
AcDbDictionary
281
1
  0
DICTIONARY
  5
1A
102
{ACAD_REACTORS
330
C
102
}
100
AcDbDictionary
281
1
  3
Model
350
2D7
  3
Layout1
350
2D8
  0
ACDBPLACEHOLDER
  5
F
102
{ACAD_REACTORS
330
E
102
}
  0
MLINESTYLE
  5
18
102
{ACAD_REACTORS
330
17
102
}
100
AcDbMlineStyle
  2
STANDARD
 70
0
  3

 62
256
 51
90.0
 52
90.0
 71
2
 49
0.5
 62
256
  6
BYLAYER
 49
-0.5
 62
256
  6
BYLAYER
  0
LAYOUT
  5
2D7
102
{ACAD_REACTORS
330
1A
102
}
100
AcDbPlotSettings
  1

  2
none_device
  4
ISO_A4_(297.00_x_210.00_MM)
  6

 40
0.0
 41
0.0
 42
0.0
 43
0.0
 44
297.0
 45
210.0
 46
0.0
 47
0.0
 48
0.0
 49
0.0
140
0.0
141
0.0
142
1.0
143
1.0
 70
1024
 72
1
 73
0
 74
0
  7

 75
0
147
1.0
148
0.0
149
0.0
100
AcDbLayout
  1
Model
 70
0
 71
0
 10
0.0
 20
0.0
 11
297.0
 21
210.0
 12
0.0
 22
0.0
 32
0.0
 14
0.0
 24
0.0
 34
0.0
 15
0.0
 25
0.0
 35
0.0
146
0.0
 13
0.0
 23
0.0
 33
0.0
 16
1.0
 26
0.0
 36
0.0
 17
0.0
 27
1.0
 37
0.0
 76
0
330
20F
345
0
346
0
  0
LAYOUT
  5
2D8
102
{ACAD_REACTORS
330
1A
102
}
100
AcDbPlotSettings
  1

  2
none_device
  4
ISO_A4_(297.00_x_210.00_MM)
  6

 40
0.0
 41
0.0
 42
0.0
 43
0.0
 44
297.0
 45
210.0
 46
0.0
 47
0.0
 48
0.0
 49
0.0
140
0.0
141
0.0
142
1.0
143
1.0
 70
0
 72
1
 73
0
 74
0
  7

 75
0
147
1.0
148
0.0
149
0.0
100
AcDbLayout
  1
Layout1
 70
0
 71
1
 10
0.0
 20
0.0
 11
297.0
 21
210.0
 12
0.0
 22
0.0
 32
0.0
 14
0.0
 24
0.0
 34
0.0
 15
0.0
 25
0.0
 35
0.0
146
0.0
 13
0.0
 23
0.0
 33
0.0
 16
1.0
 26
0.0
 36
0.0
 17
0.0
 27
1.0
 37
0.0
 76
0
330
210
345
0
346
0
  0
ENDSEC
  0
EOF
