  0
SECTION
  2
HEADER
  9
$ACADVER
  1
AC1024
  9
$DWGCODEPAGE
  3
ANSI_1252
  9
$EXTMAX
 10
297.0
 20
210.0
 30
0.0
  9
$EXTMIN
 10
0.0
 20
0.0
 30
0.0
  9
$LIMMIN
 10
0.0
 20
0.0
  9
$LIMMAX
 10
297.0
 20
210.0
  9
$VIEWCTR
 10
148.5
 20
105.0
  9
$VIEWSIZE
 40
210.0
  9
$CLAYER
  8
0
  9
$LTSCALE
 40
16.335
  9
$CELTYPE
  6
BYLAYER
  9
$DIMSCALE
 40
1.0
  9
$DIMASZ
 40
3.0
  9
$DIMEXO
 40
0.5
  9
$DIMDLI
 40
11.286
  9
$DIMEXE
 40
1.5
  9
$DIMCEN
 40
2.673
  9
$DIMLFAC
 40
1.0
  9
$DIMBLK
  1
_FILLED
  9
$DIMALT
 70
0
  9
$DIMALTF
 40
0.0393700787
  9
$DIMTXT
 40
3.0
  9
$DIMTOL
 70
1
  9
$DIMLIM
 70
0
  9
$DIMTFAC
 40
1.0
  9
$DIMTP
 40
0.01
  9
$DIMTM
 40
0.01
  9
$DIMGAP
 40
0.625
  9
$DIMDSEP
 70
44
  9
$AUNITS
 70
0
  9
$PDMODE
 70
3
  9
$PDSIZE
 40
3.0
  9
$HANDSEED
  5
345
  9
$TILEMODE
 70
1
  9
$MEASUREMENT
 70
1
  9
$INSUNITS
 70
4
  0
ENDSEC
  0
SECTION
  2
CLASSES
  0
CLASS
  1
ACDBDICTIONARYWDFLT
  2
AcDbDictionaryWithDefault
  3
AutoCAD 2000
 90
0
 91
1
280
0
281
0
  0
CLASS
  1
ACDBPLACEHOLDER
  2
AcDbPlaceHolder
  3
AutoCAD 2000
 90
0
 91
1
280
0
281
0
  0
CLASS
  1
LAYOUT
  2
AcDbLayout
  3
AutoCAD 2000
 90
0
 91
0
280
0
281
0
  0
ENDSEC
  0
SECTION
  2
TABLES
  0
TABLE
  2
VPORT
  5
8
100
AcDbSymbolTable
 70
2
  0
VPORT
  5
1F4
100
AcDbSymbolTableRecord
100
AcDbViewportTableRecord
  2
*ACTIVE
 70
0
 10
0.0
 20
0.0
 11
1.0
 21
1.0
 12
148.5
 22
105.0
 13
0.0
 23
0.0
 14
1.0
 24
1.0
 15
0.0
 25
0.0
 16
0.0
 26
0.0
 36
1.0
 17
0.0
 27
0.0
 37
0.0
 40
210.0
 41
1.4142857143
 42
50.0
 43
0.0
 44
0.0
 50
0.0
 51
0.0
 71
0
 72
100
 73
1
 74
1
 75
0
 76
0
 77
0
 78
0
  0
ENDTAB
  0
TABLE
  2
LTYPE
  5
5
100
AcDbSymbolTable
 70
6
  0
LTYPE
  5
14
100
AcDbSymbolTableRecord
100
AcDbLinetypeTableRecord
  2
BYBLOCK
 70
0
  3

 72
65
 73
0
 40
0.0
  0
LTYPE
  5
15
100
AcDbSymbolTableRecord
100
AcDbLinetypeTableRecord
  2
BYLAYER
 70
0
  3

 72
65
 73
0
 40
0.0
  0
LTYPE
  5
16
100
AcDbSymbolTableRecord
100
AcDbLinetypeTableRecord
  2
CONTINUOUS
 70
64
  3
Solid line
 72
65
 73
0
 40
0.0
  0
LTYPE
  5
1F5
100
AcDbSymbolTableRecord
100
AcDbLinetypeTableRecord
  2
CENTER
 70
64
  3
____ _ ____ _ ____ _ ____ _ ____ _ ____ _ ____
 72
65
 73
4
 40
0.6
 49
0.375
 74
0
 49
-0.075
 74
0
 49
0.075
 74
0
 49
-0.075
 74
0
  0
LTYPE
  5
1F6
100
AcDbSymbolTableRecord
100
AcDbLinetypeTableRecord
  2
HIDDEN
 70
64
  3
- - - - - - - - - - - - - - - - - - - -
 72
65
 73
2
 40
0.2
 49
0.1
 74
0
 49
-0.1
 74
0
  0
LTYPE
  5
1F7
100
AcDbSymbolTableRecord
100
AcDbLinetypeTableRecord
  2
PHANTOM
 70
64
  3
_____ _ _ _____ _ _ _____ _ _ _____
 72
65
 73
6
 40
0.8
 49
0.45
 74
0
 49
-0.05
 74
0
 49
0.1
 74
0
 49
-0.05
 74
0
 49
0.1
 74
0
 49
-0.05
 74
0
  0
LTYPE
  5
1F8
100
AcDbSymbolTableRecord
100
AcDbLinetypeTableRecord
  2
DOT
 70
64
  3
. . . . . . . . . . . . . . . . . . . .
 72
65
 73
2
 40
0.2
 49
0.1
 74
0
 49
-0.1
 74
0
  0
LTYPE
  5
1F9
100
AcDbSymbolTableRecord
100
AcDbLinetypeTableRecord
  2
DASHED
 70
64
  3
- - - - - - - - - - - - - - - - - - - -
 72
65
 73
2
 40
0.2
 49
0.1
 74
0
 49
-0.1
 74
0
  0
ENDTAB
  0
TABLE
  2
LAYER
  5
2
100
AcDbSymbolTable
 70
36
  0
LAYER
  5
10
100
AcDbSymbolTableRecord
100
AcDbLayerTableRecord
  2
0
 70
0
 62
7
  6
CONTINUOUS
370
-3
390
F
  0
LAYER
  5
1FA
100
AcDbSymbolTableRecord
100
AcDbLayerTableRecord
  2
DEFAULT_1
 70
0
 62
7
  6
CENTER
370
-3
390
F
  0
LAYER
  5
1FB
100
AcDbSymbolTableRecord
100
AcDbLayerTableRecord
  2
DEFAULT_2
 70
0
 62
7
  6
HIDDEN
370
-3
390
F
  0
LAYER
  5
1FC
100
AcDbSymbolTableRecord
100
AcDbLayerTableRecord
  2
DEFAULT_3
 70
0
 62
7
  6
PHANTOM
370
-3
390
F
  0
LAYER
  5
1FD
100
AcDbSymbolTableRecord
100
AcDbLayerTableRecord
  2
ASSI
 70
0
 62
7
  6
CONTINUOUS
370
-3
390
F
  0
LAYER
  5
1FE
100
AcDbSymbolTableRecord
100
AcDbLayerTableRecord
  2
COORDINATE
 70
0
 62
7
  6
CONTINUOUS
370
-3
390
F
  0
LAYER
  5
1FF
100
AcDbSymbolTableRecord
100
AcDbLayerTableRecord
  2
COPY_PUBLISH
 70
0
 62
7
  6
CONTINUOUS
370
-3
390
F
  0
LAYER
  5
200
100
AcDbSymbolTableRecord
100
AcDbLayerTableRecord
  2
COSMETICI
 70
0
 62
7
  6
CONTINUOUS
370
-3
390
F
  0
LAYER
  5
201
100
AcDbSymbolTableRecord
100
AcDbLayerTableRecord
  2
CURVE
 70
0
 62
7
  6
CONTINUOUS
370
-3
390
F
  0
LAYER
  5
202
100
AcDbSymbolTableRecord
100
AcDbLayerTableRecord
  2
DRAFT
 70
0
 62
7
  6
CONTINUOUS
370
-3
390
F
  0
LAYER
  5
203
100
AcDbSymbolTableRecord
100
AcDbLayerTableRecord
  2
IMPORT_IGES
 70
0
 62
7
  6
CONTINUOUS
370
-3
390
F
  0
LAYER
  5
204
100
AcDbSymbolTableRecord
100
AcDbLayerTableRecord
  2
NOTE
 70
0
 62
7
  6
CONTINUOUS
370
-3
390
F
  0
LAYER
  5
205
100
AcDbSymbolTableRecord
100
AcDbLayerTableRecord
  2
PIANI
 70
0
 62
7
  6
CONTINUOUS
370
-3
390
F
  0
LAYER
  5
206
100
AcDbSymbolTableRecord
100
AcDbLayerTableRecord
  2
PUNTI
 70
0
 62
7
  6
CONTINUOUS
370
-3
390
F
  0
LAYER
  5
207
100
AcDbSymbolTableRecord
100
AcDbLayerTableRecord
  2
RACCORDO
 70
0
 62
7
  6
CONTINUOUS
370
-3
390
F
  0
LAYER
  5
208
100
AcDbSymbolTableRecord
100
AcDbLayerTableRecord
  2
SIMBOLI
 70
0
 62
7
  6
CONTINUOUS
370
-3
390
F
  0
LAYER
  5
209
100
AcDbSymbolTableRecord
100
AcDbLayerTableRecord
  2
SMUSSO
 70
0
 62
7
  6
CONTINUOUS
370
-3
390
F
  0
LAYER
  5
20A
100
AcDbSymbolTableRecord
100
AcDbLayerTableRecord
  2
SNAPLINE
 70
0
 62
7
  6
CONTINUOUS
370
-3
390
F
  0
LAYER
  5
20B
100
AcDbSymbolTableRecord
100
AcDbLayerTableRecord
  2
SUPERFICI
 70
0
 62
7
  6
CONTINUOUS
370
-3
390
F
  0
LAYER
  5
20C
100
AcDbSymbolTableRecord
100
AcDbLayerTableRecord
  2
TRASH
 70
0
 62
7
  6
CONTINUOUS
370
-3
390
F
  0
ENDTAB
  0
TABLE
  2
STYLE
  5
3
100
AcDbSymbolTable
 70
1
  0
STYLE
  5
11
100
AcDbSymbolTableRecord
100
AcDbTextStyleTableRecord
  2
STANDARD
 70
0
 40
0.0
 41
0.8
 50
0.0
 71
0
 42
0.2
  3
txt
  4

  0
STYLE
  5
20D
100
AcDbSymbolTableRecord
100
AcDbTextStyleTableRecord
  2
TEXTSTYLE_1
 70
0
 40
0.0
 41
0.8
 50
0.0
 71
0
 42
0.2
  3
gdt
  4

  0
ENDTAB
  0
TABLE
  2
VIEW
  5
6
100
AcDbSymbolTable
 70
0
  0
ENDTAB
  0
TABLE
  2
UCS
  5
7
100
AcDbSymbolTable
 70
0
  0
ENDTAB
  0
TABLE
  2
APPID
  5
9
100
AcDbSymbolTable
 70
1
  0
APPID
  5
20E
100
AcDbSymbolTableRecord
100
AcDbRegAppTableRecord
  2
ACAD
 70
0
  0
ENDTAB
  0
TABLE
  2
BLOCK_RECORD
  5
1
100
AcDbSymbolTable
 70
0
  0
BLOCK_RECORD
  5
20F
100
AcDbSymbolTableRecord
100
AcDbBlockTableRecord
  2
*Model_Space
  0
BLOCK_RECORD
  5
210
100
AcDbSymbolTableRecord
100
AcDbBlockTableRecord
  2
*Paper_Space
  0
BLOCK_RECORD
  5
211
100
AcDbSymbolTableRecord
100
AcDbBlockTableRecord
  2
_FILLED
  0
ENDTAB
  0
TABLE
  2
DIMSTYLE
  5
A
100
AcDbSymbolTable
 70
1
100
AcDbDimStyleTable
 71
0
  0
DIMSTYLE
105
212
100
AcDbSymbolTableRecord
100
AcDbDimStyleTableRecord
  2
STANDARD
 70
0
  3

  4

 40
1.0
 41
3.0
 42
0.5
 43
0.38
 44
1.5
 45
0.0
 46
0.0
 47
0.01
 48
0.01
140
3.0
141
0.09
142
0.0
143
25.4
144
1.0
145
0.0
146
1.0
147
0.625
 71
1
 72
0
 73
0
 74
0
 75
0
 76
0
 77
1
 78
8
 79
2
170
0
171
1
172
0
173
0
174
0
175
0
176
0
177
0
178
0
270
2
179
2
271
2
272
2
273
2
274
2
275
0
280
0
281
0
282
0
283
1
284
8
285
0
286
0
287
3
288
0
340
11
278
44
341
211
342
211
343
211
344
211
  0
ENDTAB
  0
ENDSEC
  0
SECTION
  2
BLOCKS
  0
BLOCK
  5
20
100
AcDbEntity
  8
0
100
AcDbBlockBegin
  2
*Model_Space
 70
0
 10
0.0
 20
0.0
 30
0.0
  3
*Model_Space
  1

  0
ENDBLK
  5
21
100
AcDbEntity
  8
0
100
AcDbBlockEnd
  0
BLOCK
  5
1C
100
AcDbEntity
  8
0
100
AcDbBlockBegin
  2
*Paper_Space
 70
0
 10
0.0
 20
0.0
 30
0.0
  3
*Paper_Space
  1

  0
ENDBLK
  5
1D
100
AcDbEntity
  8
0
100
AcDbBlockEnd
  0
BLOCK
  5
213
100
AcDbEntity
  8
0
100
AcDbBlockBegin
  2
_FILLED
 70
64
 10
0.0
 20
0.0
  3
_FILLED
  1

  0
SOLID
  5
214
100
AcDbEntity
  8
0
  6
BYBLOCK
 62
0
100
AcDbTrace
 10
0.0
 20
0.0
 11
-1.0
 21
0.3166666667
 12
-1.0
 22
-0.3166666667
 13
-1.0
 23
-0.3166666667
  0
ENDBLK
  5
215
100
AcDbEntity
  8
0
  6
BYBLOCK
 62
0
100
AcDbBlockEnd
  0
ENDSEC
  0
SECTION
  2
ENTITIES
  0
LWPOLYLINE
  5
216
100
AcDbEntity
  8
DRAFT
100
AcDbPolyline
 62
7
  6
CONTINUOUS
 90
10
 70
0
 10
-30.6411661651
 20
28.6232896777
 10
-30.6196555908
 20
28.6362714198
 10
-30.5817122008
 20
28.6650357517
 10
-30.5476713964
 20
28.6990701847
 10
-30.5176120188
 20
28.7384785888
 10
-30.4914552268
 20
28.7831570938
 10
-30.4697171757
 20
28.8322228842
 10
-30.4525699172
 20
28.885381688
 10
-30.4398413996
 20
28.942927777
 10
-30.4315316228
 20
29.0048611513
  0
LINE
  5
217
100
AcDbEntity
  8
DRAFT
100
AcDbLine
 62
7
  6
CONTINUOUS
 10
-29.2825190787
 20
29.6251119408
 11
-30.4315316228
 21
29.0048611513
  0
LINE
  5
218
100
AcDbEntity
  8
DRAFT
100
AcDbLine
 62
7
  6
CONTINUOUS
 10
-29.9839749852
 20
29.2956103617
 11
-31.1350939868
 21
28.6762659934
  0
LINE
  5
219
100
AcDbEntity
  8
DRAFT
100
AcDbLine
 62
7
  6
CONTINUOUS
 10
-28.5313944102
 20
24.5150310417
 11
-28.473382105
 21
24.5948316011
  0
LINE
  5
21A
100
AcDbEntity
  8
DRAFT
100
AcDbLine
 62
7
  6
CONTINUOUS
 10
-28.473382105
 20
24.5948316011
 11
-28.3989895537
 21
24.6802925916
  0
LWPOLYLINE
  5
21B
100
AcDbEntity
  8
DRAFT
100
AcDbPolyline
 62
7
  6
CONTINUOUS
 90
10
 70
0
 10
-28.921019954
 20
26.6856996381
 10
-28.9304682599
 20
26.6801073196
 10
-28.9537168103
 20
26.6625253317
 10
-28.9741862386
 20
26.6411687744
 10
-28.9918685151
 20
26.6158846578
 10
-29.0067716695
 20
26.5868259717
 10
-29.0184346771
 20
26.5548482771
 10
-29.0267038631
 20
26.5202367609
 10
-29.0317329024
 20
26.4827062361
 10
-29.0335217948
 20
26.4422567027
  0
LINE
  5
21C
100
AcDbEntity
  8
DRAFT
100
AcDbLine
 62
250
  6
CONTINUOUS
 10
-29.0335217948
 20
26.4422567027
 11
-28.6543018549
 21
26.6537008658
  0
LINE
  5
21D
100
AcDbEntity
  8
DRAFT
100
AcDbLine
 62
7
  6
CONTINUOUS
 10
-28.7439494925
 20
24.0537564886
 11
-28.721253263
 21
24.1228911513
  0
LINE
  5
21E
100
AcDbEntity
  8
DRAFT
100
AcDbLine
 62
7
  6
CONTINUOUS
 10
-28.7878864131
 20
23.9802879795
 11
-28.7230920355
 21
24.1190137165
  0
LINE
  5
21F
100
AcDbEntity
  8
DRAFT
100
AcDbLine
 62
7
  6
CONTINUOUS
 10
-28.7230920355
 20
24.1190137165
 11
-28.6547378694
 21
24.2624496958
  0
LINE
  5
220
100
AcDbEntity
  8
DRAFT
100
AcDbLine
 62
7
  6
CONTINUOUS
 10
-28.6547378694
 20
24.2624496958
 11
-28.5828160714
 21
24.4106282197
  0
LWPOLYLINE
  5
221
100
AcDbEntity
  8
DRAFT
100
AcDbPolyline
 62
7
  6
CONTINUOUS
 90
3
 70
0
 10
-28.5828160714
 20
24.4106282197
 10
-28.5072952673
 20
24.5636784984
 10
-28.4681871989
 20
24.6420224702
  0
LINE
  5
222
100
AcDbEntity
  8
DRAFT
100
AcDbLine
 62
7
  6
CONTINUOUS
 10
-28.1020719454
 20
19.9356155416
 11
-28.5780217749
 21
19.1301033064
  0
LWPOLYLINE
  5
223
100
AcDbEntity
  8
DRAFT
100
AcDbPolyline
 62
7
  6
CONTINUOUS
 90
9
 70
0
 10
-28.8871928603
 20
23.8554213086
 10
-28.8721022887
 20
23.8658747487
 10
-28.8585384229
 20
23.8773917867
 10
-28.8454945107
 20
23.8906005459
 10
-28.8328526814
 20
23.9055672842
 10
-28.8207565913
 20
23.922044179
 10
-28.809254126
 20
23.9399486227
 10
-28.7982973999
 20
23.9593632228
 10
-28.7878864131
 20
23.9802879795
  0
LINE
  5
224
100
AcDbEntity
  8
RACCORDO
100
AcDbLine
 62
7
  6
CONTINUOUS
 10
-25.02549062
 20
25.7588430119
 11
-26.6627938795
 21
24.7463101162
  0
LINE
  5
225
100
AcDbEntity
  8
RACCORDO
100
AcDbLine
 62
250
  6
CONTINUOUS
 10
-24.771186804
 20
25.7366489937
 11
-26.4059814476
 21
24.7256674637
  0
LWPOLYLINE
  5
226
100
AcDbEntity
  8
RACCORDO
100
AcDbPolyline
 62
250
  6
CONTINUOUS
 90
11
 70
0
 10
-26.6627938795
 20
24.7463101162
 10
-26.65845983
 20
24.7489003868
 10
-26.6356912535
 20
24.7598487393
 10
-26.6111281821
 20
24.7674589173
 10
-26.5849574834
 20
24.7716730251
 10
-26.5573782548
 20
24.7724590033
 10
-26.5286003097
 20
24.7698108725
 10
-26.4988425807
 20
24.7637487787
 10
-26.4683314543
 20
24.7543188402
 10
-26.4372990487
 20
24.7415927967
 10
-26.4059814476
 20
24.7256674637
  0
LINE
  5
227
100
AcDbEntity
  8
DRAFT
100
AcDbLine
 62
7
  6
CONTINUOUS
 10
-28.0629403043
 20
24.884069735
 11
-28.4681871989
 21
24.6420224702
  0
LWPOLYLINE
  5
228
100
AcDbEntity
  8
DRAFT
100
AcDbPolyline
 62
7
  6
CONTINUOUS
 90
10
 70
0
 10
-26.7996996105
 20
25.4608758581
 10
-26.8091479163
 20
25.4552835396
 10
-26.8323964668
 20
25.4377015517
 10
-26.852865895
 20
25.4163449944
 10
-26.8705481716
 20
25.3910608778
 10
-26.8854513259
 20
25.3620021917
 10
-26.8971143336
 20
25.3300244971
 10
-26.9053835196
 20
25.2954129809
 10
-26.9104125588
 20
25.2578824561
 10
-26.9122014513
 20
25.2174329227
  0
LWPOLYLINE
  5
229
100
AcDbEntity
  8
RACCORDO
100
AcDbPolyline
 62
250
  6
CONTINUOUS
 90
19
 70
0
 10
-26.4059814482
 20
24.7256674641
 10
-26.4386400754
 20
24.707334821
 10
-26.4703259693
 20
24.6862554834
 10
-26.5012604812
 20
24.6625614724
 10
-26.5318980138
 20
24.6362904046
 10
-26.5620095576
 20
24.6074304558
 10
-26.5907096729
 20
24.5762482492
 10
-26.6179484865
 20
24.5432939166
 10
-26.6438445961
 20
24.5087091827
 10
-26.6677252033
 20
24.4725198751
 10
-26.6895134289
 20
24.4352969265
 10
-26.7093329319
 20
24.3974361976
 10
-26.7267061998
 20
24.3587877959
 10
-26.7416104349
 20
24.3198126343
 10
-26.7541315419
 20
24.2810289609
 10
-26.7638557509
 20
24.242367012
 10
-26.77067839
 20
24.204120876
 10
-26.7748713448
 20
24.1669401795
 10
-26.7765831343
 20
24.1312706863
  0
LINE
  5
22A
100
AcDbEntity
  8
DRAFT
100
AcDbLine
 62
250
  6
CONTINUOUS
 10
-26.9122014513
 20
25.2174329227
 11
-26.5329815113
 21
25.4288770859
  0
LINE
  5
22B
100
AcDbEntity
  8
DRAFT
100
AcDbLine
 62
7
  6
CONTINUOUS
 10
-26.8998110901
 20
24.2263106787
 11
-26.9122014513
 21
24.2196475435
  0
LWPOLYLINE
  5
22C
100
AcDbEntity
  8
DRAFT
100
AcDbPolyline
 62
250
  6
CONTINUOUS
 90
34
 70
0
 10
-29.0335217948
 20
23.9970400141
 10
-29.1132609513
 20
23.9558341271
 10
-29.1886602825
 20
23.9081217261
 10
-29.2597197886
 20
23.853902811
 10
-29.3265931636
 20
23.7929908994
 10
-29.3891267134
 20
23.7255724738
 10
-29.4468593558
 20
23.6522069814
 10
-29.4997485899
 20
23.572862953
 10
-29.5478369165
 20
23.4875718578
 10
-29.5907907562
 20
23.3969875505
 10
-29.6285769272
 20
23.3010748916
 10
-29.6612286113
 20
23.1998690206
 10
-29.6885117731
 20
23.0941292112
 10
-29.7103903734
 20
22.9838191632
 10
-29.7269004516
 20
22.8689751768
 10
-29.7379160909
 20
22.7504654268
 10
-29.7433969315
 20
22.628258952
 10
-29.7433833333
 20
22.5023867136
 10
-29.7378704588
 20
22.3738097696
 10
-29.7268161736
 20
22.242505553
 10
-29.7102626121
 20
22.108496631
 10
-29.6883313396
 20
21.9728117633
 10
-29.6609811805
 20
21.8354383858
 10
-29.6282533104
 20
21.6963890626
 10
-29.5903928222
 20
21.5567302463
 10
-29.5473599155
 20
21.4164556924
 10
-29.4991943906
 20
21.2755716452
 10
-29.4462607415
 20
21.1351632903
 10
-29.388522519
 20
20.9952344891
 10
-29.3260161723
 20
20.8557813802
 10
-29.2592155425
 20
20.7178775652
 10
-29.1882785764
 20
20.5818809112
 10
-29.1130473272
 20
20.4474335512
 10
-29.0335217948
 20
20.314535485
  0
LINE
  5
22D
100
AcDbEntity
  8
DRAFT
100
AcDbLine
 62
7
  6
CONTINUOUS
 10
-31.1350939868
 20
28.6762659934
 11
-31.1350939868
 21
18.0621523951
  0
LINE
  5
22E
100
AcDbEntity
  8
DRAFT
100
AcDbLine
 62
7
  6
CONTINUOUS
 10
-31.1350939868
 20
16.4292118416
 11
-31.1350939868
 21
5.8150982432
  0
LINE
  5
22F
100
AcDbEntity
  8
DRAFT
100
AcDbLine
 62
7
  6
CONTINUOUS
 10
-28.7774257511
 20
23.923503618
 11
-28.7439494925
 21
24.0537564886
  0
LINE
  5
230
100
AcDbEntity
  8
DRAFT
100
AcDbLine
 62
7
  6
CONTINUOUS
 10
-27.1135703098
 20
20.2831756788
 11
-27.3803074323
 21
20.0991649008
  0
LINE
  5
231
100
AcDbEntity
  8
DRAFT
100
AcDbLine
 62
7
  6
CONTINUOUS
 10
-27.3068432925
 20
20.3947690768
 11
-28.1020719454
 21
19.9356155416
  0
LINE
  5
232
100
AcDbEntity
  8
DRAFT
100
AcDbLine
 62
7
  6
CONTINUOUS
 10
-28.044973934
 20
20.8503156108
 11
-27.4830478402
 21
21.1677046428
  0
LINE
  5
233
100
AcDbEntity
  8
RACCORDO
100
AcDbLine
 62
250
  6
CONTINUOUS
 10
-28.4368453603
 20
21.5987014685
 11
-28.3274454313
 21
21.6552492291
  0
LWPOLYLINE
  5
234
100
AcDbEntity
  8
DRAFT
100
AcDbPolyline
 62
7
  6
CONTINUOUS
 90
3
 70
0
 10
-29.3796490969
 20
10.3705293918
 10
-29.3943551175
 20
10.5300543774
 10
-29.3962870281
 20
10.5709271541
  0
LWPOLYLINE
  5
235
100
AcDbEntity
  8
DRAFT
100
AcDbPolyline
 62
7
  6
CONTINUOUS
 90
17
 70
0
 10
-29.0335217948
 20
11.7499858622
 10
-29.0322551827
 20
11.7252671758
 10
-29.029635086
 20
11.7026974402
 10
-29.0256615046
 20
11.6822766554
 10
-29.0202207784
 20
11.6640487625
 10
-29.0134265676
 20
11.6479698203
 10
-29.0056198528
 20
11.6339080059
 10
-28.9968286911
 20
11.6217865857
 10
-28.9870250254
 20
11.6116822931
 10
-28.9764656644
 20
11.6036935056
 10
-28.9651530684
 20
11.5978124027
 10
-28.9530847772
 20
11.5940468049
 10
-28.9405102182
 20
11.5925185508
 10
-28.9273770867
 20
11.5932788056
 10
-28.9137376876
 20
11.5962764041
 10
-28.8999983626
 20
11.60147969
 10
-28.8871929449
 20
11.6083691224
  0
LWPOLYLINE
  5
236
100
AcDbEntity
  8
DRAFT
100
AcDbPolyline
 62
7
  6
CONTINUOUS
 90
26
 70
0
 10
-29.0335217948
 20
5.6222646445
 10
-29.0317329024
 20
5.579749343
 10
-29.0267038631
 20
5.5364114097
 10
-29.0184346771
 20
5.4922508448
 10
-29.0067716695
 20
5.4468050013
 10
-28.9918685151
 20
5.4005365261
 10
-28.9741862386
 20
5.3548333597
 10
-28.9537168103
 20
5.3098392198
 10
-28.9304682599
 20
5.2654103886
 10
-28.9049257005
 20
5.2225036535
 10
-28.8769072158
 20
5.1809896406
 10
-28.8465947221
 20
5.1409977237
 10
-28.8150190817
 20
5.1038728124
 10
-28.7823166753
 20
5.0698699991
 10
-28.7483511221
 20
5.0387341914
 10
-28.7137441423
 20
5.0110450219
 10
-28.678275358
 20
4.9867488005
 10
-28.6421651472
 20
4.9658992173
 10
-28.6066963629
 20
4.9492369758
 10
-28.5720893831
 20
4.9369628724
 10
-28.5381238299
 20
4.9288761107
 10
-28.5054214235
 20
4.9251150048
 10
-28.4738457831
 20
4.9257771579
 10
-28.4435332894
 20
4.9307649669
 10
-28.4155148047
 20
4.9399239361
 10
-28.3929175436
 20
4.9515025775
  0
LWPOLYLINE
  5
237
100
AcDbEntity
  8
DRAFT
100
AcDbPolyline
 62
250
  6
CONTINUOUS
 90
15
 70
0
 10
-29.4026823728
 20
10.4006696195
 10
-29.4018051674
 20
10.3310162426
 10
-29.3947287537
 20
10.1880462394
 10
-29.3805814852
 20
10.0417331309
 10
-29.3594086542
 20
9.892546782
 10
-29.3312483096
 20
9.7408467592
 10
-29.2961722137
 20
9.587145753
 10
-29.2542801872
 20
9.4319826577
 10
-29.2056501932
 20
9.2757606849
 10
-29.1502316528
 20
9.1185396862
 10
-29.0883229182
 20
8.9613627807
 10
-29.0207032206
 20
8.8061003383
 10
-28.9479400488
 20
8.6537064383
 10
-28.8702116904
 20
8.5042355634
 10
-28.7878864131
 20
8.3581544475
  0
LWPOLYLINE
  5
238
100
AcDbEntity
  8
DRAFT
100
AcDbPolyline
 62
250
  6
CONTINUOUS
 90
15
 70
0
 10
-29.4026823728
 20
22.6477237714
 10
-29.4017920247
 20
22.577546848
 10
-29.3946794485
 20
22.4344293779
 10
-29.380479681
 20
22.2879364593
 10
-29.3592407459
 20
22.1385776174
 10
-29.3310388401
 20
21.9868898366
 10
-29.2959745153
 20
21.8334068276
 10
-29.2541699023
 20
21.6786574534
 10
-29.2057718631
 20
21.5231815335
 10
-29.1509512669
 20
21.3675236924
 10
-29.089898814
 20
21.212221624
 10
-29.0228234815
 20
21.0578056263
 10
-28.9499568615
 20
20.9048095396
 10
-28.8715536384
 20
20.7537687491
 10
-28.7878864131
 20
20.6052085994
  0
LINE
  5
239
100
AcDbEntity
  8
DRAFT
100
AcDbLine
 62
7
  6
CONTINUOUS
 10
-29.0335217948
 20
20.314535485
 11
-29.0335217948
 21
18.8671041757
  0
LINE
  5
23A
100
AcDbEntity
  8
DRAFT
100
AcDbLine
 62
7
  6
CONTINUOUS
 10
-29.0335217948
 20
13.1974171716
 11
-29.0335217948
 21
11.7499858622
  0
LINE
  5
23B
100
AcDbEntity
  8
DRAFT
100
AcDbLine
 62
7
  6
CONTINUOUS
 10
-29.0335217948
 20
5.6222646445
 11
-29.0335217948
 21
8.0674813331
  0
LINE
  5
23C
100
AcDbEntity
  8
DRAFT
100
AcDbLine
 62
7
  6
CONTINUOUS
 10
-29.0335217948
 20
23.9970400141
 11
-29.0335217948
 21
26.4422567027
  0
LINE
  5
23D
100
AcDbEntity
  8
DRAFT
100
AcDbLine
 62
7
  6
CONTINUOUS
 10
-28.2869187104
 20
5.1911853807
 11
-28.2869187104
 21
6.1889707599
  0
LINE
  5
23E
100
AcDbEntity
  8
DRAFT
100
AcDbLine
 62
7
  6
CONTINUOUS
 10
-28.2869187104
 20
25.0133920596
 11
-28.2869187104
 21
26.0111774389
  0
LWPOLYLINE
  5
23F
100
AcDbEntity
  8
RACCORDO
100
AcDbPolyline
 62
7
  6
CONTINUOUS
 90
15
 70
0
 10
-29.4026823728
 20
22.6477237714
 10
-29.3999309687
 20
22.7669374458
 10
-29.3917053476
 20
22.8821609073
 10
-29.3780691218
 20
22.9930056597
 10
-29.3591484987
 20
23.0989331291
 10
-29.3350388795
 20
23.1997973893
 10
-29.3057232514
 20
23.2957389329
 10
-29.2713471905
 20
23.3862532992
 10
-29.2319908477
 20
23.471132314
 10
-29.1873768521
 20
23.5507422373
 10
-29.1374218148
 20
23.6247942085
 10
-29.0822690597
 20
23.6926916982
 10
-29.0218226999
 20
23.7542050093
 10
-28.9560217966
 20
23.8090164662
 10
-28.8871903095
 20
23.8553615101
  0
LWPOLYLINE
  5
240
100
AcDbEntity
  8
RACCORDO
100
AcDbPolyline
 62
7
  6
CONTINUOUS
 90
15
 70
0
 10
-29.4026823728
 20
10.4006696195
 10
-29.3999309687
 20
10.5198832939
 10
-29.3917053476
 20
10.6351067555
 10
-29.3780691218
 20
10.7459515078
 10
-29.3591484987
 20
10.8518789772
 10
-29.3350388795
 20
10.9527432374
 10
-29.3057232514
 20
11.048684781
 10
-29.2713471905
 20
11.1391991473
 10
-29.2319908477
 20
11.2240781621
 10
-29.1873768521
 20
11.3036880854
 10
-29.1374218148
 20
11.3777400566
 10
-29.0822690597
 20
11.4456375463
 10
-29.0218226999
 20
11.5071508574
 10
-28.9560217966
 20
11.5619623143
 10
-28.8871903095
 20
11.6083073582
  0
LINE
  5
241
100
AcDbEntity
  8
DRAFT
100
AcDbLine
 62
7
  6
CONTINUOUS
 10
-28.7774257511
 20
11.6764494661
 11
-28.7439494925
 21
11.8067023367
  0
LINE
  5
242
100
AcDbEntity
  8
DRAFT
100
AcDbLine
 62
7
  6
CONTINUOUS
 10
-28.7439494925
 20
11.8067023367
 11
-28.721253263
 21
11.8758369994
  0
LINE
  5
243
100
AcDbEntity
  8
DRAFT
100
AcDbLine
 62
7
  6
CONTINUOUS
 10
-28.7878864131
 20
11.7332338276
 11
-28.7230920355
 21
11.8719595646
  0
LINE
  5
244
100
AcDbEntity
  8
DRAFT
100
AcDbLine
 62
7
  6
CONTINUOUS
 10
-28.7230920355
 20
11.8719595646
 11
-28.6547378694
 21
12.0153955439
  0
LINE
  5
245
100
AcDbEntity
  8
DRAFT
100
AcDbLine
 62
7
  6
CONTINUOUS
 10
-28.6547378694
 20
12.0153955439
 11
-28.5828160713
 21
12.1635740678
  0
LWPOLYLINE
  5
246
100
AcDbEntity
  8
DRAFT
100
AcDbPolyline
 62
7
  6
CONTINUOUS
 90
3
 70
0
 10
-28.5828160713
 20
12.1635740678
 10
-28.5072952673
 20
12.3166243465
 10
-28.4681871989
 20
12.3949683183
  0
LINE
  5
247
100
AcDbEntity
  8
DRAFT
100
AcDbLine
 62
7
  6
CONTINUOUS
 10
-28.5313944102
 20
12.2679768898
 11
-28.473382105
 21
12.3477774492
  0
LINE
  5
248
100
AcDbEntity
  8
DRAFT
100
AcDbLine
 62
7
  6
CONTINUOUS
 10
-28.473382105
 20
12.3477774492
 11
-28.3989895537
 21
12.4332384397
  0
LINE
  5
249
100
AcDbEntity
  8
DRAFT
100
AcDbLine
 62
7
  6
CONTINUOUS
 10
-29.0335217948
 20
18.8671041757
 11
-28.5780217749
 21
19.1301033064
  0
LINE
  5
24A
100
AcDbEntity
  8
DRAFT
100
AcDbLine
 62
7
  6
CONTINUOUS
 10
-30.4285410832
 20
16.809292015
 11
-31.1350939868
 21
16.4292118416
  0
LINE
  5
24B
100
AcDbEntity
  8
DRAFT
100
AcDbLine
 62
7
  6
CONTINUOUS
 10
-27.3068432925
 20
20.9017226677
 11
-28.4681871989
 21
20.2999877077
  0
LWPOLYLINE
  5
24C
100
AcDbEntity
  8
DRAFT
100
AcDbPolyline
 62
7
  6
CONTINUOUS
 90
11
 70
0
 10
-30.6411634637
 20
16.3762370109
 10
-30.6663737889
 20
16.3637298128
 10
-30.7103100177
 20
16.3477000176
 10
-30.7571853556
 20
16.3374097464
 10
-30.8062612253
 20
16.3330053951
 10
-30.857675007
 20
16.3345825974
 10
-30.9112893206
 20
16.3420457196
 10
-30.9659534471
 20
16.3552542556
 10
-31.0212838139
 20
16.3741613703
 10
-31.0776639938
 20
16.398813899
 10
-31.1350939868
 20
16.4292118416
  0
LWPOLYLINE
  5
24D
100
AcDbEntity
  8
RACCORDO
100
AcDbPolyline
 62
7
  6
CONTINUOUS
 90
9
 70
0
 10
-28.4695710405
 20
21.6740870094
 10
-28.4565509672
 20
21.679240262
 10
-28.4403298348
 20
21.6829015757
 10
-28.4230968034
 20
21.6841609567
 10
-28.4048903085
 20
21.6830467322
 10
-28.3861754171
 20
21.6795948522
 10
-28.3671071516
 20
21.6738173001
 10
-28.3475304897
 20
21.6657020924
 10
-28.3274454313
 20
21.6552492291
  0
LWPOLYLINE
  5
24E
100
AcDbEntity
  8
DRAFT
100
AcDbPolyline
 62
7
  6
CONTINUOUS
 90
19
 70
0
 10
-30.4315316228
 20
4.6740469029
 10
-30.4398413996
 20
4.7455761992
 10
-30.4525699172
 20
4.8178208613
 10
-30.4697171757
 20
4.8907808894
 10
-30.4914552268
 20
4.9649492363
 10
-30.5176120188
 20
5.039832949
 10
-30.5476713964
 20
5.1139531688
 10
-30.5817122008
 20
5.1872970695
 10
-30.6196555908
 20
5.2598774772
 10
-30.660748888
 20
5.3302540116
 10
-30.7050539352
 20
5.3983809127
 10
-30.7525088896
 20
5.4643039406
 10
-30.8021755443
 20
5.5267199951
 10
-30.8540986
 20
5.5855600957
 10
-30.9082333561
 20
5.6408932229
 10
-30.9635075037
 20
5.6916232172
 10
-31.0195636066
 20
5.7373846921
 10
-31.0767591009
 20
5.7785430341
 10
-31.1350939868
 20
5.8150982432
  0
LWPOLYLINE
  5
24F
100
AcDbEntity
  8
DRAFT
100
AcDbPolyline
 62
7
  6
CONTINUOUS
 90
3
 70
0
 10
-29.3796490969
 20
22.6175835437
 10
-29.3943551175
 20
22.7771085293
 10
-29.3962870281
 20
22.817981306
  0
LWPOLYLINE
  5
250
100
AcDbEntity
  8
DRAFT
100
AcDbPolyline
 62
7
  6
CONTINUOUS
 90
17
 70
0
 10
-29.0335217948
 20
23.9970400141
 10
-29.0322556486
 20
23.9723231868
 10
-29.0296358384
 20
23.9497545777
 10
-29.0256623643
 20
23.9293341868
 10
-29.0202222925
 20
23.911106112
 10
-29.0134285569
 20
23.8950262554
 10
-29.0056199582
 20
23.8809623238
 10
-28.9968224278
 20
23.8688360256
 10
-28.9870100343
 20
23.8587256524
 10
-28.9764437843
 20
23.8507337855
 10
-28.9651291361
 20
23.8448544395
 10
-28.9530606314
 20
23.8410935997
 10
-28.9404829022
 20
23.8395718028
 10
-28.9273394798
 20
23.840340717
 10
-28.9136868329
 20
23.843348674
 10
-28.8999389999
 20
23.8485612063
 10
-28.8871928603
 20
23.8554213086
  0
LWPOLYLINE
  5
251
100
AcDbEntity
  8
DRAFT
100
AcDbPolyline
 62
7
  6
CONTINUOUS
 90
26
 70
0
 10
-28.2869187104
 20
26.0111774389
 10
-28.2887076028
 20
26.0536927404
 10
-28.2937366421
 20
26.0970306737
 10
-28.3020058281
 20
26.1411912386
 10
-28.3136688357
 20
26.1866370821
 10
-28.3285719901
 20
26.2329055573
 10
-28.3462542666
 20
26.2786087237
 10
-28.3667236949
 20
26.3236028636
 10
-28.3899722453
 20
26.3680316948
 10
-28.4155148047
 20
26.4109384299
 10
-28.4435332894
 20
26.4524524428
 10
-28.4738457831
 20
26.4924443597
 10
-28.5054214235
 20
26.529569271
 10
-28.5381238299
 20
26.5635720843
 10
-28.5720893831
 20
26.594707892
 10
-28.6066963629
 20
26.6223970615
 10
-28.6421651472
 20
26.6466932829
 10
-28.678275358
 20
26.6675428661
 10
-28.7137441423
 20
26.6842051076
 10
-28.7483511221
 20
26.696479211
 10
-28.7823166753
 20
26.7045659727
 10
-28.8150190817
 20
26.7083270786
 10
-28.8465947221
 20
26.7076649255
 10
-28.8769072158
 20
26.7026771165
 10
-28.9049257005
 20
26.6935181473
 10
-28.921019954
 20
26.6856996381
  0
LWPOLYLINE
  5
252
100
AcDbEntity
  8
DRAFT
100
AcDbPolyline
 62
7
  6
CONTINUOUS
 90
4
 70
0
 10
-26.9122014513
 20
4.3974408645
 10
-26.9104125588
 20
4.354925563
 10
-26.9053835196
 20
4.3115876297
 10
-26.8998110901
 20
4.2818287596
  0
LWPOLYLINE
  5
253
100
AcDbEntity
  8
RACCORDO
100
AcDbPolyline
 62
250
  6
CONTINUOUS
 90
9
 70
0
 10
-26.89981109
 20
0.8736502398
 10
-26.8996860498
 20
0.8672011897
 10
-26.8961199733
 20
0.8386430925
 10
-26.8876660056
 20
0.8104139612
 10
-26.8744028445
 20
0.7827986114
 10
-26.8564631725
 20
0.7560785615
 10
-26.8340264753
 20
0.7305198468
 10
-26.8073120693
 20
0.7063712634
 10
-26.7765831343
 20
0.6838707129
  0
LWPOLYLINE
  5
254
100
AcDbEntity
  8
RACCORDO
100
AcDbPolyline
 62
250
  6
CONTINUOUS
 90
9
 70
0
 10
-26.8998110861
 20
24.321020663
 10
-26.8996864861
 20
24.3146124362
 10
-26.8961218685
 20
24.2860520226
 10
-26.8876688547
 20
24.2578212619
 10
-26.8744062423
 20
24.2302045017
 10
-26.8564666123
 20
24.2034829888
 10
-26.8340293367
 20
24.1779227139
 10
-26.807313782
 20
24.1537726277
 10
-26.7765831343
 20
24.1312706863
  0
LINE
  5
255
100
AcDbEntity
  8
DRAFT
100
AcDbLine
 62
7
  6
CONTINUOUS
 10
-27.8824027933
 20
7.0328721212
 11
-27.8824027933
 21
6.4391294709
  0
LINE
  5
256
100
AcDbEntity
  8
DRAFT
100
AcDbLine
 62
7
  6
CONTINUOUS
 10
-27.3068432925
 20
20.9017226677
 11
-27.3068432925
 21
20.3947690768
  0
LINE
  5
257
100
AcDbEntity
  8
DRAFT
100
AcDbLine
 62
7
  6
CONTINUOUS
 10
-27.3068432925
 20
8.6546685158
 11
-27.3068432925
 21
7.4074168074
  0
LINE
  5
258
100
AcDbEntity
  8
DRAFT
100
AcDbLine
 62
7
  6
CONTINUOUS
 10
-26.9122014513
 20
25.2174329227
 11
-26.9122014513
 21
24.2196475435
  0
LINE
  5
259
100
AcDbEntity
  8
DRAFT
100
AcDbLine
 62
7
  6
CONTINUOUS
 10
-26.9122014513
 20
5.3952262438
 11
-26.9122014513
 21
4.3974408645
  0
LINE
  5
25A
100
AcDbEntity
  8
RACCORDO
100
AcDbLine
 62
7
  6
CONTINUOUS
 10
-26.8998110901
 20
0.8736572151
 11
-26.8998110901
 21
24.3210571885
  0
LINE
  5
25B
100
AcDbEntity
  8
RACCORDO
100
AcDbLine
 62
250
  6
CONTINUOUS
 10
-26.7765831343
 20
0.6838707129
 11
-26.7765831343
 21
24.1312706863
  0
LINE
  5
25C
100
AcDbEntity
  8
DRAFT
100
AcDbLine
 62
7
  6
CONTINUOUS
 10
-27.3167173683
 20
7.4013105308
 11
-27.8470474542
 21
6.4609937429
  0
LWPOLYLINE
  5
25D
100
AcDbEntity
  8
DRAFT
100
AcDbPolyline
 62
7
  6
CONTINUOUS
 90
9
 70
0
 10
-28.8871929449
 20
11.6083691224
 10
-28.8721567246
 20
11.6187792421
 10
-28.8585871754
 20
11.630292015
 10
-28.8455381957
 20
11.6434981692
 10
-28.8328904486
 20
11.6584644766
 10
-28.8207870821
 20
11.674945718
 10
-28.8092758119
 20
11.6928601538
 10
-28.7983089223
 20
11.7122895237
 10
-28.7878864131
 20
11.7332338276
  0
LINE
  5
25E
100
AcDbEntity
  8
DRAFT
100
AcDbLine
 62
7
  6
CONTINUOUS
 10
-28.0629403043
 20
12.6370155831
 11
-28.4681871989
 21
12.3949683183
  0
LWPOLYLINE
  5
25F
100
AcDbEntity
  8
DRAFT
100
AcDbPolyline
 62
250
  6
CONTINUOUS
 90
31
 70
0
 10
-29.0335217948
 20
11.7499858622
 10
-29.1210551162
 20
11.7042585447
 10
-29.2033078333
 20
11.6506734957
 10
-29.280279946
 20
11.5892307152
 10
-29.3521790399
 20
11.5196807885
 10
-29.4187975294
 20
11.4422731302
 10
-29.4795126582
 20
11.3577559846
 10
-29.5342654322
 20
11.266059572
 10
-29.5831148455
 20
11.167253672
 10
-29.6256151239
 20
11.0622958671
 10
-29.6617025738
 20
10.9511379798
 10
-29.6914408888
 20
10.8338281877
 10
-29.714575376
 20
10.7114686054
 10
-29.7310473752
 20
10.5840222513
 10
-29.7409155466
 20
10.4515261071
 10
-29.7441011773
 20
10.3151932324
 10
-29.7405533745
 20
10.1750130778
 10
-29.7303230311
 20
10.0309961926
 10
-29.7134841124
 20
9.8843872848
 10
-29.6900134649
 20
9.7352241941
 10
-29.6599342421
 20
9.5834690809
 10
-29.6233898701
 20
9.4302531337
 10
-29.5802669711
 20
9.2753651824
 10
-29.5306789229
 20
9.1190163972
 10
-29.4751092856
 20
8.9629714766
 10
-29.4131090019
 20
8.8066753635
 10
-29.3451271291
 20
8.650683115
 10
-29.2729943988
 20
8.4984246007
 10
-29.197321055
 20
8.3510431106
 10
-29.1174968536
 20
8.2073953547
 10
-29.0335217948
 20
8.0674813331
  0
LINE
  5
260
100
AcDbEntity
  8
DRAFT
100
AcDbLine
 62
7
  6
CONTINUOUS
 10
-22.3669699
 20
25.3914712237
 11
-22.3669699
 21
25.6321605172
  0
LINE
  5
261
100
AcDbEntity
  8
DRAFT
100
AcDbLine
 62
7
  6
CONTINUOUS
 10
-26.9704424878
 20
7.6154521112
 11
-27.3167173683
 21
7.4013105308
  0
LINE
  5
262
100
AcDbEntity
  8
DRAFT
100
AcDbLine
 62
7
  6
CONTINUOUS
 10
-27.8470474542
 20
6.4609937429
 11
-28.2869187104
 21
6.1889707599
  0
LINE
  5
263
100
AcDbEntity
  8
DRAFT
100
AcDbLine
 62
7
  6
CONTINUOUS
 10
-27.8824027933
 20
7.0328721212
 11
-27.3548483488
 21
7.3337013153
  0
LINE
  5
264
100
AcDbEntity
  8
DRAFT
100
AcDbLine
 62
7
  6
CONTINUOUS
 10
-28.044973934
 20
8.6032614589
 11
-27.4830478402
 21
8.9206504909
  0
LINE
  5
265
100
AcDbEntity
  8
DRAFT
100
AcDbLine
 62
7
  6
CONTINUOUS
 10
-27.3068432925
 20
8.6546685158
 11
-28.4681871989
 21
8.0529335558
  0
LINE
  5
266
100
AcDbEntity
  8
RACCORDO
100
AcDbLine
 62
250
  6
CONTINUOUS
 10
-28.4368453605
 20
9.3516473171
 11
-28.3274454313
 21
9.4081950772
  0
LWPOLYLINE
  5
267
100
AcDbEntity
  8
DRAFT
100
AcDbPolyline
 62
7
  6
CONTINUOUS
 90
10
 70
0
 10
-28.3929175436
 20
4.9515025775
 10
-28.3899722453
 20
4.9533347638
 10
-28.3667236949
 20
4.9709167517
 10
-28.3462542666
 20
4.992273309
 10
-28.3285719901
 20
5.0175574256
 10
-28.3136688357
 20
5.0466161117
 10
-28.3020058281
 20
5.0785938063
 10
-28.2937366421
 20
5.1132053225
 10
-28.2887076028
 20
5.1507358473
 10
-28.2869187104
 20
5.1911853807
  0
LINE
  5
268
100
AcDbEntity
  8
DRAFT
100
AcDbLine
 62
7
  6
CONTINUOUS
 10
-26.8998110901
 20
5.4023802593
 11
-26.9122014513
 21
5.3952262438
  0
LINE
  5
269
100
AcDbEntity
  8
DRAFT
100
AcDbLine
 62
250
  6
CONTINUOUS
 10
-29.0335217948
 20
5.6222646445
 11
-28.2869187104
 21
6.0385530507
  0
LINE
  5
26A
100
AcDbEntity
  8
DRAFT
100
AcDbLine
 62
250
  6
CONTINUOUS
 10
-26.9122014513
 20
4.3974408645
 11
-26.8998110901
 21
4.4043494399
  0
LWPOLYLINE
  5
26B
100
AcDbEntity
  8
RACCORDO
100
AcDbPolyline
 62
7
  6
CONTINUOUS
 90
9
 70
0
 10
-28.4695710405
 20
9.4270328575
 10
-28.4565509672
 20
9.4321861101
 10
-28.4403298348
 20
9.4358474238
 10
-28.4230968034
 20
9.4371068048
 10
-28.4048903085
 20
9.4359925803
 10
-28.3861754171
 20
9.4325407003
 10
-28.3671071516
 20
9.4267631482
 10
-28.3475304897
 20
9.4186479405
 10
-28.3274454313
 20
9.4081950772
  0
LWPOLYLINE
  5
26C
100
AcDbEntity
  8
DRAFT
100
AcDbPolyline
 62
7
  6
CONTINUOUS
 90
15
 70
0
 10
-28.4681871989
 20
8.0529335558
 10
-28.5709544372
 20
8.2074870037
 10
-28.6690015758
 20
8.3658417706
 10
-28.7620154454
 20
8.5275081621
 10
-28.8497372269
 20
8.692061706
 10
-28.9318400971
 20
8.8589162788
 10
-29.0079569687
 20
9.0273165912
 10
-29.0777881214
 20
9.1965329202
 10
-29.1412256859
 20
9.3662315005
 10
-29.1982040146
 20
9.5362440715
 10
-29.2485957154
 20
9.7063077838
 10
-29.2921228456
 20
9.8756178174
 10
-29.3285375054
 20
10.0432012055
 10
-29.3577083434
 20
10.2082358797
 10
-29.3796490969
 20
10.3705293918
  0
LWPOLYLINE
  5
26D
100
AcDbEntity
  8
DRAFT
100
AcDbPolyline
 62
7
  6
CONTINUOUS
 90
10
 70
0
 10
-27.4830478402
 20
8.9206504909
 10
-27.4641452323
 20
8.8905361616
 10
-27.4450720609
 20
8.8605595438
 10
-27.4258283261
 20
8.8307206375
 10
-27.4064118349
 20
8.8010161324
 10
-27.3868247802
 20
8.7714493389
 10
-27.3670737408
 20
8.7420301874
 10
-27.3471609095
 20
8.7127619881
 10
-27.3270840934
 20
8.683641431
 10
-27.3068432925
 20
8.6546685158
  0
LWPOLYLINE
  5
26E
100
AcDbEntity
  8
DRAFT
100
AcDbPolyline
 62
7
  6
CONTINUOUS
 90
20
 70
0
 10
-28.044973934
 20
8.6032614589
 10
-28.1420056
 20
8.7650584782
 10
-28.2333013013
 20
8.9290675301
 10
-28.3188610379
 20
9.0952886147
 10
-28.3989895537
 20
9.264444226
 10
-28.473382105
 20
9.43581187
 10
-28.5411244602
 20
9.6072240641
 10
-28.6020075154
 20
9.7782600109
 10
-28.6562403747
 20
9.9493405079
 10
-28.7035361189
 20
10.1195604645
 10
-28.7439494925
 20
10.2893314197
 10
-28.7774257511
 20
10.4582418344
 10
-28.8035137412
 20
10.6241520018
 10
-28.8220805599
 20
10.7867806618
 10
-28.8332591102
 20
10.9464090744
 10
-28.8369969479
 20
11.1017413127
 10
-28.8332591102
 20
11.2527571898
 10
-28.8220805599
 20
11.3994768927
 10
-28.8035137412
 20
11.5406650558
 10
-28.7774257511
 20
11.6764494661
  0
LWPOLYLINE
  5
26F
100
AcDbEntity
  8
RACCORDO
100
AcDbPolyline
 62
250
  6
CONTINUOUS
 90
15
 70
0
 10
21.2967742729
 20
-27.0730833533
 10
17.8848412043
 20
-25.3345096443
 10
14.5195828057
 20
-23.588726236
 10
11.2008047696
 20
-21.8361777343
 10
7.9407327682
 20
-20.0840413194
 10
4.7265183843
 20
-18.326140115
 10
1.5212779741
 20
-16.5423094727
 10
-1.6867883748
 20
-14.7252416612
 10
-4.8842057343
 20
-12.8818420582
 10
-8.0690300472
 20
-11.0127213342
 10
-11.2438025472
 20
-9.1158132004
 10
-14.404473193
 20
-7.1929449097
 10
-17.5395489946
 20
-5.2507674422
 10
-20.6450609874
 20
-3.2916302642
 10
-23.7242119192
 20
-1.3133884309
  0
LINE
  5
270
100
AcDbEntity
  8
RACCORDO
100
AcDbLine
 62
250
  6
CONTINUOUS
 10
-23.7242119192
 20
-1.3133884309
 11
-26.7765831343
 21
0.6838707129
  0
LWPOLYLINE
  5
271
100
AcDbEntity
  8
RACCORDO
100
AcDbPolyline
 62
7
  6
CONTINUOUS
 90
16
 70
0
 10
-26.6753363796
 20
0.4564212928
 10
-23.7198351243
 20
-1.4780058896
 10
-20.6848226758
 20
-3.4292702502
 10
-17.6192000381
 20
-5.3650806905
 10
-14.523253953
 20
-7.2852552088
 10
-11.3972346925
 20
-9.1896414561
 10
-8.2413719602
 20
-11.0781012506
 10
-5.0559094045
 20
-12.950488402
 10
-1.8411219014
 20
-14.8066433982
 10
1.4027141646
 20
-16.646407739
 10
4.6753209874
 20
-18.4696233233
 10
7.9764436489
 20
-20.2761497876
 10
11.3058404804
 20
-22.0658550766
 10
14.6632480275
 20
-23.8385964608
 10
18.0483506279
 20
-25.5942095208
 10
21.4000816403
 20
-27.3018567723
  0
LWPOLYLINE
  5
272
100
AcDbEntity
  8
RACCORDO
100
AcDbPolyline
 62
250
  6
CONTINUOUS
 90
10
 70
0
 10
-26.6753263425
 20
0.4564146652
 10
-26.6895134153
 20
0.4667671317
 10
-26.7093329196
 20
0.4850426262
 10
-26.7267061889
 20
0.5061499435
 10
-26.7416104256
 20
0.5300044629
 10
-26.754131534
 20
0.5565252306
 10
-26.7638557446
 20
0.5853628699
 10
-26.7706783856
 20
0.6162932242
 10
-26.7748713426
 20
0.6492011263
 10
-26.7765831343
 20
0.6838707129
  0
LWPOLYLINE
  5
273
100
AcDbEntity
  8
DRAFT
100
AcDbPolyline
 62
7
  6
CONTINUOUS
 90
21
 70
0
 10
-26.2134776373
 20
25.0241740203
 10
-26.2249339231
 20
25.0537849437
 10
-26.2454033513
 20
25.0987790836
 10
-26.2686519017
 20
25.1432079148
 10
-26.2941944611
 20
25.1861146499
 10
-26.3222129458
 20
25.2276286629
 10
-26.3525254395
 20
25.2676205797
 10
-26.3841010799
 20
25.304745491
 10
-26.4168034864
 20
25.3387483043
 10
-26.4507690396
 20
25.369884112
 10
-26.4853760194
 20
25.3975732815
 10
-26.5208448036
 20
25.4218695029
 10
-26.5569550145
 20
25.4427190861
 10
-26.5924237987
 20
25.4593813276
 10
-26.6270307785
 20
25.471655431
 10
-26.6609963317
 20
25.4797421927
 10
-26.6936987381
 20
25.4835032986
 10
-26.7252743786
 20
25.4828411455
 10
-26.7555868722
 20
25.4778533365
 10
-26.783605357
 20
25.4686943674
 10
-26.7996996105
 20
25.4608758581
  0
LWPOLYLINE
  5
274
100
AcDbEntity
  8
DRAFT
100
AcDbPolyline
 62
7
  6
CONTINUOUS
 90
11
 70
0
 10
29.6760891953
 20
-29.2965167829
 10
29.6177543094
 20
-29.2657083281
 10
29.5605588151
 20
-29.2408187469
 10
29.5045027123
 20
-29.2218480393
 10
29.4492285646
 20
-29.2087488334
 10
29.3950938085
 20
-29.2015685012
 10
29.3431707528
 20
-29.2004491586
 10
29.2935040981
 20
-29.2055114051
 10
29.2460491438
 20
-29.2166346413
 10
29.2017440966
 20
-29.2335991845
 10
29.1698193305
 20
-29.2506730412
  0
LWPOLYLINE
  5
275
100
AcDbEntity
  8
RACCORDO
100
AcDbPolyline
 62
250
  6
CONTINUOUS
 90
11
 70
0
 10
21.4000621645
 20
-27.3018469351
 10
21.3911896196
 20
-27.2969650991
 10
21.372046663
 20
-27.2833753021
 10
21.3550864462
 20
-27.2667507225
 10
21.3398964007
 20
-27.2469039698
 10
21.326802384
 20
-27.2240946479
 10
21.3161830796
 20
-27.198671958
 10
21.3076755248
 20
-27.170536801
 10
21.301340278
 20
-27.1398878634
 10
21.2976401651
 20
-27.1072645254
 10
21.2967742729
 20
-27.0730833533
  0
LINE
  5
276
100
AcDbEntity
  8
DRAFT
100
AcDbLine
 62
7
  6
CONTINUOUS
 10
-30.4315316228
 20
4.6740469029
 11
-26.8998110901
 21
2.6348757302
  0
LINE
  5
277
100
AcDbEntity
  8
DRAFT
100
AcDbLine
 62
7
  6
CONTINUOUS
 10
23.4550284845
 20
-26.4393775459
 11
28.9725268313
 21
-29.6251119408
  0
LWPOLYLINE
  5
278
100
AcDbEntity
  8
DRAFT
100
AcDbPolyline
 62
7
  6
CONTINUOUS
 90
10
 70
0
 10
-28.4681871989
 20
8.0529335558
 10
-28.5072533655
 20
8.0876276911
 10
-28.5454321835
 20
8.1221209447
 10
-28.582723653
 20
8.1564133169
 10
-28.6191259863
 20
8.1904971997
 10
-28.6546409711
 20
8.224380201
 10
-28.6892739699
 20
8.2580851441
 10
-28.7230267703
 20
8.2916196368
 10
-28.7558975847
 20
8.3249760713
 10
-28.7878864131
 20
8.3581544475
  0
LWPOLYLINE
  5
279
100
AcDbEntity
  8
DRAFT
100
AcDbPolyline
 62
7
  6
CONTINUOUS
 90
25
 70
0
 10
-28.7878864131
 20
8.3581544475
 10
-28.7983161322
 20
8.3674867153
 10
-28.8092968746
 20
8.374690998
 10
-28.8208286403
 20
8.3797672954
 10
-28.8329519718
 20
8.382751829
 10
-28.8456263267
 20
8.3836083774
 10
-28.8587300772
 20
8.3822282766
 10
-28.8724126473
 20
8.3785253468
 10
-28.886524613
 20
8.3725857678
 10
-28.9004960755
 20
8.3645594155
 10
-28.9142638808
 20
8.3543511902
 10
-28.9278911829
 20
8.3420561915
 10
-28.9409975451
 20
8.328109594
 10
-28.9535361855
 20
8.3125215918
 10
-28.965553886
 20
8.2952819908
 10
-28.9768105548
 20
8.2767953829
 10
-28.9873074505
 20
8.2570746134
 10
-28.9970433144
 20
8.2361068371
 10
-29.0057742789
 20
8.2142581106
 10
-29.0135319306
 20
8.1915732887
 10
-29.0202846827
 20
8.1680075166
 10
-29.025693908
 20
8.1437922858
 10
-29.0296467305
 20
8.1190047603
 10
-29.0322560261
 20
8.093567776
 10
-29.0335217948
 20
8.0674813331
  0
LWPOLYLINE
  5
27A
100
AcDbEntity
  8
DRAFT
100
AcDbPolyline
 62
7
  6
CONTINUOUS
 90
15
 70
0
 10
-28.4681871989
 20
20.2999877077
 10
-28.5709544372
 20
20.4545411556
 10
-28.6690015758
 20
20.6128959225
 10
-28.7620154454
 20
20.774562314
 10
-28.8497372269
 20
20.9391158578
 10
-28.9318400971
 20
21.1059704307
 10
-29.0079569687
 20
21.2743707431
 10
-29.0777881214
 20
21.4435870721
 10
-29.1412256859
 20
21.6132856524
 10
-29.1982040146
 20
21.7832982234
 10
-29.2485957154
 20
21.9533619357
 10
-29.2921228456
 20
22.1226719692
 10
-29.3285375054
 20
22.2902553573
 10
-29.3577083434
 20
22.4552900316
 10
-29.3796490969
 20
22.6175835437
  0
LWPOLYLINE
  5
27B
100
AcDbEntity
  8
DRAFT
100
AcDbPolyline
 62
7
  6
CONTINUOUS
 90
10
 70
0
 10
-27.4830478402
 20
21.1677046428
 10
-27.4641452323
 20
21.1375903135
 10
-27.4450720609
 20
21.1076136957
 10
-27.4258283261
 20
21.0777747894
 10
-27.4064118349
 20
21.0480702843
 10
-27.3868247802
 20
21.0185034908
 10
-27.3670737408
 20
20.9890843393
 10
-27.3471609095
 20
20.95981614
 10
-27.3270840934
 20
20.9306955829
 10
-27.3068432925
 20
20.9017226677
  0
LWPOLYLINE
  5
27C
100
AcDbEntity
  8
DRAFT
100
AcDbPolyline
 62
7
  6
CONTINUOUS
 90
20
 70
0
 10
-28.044973934
 20
20.8503156108
 10
-28.1420056
 20
21.0121126301
 10
-28.2333013013
 20
21.176121682
 10
-28.3188610379
 20
21.3423427666
 10
-28.3989895537
 20
21.5114983779
 10
-28.473382105
 20
21.6828660219
 10
-28.5411244602
 20
21.854278216
 10
-28.6020075154
 20
22.0253141628
 10
-28.6562403747
 20
22.1963946598
 10
-28.7035361189
 20
22.3666146164
 10
-28.7439494925
 20
22.5363855715
 10
-28.7774257511
 20
22.7052959863
 10
-28.8035137412
 20
22.8712061537
 10
-28.8220805599
 20
23.0338348137
 10
-28.8332591102
 20
23.1934632263
 10
-28.8369969479
 20
23.3487954646
 10
-28.8332591102
 20
23.4998113417
 10
-28.8220805599
 20
23.6465310446
 10
-28.8035137412
 20
23.7877192077
 10
-28.7774257511
 20
23.923503618
  0
LINE
  5
27D
100
AcDbEntity
  8
DRAFT
100
AcDbLine
 62
7
  6
CONTINUOUS
 10
23.6656815552
 20
-24.614303712
 11
23.088887795
 21
-24.2812702237
  0
LINE
  5
27E
100
AcDbEntity
  8
DRAFT
100
AcDbLine
 62
7
  6
CONTINUOUS
 10
-28.2869187104
 20
6.1889707599
 11
-26.9122014513
 21
5.3952262438
  0
LINE
  5
27F
100
AcDbEntity
  8
DRAFT
100
AcDbLine
 62
7
  6
CONTINUOUS
 10
26.8279139189
 20
-25.6336428491
 11
25.4531966598
 21
-24.839898333
  0
LINE
  5
280
100
AcDbEntity
  8
DRAFT
100
AcDbLine
 62
7
  6
CONTINUOUS
 10
-27.8470474542
 20
6.4609937429
 11
-26.8998110901
 21
5.914071338
  0
LINE
  5
281
100
AcDbEntity
  8
DRAFT
100
AcDbLine
 62
7
  6
CONTINUOUS
 10
25.8930679159
 20
-24.56787535
 11
27.2834139388
 21
-25.3706437184
  0
LINE
  5
282
100
AcDbEntity
  8
DRAFT
100
AcDbLine
 62
7
  6
CONTINUOUS
 10
27.6703622327
 20
-24.3475400809
 11
26.4233980018
 21
-23.6275585621
  0
LINE
  5
283
100
AcDbEntity
  8
DRAFT
100
AcDbLine
 62
7
  6
CONTINUOUS
 10
-26.8998110901
 20
7.1605940708
 11
-27.3167173683
 21
7.4013105308
  0
LINE
  5
284
100
AcDbEntity
  8
DRAFT
100
AcDbLine
 62
7
  6
CONTINUOUS
 10
-26.9704424878
 20
7.6154521112
 11
-26.8998110901
 21
7.5746704274
  0
LINE
  5
285
100
AcDbEntity
  8
DRAFT
100
AcDbLine
 62
7
  6
CONTINUOUS
 10
26.7696728824
 20
-23.4134169817
 11
27.9501621383
 21
-24.0950166831
  0
LINE
  5
286
100
AcDbEntity
  8
DRAFT
100
AcDbLine
 62
7
  6
CONTINUOUS
 10
26.25706753
 20
-22.108218602
 11
25.4126699388
 21
-21.6206740157
  0
LINE
  5
287
100
AcDbEntity
  8
DRAFT
100
AcDbLine
 62
7
  6
CONTINUOUS
 10
-27.4830478402
 20
8.9206504909
 11
-28.3274454313
 21
9.4081950772
  0
LWPOLYLINE
  5
288
100
AcDbEntity
  8
DRAFT
100
AcDbPolyline
 62
7
  6
CONTINUOUS
 90
3
 70
0
 10
-27.1135703098
 20
20.2831756788
 10
-26.9870204182
 20
20.1399771315
 10
-26.8998110901
 20
20.0476114089
  0
LINE
  5
289
100
AcDbEntity
  8
DRAFT
100
AcDbLine
 62
7
  6
CONTINUOUS
 10
30.7877118935
 20
-21.6989640615
 11
31.1350939868
 21
-21.8995381284
  0
LINE
  5
28A
100
AcDbEntity
  8
DRAFT
100
AcDbLine
 62
7
  6
CONTINUOUS
 10
24.7065935753
 20
-17.8314519214
 11
27.5745170034
 21
-19.4873549652
  0
LINE
  5
28B
100
AcDbEntity
  8
DRAFT
100
AcDbLine
 62
7
  6
CONTINUOUS
 10
-26.8998110901
 20
11.9654393523
 11
-29.0335217948
 21
13.1974171716
  0
LWPOLYLINE
  5
28C
100
AcDbEntity
  8
DRAFT
100
AcDbPolyline
 62
7
  6
CONTINUOUS
 90
10
 70
0
 10
-28.4681871989
 20
20.2999877077
 10
-28.5072533655
 20
20.334681843
 10
-28.5454321835
 20
20.3691750966
 10
-28.582723653
 20
20.4034674688
 10
-28.6191259863
 20
20.4375513516
 10
-28.6546409711
 20
20.4714343529
 10
-28.6892739699
 20
20.505139296
 10
-28.7230267703
 20
20.5386737887
 10
-28.7558975847
 20
20.5720302231
 10
-28.7878864131
 20
20.6052085994
  0
LWPOLYLINE
  5
28D
100
AcDbEntity
  8
DRAFT
100
AcDbPolyline
 62
7
  6
CONTINUOUS
 90
25
 70
0
 10
-28.7878864131
 20
20.6052085994
 10
-28.7983161322
 20
20.6145408672
 10
-28.8092968746
 20
20.6217451498
 10
-28.8208286403
 20
20.6268214473
 10
-28.8329519718
 20
20.6298059809
 10
-28.8456263267
 20
20.6306625293
 10
-28.8587300772
 20
20.6292824285
 10
-28.8724126473
 20
20.6255794987
 10
-28.886524613
 20
20.6196399197
 10
-28.9004960755
 20
20.6116135673
 10
-28.9142638808
 20
20.6014053421
 10
-28.9278911829
 20
20.5891103434
 10
-28.9409975451
 20
20.5751637459
 10
-28.9535361855
 20
20.5595757437
 10
-28.965553886
 20
20.5423361427
 10
-28.9768105548
 20
20.5238495348
 10
-28.9873074505
 20
20.5041287653
 10
-28.9970433144
 20
20.483160989
 10
-29.0057742789
 20
20.4613122624
 10
-29.0135319306
 20
20.4386274406
 10
-29.0202846827
 20
20.4150616685
 10
-29.025693908
 20
20.3908464377
 10
-29.0296467305
 20
20.3660589122
 10
-29.0322560261
 20
20.3406219279
 10
-29.0335217948
 20
20.314535485
  0
LINE
  5
28E
100
AcDbEntity
  8
DRAFT
100
AcDbLine
 62
7
  6
CONTINUOUS
 10
23.1707068084
 20
-0.6607232931
 11
22.7464427397
 21
-0.6564478306
  0
LWPOLYLINE
  5
28F
100
AcDbEntity
  8
DRAFT
100
AcDbPolyline
 62
7
  6
CONTINUOUS
 90
31
 70
0
 10
-31.1350939868
 20
18.0621523951
 10
-31.0776639938
 20
18.0262316214
 10
-31.0212838139
 20
17.9857777315
 10
-30.9659534471
 20
17.9407907256
 10
-30.9112893206
 20
17.8908744985
 10
-30.857675007
 20
17.8364251553
 10
-30.8062612253
 20
17.7786310111
 10
-30.7571853556
 20
17.7175550756
 10
-30.7103100177
 20
17.6531343392
 10
-30.6663737889
 20
17.5863680883
 10
-30.6253225349
 20
17.5170188286
 10
-30.58721039
 20
17.4453240544
 10
-30.5529383351
 20
17.3729955357
 10
-30.5226828644
 20
17.3002646221
 10
-30.4962674837
 20
17.226899964
 10
-30.4740636915
 20
17.1539192824
 10
-30.4560817631
 20
17.0810589089
 10
-30.4423114231
 20
17.0085825118
 10
-30.433093344
 20
16.9382988171
 10
-30.4285410832
 20
16.8705202562
 10
-30.4285410832
 20
16.8049343978
 10
-30.433093344
 20
16.7424126736
 10
-30.4423114231
 20
16.6827737856
 10
-30.4560817631
 20
16.626199032
 10
-30.4740636915
 20
16.5741037386
 10
-30.4962674837
 20
16.5267634397
 10
-30.5226828644
 20
16.4839026011
 10
-30.5529383351
 20
16.4461099467
 10
-30.58721039
 20
16.4133579379
 10
-30.6253225349
 20
16.3856741134
 10
-30.6411634637
 20
16.3762370109
  0
LWPOLYLINE
  5
290
100
AcDbEntity
  8
DRAFT
100
AcDbPolyline
 62
7
  6
CONTINUOUS
 90
30
 70
0
 10
29.6760891953
 20
-18.6824031846
 10
29.6186592023
 20
-18.6464824109
 10
29.5622790225
 20
-18.606028521
 10
29.5069486557
 20
-18.5610415151
 10
29.4522845291
 20
-18.511125288
 10
29.3986702156
 20
-18.4566759448
 10
29.3472564338
 20
-18.3988818006
 10
29.2981805641
 20
-18.3378058651
 10
29.2513052262
 20
-18.2733851287
 10
29.2073689975
 20
-18.2066188778
 10
29.1663177434
 20
-18.1372696181
 10
29.1282055985
 20
-18.0655748439
 10
29.0939335436
 20
-17.9932463252
 10
29.0636780729
 20
-17.9205154116
 10
29.0372626923
 20
-17.8471507535
 10
29.0150589001
 20
-17.7741700719
 10
28.9970769716
 20
-17.7013096984
 10
28.9833066317
 20
-17.6288333013
 10
28.9740885525
 20
-17.5585496066
 10
28.9695362917
 20
-17.4907710457
 10
28.9695362917
 20
-17.4251851873
 10
28.9740885525
 20
-17.3626634631
 10
28.9833066317
 20
-17.3030245751
 10
28.9970769716
 20
-17.2464498215
 10
29.0150589001
 20
-17.1943545281
 10
29.0372626923
 20
-17.1470142292
 10
29.0636780729
 20
-17.1041533906
 10
29.0939335436
 20
-17.0663607362
 10
29.1282055985
 20
-17.0336087274
 10
29.1698345352
 20
-17.0036096637
  0
LWPOLYLINE
  5
291
100
AcDbEntity
  8
DRAFT
100
AcDbPolyline
 62
7
  6
CONTINUOUS
 90
10
 70
0
 10
27.1206307072
 20
-23.5019674025
 10
27.1987362562
 20
-23.5709105002
 10
27.2772869666
 20
-23.63732597
 10
27.3562828386
 20
-23.7012138119
 10
27.4357977572
 20
-23.7626284386
 10
27.5157578373
 20
-23.8215154375
 10
27.5959414236
 20
-23.87771157
 10
27.6762746309
 20
-23.9311624234
 10
27.7568313445
 20
-23.9819224104
 10
27.8376115642
 20
-24.0299915311
  0
LWPOLYLINE
  5
292
100
AcDbEntity
  8
DRAFT
100
AcDbPolyline
 62
7
  6
CONTINUOUS
 90
10
 70
0
 10
25.2719281713
 20
-22.9759355371
 10
25.2328620047
 20
-22.9412414018
 10
25.1946831867
 20
-22.9067481482
 10
25.1573917172
 20
-22.872455776
 10
25.1209893839
 20
-22.8383718932
 10
25.0854743991
 20
-22.8044888919
 10
25.0508414003
 20
-22.7707839488
 10
25.0170885999
 20
-22.7372494561
 10
24.9842177855
 20
-22.7038930217
 10
24.952228957
 20
-22.6707146454
  0
LWPOLYLINE
  5
293
100
AcDbEntity
  8
DRAFT
100
AcDbPolyline
 62
7
  6
CONTINUOUS
 90
25
 70
0
 10
24.952228957
 20
-22.6707146454
 10
24.941799238
 20
-22.6613823776
 10
24.9308184956
 20
-22.654178095
 10
24.9192867299
 20
-22.6491017975
 10
24.9071633983
 20
-22.6461172639
 10
24.8944890435
 20
-22.6452607155
 10
24.8813852929
 20
-22.6466408163
 10
24.8677027229
 20
-22.6503437461
 10
24.8535907572
 20
-22.6562833251
 10
24.8396192947
 20
-22.6643096775
 10
24.8258514894
 20
-22.6745179027
 10
24.8122241873
 20
-22.6868129014
 10
24.7991178251
 20
-22.7007594989
 10
24.7865791846
 20
-22.7163475011
 10
24.7745614841
 20
-22.7335871021
 10
24.7633048154
 20
-22.75207371
 10
24.7528079197
 20
-22.7717944795
 10
24.7430720557
 20
-22.7927622558
 10
24.7343410912
 20
-22.8146109824
 10
24.7265834396
 20
-22.8372958042
 10
24.7198306874
 20
-22.8608615763
 10
24.7144214622
 20
-22.8850768071
 10
24.7104686396
 20
-22.9098643326
 10
24.707859344
 20
-22.9353013169
 10
24.7065935753
 20
-22.9613877598
  0
LINE
  5
294
100
AcDbEntity
  8
DRAFT
100
AcDbLine
 62
7
  6
CONTINUOUS
 10
-29.0335217948
 20
18.8671041757
 11
-26.8998110901
 21
17.6351263565
  0
LINE
  5
295
100
AcDbEntity
  8
DRAFT
100
AcDbLine
 62
7
  6
CONTINUOUS
 10
24.7065935753
 20
-12.1617649172
 11
27.5745170034
 21
-13.817667961
  0
LINE
  5
296
100
AcDbEntity
  8
DRAFT
100
AcDbLine
 62
7
  6
CONTINUOUS
 10
-28.5780217749
 20
19.1301033064
 11
-26.8998110901
 21
18.1611254899
  0
LINE
  5
297
100
AcDbEntity
  8
DRAFT
100
AcDbLine
 62
7
  6
CONTINUOUS
 10
25.1620935952
 20
-11.8987657865
 11
27.5745170034
 21
-13.2916688276
  0
LINE
  5
298
100
AcDbEntity
  8
DRAFT
100
AcDbLine
 62
7
  6
CONTINUOUS
 10
-28.1020719454
 20
19.9356155416
 11
-26.8998110901
 21
19.2414451916
  0
LINE
  5
299
100
AcDbEntity
  8
DRAFT
100
AcDbLine
 62
7
  6
CONTINUOUS
 10
25.6380434248
 20
-11.0932535513
 11
27.6002411432
 21
-12.2262019218
  0
LINE
  5
29A
100
AcDbEntity
  8
DRAFT
100
AcDbLine
 62
7
  6
CONTINUOUS
 10
-27.3803074323
 20
20.0991649008
 11
-26.8998110901
 21
19.8217323349
  0
LINE
  5
29B
100
AcDbEntity
  8
DRAFT
100
AcDbLine
 62
7
  6
CONTINUOUS
 10
26.3598079379
 20
-10.9297041921
 11
27.9501660948
 21
-11.84795706
  0
LINE
  5
29C
100
AcDbEntity
  8
DRAFT
100
AcDbLine
 62
7
  6
CONTINUOUS
 10
-27.3068432925
 20
20.3947690768
 11
-27.1135703098
 21
20.2831756788
  0
LINE
  5
29D
100
AcDbEntity
  8
DRAFT
100
AcDbLine
 62
7
  6
CONTINUOUS
 10
26.4332720777
 20
-10.6341000161
 11
26.6265450604
 21
-10.7456934141
  0
LINE
  5
29E
100
AcDbEntity
  8
DRAFT
100
AcDbLine
 62
7
  6
CONTINUOUS
 10
26.25706753
 20
-9.8611644501
 11
25.4126699388
 21
-9.3736198638
  0
LINE
  5
29F
100
AcDbEntity
  8
DRAFT
100
AcDbLine
 62
7
  6
CONTINUOUS
 10
-27.4830478402
 20
21.1677046428
 11
-28.3274454313
 21
21.6552492291
  0
LINE
  5
2A0
100
AcDbEntity
  8
DRAFT
100
AcDbLine
 62
7
  6
CONTINUOUS
 10
23.6656815552
 20
-8.2848981761
 11
23.088887795
 21
-7.9518646879
  0
LWPOLYLINE
  5
2A1
100
AcDbEntity
  8
RACCORDO
100
AcDbPolyline
 62
250
  6
CONTINUOUS
 90
16
 70
0
 10
-26.7765831343
 20
24.1312706863
 10
-23.7726008938
 20
22.1571972465
 10
-20.7551073202
 20
20.2106529817
 10
-17.7248721398
 20
18.2915258506
 10
-14.6943133583
 20
16.4068813015
 10
-11.6527448421
 20
14.5492946294
 10
-8.5652788118
 20
12.6974507754
 10
-5.4192824223
 20
10.844518374
 10
-2.2266911325
 20
8.9982962322
 10
1.0114727367
 20
7.1599428819
 10
4.2987933118
 20
5.3279986114
 10
7.6321001177
 20
3.5047941076
 10
10.9998921241
 20
1.6969781043
 10
14.3981060681
 20
-0.0931535869
 10
17.8304506043
 20
-1.8674546167
 10
21.2967742729
 20
-3.6256833799
  0
LINE
  5
2A2
100
AcDbEntity
  8
DRAFT
100
AcDbLine
 62
7
  6
CONTINUOUS
 10
30.7877118935
 20
-9.4519099096
 11
31.1350939868
 21
-9.6524839765
  0
LINE
  5
2A3
100
AcDbEntity
  8
DRAFT
100
AcDbLine
 62
7
  6
CONTINUOUS
 10
-28.2869187104
 20
25.0133920596
 11
-26.9122014513
 21
24.2196475435
  0
LINE
  5
2A4
100
AcDbEntity
  8
DRAFT
100
AcDbLine
 62
7
  6
CONTINUOUS
 10
26.8279139189
 20
-6.8092215494
 11
25.4531966598
 21
-6.0154770333
  0
LINE
  5
2A5
100
AcDbEntity
  8
DRAFT
100
AcDbLine
 62
7
  6
CONTINUOUS
 10
27.2834139388
 20
-6.5642683793
 11
27.5745170034
 21
-6.732315712
  0
LWPOLYLINE
  5
2A6
100
AcDbEntity
  8
RACCORDO
100
AcDbPolyline
 62
250
  6
CONTINUOUS
 90
16
 70
0
 10
-26.4059814476
 20
24.7256674637
 10
-23.4037366254
 20
22.7537589996
 10
-20.3895168642
 20
20.8091204653
 10
-17.363322164
 20
18.8917518609
 10
-14.3365957326
 20
17.0086499883
 10
-11.2978943622
 20
15.1528180456
 10
-8.2128884294
 20
13.3032656264
 10
-5.0699315821
 20
11.4523308096
 10
-1.8806701723
 20
9.6076755163
 10
1.3542863675
 20
7.7712951034
 10
4.6385534813
 20
5.9414215595
 10
7.9685157252
 20
4.1198228959
 10
11.3327173355
 20
2.3137985042
 10
14.7273397246
 20
0.5257815148
 10
18.1562014801
 20
-1.2466612028
 10
21.6193026022
 20
-3.0035296485
  0
LWPOLYLINE
  5
2A7
100
AcDbEntity
  8
DRAFT
100
AcDbPolyline
 62
7
  6
CONTINUOUS
 90
10
 70
0
 10
25.2719281713
 20
-10.7288813852
 10
25.2328620047
 20
-10.69418725
 10
25.1946831867
 20
-10.6596939963
 10
25.1573917172
 20
-10.6254016241
 10
25.1209893839
 20
-10.5913177413
 10
25.0854743991
 20
-10.55743474
 10
25.0508414003
 20
-10.5237297969
 10
25.0170885999
 20
-10.4901953042
 10
24.9842177855
 20
-10.4568388698
 10
24.952228957
 20
-10.4236604935
  0
LWPOLYLINE
  5
2A8
100
AcDbEntity
  8
DRAFT
100
AcDbPolyline
 62
7
  6
CONTINUOUS
 90
25
 70
0
 10
24.952228957
 20
-10.4236604935
 10
24.941799238
 20
-10.4143282257
 10
24.9308184956
 20
-10.4071239431
 10
24.9192867299
 20
-10.4020476456
 10
24.9071633983
 20
-10.399063112
 10
24.8944890435
 20
-10.3982065636
 10
24.8813852929
 20
-10.3995866644
 10
24.8677027229
 20
-10.4032895942
 10
24.8535907572
 20
-10.4092291732
 10
24.8396192947
 20
-10.4172555256
 10
24.8258514894
 20
-10.4274637509
 10
24.8122241873
 20
-10.4397587495
 10
24.7991178251
 20
-10.453705347
 10
24.7865791846
 20
-10.4692933492
 10
24.7745614841
 20
-10.4865329502
 10
24.7633048154
 20
-10.5050195581
 10
24.7528079197
 20
-10.5247403276
 10
24.7430720557
 20
-10.5457081039
 10
24.7343410912
 20
-10.5675568305
 10
24.7265834396
 20
-10.5902416523
 10
24.7198306874
 20
-10.6138074244
 10
24.7144214622
 20
-10.6380226552
 10
24.7104686396
 20
-10.6628101808
 10
24.707859344
 20
-10.688247165
 10
24.7065935753
 20
-10.7143336079
  0
LWPOLYLINE
  5
2A9
100
AcDbEntity
  8
DRAFT
100
AcDbPolyline
 62
7
  6
CONTINUOUS
 90
15
 70
0
 10
25.2719281713
 20
-22.9759355371
 10
25.169160933
 20
-22.8213820892
 10
25.0711137943
 20
-22.6630273223
 10
24.9780999248
 20
-22.5013609308
 10
24.8903781433
 20
-22.336807387
 10
24.8082752731
 20
-22.1699528141
 10
24.7321584015
 20
-22.0015525017
 10
24.6623272488
 20
-21.8323361727
 10
24.5988896843
 20
-21.6626375924
 10
24.5419113556
 20
-21.4926250214
 10
24.4915196548
 20
-21.3225613091
 10
24.4479925246
 20
-21.1532512756
 10
24.4115778647
 20
-20.9856678875
 10
24.3824070268
 20
-20.8206332132
 10
24.3604662732
 20
-20.6583397011
  0
LWPOLYLINE
  5
2AA
100
AcDbEntity
  8
DRAFT
100
AcDbPolyline
 62
7
  6
CONTINUOUS
 90
11
 70
0
 10
-31.1350939868
 20
28.6762659934
 10
-31.0767591009
 20
28.6454575386
 10
-31.0195636066
 20
28.6205679574
 10
-30.9635075037
 20
28.6015972498
 10
-30.9082333561
 20
28.5884980439
 10
-30.8540986
 20
28.5813177117
 10
-30.8021755443
 20
28.5801983691
 10
-30.7525088896
 20
28.5852606156
 10
-30.7050539352
 20
28.5963838518
 10
-30.660748888
 20
28.613348395
 10
-30.6411661651
 20
28.6232896777
  0
LINE
  5
2AB
100
AcDbEntity
  8
RACCORDO
100
AcDbLine
 62
7
  6
CONTINUOUS
 10
-24.771186804
 20
25.7366489937
 11
23.3121820125
 21
-2.0260855348
  0
LINE
  5
2AC
100
AcDbEntity
  8
DRAFT
100
AcDbLine
 62
7
  6
CONTINUOUS
 10
28.9725268313
 20
-5.2942976924
 11
-30.4315316228
 21
29.0048611513
  0
LINE
  5
2AD
100
AcDbEntity
  8
DRAFT
100
AcDbLine
 62
7
  6
CONTINUOUS
 10
22.7464427397
 20
-0.6564478306
 11
-22.3669699
 21
25.3914712237
  0
LINE
  5
2AE
100
AcDbEntity
  8
DRAFT
100
AcDbLine
 62
7
  6
CONTINUOUS
 10
30.086255987
 20
-4.6536747166
 11
23.1707068084
 21
-0.6607232931
  0
LINE
  5
2AF
100
AcDbEntity
  8
DRAFT
100
AcDbLine
 62
7
  6
CONTINUOUS
 10
-22.3669699
 20
25.6321605172
 11
-29.2825190787
 21
29.6251119408
  0
LWPOLYLINE
  5
2B0
100
AcDbEntity
  8
RACCORDO
100
AcDbPolyline
 62
250
  6
CONTINUOUS
 90
19
 70
0
 10
21.6193026022
 20
-3.0035296485
 10
21.6495921166
 20
-3.0231754918
 10
21.6796981407
 20
-3.0457500114
 10
21.7093916384
 20
-3.0710814683
 10
21.7384467118
 20
-3.0989771495
 10
21.7666423199
 20
-3.1292248343
 10
21.7937639603
 20
-3.1615944087
 10
21.8196053009
 20
-3.1958396162
 10
21.8439697497
 20
-3.2316999311
 10
21.8666719504
 20
-3.2689025404
 10
21.8875391924
 20
-3.3071644196
 10
21.9064127252
 20
-3.3461944855
 10
21.9231489652
 20
-3.3856958109
 10
21.9376205891
 20
-3.4253678835
 10
21.9497175017
 20
-3.4649088916
 10
21.9593476738
 20
-3.5040180211
 10
21.9664378424
 20
-3.5423977431
 10
21.970934068
 20
-3.5797560779
 10
21.9728021449
 20
-3.6158088163
  0
LWPOLYLINE
  5
2B1
100
AcDbEntity
  8
DRAFT
100
AcDbPolyline
 62
7
  6
CONTINUOUS
 90
10
 70
0
 10
26.25706753
 20
-22.108218602
 10
26.2759701379
 20
-22.1383329313
 10
26.2950433092
 20
-22.1683095491
 10
26.3142870441
 20
-22.1981484554
 10
26.3337035353
 20
-22.2278529605
 10
26.3532905899
 20
-22.257419754
 10
26.3730416294
 20
-22.2868389055
 10
26.3929544607
 20
-22.3161071048
 10
26.4130312768
 20
-22.3452276619
 10
26.4332720777
 20
-22.3742005771
  0
LWPOLYLINE
  5
2B2
100
AcDbEntity
  8
DRAFT
100
AcDbPolyline
 62
7
  6
CONTINUOUS
 90
20
 70
0
 10
25.6951414361
 20
-22.425607634
 10
25.5981097702
 20
-22.2638106147
 10
25.5068140689
 20
-22.0998015628
 10
25.4212543323
 20
-21.9335804782
 10
25.3411258164
 20
-21.7644248669
 10
25.2667332652
 20
-21.5930572229
 10
25.19899091
 20
-21.4216450288
 10
25.1381078547
 20
-21.250609082
 10
25.0838749954
 20
-21.079528585
 10
25.0365792513
 20
-20.9093086284
 10
24.9961658776
 20
-20.7395376733
 10
24.9626896191
 20
-20.5706272585
 10
24.936601629
 20
-20.4047170911
 10
24.9180348103
 20
-20.2420884311
 10
24.90685626
 20
-20.0824600185
 10
24.9031184223
 20
-19.9271277802
 10
24.90685626
 20
-19.7761119031
 10
24.9180348103
 20
-19.6293922002
 10
24.936601629
 20
-19.4882040371
 10
24.9626896191
 20
-19.3524196268
  0
LINE
  5
2B3
100
AcDbEntity
  8
RACCORDO
100
AcDbLine
 62
250
  6
CONTINUOUS
 10
21.6193026022
 20
-3.0035296485
 11
23.3121820125
 21
-2.0260855348
  0
LINE
  5
2B4
100
AcDbEntity
  8
RACCORDO
100
AcDbLine
 62
250
  6
CONTINUOUS
 10
21.9728021449
 20
-3.6158088163
 11
23.6656815552
 21
-2.6383647026
  0
LWPOLYLINE
  5
2B5
100
AcDbEntity
  8
RACCORDO
100
AcDbPolyline
 62
250
  6
CONTINUOUS
 90
16
 70
0
 10
21.9728021449
 20
-3.6158088163
 10
21.9360418042
 20
-3.6343896228
 10
21.8961641231
 20
-3.6508668396
 10
21.8535217888
 20
-3.6650570603
 10
21.8084451958
 20
-3.6768089034
 10
21.7614041601
 20
-3.6859603351
 10
21.7130235707
 20
-3.692373465
 10
21.6638460329
 20
-3.6959822027
 10
21.614291516
 20
-3.6967614605
 10
21.5648306275
 20
-3.6947024526
 10
21.5159394877
 20
-3.6898212376
 10
21.4681113802
 20
-3.6821632546
 10
21.4218338779
 20
-3.6718051129
 10
21.3775677374
 20
-3.6588504451
 10
21.3357438587
 20
-3.6434258819
 10
21.2967742729
 20
-3.6256833799
  0
LINE
  5
2B6
100
AcDbEntity
  8
DRAFT
100
AcDbLine
 62
7
  6
CONTINUOUS
 10
-29.9839749852
 20
29.2956103617
 11
-29.9365799495
 21
29.2719823728
  0
LWPOLYLINE
  5
2B7
100
AcDbEntity
  8
DRAFT
100
AcDbPolyline
 62
7
  6
CONTINUOUS
 90
10
 70
0
 10
26.6265450604
 20
-10.7456934141
 10
26.753094952
 20
-10.8888919614
 10
26.8819301905
 20
-11.0253447946
 10
27.0130507761
 20
-11.1550519137
 10
27.1468328202
 20
-11.2783354391
 10
27.2829002113
 20
-11.3948732503
 10
27.4201246147
 20
-11.5036989861
 10
27.5581299189
 20
-11.604490526
 10
27.6972922354
 20
-11.6975699903
 10
27.8376115642
 20
-11.7829373792
  0
LINE
  5
2B8
100
AcDbEntity
  8
DRAFT
100
AcDbLine
 62
250
  6
CONTINUOUS
 10
27.6540425355
 20
-21.0676843402
 11
27.5745170034
 21
-20.9347862745
  0
LWPOLYLINE
  5
2B9
100
AcDbEntity
  8
RACCORDO
100
AcDbPolyline
 62
7
  6
CONTINUOUS
 90
27
 70
0
 10
27.6000160531
 20
-21.0479243424
 10
27.6362069774
 20
-21.110212302
 10
27.7211305261
 20
-21.2650257263
 10
27.8003141963
 20
-21.4222104297
 10
27.8734608477
 20
-21.5811588123
 10
27.9402835256
 20
-21.7412193284
 10
28.0005118165
 20
-21.9016919458
 10
28.0539325305
 20
-22.0619284242
 10
28.1003677188
 20
-22.2212914559
 10
28.1396569824
 20
-22.3790842661
 10
28.171689833
 20
-22.534649306
 10
28.1964025258
 20
-22.6873895839
 10
28.2137598927
 20
-22.8366886886
 10
28.2237616645
 20
-22.981871914
 10
28.2264606323
 20
-23.122441019
 10
28.2219269557
 20
-23.2580123285
 10
28.2102709941
 20
-23.3878853255
 10
28.1916272839
 20
-23.5116817967
 10
28.1660507432
 20
-23.6293896548
 10
28.1337496415
 20
-23.7402402988
 10
28.0948630068
 20
-23.8439598269
 10
28.0491405985
 20
-23.9409916534
 10
27.9965553486
 20
-24.0308624823
 10
27.937310099
 20
-24.1127889456
 10
27.8712687361
 20
-24.1865364726
 10
27.7983651805
 20
-24.2516727028
 10
27.7110191099
 20
-24.3123083074
  0
LWPOLYLINE
  5
2BA
100
AcDbEntity
  8
DRAFT
100
AcDbPolyline
 62
7
  6
CONTINUOUS
 90
7
 70
0
 10
27.6000241486
 20
-21.0479146471
 10
27.5938209909
 20
-21.0361904525
 10
27.5872999339
 20
-21.0202888115
 10
27.5820763058
 20
-21.002212857
 10
27.5782591095
 20
-20.9819116429
 10
27.575739342
 20
-20.9594361154
 10
27.5745170034
 20
-20.9347862745
  0
LWPOLYLINE
  5
2BB
100
AcDbEntity
  8
RACCORDO
100
AcDbPolyline
 62
250
  6
CONTINUOUS
 90
19
 70
0
 10
21.6193026029
 20
-3.0035296489
 10
21.5912429596
 20
-3.0245176796
 10
21.5635083478
 20
-3.0478784297
 10
21.5362096545
 20
-3.0736717089
 10
21.5095221782
 20
-3.1022234816
 10
21.4834964263
 20
-3.133442508
 10
21.4582531793
 20
-3.1666206629
 10
21.4343974916
 20
-3.2015283728
 10
21.4121332736
 20
-3.2382101231
 10
21.3911896267
 20
-3.2760952017
 10
21.3720466676
 20
-3.3148454968
 10
21.3550864493
 20
-3.3543571423
 10
21.3398964023
 20
-3.3942661103
 10
21.3268023835
 20
-3.4342864714
 10
21.3161830773
 20
-3.4741682245
 10
21.3076755215
 20
-3.5135326573
 10
21.3013402747
 20
-3.552060211
 10
21.297640163
 20
-3.5895254722
 10
21.2967742729
 20
-3.6256833799
  0
LWPOLYLINE
  5
2BC
100
AcDbEntity
  8
DRAFT
100
AcDbPolyline
 62
7
  6
CONTINUOUS
 90
10
 70
0
 10
24.8190954162
 20
-4.3431694548
 10
24.8096471103
 20
-4.3487617733
 10
24.7863985599
 20
-4.3663437612
 10
24.7659291316
 20
-4.3877003185
 10
24.7482468551
 20
-4.4129844352
 10
24.7333437007
 20
-4.4420431212
 10
24.7216806931
 20
-4.4740208158
 10
24.7134115071
 20
-4.508632332
 10
24.7083824678
 20
-4.5461628568
 10
24.7065935753
 20
-4.5866123902
  0
LINE
  5
2BD
100
AcDbEntity
  8
DRAFT
100
AcDbLine
 62
7
  6
CONTINUOUS
 10
23.6656815552
 20
-4.1768940171
 11
23.0181771168
 21
-4.5507537251
  0
LINE
  5
2BE
100
AcDbEntity
  8
DRAFT
100
AcDbLine
 62
250
  6
CONTINUOUS
 10
24.7065935753
 20
-4.5866123902
 11
25.0858135153
 21
-4.3751682271
  0
LWPOLYLINE
  5
2BF
100
AcDbEntity
  8
DRAFT
100
AcDbPolyline
 62
7
  6
CONTINUOUS
 90
15
 70
0
 10
25.2719281713
 20
-10.7288813852
 10
25.169160933
 20
-10.5743279373
 10
25.0711137943
 20
-10.4159731704
 10
24.9780999248
 20
-10.2543067789
 10
24.8903781433
 20
-10.0897532351
 10
24.8082752731
 20
-9.9228986622
 10
24.7321584015
 20
-9.7544983499
 10
24.6623272488
 20
-9.5852820208
 10
24.5988896843
 20
-9.4155834405
 10
24.5419113556
 20
-9.2455708695
 10
24.4915196548
 20
-9.0755071572
 10
24.4479925246
 20
-8.9061971237
 10
24.4115778647
 20
-8.7386137356
 10
24.3824070268
 20
-8.5735790613
 10
24.3604662732
 20
-8.4112855492
  0
LWPOLYLINE
  5
2C0
100
AcDbEntity
  8
DRAFT
100
AcDbPolyline
 62
7
  6
CONTINUOUS
 90
10
 70
0
 10
26.25706753
 20
-9.8611644501
 10
26.2759701379
 20
-9.8912787794
 10
26.2950433092
 20
-9.9212553972
 10
26.3142870441
 20
-9.9510943035
 10
26.3337035353
 20
-9.9807988086
 10
26.3532905899
 20
-10.0103656021
 10
26.3730416294
 20
-10.0397847536
 10
26.3929544607
 20
-10.0690529529
 10
26.4130312768
 20
-10.0981735101
 10
26.4332720777
 20
-10.1271464252
  0
LWPOLYLINE
  5
2C1
100
AcDbEntity
  8
DRAFT
100
AcDbPolyline
 62
7
  6
CONTINUOUS
 90
20
 70
0
 10
25.6951414361
 20
-10.1785534821
 10
25.5981097702
 20
-10.0167564628
 10
25.5068140689
 20
-9.8527474109
 10
25.4212543323
 20
-9.6865263263
 10
25.3411258164
 20
-9.517370715
 10
25.2667332652
 20
-9.346003071
 10
25.19899091
 20
-9.1745908769
 10
25.1381078547
 20
-9.0035549301
 10
25.0838749954
 20
-8.8324744331
 10
25.0365792513
 20
-8.6622544765
 10
24.9961658776
 20
-8.4924835214
 10
24.9626896191
 20
-8.3235731066
 10
24.936601629
 20
-8.1576629392
 10
24.9180348103
 20
-7.9950342792
 10
24.90685626
 20
-7.8354058667
 10
24.9031184223
 20
-7.6800736283
 10
24.90685626
 20
-7.5290577512
 10
24.9180348103
 20
-7.3823380483
 10
24.936601629
 20
-7.2411498852
 10
24.9626896191
 20
-7.1053654749
  0
LWPOLYLINE
  5
2C2
100
AcDbEntity
  8
DRAFT
100
AcDbPolyline
 62
7
  6
CONTINUOUS
 90
9
 70
0
 10
24.8529225099
 20
-7.1734477843
 10
24.8680130815
 20
-7.1629943442
 10
24.8815769473
 20
-7.1514773062
 10
24.8946208594
 20
-7.138268547
 10
24.9072626888
 20
-7.1233018087
 10
24.9193587788
 20
-7.1068249139
 10
24.9308612442
 20
-7.0889204702
 10
24.9418179702
 20
-7.0695058701
 10
24.952228957
 20
-7.0485811134
  0
LINE
  5
2C3
100
AcDbEntity
  8
DRAFT
100
AcDbLine
 62
7
  6
CONTINUOUS
 10
25.6771750659
 20
-6.1447993579
 11
25.2719281713
 21
-6.3868466227
  0
LWPOLYLINE
  5
2C4
100
AcDbEntity
  8
DRAFT
100
AcDbPolyline
 62
7
  6
CONTINUOUS
 90
10
 70
0
 10
26.9404157597
 20
-5.5679932348
 10
26.9309674538
 20
-5.5735855533
 10
26.9077189034
 20
-5.5911675412
 10
26.8872494752
 20
-5.6125240985
 10
26.8695671986
 20
-5.6378082151
 10
26.8546640442
 20
-5.6668669012
 10
26.8430010366
 20
-5.6988445958
 10
26.8347318506
 20
-5.733456112
 10
26.8297028114
 20
-5.7709866368
 10
26.8279139189
 20
-5.8114361702
  0
LINE
  5
2C5
100
AcDbEntity
  8
RACCORDO
100
AcDbLine
 62
7
  6
CONTINUOUS
 10
23.088887795
 20
-7.9518646879
 11
23.0181771168
 21
-7.9926922874
  0
LINE
  5
2C6
100
AcDbEntity
  8
DRAFT
100
AcDbLine
 62
7
  6
CONTINUOUS
 10
30.7877118935
 20
-5.793199994
 11
29.6760891953
 21
-6.4353490327
  0
LINE
  5
2C7
100
AcDbEntity
  8
DRAFT
100
AcDbLine
 62
7
  6
CONTINUOUS
 10
30.086255987
 20
-4.6536747166
 11
28.9725268313
 21
-5.2942976924
  0
LINE
  5
2C8
100
AcDbEntity
  8
DRAFT
100
AcDbLine
 62
250
  6
CONTINUOUS
 10
26.8279139189
 20
-5.8114361702
 11
27.2071338589
 21
-5.599992007
  0
LINE
  5
2C9
100
AcDbEntity
  8
DRAFT
100
AcDbLine
 62
7
  6
CONTINUOUS
 10
23.6656815552
 20
-8.2848981761
 11
23.0181771168
 21
-8.633105109
  0
LINE
  5
2CA
100
AcDbEntity
  8
DRAFT
100
AcDbLine
 62
7
  6
CONTINUOUS
 10
27.2834139388
 20
-6.5642683793
 11
26.8279139189
 21
-6.8092215494
  0
LWPOLYLINE
  5
2CB
100
AcDbEntity
  8
DRAFT
100
AcDbPolyline
 62
250
  6
CONTINUOUS
 90
34
 70
0
 10
24.7065935753
 20
-7.0318290788
 10
24.626843816
 20
-7.0730430056
 10
24.5514372328
 20
-7.1207614597
 10
24.4803738257
 20
-7.1749844412
 10
24.4135011352
 20
-7.2358977683
 10
24.3509716208
 20
-7.3033156227
 10
24.2932426613
 20
-7.3766805495
 10
24.2403554592
 20
-7.4560246832
 10
24.192268812
 20
-7.5413158893
 10
24.1493164903
 20
-7.6319003088
 10
24.1115317104
 20
-7.7278131293
 10
24.078881256
 20
-7.8290191632
 10
24.0515992493
 20
-7.9347589887
 10
24.0297217643
 20
-8.0450688389
 10
24.0132127269
 20
-8.1599124807
 10
24.0021980369
 20
-8.2784217929
 10
23.9967180492
 20
-8.4006277516
 10
23.9967324088
 20
-8.5264993807
 10
24.0022459508
 20
-8.6550756296
 10
24.0133008089
 20
-8.7863790598
 10
24.0298548494
 20
-8.9203871099
 10
24.0517865059
 20
-9.0560710452
 10
24.0791369541
 20
-9.1934434328
 10
24.1118650183
 20
-9.3324917055
 10
24.1497256052
 20
-9.4721494268
 10
24.1927585121
 20
-9.6124228341
 10
24.2409239417
 20
-9.7533056901
 10
24.2938574091
 20
-9.8937128455
 10
24.3515953625
 20
-10.0336404418
 10
24.4141013538
 20
-10.1730923377
 10
24.4809015537
 20
-10.3109949596
 10
24.551838019
 20
-10.4469904496
 10
24.6270686929
 20
-10.5814366658
 10
24.7065935753
 20
-10.7143336079
  0
LINE
  5
2CC
100
AcDbEntity
  8
RACCORDO
100
AcDbLine
 62
250
  6
CONTINUOUS
 10
25.3032700098
 20
-9.4301676244
 11
25.4126699388
 21
-9.3736198638
  0
LWPOLYLINE
  5
2CD
100
AcDbEntity
  8
RACCORDO
100
AcDbPolyline
 62
7
  6
CONTINUOUS
 90
9
 70
0
 10
25.2705443297
 20
-9.3547820835
 10
25.283564403
 20
-9.3496288309
 10
25.2997855354
 20
-9.3459675172
 10
25.3170185667
 20
-9.3447081362
 10
25.3352250617
 20
-9.3458223607
 10
25.3539399531
 20
-9.3492742407
 10
25.3730082186
 20
-9.3550517928
 10
25.3925848805
 20
-9.3631670006
 10
25.4126699388
 20
-9.3736198638
  0
LINE
  5
2CE
100
AcDbEntity
  8
DRAFT
100
AcDbLine
 62
250
  6
CONTINUOUS
 10
27.6584920926
 20
-8.827646201
 11
27.5745170034
 21
-8.6877321226
  0
LWPOLYLINE
  5
2CF
100
AcDbEntity
  8
RACCORDO
100
AcDbPolyline
 62
7
  6
CONTINUOUS
 90
27
 70
0
 10
27.6000160531
 20
-8.8008701905
 10
27.6362069774
 20
-8.8631581501
 10
27.7211305261
 20
-9.0179715744
 10
27.8003141963
 20
-9.1751562778
 10
27.8734608477
 20
-9.3341046604
 10
27.9402835256
 20
-9.4941651765
 10
28.0005118165
 20
-9.6546377939
 10
28.0539325305
 20
-9.8148742723
 10
28.1003677188
 20
-9.974237304
 10
28.1396569824
 20
-10.1320301142
 10
28.171689833
 20
-10.2875951541
 10
28.1964025258
 20
-10.440335432
 10
28.2137598927
 20
-10.5896345367
 10
28.2237616645
 20
-10.7348177621
 10
28.2264606323
 20
-10.8753868671
 10
28.2219269557
 20
-11.0109581766
 10
28.2102709941
 20
-11.1408311736
 10
28.1916272839
 20
-11.2646276448
 10
28.1660507432
 20
-11.3823355029
 10
28.1337496415
 20
-11.4931861469
 10
28.0948630068
 20
-11.596905675
 10
28.0491405985
 20
-11.6939375015
 10
27.9965553486
 20
-11.7838083304
 10
27.937310099
 20
-11.8657347937
 10
27.8712687361
 20
-11.9394823207
 10
27.7983651805
 20
-12.0046185509
 10
27.7110191099
 20
-12.0652541555
  0
LWPOLYLINE
  5
2D0
100
AcDbEntity
  8
DRAFT
100
AcDbPolyline
 62
7
  6
CONTINUOUS
 90
7
 70
0
 10
27.6000241486
 20
-8.8008604952
 10
27.5938209909
 20
-8.7891363006
 10
27.5872999339
 20
-8.7732346596
 10
27.5820763058
 20
-8.7551587051
 10
27.5782591095
 20
-8.734857491
 10
27.575739342
 20
-8.7123819635
 10
27.5745170034
 20
-8.6877321226
  0
LWPOLYLINE
  5
2D1
100
AcDbEntity
  8
DRAFT
100
AcDbPolyline
 62
7
  6
CONTINUOUS
 90
3
 70
0
 10
24.3604662732
 20
-20.6583397011
 10
24.3457602527
 20
-20.4988147155
 10
24.3438283421
 20
-20.4579419388
  0
LINE
  5
2D2
100
AcDbEntity
  8
RACCORDO
100
AcDbLine
 62
250
  6
CONTINUOUS
 10
21.2967742729
 20
-3.6256833799
 11
21.2967742729
 21
-27.0730833533
  0
LINE
  5
2D3
100
AcDbEntity
  8
RACCORDO
100
AcDbLine
 62
250
  6
CONTINUOUS
 10
21.9728021449
 20
-3.6158088163
 11
21.9728021449
 21
-27.0632087897
  0
LINE
  5
2D4
100
AcDbEntity
  8
DRAFT
100
AcDbLine
 62
7
  6
CONTINUOUS
 10
23.0181771168
 20
-4.5507537251
 11
23.0181771168
 21
-8.633105109
  0
LINE
  5
2D5
100
AcDbEntity
  8
DRAFT
100
AcDbLine
 62
7
  6
CONTINUOUS
 10
23.0181771168
 20
-24.9625106449
 11
23.0181771168
 21
-20.8801592609
  0
LINE
  5
2D6
100
AcDbEntity
  8
DRAFT
100
AcDbLine
 62
7
  6
CONTINUOUS
 10
23.088887795
 20
-4.5099264011
 11
23.088887795
 21
-7.9518646879
  0
LINE
  5
2D7
100
AcDbEntity
  8
DRAFT
100
AcDbLine
 62
7
  6
CONTINUOUS
 10
23.088887795
 20
-20.839331937
 11
23.088887795
 21
-24.2812702237
  0
LINE
  5
2D8
100
AcDbEntity
  8
DRAFT
100
AcDbLine
 62
7
  6
CONTINUOUS
 10
25.2667332652
 20
-6.4340374918
 11
25.3411258164
 21
-6.3485765013
  0
LINE
  5
2D9
100
AcDbEntity
  8
DRAFT
100
AcDbLine
 62
7
  6
CONTINUOUS
 10
26.4332720777
 20
-10.6341000161
 11
25.6380434248
 21
-11.0932535513
  0
LINE
  5
2DA
100
AcDbEntity
  8
DRAFT
100
AcDbLine
 62
7
  6
CONTINUOUS
 10
24.7065935753
 20
-12.1617649172
 11
25.1620935952
 21
-11.8987657865
  0
LINE
  5
2DB
100
AcDbEntity
  8
DRAFT
100
AcDbLine
 62
7
  6
CONTINUOUS
 10
25.6951414361
 20
-10.1785534821
 11
26.25706753
 21
-9.8611644501
  0
LINE
  5
2DC
100
AcDbEntity
  8
DRAFT
100
AcDbLine
 62
7
  6
CONTINUOUS
 10
26.4332720777
 20
-10.1271464252
 11
25.2719281713
 21
-10.7288813852
  0
LWPOLYLINE
  5
2DD
100
AcDbEntity
  8
DRAFT
100
AcDbPolyline
 62
7
  6
CONTINUOUS
 90
3
 70
0
 10
24.3604662732
 20
-8.4112855492
 10
24.3457602527
 20
-8.2517605636
 10
24.3438283421
 20
-8.2108877869
  0
LWPOLYLINE
  5
2DE
100
AcDbEntity
  8
DRAFT
100
AcDbPolyline
 62
7
  6
CONTINUOUS
 90
17
 70
0
 10
24.7065935753
 20
-19.2788832307
 10
24.7078601875
 20
-19.3036019171
 10
24.7104802842
 20
-19.3261716527
 10
24.7144538656
 20
-19.3465924375
 10
24.7198945917
 20
-19.3648203305
 10
24.7266888025
 20
-19.3808992726
 10
24.7344955174
 20
-19.394961087
 10
24.7432866791
 20
-19.4070825072
 10
24.7530903448
 20
-19.4171867998
 10
24.7636497058
 20
-19.4251755873
 10
24.7749623017
 20
-19.4310566902
 10
24.787030593
 20
-19.4348222881
 10
24.799605152
 20
-19.4363505421
 10
24.8127382834
 20
-19.4355902873
 10
24.8263776826
 20
-19.4325926888
 10
24.8401170075
 20
-19.4273894029
 10
24.8529224252
 20
-19.4204999705
  0
LWPOLYLINE
  5
2DF
100
AcDbEntity
  8
DRAFT
100
AcDbPolyline
 62
7
  6
CONTINUOUS
 90
17
 70
0
 10
24.7065935753
 20
-7.0318290788
 10
24.7078597216
 20
-7.0565459061
 10
24.7104795318
 20
-7.0791145152
 10
24.7144530059
 20
-7.0995349061
 10
24.7198930776
 20
-7.1177629809
 10
24.7266868133
 20
-7.1338428375
 10
24.734495412
 20
-7.1479067691
 10
24.7432929424
 20
-7.1600330673
 10
24.7531053359
 20
-7.1701434405
 10
24.7636715859
 20
-7.1781353075
 10
24.7749862341
 20
-7.1840146534
 10
24.7870547388
 20
-7.1877754932
 10
24.799632468
 20
-7.1892972901
 10
24.8127758904
 20
-7.1885283759
 10
24.8264285373
 20
-7.1855204189
 10
24.8401763703
 20
-7.1803078866
 10
24.8529225099
 20
-7.1734477843
  0
LWPOLYLINE
  5
2E0
100
AcDbEntity
  8
DRAFT
100
AcDbPolyline
 62
7
  6
CONTINUOUS
 90
26
 70
0
 10
24.7065935753
 20
-25.4066044484
 10
24.7083824678
 20
-25.4491197499
 10
24.7134115071
 20
-25.4924576832
 10
24.7216806931
 20
-25.5366182481
 10
24.7333437007
 20
-25.5820640916
 10
24.7482468551
 20
-25.6283325668
 10
24.7659291316
 20
-25.6740357332
 10
24.7863985599
 20
-25.7190298731
 10
24.8096471103
 20
-25.7634587043
 10
24.8351896697
 20
-25.8063654394
 10
24.8632081544
 20
-25.8478794524
 10
24.8935206481
 20
-25.8878713692
 10
24.9250962885
 20
-25.9249962805
 10
24.9577986949
 20
-25.9589990938
 10
24.9917642481
 20
-25.9901349015
 10
25.0263712279
 20
-26.017824071
 10
25.0618400121
 20
-26.0421202924
 10
25.097950223
 20
-26.0629698756
 10
25.1334190072
 20
-26.0796321171
 10
25.1680259871
 20
-26.0919062205
 10
25.2019915402
 20
-26.0999929822
 10
25.2346939467
 20
-26.1037540881
 10
25.2662695871
 20
-26.103091935
 10
25.2965820808
 20
-26.098104126
 10
25.3246005655
 20
-26.0889451569
 10
25.3471978265
 20
-26.0773665154
  0
LWPOLYLINE
  5
2E1
100
AcDbEntity
  8
DRAFT
100
AcDbPolyline
 62
7
  6
CONTINUOUS
 90
26
 70
0
 10
25.4531966598
 20
-5.017691654
 10
25.4514077673
 20
-4.9751763525
 10
25.4463787281
 20
-4.9318384192
 10
25.4381095421
 20
-4.8876778543
 10
25.4264465345
 20
-4.8422320108
 10
25.4115433801
 20
-4.7959635356
 10
25.3938611035
 20
-4.7502603692
 10
25.3733916753
 20
-4.7052662293
 10
25.3501431249
 20
-4.6608373981
 10
25.3246005655
 20
-4.6179306631
 10
25.2965820808
 20
-4.5764166501
 10
25.2662695871
 20
-4.5364247332
 10
25.2346939467
 20
-4.499299822
 10
25.2019915402
 20
-4.4652970086
 10
25.1680259871
 20
-4.4341612009
 10
25.1334190072
 20
-4.4064720314
 10
25.097950223
 20
-4.38217581
 10
25.0618400121
 20
-4.3613262268
 10
25.0263712279
 20
-4.3446639853
 10
24.9917642481
 20
-4.3323898819
 10
24.9577986949
 20
-4.3243031202
 10
24.9250962885
 20
-4.3205420143
 10
24.8935206481
 20
-4.3212041674
 10
24.8632081544
 20
-4.3261919764
 10
24.8351896697
 20
-4.3353509456
 10
24.8190954162
 20
-4.3431694548
  0
LWPOLYLINE
  5
2E2
100
AcDbEntity
  8
DRAFT
100
AcDbPolyline
 62
7
  6
CONTINUOUS
 90
26
 70
0
 10
26.8279139189
 20
-26.6314282284
 10
26.8297028114
 20
-26.6739435299
 10
26.8347318506
 20
-26.7172814632
 10
26.8430010366
 20
-26.7614420281
 10
26.8546640442
 20
-26.8068878716
 10
26.8695671986
 20
-26.8531563468
 10
26.8872494752
 20
-26.8988595132
 10
26.9077189034
 20
-26.9438536531
 10
26.9309674538
 20
-26.9882824843
 10
26.9565100132
 20
-27.0311892193
 10
26.9845284979
 20
-27.0727032323
 10
27.0148409916
 20
-27.1126951492
 10
27.046416632
 20
-27.1498200605
 10
27.0791190385
 20
-27.1838228738
 10
27.1130845917
 20
-27.2149586815
 10
27.1476915715
 20
-27.242647851
 10
27.1831603557
 20
-27.2669440724
 10
27.2192705666
 20
-27.2877936556
 10
27.2547393508
 20
-27.3044558971
 10
27.2893463306
 20
-27.3167300005
 10
27.3233118838
 20
-27.3248167622
 10
27.3560142902
 20
-27.3285778681
 10
27.3875899307
 20
-27.327915715
 10
27.4179024243
 20
-27.322927906
 10
27.4459209091
 20
-27.3137689368
 10
27.4685181701
 20
-27.3021902954
  0
LWPOLYLINE
  5
2E3
100
AcDbEntity
  8
DRAFT
100
AcDbPolyline
 62
250
  6
CONTINUOUS
 90
15
 70
0
 10
24.3374329973
 20
-20.6281994734
 10
24.3383143687
 20
-20.6980192151
 10
24.3454000378
 20
-20.8410057076
 10
24.3595576698
 20
-20.9873349086
 10
24.3807419515
 20
-21.1365372072
 10
24.408915077
 20
-21.2882542227
 10
24.4440061749
 20
-21.4419762154
 10
24.4859150426
 20
-21.597161148
 10
24.5345611956
 20
-21.7533977199
 10
24.5899964108
 20
-21.910631389
 10
24.6519198113
 20
-22.0678133905
 10
24.7195401862
 20
-22.2230492104
 10
24.7922826106
 20
-22.3753777889
 10
24.8699691719
 20
-22.5247544303
 10
24.952228957
 20
-22.6707146454
  0
LWPOLYLINE
  5
2E4
100
AcDbEntity
  8
DRAFT
100
AcDbPolyline
 62
250
  6
CONTINUOUS
 90
15
 70
0
 10
24.3374329973
 20
-8.3811453215
 10
24.3383235296
 20
-8.4513295519
 10
24.3454364301
 20
-8.5944466239
 10
24.3596364642
 20
-8.740939104
 10
24.3808756083
 20
-8.8902974672
 10
24.409077665
 20
-9.0419847305
 10
24.4441420826
 20
-9.1954671882
 10
24.4859467312
 20
-9.3502159843
 10
24.534344749
 20
-9.5056913028
 10
24.5891652676
 20
-9.661348525
 10
24.6502175885
 20
-9.8166499641
 10
24.7172927362
 20
-9.9710653283
 10
24.7901591207
 20
-10.1240607834
 10
24.8685620603
 20
-10.2751009512
 10
24.952228957
 20
-10.4236604935
  0
LINE
  5
2E5
100
AcDbEntity
  8
RACCORDO
100
AcDbLine
 62
7
  6
CONTINUOUS
 10
23.6656815552
 20
-2.6383647026
 11
23.6656815552
 21
-4.1768940171
  0
LINE
  5
2E6
100
AcDbEntity
  8
DRAFT
100
AcDbLine
 62
7
  6
CONTINUOUS
 10
23.6656815552
 20
-8.2848981761
 11
23.6656815552
 21
-20.506299553
  0
LINE
  5
2E7
100
AcDbEntity
  8
RACCORDO
100
AcDbLine
 62
7
  6
CONTINUOUS
 10
23.6656815552
 20
-24.614303712
 11
23.6656815552
 21
-26.1528330266
  0
LINE
  5
2E8
100
AcDbEntity
  8
DRAFT
100
AcDbLine
 62
7
  6
CONTINUOUS
 10
24.7065935753
 20
-10.7143336079
 11
24.7065935753
 21
-12.1617649172
  0
LINE
  5
2E9
100
AcDbEntity
  8
DRAFT
100
AcDbLine
 62
7
  6
CONTINUOUS
 10
24.7065935753
 20
-17.8314519214
 11
24.7065935753
 21
-19.2788832307
  0
LINE
  5
2EA
100
AcDbEntity
  8
DRAFT
100
AcDbLine
 62
7
  6
CONTINUOUS
 10
24.7065935753
 20
-25.4066044484
 11
24.7065935753
 21
-22.9613877598
  0
LINE
  5
2EB
100
AcDbEntity
  8
DRAFT
100
AcDbLine
 62
7
  6
CONTINUOUS
 10
24.7065935753
 20
-7.0318290788
 11
24.7065935753
 21
-4.5866123902
  0
LINE
  5
2EC
100
AcDbEntity
  8
DRAFT
100
AcDbLine
 62
7
  6
CONTINUOUS
 10
25.4531966598
 20
-25.8376837122
 11
25.4531966598
 21
-24.839898333
  0
LINE
  5
2ED
100
AcDbEntity
  8
DRAFT
100
AcDbLine
 62
7
  6
CONTINUOUS
 10
25.4531966598
 20
-6.0154770333
 11
25.4531966598
 21
-5.017691654
  0
LINE
  5
2EE
100
AcDbEntity
  8
DRAFT
100
AcDbLine
 62
7
  6
CONTINUOUS
 10
25.8577125769
 20
-23.9959969717
 11
25.8577125769
 21
-24.589739622
  0
LWPOLYLINE
  5
2EF
100
AcDbEntity
  8
RACCORDO
100
AcDbPolyline
 62
7
  6
CONTINUOUS
 90
15
 70
0
 10
24.3374329973
 20
-8.3811453215
 10
24.3401844014
 20
-8.2619316471
 10
24.3484100225
 20
-8.1467081856
 10
24.3620462484
 20
-8.0358634332
 10
24.3809668715
 20
-7.9299359638
 10
24.4050764907
 20
-7.8290717036
 10
24.4343921187
 20
-7.73313016
 10
24.4687681797
 20
-7.6426157937
 10
24.5081245225
 20
-7.5577367789
 10
24.552738518
 20
-7.4781268556
 10
24.6026935554
 20
-7.4040748844
 10
24.6578463105
 20
-7.3361773947
 10
24.7182926703
 20
-7.2746640836
 10
24.7840935736
 20
-7.2198526267
 10
24.8529250606
 20
-7.1735075828
  0
LWPOLYLINE
  5
2F0
100
AcDbEntity
  8
RACCORDO
100
AcDbPolyline
 62
7
  6
CONTINUOUS
 90
15
 70
0
 10
24.3374329973
 20
-20.6281994734
 10
24.3401844014
 20
-20.508985799
 10
24.3484100225
 20
-20.3937623375
 10
24.3620462484
 20
-20.2829175851
 10
24.3809668715
 20
-20.1769901157
 10
24.4050764907
 20
-20.0761258555
 10
24.4343921187
 20
-19.9801843119
 10
24.4687681797
 20
-19.8896699456
 10
24.5081245225
 20
-19.8047909308
 10
24.552738518
 20
-19.7251810075
 10
24.6026935554
 20
-19.6511290363
 10
24.6578463105
 20
-19.5832315466
 10
24.7182926703
 20
-19.5217182355
 10
24.7840935736
 20
-19.4669067786
 10
24.8529250606
 20
-19.4205617347
  0
LWPOLYLINE
  5
2F1
100
AcDbEntity
  8
RACCORDO
100
AcDbPolyline
 62
250
  6
CONTINUOUS
 90
11
 70
0
 10
21.9728021449
 20
-27.0632087897
 10
21.970934068
 20
-27.0982915285
 10
21.9664378424
 20
-27.1315274968
 10
21.9593476738
 20
-27.1626638468
 10
21.9497175017
 20
-27.191463704
 10
21.9376205891
 20
-27.217707969
 10
21.9231489652
 20
-27.2411969843
 10
21.9064127252
 20
-27.2617520538
 10
21.8875391924
 20
-27.2792168016
 10
21.8666719504
 20
-27.2934583618
 10
21.8622859518
 20
-27.2959029368
  0
LINE
  5
2F2
100
AcDbEntity
  8
DRAFT
100
AcDbLine
 62
7
  6
CONTINUOUS
 10
24.9626896191
 20
-7.1053654749
 11
24.9961658776
 21
-6.9751126043
  0
LINE
  5
2F3
100
AcDbEntity
  8
DRAFT
100
AcDbLine
 62
7
  6
CONTINUOUS
 10
24.9961658776
 20
-6.9751126043
 11
25.0188621072
 21
-6.9059779416
  0
LINE
  5
2F4
100
AcDbEntity
  8
DRAFT
100
AcDbLine
 62
7
  6
CONTINUOUS
 10
24.952228957
 20
-7.0485811134
 11
25.0170233347
 21
-6.9098553764
  0
LINE
  5
2F5
100
AcDbEntity
  8
DRAFT
100
AcDbLine
 62
7
  6
CONTINUOUS
 10
25.0170233347
 20
-6.9098553764
 11
25.0853775008
 21
-6.7664193972
  0
LINE
  5
2F6
100
AcDbEntity
  8
DRAFT
100
AcDbLine
 62
7
  6
CONTINUOUS
 10
25.0853775008
 20
-6.7664193972
 11
25.1572992988
 21
-6.6182408732
  0
LWPOLYLINE
  5
2F7
100
AcDbEntity
  8
DRAFT
100
AcDbPolyline
 62
7
  6
CONTINUOUS
 90
3
 70
0
 10
25.1572992988
 20
-6.6182408732
 10
25.2328201029
 20
-6.4651905945
 10
25.2719281713
 20
-6.3868466227
  0
LINE
  5
2F8
100
AcDbEntity
  8
DRAFT
100
AcDbLine
 62
7
  6
CONTINUOUS
 10
25.20872096
 20
-6.5138380512
 11
25.2667332652
 21
-6.4340374918
  0
LINE
  5
2F9
100
AcDbEntity
  8
DRAFT
100
AcDbLine
 62
7
  6
CONTINUOUS
 10
26.6265450604
 20
-10.7456934141
 11
26.3598079379
 21
-10.9297041921
  0
LINE
  5
2FA
100
AcDbEntity
  8
DRAFT
100
AcDbLine
 62
7
  6
CONTINUOUS
 10
30.7877118935
 20
-9.8530587321
 11
31.1350939868
 21
-9.6524839765
  0
LWPOLYLINE
  5
2FB
100
AcDbEntity
  8
DRAFT
100
AcDbPolyline
 62
250
  6
CONTINUOUS
 90
30
 70
0
 10
27.5745170034
 20
-12.3702366517
 10
27.662050321
 20
-12.3245093364
 10
27.7443030348
 20
-12.2709242903
 10
27.8212751447
 20
-12.2094815133
 10
27.8931742362
 20
-12.1399315909
 10
27.9597927239
 20
-12.0625239376
 10
28.0205078515
 20
-11.9780067974
 10
28.0752606247
 20
-11.8863103909
 10
28.1241100379
 20
-11.7875044975
 10
28.1666103168
 20
-11.6825466996
 10
28.2026977678
 20
-11.5713888198
 10
28.2324360845
 20
-11.4540790355
 10
28.255570574
 20
-11.3317194613
 10
28.2720425762
 20
-11.2042731157
 10
28.2819107511
 20
-11.0717769801
 10
28.2850963859
 20
-10.9354441141
 10
28.2815485879
 20
-10.7952639678
 10
28.2713182497
 20
-10.651247091
 10
28.254479337
 20
-10.504638192
 10
28.2310086961
 20
-10.355475111
 10
28.2009294807
 20
-10.2037200079
 10
28.1643851167
 20
-10.0505040704
 10
28.1212622272
 20
-9.8956161305
 10
28.0716741892
 20
-9.7392673561
 10
28.0161045593
 20
-9.5832224394
 10
27.9541042809
 20
-9.4269263226
 10
27.8861224107
 20
-9.2709340633
 10
27.8139896752
 20
-9.1186755272
 10
27.7383163166
 20
-8.9712940025
 10
27.6584920926
 20
-8.827646201
  0
LWPOLYLINE
  5
2FC
100
AcDbEntity
  8
DRAFT
100
AcDbPolyline
 62
7
  6
CONTINUOUS
 90
26
 70
0
 10
27.5745170034
 20
-6.242515434
 10
27.5727281109
 20
-6.2000001325
 10
27.5676990717
 20
-6.1566621992
 10
27.5594298857
 20
-6.1125016343
 10
27.547766878
 20
-6.0670557908
 10
27.5328637237
 20
-6.0207873156
 10
27.5151814471
 20
-5.9750841492
 10
27.4947120189
 20
-5.9300900093
 10
27.4714634684
 20
-5.8856611781
 10
27.4459209091
 20
-5.842754443
 10
27.4179024243
 20
-5.8012404301
 10
27.3875899307
 20
-5.7612485132
 10
27.3560142902
 20
-5.7241236019
 10
27.3233118838
 20
-5.6901207886
 10
27.2893463306
 20
-5.6589849809
 10
27.2547393508
 20
-5.6312958114
 10
27.2192705666
 20
-5.60699959
 10
27.1831603557
 20
-5.5861500068
 10
27.1476915715
 20
-5.5694877653
 10
27.1130845917
 20
-5.5572136619
 10
27.0791190385
 20
-5.5491269002
 10
27.046416632
 20
-5.5453657943
 10
27.0148409916
 20
-5.5460279474
 10
26.9845284979
 20
-5.5510157564
 10
26.9565100132
 20
-5.5601747256
 10
26.9404157597
 20
-5.5679932348
  0
LINE
  5
2FD
100
AcDbEntity
  8
DRAFT
100
AcDbLine
 62
7
  6
CONTINUOUS
 10
26.4332720777
 20
-10.1271464252
 11
26.4332720777
 21
-10.6341000161
  0
LINE
  5
2FE
100
AcDbEntity
  8
DRAFT
100
AcDbLine
 62
7
  6
CONTINUOUS
 10
26.4332720777
 20
-22.3742005771
 11
26.4332720777
 21
-23.6214522855
  0
LINE
  5
2FF
100
AcDbEntity
  8
DRAFT
100
AcDbLine
 62
7
  6
CONTINUOUS
 10
26.8279139189
 20
-5.8114361702
 11
26.8279139189
 21
-6.8092215494
  0
LINE
  5
300
100
AcDbEntity
  8
DRAFT
100
AcDbLine
 62
7
  6
CONTINUOUS
 10
26.8279139189
 20
-25.6336428491
 11
26.8279139189
 21
-26.6314282284
  0
LINE
  5
301
100
AcDbEntity
  8
DRAFT
100
AcDbLine
 62
7
  6
CONTINUOUS
 10
27.5745170034
 20
-6.242515434
 11
27.5745170034
 21
-8.6877321226
  0
LINE
  5
302
100
AcDbEntity
  8
DRAFT
100
AcDbLine
 62
7
  6
CONTINUOUS
 10
27.5745170034
 20
-20.9347862745
 11
27.5745170034
 21
-19.4873549652
  0
LINE
  5
303
100
AcDbEntity
  8
DRAFT
100
AcDbLine
 62
7
  6
CONTINUOUS
 10
27.5745170034
 20
-24.6172908036
 11
27.5745170034
 21
-27.0625074922
  0
LINE
  5
304
100
AcDbEntity
  8
DRAFT
100
AcDbLine
 62
7
  6
CONTINUOUS
 10
27.5745170034
 20
-13.817667961
 11
27.5745170034
 21
-12.3702366517
  0
LWPOLYLINE
  5
305
100
AcDbEntity
  8
DRAFT
100
AcDbPolyline
 62
7
  6
CONTINUOUS
 90
17
 70
0
 10
27.5745170034
 20
-12.3702366517
 10
27.5757401565
 20
-12.3440804061
 10
27.5782703545
 20
-12.3185369548
 10
27.5821075974
 20
-12.293606298
 10
27.5873616456
 20
-12.2692033764
 10
27.5939227387
 20
-12.2454132491
 10
27.6014615956
 20
-12.2224910939
 10
27.6099511217
 20
-12.2003920211
 10
27.6194184117
 20
-12.1791609203
 10
27.6296154681
 20
-12.1591876375
 10
27.640539915
 20
-12.1404671448
 10
27.6521941284
 20
-12.12300447
 10
27.6643372388
 20
-12.1072045434
 10
27.6770197565
 20
-12.0930591659
 10
27.6901911712
 20
-12.0805765366
 10
27.703459083
 20
-12.0701861824
 10
27.7110191619
 20
-12.065286218
  0
LWPOLYLINE
  5
306
100
AcDbEntity
  8
DRAFT
100
AcDbPolyline
 62
7
  6
CONTINUOUS
 90
17
 70
0
 10
27.5745170034
 20
-24.6172908036
 10
27.5757397066
 20
-24.5911369458
 10
27.5782696279
 20
-24.5655949463
 10
27.5821067673
 20
-24.5406648051
 10
27.5873601834
 20
-24.5162624443
 10
27.5939208177
 20
-24.4924719419
 10
27.6014614939
 20
-24.4695455314
 10
27.6099571702
 20
-24.4474343524
 10
27.6194328884
 20
-24.4261872652
 10
27.6296365974
 20
-24.4062030842
 10
27.6405630262
 20
-24.3874820192
 10
27.6522174457
 20
-24.3700238603
 10
27.6643636176
 20
-24.3542267928
 10
27.6770560731
 20
-24.3400783948
 10
27.690240281
 20
-24.3275910882
 10
27.7035164089
 20
-24.3172003241
 10
27.7110191619
 20
-24.3123386883
  0
LINE
  5
307
100
AcDbEntity
  8
DRAFT
100
AcDbLine
 62
7
  6
CONTINUOUS
 10
24.9626896191
 20
-19.3524196268
 11
24.9961658776
 21
-19.2221667562
  0
LINE
  5
308
100
AcDbEntity
  8
DRAFT
100
AcDbLine
 62
7
  6
CONTINUOUS
 10
25.6380434248
 20
-11.0932535513
 11
25.1620935952
 21
-11.8987657865
  0
LINE
  5
309
100
AcDbEntity
  8
DRAFT
100
AcDbLine
 62
7
  6
CONTINUOUS
 10
30.7877118935
 20
-12.3024695625
 11
31.1350939868
 21
-12.0876432652
  0
LINE
  5
30A
100
AcDbEntity
  8
DRAFT
100
AcDbLine
 62
7
  6
CONTINUOUS
 10
25.6771750659
 20
-18.3918535098
 11
25.2719281713
 21
-18.6339007746
  0
LWPOLYLINE
  5
30B
100
AcDbEntity
  8
DRAFT
100
AcDbPolyline
 62
7
  6
CONTINUOUS
 90
11
 70
0
 10
29.1698345352
 20
-17.0036096637
 10
29.2073689975
 20
-16.9839806023
 10
29.2513052262
 20
-16.9679508071
 10
29.2981805641
 20
-16.9576605359
 10
29.3472564338
 20
-16.9532561846
 10
29.3986702156
 20
-16.9548333869
 10
29.4522845291
 20
-16.962296509
 10
29.5069486557
 20
-16.9755050451
 10
29.5622790225
 20
-16.9944121598
 10
29.6186592023
 20
-17.0190646885
 10
29.6760891953
 20
-17.049462631
  0
LWPOLYLINE
  5
30C
100
AcDbEntity
  8
DRAFT
100
AcDbPolyline
 62
250
  6
CONTINUOUS
 90
31
 70
0
 10
24.7065935753
 20
-19.2788832307
 10
24.6190506804
 20
-19.3246161764
 10
24.5367896282
 20
-19.3782085569
 10
24.4598104189
 20
-19.4396603721
 10
24.3879053979
 20
-19.5092211377
 10
24.3212822197
 20
-19.5866413381
 10
24.2605638477
 20
-19.6711724263
 10
24.2058093124
 20
-19.7628842091
 10
24.1569595833
 20
-19.8617068797
 10
24.1144605324
 20
-19.9666824709
 10
24.0783758838
 20
-20.0778591605
 10
24.0486419133
 20
-20.1951887706
 10
24.0255133211
 20
-20.3175688002
 10
24.0090487952
 20
-20.4450363196
 10
23.9991896476
 20
-20.5775542585
 10
23.9960145135
 20
-20.7139089046
 10
23.999574194
 20
-20.8541102504
 10
24.009817888
 20
-20.9981483034
 10
24.0266718276
 20
-21.144779374
 10
24.0501592815
 20
-21.2939665209
 10
24.0802569809
 20
-21.4457466854
 10
24.1168213519
 20
-21.5989870022
 10
24.1599684989
 20
-21.7539036885
 10
24.2095823174
 20
-21.9102805271
 10
24.2651709193
 20
-22.0663360011
 10
24.3271849948
 20
-22.2226232864
 10
24.3951738536
 20
-22.3785892072
 10
24.467293537
 20
-22.5307927193
 10
24.5429293919
 20
-22.6780868081
 10
24.6226960714
 20
-22.8216184883
 10
24.7065935753
 20
-22.9613877598
  0
LWPOLYLINE
  5
30D
100
AcDbEntity
  8
DRAFT
100
AcDbPolyline
 62
7
  6
CONTINUOUS
 90
19
 70
0
 10
28.9725268313
 20
-5.2942976924
 10
28.9808366081
 20
-5.3658269887
 10
28.9935651258
 20
-5.4380716508
 10
29.0107123843
 20
-5.5110316789
 10
29.0324504354
 20
-5.5852000258
 10
29.0586072273
 20
-5.6600837385
 10
29.0886666049
 20
-5.7342039583
 10
29.1227074093
 20
-5.807547859
 10
29.1606507994
 20
-5.8801282666
 10
29.2017440966
 20
-5.9505048011
 10
29.2460491438
 20
-6.0186317022
 10
29.2935040981
 20
-6.0845547301
 10
29.3431707528
 20
-6.1469707846
 10
29.3950938085
 20
-6.2058108852
 10
29.4492285646
 20
-6.2611440124
 10
29.5045027123
 20
-6.3118740067
 10
29.5605588151
 20
-6.3576354816
 10
29.6177543094
 20
-6.3987938236
 10
29.6760891953
 20
-6.4353490327
  0
LINE
  5
30E
100
AcDbEntity
  8
DRAFT
100
AcDbLine
 62
7
  6
CONTINUOUS
 10
29.6760891953
 20
-29.2965167829
 11
29.6760891953
 21
-18.6824031846
  0
LINE
  5
30F
100
AcDbEntity
  8
DRAFT
100
AcDbLine
 62
7
  6
CONTINUOUS
 10
29.6760891953
 20
-17.049462631
 11
29.6760891953
 21
-6.4353490327
  0
LWPOLYLINE
  5
310
100
AcDbEntity
  8
DRAFT
100
AcDbPolyline
 62
7
  6
CONTINUOUS
 90
21
 70
0
 10
30.0811551717
 20
-16.7990063864
 10
30.0811551717
 20
-16.8264634143
 10
30.0856759795
 20
-16.8949083343
 10
30.0948266176
 20
-16.965845958
 10
30.1084980635
 20
-17.0389701278
 10
30.1263632499
 20
-17.1125149469
 10
30.1484324438
 20
-17.1862232839
 10
30.1746953782
 20
-17.2603522702
 10
30.2047941854
 20
-17.3339074032
 10
30.23889752
 20
-17.4071141189
 10
30.2768367275
 20
-17.4797469812
 10
30.317747976
 20
-17.5501351794
 10
30.361583243
 20
-17.6180527526
 10
30.4083905512
 20
-17.6837256615
 10
30.4574501369
 20
-17.7461609784
 10
30.5088907478
 20
-17.8054182251
 10
30.5625836363
 20
-17.8614378796
 10
30.6174227957
 20
-17.9130484484
 10
30.6730395574
 20
-17.9598594334
 10
30.72980259
 20
-18.0022613325
 10
30.7877118935
 20
-18.0402541459
  0
LINE
  5
311
100
AcDbEntity
  8
DRAFT
100
AcDbLine
 62
7
  6
CONTINUOUS
 10
30.7877118935
 20
-28.6093824526
 11
30.7877118935
 21
-24.5495237144
  0
LINE
  5
312
100
AcDbEntity
  8
DRAFT
100
AcDbLine
 62
7
  6
CONTINUOUS
 10
30.7877118935
 20
-22.100112884
 11
30.7877118935
 21
-18.0402541459
  0
LINE
  5
313
100
AcDbEntity
  8
DRAFT
100
AcDbLine
 62
7
  6
CONTINUOUS
 10
30.7877118935
 20
-16.3623283007
 11
30.7877118935
 21
-12.3024695625
  0
LINE
  5
314
100
AcDbEntity
  8
DRAFT
100
AcDbLine
 62
7
  6
CONTINUOUS
 10
30.7877118935
 20
-9.8530587321
 11
30.7877118935
 21
-5.793199994
  0
LINE
  5
315
100
AcDbEntity
  8
DRAFT
100
AcDbLine
 62
7
  6
CONTINUOUS
 10
31.1350939868
 20
-9.6524839765
 11
31.1350939868
 21
-12.0876432652
  0
LINE
  5
316
100
AcDbEntity
  8
DRAFT
100
AcDbLine
 62
7
  6
CONTINUOUS
 10
31.1350939868
 20
-21.8995381284
 11
31.1350939868
 21
-24.3346974171
  0
LINE
  5
317
100
AcDbEntity
  8
DRAFT
100
AcDbLine
 62
7
  6
CONTINUOUS
 10
24.9961658776
 20
-19.2221667562
 11
25.0188621072
 21
-19.1530320935
  0
LINE
  5
318
100
AcDbEntity
  8
DRAFT
100
AcDbLine
 62
7
  6
CONTINUOUS
 10
24.952228957
 20
-19.2956352653
 11
25.0170233347
 21
-19.1569095283
  0
LINE
  5
319
100
AcDbEntity
  8
DRAFT
100
AcDbLine
 62
7
  6
CONTINUOUS
 10
25.0170233347
 20
-19.1569095283
 11
25.0853775008
 21
-19.013473549
  0
LINE
  5
31A
100
AcDbEntity
  8
DRAFT
100
AcDbLine
 62
7
  6
CONTINUOUS
 10
25.0853775008
 20
-19.013473549
 11
25.1572992988
 21
-18.8652950251
  0
LWPOLYLINE
  5
31B
100
AcDbEntity
  8
DRAFT
100
AcDbPolyline
 62
7
  6
CONTINUOUS
 90
3
 70
0
 10
25.1572992988
 20
-18.8652950251
 10
25.2328201029
 20
-18.7122447464
 10
25.2719281713
 20
-18.6339007746
  0
LINE
  5
31C
100
AcDbEntity
  8
DRAFT
100
AcDbLine
 62
7
  6
CONTINUOUS
 10
25.20872096
 20
-18.7608922031
 11
25.2667332652
 21
-18.6810916437
  0
LINE
  5
31D
100
AcDbEntity
  8
DRAFT
100
AcDbLine
 62
7
  6
CONTINUOUS
 10
25.2667332652
 20
-18.6810916437
 11
25.3411258164
 21
-18.5956306532
  0
LWPOLYLINE
  5
31E
100
AcDbEntity
  8
DRAFT
100
AcDbPolyline
 62
7
  6
CONTINUOUS
 90
9
 70
0
 10
24.8529224252
 20
-19.4204999705
 10
24.8679586456
 20
-19.4100898508
 10
24.8815281948
 20
-19.3985770779
 10
24.8945771745
 20
-19.3853709237
 10
24.9072249216
 20
-19.3704046163
 10
24.9193282881
 20
-19.3539233749
 10
24.9308395582
 20
-19.3360089391
 10
24.9418064479
 20
-19.3165795692
 10
24.952228957
 20
-19.2956352653
  0
LINE
  5
31F
100
AcDbEntity
  8
DRAFT
100
AcDbLine
 62
7
  6
CONTINUOUS
 10
30.7877118935
 20
-16.3623283007
 11
29.6760891953
 21
-17.049462631
  0
LINE
  5
320
100
AcDbEntity
  8
DRAFT
100
AcDbLine
 62
7
  6
CONTINUOUS
 10
23.6656815552
 20
-20.506299553
 11
23.0181771168
 21
-20.8801592609
  0
LINE
  5
321
100
AcDbEntity
  8
DRAFT
100
AcDbLine
 62
7
  6
CONTINUOUS
 10
30.7877118935
 20
-18.0402541459
 11
29.6760891953
 21
-18.6824031846
  0
LINE
  5
322
100
AcDbEntity
  8
RACCORDO
100
AcDbLine
 62
250
  6
CONTINUOUS
 10
25.3032700097
 20
-21.6772217759
 11
25.4126699388
 21
-21.6206740157
  0
LWPOLYLINE
  5
323
100
AcDbEntity
  8
RACCORDO
100
AcDbPolyline
 62
7
  6
CONTINUOUS
 90
9
 70
0
 10
25.2705443297
 20
-21.6018362354
 10
25.283564403
 20
-21.5966829828
 10
25.2997855354
 20
-21.5930216691
 10
25.3170185667
 20
-21.5917622881
 10
25.3352250617
 20
-21.5928765126
 10
25.3539399531
 20
-21.5963283926
 10
25.3730082186
 20
-21.6021059447
 10
25.3925848805
 20
-21.6102211524
 10
25.4126699388
 20
-21.6206740157
  0
LWPOLYLINE
  5
324
100
AcDbEntity
  8
DRAFT
100
AcDbPolyline
 62
7
  6
CONTINUOUS
 90
19
 70
0
 10
30.086255987
 20
-4.6536747166
 10
30.0958054781
 20
-4.7250851222
 10
30.1095599243
 20
-4.7970887644
 10
30.1275193256
 20
-4.8696856433
 10
30.1498467097
 20
-4.9433319318
 10
30.176379049
 20
-5.017571457
 10
30.2066272604
 20
-5.0910356996
 10
30.2406605447
 20
-5.1637107109
 10
30.2784097011
 20
-5.2356104397
 10
30.3191780447
 20
-5.3054082131
 10
30.3630207842
 20
-5.3730640235
 10
30.4098827108
 20
-5.4386178785
 10
30.4589015143
 20
-5.5008631276
 10
30.510118359
 20
-5.5597397986
 10
30.5634920805
 20
-5.6153078637
 10
30.6180368751
 20
-5.6665405892
 10
30.6734241415
 20
-5.7130957304
 10
30.729982481
 20
-5.755315532
 10
30.7877118935
 20
-5.793199994
  0
LINE
  5
325
100
AcDbEntity
  8
DRAFT
100
AcDbLine
 62
7
  6
CONTINUOUS
 10
26.4233980018
 20
-23.6275585621
 11
25.8930679159
 21
-24.56787535
  0
LINE
  5
326
100
AcDbEntity
  8
DRAFT
100
AcDbLine
 62
7
  6
CONTINUOUS
 10
26.7696728824
 20
-23.4134169817
 11
26.4233980018
 21
-23.6275585621
  0
LINE
  5
327
100
AcDbEntity
  8
DRAFT
100
AcDbLine
 62
7
  6
CONTINUOUS
 10
25.8930679159
 20
-24.56787535
 11
25.4531966598
 21
-24.839898333
  0
LINE
  5
328
100
AcDbEntity
  8
DRAFT
100
AcDbLine
 62
7
  6
CONTINUOUS
 10
27.1206307072
 20
-23.5019674025
 11
27.0222814999
 21
-23.5592413408
  0
LINE
  5
329
100
AcDbEntity
  8
RACCORDO
100
AcDbLine
 62
7
  6
CONTINUOUS
 10
23.088887795
 20
-24.2812702237
 11
23.0181771168
 21
-24.3220978233
  0
LINE
  5
32A
100
AcDbEntity
  8
DRAFT
100
AcDbLine
 62
7
  6
CONTINUOUS
 10
30.7877118935
 20
-22.100112884
 11
31.1350939868
 21
-21.8995381284
  0
LINE
  5
32B
100
AcDbEntity
  8
DRAFT
100
AcDbLine
 62
7
  6
CONTINUOUS
 10
25.8577125769
 20
-23.9959969717
 11
26.3852670214
 21
-23.6951677776
  0
LINE
  5
32C
100
AcDbEntity
  8
DRAFT
100
AcDbLine
 62
7
  6
CONTINUOUS
 10
25.6951414361
 20
-22.425607634
 11
26.25706753
 21
-22.108218602
  0
LINE
  5
32D
100
AcDbEntity
  8
DRAFT
100
AcDbLine
 62
250
  6
CONTINUOUS
 10
24.7065935753
 20
-25.4066044484
 11
25.4531966598
 21
-24.9903160423
  0
LINE
  5
32E
100
AcDbEntity
  8
DRAFT
100
AcDbLine
 62
7
  6
CONTINUOUS
 10
23.6656815552
 20
-24.614303712
 11
23.0181771168
 21
-24.9625106449
  0
LINE
  5
32F
100
AcDbEntity
  8
RACCORDO
100
AcDbLine
 62
250
  6
CONTINUOUS
 10
23.6656815552
 20
-26.1528330266
 11
21.9728021449
 21
-27.0632087897
  0
LINE
  5
330
100
AcDbEntity
  8
RACCORDO
100
AcDbLine
 62
7
  6
CONTINUOUS
 10
23.5577631248
 20
-26.3841301809
 11
21.8622859518
 21
-27.2959029368
  0
LINE
  5
331
100
AcDbEntity
  8
DRAFT
100
AcDbLine
 62
7
  6
CONTINUOUS
 10
26.4332720777
 20
-22.3742005771
 11
25.2719281713
 21
-22.9759355371
  0
LWPOLYLINE
  5
332
100
AcDbEntity
  8
DRAFT
100
AcDbPolyline
 62
250
  6
CONTINUOUS
 90
33
 70
0
 10
27.5745170034
 20
-24.6172908036
 10
27.6542561639
 20
-24.5760849135
 10
27.729655498
 20
-24.5283725101
 10
27.8007150056
 20
-24.4741535935
 10
27.8675883803
 20
-24.4132416814
 10
27.9301219285
 20
-24.345823256
 10
27.9878545695
 20
-24.2724577638
 10
28.0407438028
 20
-24.1931137354
 10
28.0888321288
 20
-24.1078226401
 10
28.1317859678
 20
-24.0172383328
 10
28.1695721384
 20
-23.9213256738
 10
28.2022238219
 20
-23.8201198027
 10
28.2295069834
 20
-23.7143799933
 10
28.2513855832
 20
-23.6040699454
 10
28.267895661
 20
-23.4892259592
 10
28.2789112999
 20
-23.3707162093
 10
28.2843921402
 20
-23.2485097347
 10
28.2843785417
 20
-23.1226374965
 10
28.2788656669
 20
-22.9940605528
 10
28.2678113815
 20
-22.8627563365
 10
28.2512578198
 20
-22.7287474148
 10
28.2293265472
 20
-22.5930625475
 10
28.201976388
 20
-22.4556891704
 10
28.1692485178
 20
-22.3166398476
 10
28.1313880296
 20
-22.1769810317
 10
28.0883551229
 20
-22.0367064782
 10
28.040189598
 20
-21.8958224315
 10
27.9872559489
 20
-21.7554140771
 10
27.9295177266
 20
-21.6154852764
 10
27.86701138
 20
-21.4760321679
 10
27.8002107503
 20
-21.3381283533
 10
27.7292737845
 20
-21.2021316998
 10
27.6540425355
 20
-21.0676843402
  0
LWPOLYLINE
  5
333
100
AcDbEntity
  8
RACCORDO
100
AcDbPolyline
 62
250
  6
CONTINUOUS
 90
16
 70
0
 10
21.9728021449
 20
-27.0632087897
 10
21.936049343
 20
-27.0817861462
 10
21.8961785496
 20
-27.0982614493
 10
21.8535419168
 20
-27.1124510772
 10
21.8084692529
 20
-27.1242034145
 10
21.7614301457
 20
-27.1333560695
 10
21.7130496739
 20
-27.1397707575
 10
21.6638698048
 20
-27.1433811193
 10
21.6143110404
 20
-27.1441616858
 10
21.5648461399
 20
-27.1421035203
 10
21.5159521782
 20
-27.137222856
 10
21.468121628
 20
-27.1295651898
 10
21.4218415917
 20
-27.1192070724
 10
21.3775727492
 20
-27.1062520706
 10
21.3357462677
 20
-27.0908268442
 10
21.2967742729
 20
-27.0730833533
  0
LINE
  5
334
100
AcDbEntity
  8
DRAFT
100
AcDbLine
 62
7
  6
CONTINUOUS
 10
27.5745170034
 20
-24.8779718743
 11
27.2834139388
 21
-25.3706437184
  0
LWPOLYLINE
  5
335
100
AcDbEntity
  8
DRAFT
100
AcDbPolyline
 62
7
  6
CONTINUOUS
 90
10
 70
0
 10
25.3471978265
 20
-26.0773665154
 10
25.3501431249
 20
-26.0755343291
 10
25.3733916753
 20
-26.0579523412
 10
25.3938611035
 20
-26.0365957839
 10
25.4115433801
 20
-26.0113116673
 10
25.4264465345
 20
-25.9822529812
 10
25.4381095421
 20
-25.9502752866
 10
25.4463787281
 20
-25.9156637704
 10
25.4514077673
 20
-25.8781332456
 10
25.4531966598
 20
-25.8376837122
  0
LINE
  5
336
100
AcDbEntity
  8
DRAFT
100
AcDbLine
 62
7
  6
CONTINUOUS
 10
30.7877118935
 20
-24.5495237144
 11
31.1350939868
 21
-24.3346974171
  0
LINE
  5
337
100
AcDbEntity
  8
DRAFT
100
AcDbLine
 62
7
  6
CONTINUOUS
 10
27.2834139388
 20
-25.3706437184
 11
26.8279139189
 21
-25.6336428491
  0
LINE
  5
338
100
AcDbEntity
  8
DRAFT
100
AcDbLine
 62
250
  6
CONTINUOUS
 10
26.8279139189
 20
-26.6314282284
 11
27.5745170034
 21
-26.2151398222
  0
LWPOLYLINE
  5
339
100
AcDbEntity
  8
DRAFT
100
AcDbPolyline
 62
7
  6
CONTINUOUS
 90
10
 70
0
 10
29.1698193305
 20
-29.2506730412
 10
29.1606507994
 20
-29.2565222093
 10
29.1227074093
 20
-29.2852865412
 10
29.0886666049
 20
-29.3193209742
 10
29.0586072273
 20
-29.3587293783
 10
29.0324504354
 20
-29.4034078833
 10
29.0107123843
 20
-29.4524736737
 10
28.9935651258
 20
-29.5056324775
 10
28.9808366081
 20
-29.5631785665
 10
28.9725268313
 20
-29.6251119408
  0
LWPOLYLINE
  5
33A
100
AcDbEntity
  8
DRAFT
100
AcDbPolyline
 62
7
  6
CONTINUOUS
 90
10
 70
0
 10
27.4685181701
 20
-27.3021902954
 10
27.4714634684
 20
-27.3003581091
 10
27.4947120189
 20
-27.2827761212
 10
27.5151814471
 20
-27.2614195639
 10
27.5328637237
 20
-27.2361354472
 10
27.547766878
 20
-27.2070767612
 10
27.5594298857
 20
-27.1750990666
 10
27.5676990717
 20
-27.1404875504
 10
27.5727281109
 20
-27.1029570256
 10
27.5745170034
 20
-27.0625074922
  0
LINE
  5
33B
100
AcDbEntity
  8
DRAFT
100
AcDbLine
 62
7
  6
CONTINUOUS
 10
30.7877118935
 20
-28.6093824526
 11
29.6760891953
 21
-29.2965167829
  0
LINE
  5
33C
100
AcDbEntity
  8
DRAFT
100
AcDbLine
 62
7
  6
CONTINUOUS
 10
29.5814002534
 20
-29.2498882492
 11
28.9725268313
 21
-29.6251119408
  0
ARC
  5
33D
100
AcDbEntity
  8
RACCORDO
100
AcDbCircle
 62
7
  6
CONTINUOUS
 10
21.6254729597
 20
-26.8555398971
 40
0.5
100
AcDbArc
 50
243.2112433761
 51
298.2699256375
  0
ARC
  5
33E
100
AcDbEntity
  8
RACCORDO
100
AcDbCircle
 62
7
  6
CONTINUOUS
 10
-26.3998110901
 20
24.3210571885
 40
0.5
100
AcDbArc
 50
121.7332683129
 51
180.004185522
  0
ARC
  5
33F
100
AcDbEntity
  8
RACCORDO
100
AcDbCircle
 62
7
  6
CONTINUOUS
 10
-26.3998110901
 20
0.8736572151
 40
0.5
100
AcDbArc
 50
180.0007993134
 51
236.5616758374
  0
ELLIPSE
  5
340
100
AcDbEntity
  8
RACCORDO
100
AcDbEllipse
 62
7
  6
CONTINUOUS
 10
23.3120743085
 20
-25.9485402722
 30
0.0
 11
-0.2500882309
 21
0.4331376414
 31
0.0
 40
0.5771558487
 41
-3.159039784
 42
-2.3563950755
  0
ELLIPSE
  5
341
100
AcDbEntity
  8
RACCORDO
100
AcDbEllipse
 62
7
  6
CONTINUOUS
 10
23.3120743085
 20
-2.4343206719
 30
0.0
 11
-0.2500120911
 21
0.4330057209
 31
0.0
 40
0.5775075436
 41
-2.3560905478
 42
-0.7855988075
  0
ELLIPSE
  5
342
100
AcDbEntity
  8
RACCORDO
100
AcDbEllipse
 62
7
  6
CONTINUOUS
 10
-24.7710791
 20
25.3282894827
 30
0.0
 11
-0.2500882309
 21
0.4331376414
 31
0.0
 40
0.5771558487
 41
-0.7852941622
 42
0.0174471304
  0
ENDSEC
  0
SECTION
  2
OBJECTS
  0
DICTIONARY
  5
C
100
AcDbDictionary
280
0
281
1
  3
ACAD_GROUP
350
D
  3
ACAD_MLINESTYLE
350
17
  3
ACAD_LAYOUT
350
1A
  3
ACAD_PLOTSETTINGS
350
19
  3
ACAD_PLOTSTYLENAME
350
E
  0
DICTIONARY
  5
D
102
{ACAD_REACTORS
330
C
102
}
100
AcDbDictionary
280
0
281
1
  0
ACDBDICTIONARYWDFLT
  5
E
102
{ACAD_REACTORS
330
C
102
}
100
AcDbDictionary
281
1
  3
Normal
350
F
100
AcDbDictionaryWithDefault
340
F
  0
DICTIONARY
  5
17
102
{ACAD_REACTORS
330
C
102
}
100
AcDbDictionary
280
0
281
1
  3
Standard
350
18
  0
DICTIONARY
  5
19
102
{ACAD_REACTORS
330
C
102
}
100
AcDbDictionary
281
1
  0
DICTIONARY
  5
1A
102
{ACAD_REACTORS
330
C
102
}
100
AcDbDictionary
281
1
  3
Model
350
343
  3
Layout1
350
344
  0
ACDBPLACEHOLDER
  5
F
102
{ACAD_REACTORS
330
E
102
}
  0
MLINESTYLE
  5
18
102
{ACAD_REACTORS
330
17
102
}
100
AcDbMlineStyle
  2
STANDARD
 70
0
  3

 62
256
 51
90.0
 52
90.0
 71
2
 49
0.5
 62
256
  6
BYLAYER
 49
-0.5
 62
256
  6
BYLAYER
  0
LAYOUT
  5
343
102
{ACAD_REACTORS
330
1A
102
}
100
AcDbPlotSettings
  1

  2
none_device
  4
ISO_A4_(297.00_x_210.00_MM)
  6

 40
0.0
 41
0.0
 42
0.0
 43
0.0
 44
297.0
 45
210.0
 46
0.0
 47
0.0
 48
0.0
 49
0.0
140
0.0
141
0.0
142
1.0
143
1.0
 70
1024
 72
1
 73
0
 74
0
  7

 75
0
147
1.0
148
0.0
149
0.0
100
AcDbLayout
  1
Model
 70
0
 71
0
 10
0.0
 20
0.0
 11
297.0
 21
210.0
 12
0.0
 22
0.0
 32
0.0
 14
0.0
 24
0.0
 34
0.0
 15
0.0
 25
0.0
 35
0.0
146
0.0
 13
0.0
 23
0.0
 33
0.0
 16
1.0
 26
0.0
 36
0.0
 17
0.0
 27
1.0
 37
0.0
 76
0
330
20F
345
0
346
0
  0
LAYOUT
  5
344
102
{ACAD_REACTORS
330
1A
102
}
100
AcDbPlotSettings
  1

  2
none_device
  4
ISO_A4_(297.00_x_210.00_MM)
  6

 40
0.0
 41
0.0
 42
0.0
 43
0.0
 44
297.0
 45
210.0
 46
0.0
 47
0.0
 48
0.0
 49
0.0
140
0.0
141
0.0
142
1.0
143
1.0
 70
0
 72
1
 73
0
 74
0
  7

 75
0
147
1.0
148
0.0
149
0.0
100
AcDbLayout
  1
Layout1
 70
0
 71
1
 10
0.0
 20
0.0
 11
297.0
 21
210.0
 12
0.0
 22
0.0
 32
0.0
 14
0.0
 24
0.0
 34
0.0
 15
0.0
 25
0.0
 35
0.0
146
0.0
 13
0.0
 23
0.0
 33
0.0
 16
1.0
 26
0.0
 36
0.0
 17
0.0
 27
1.0
 37
0.0
 76
0
330
210
345
0
346
0
  0
ENDSEC
  0
EOF
