  0
SECTION
  2
HEADER
  9
$ACADVER
  1
AC1024
  9
$DWGCODEPAGE
  3
ANSI_1252
  9
$EXTMAX
 10
297.0
 20
210.0
 30
0.0
  9
$EXTMIN
 10
0.0
 20
0.0
 30
0.0
  9
$LIMMIN
 10
0.0
 20
0.0
  9
$LIMMAX
 10
297.0
 20
210.0
  9
$VIEWCTR
 10
148.5
 20
105.0
  9
$VIEWSIZE
 40
210.0
  9
$CLAYER
  8
0
  9
$LTSCALE
 40
16.335
  9
$CELTYPE
  6
BYLAYER
  9
$DIMSCALE
 40
1.0
  9
$DIMASZ
 40
3.0
  9
$DIMEXO
 40
0.5
  9
$DIMDLI
 40
11.286
  9
$DIMEXE
 40
1.5
  9
$DIMCEN
 40
2.673
  9
$DIMLFAC
 40
1.0
  9
$DIMBLK
  1
_FILLED
  9
$DIMALT
 70
0
  9
$DIMALTF
 40
0.0393700787
  9
$DIMTXT
 40
3.0
  9
$DIMTOL
 70
1
  9
$DIMLIM
 70
0
  9
$DIMTFAC
 40
1.0
  9
$DIMTP
 40
0.01
  9
$DIMTM
 40
0.01
  9
$DIMGAP
 40
0.625
  9
$DIMDSEP
 70
44
  9
$AUNITS
 70
0
  9
$PDMODE
 70
3
  9
$PDSIZE
 40
3.0
  9
$HANDSEED
  5
35D
  9
$TILEMODE
 70
1
  9
$MEASUREMENT
 70
1
  9
$INSUNITS
 70
4
  0
ENDSEC
  0
SECTION
  2
CLASSES
  0
CLASS
  1
ACDBDICTIONARYWDFLT
  2
AcDbDictionaryWithDefault
  3
AutoCAD 2000
 90
0
 91
1
280
0
281
0
  0
CLASS
  1
ACDBPLACEHOLDER
  2
AcDbPlaceHolder
  3
AutoCAD 2000
 90
0
 91
1
280
0
281
0
  0
CLASS
  1
LAYOUT
  2
AcDbLayout
  3
AutoCAD 2000
 90
0
 91
0
280
0
281
0
  0
ENDSEC
  0
SECTION
  2
TABLES
  0
TABLE
  2
VPORT
  5
8
100
AcDbSymbolTable
 70
2
  0
VPORT
  5
1F4
100
AcDbSymbolTableRecord
100
AcDbViewportTableRecord
  2
*ACTIVE
 70
0
 10
0.0
 20
0.0
 11
1.0
 21
1.0
 12
148.5
 22
105.0
 13
0.0
 23
0.0
 14
1.0
 24
1.0
 15
0.0
 25
0.0
 16
0.0
 26
0.0
 36
1.0
 17
0.0
 27
0.0
 37
0.0
 40
210.0
 41
1.4142857143
 42
50.0
 43
0.0
 44
0.0
 50
0.0
 51
0.0
 71
0
 72
100
 73
1
 74
1
 75
0
 76
0
 77
0
 78
0
  0
ENDTAB
  0
TABLE
  2
LTYPE
  5
5
100
AcDbSymbolTable
 70
6
  0
LTYPE
  5
14
100
AcDbSymbolTableRecord
100
AcDbLinetypeTableRecord
  2
BYBLOCK
 70
0
  3

 72
65
 73
0
 40
0.0
  0
LTYPE
  5
15
100
AcDbSymbolTableRecord
100
AcDbLinetypeTableRecord
  2
BYLAYER
 70
0
  3

 72
65
 73
0
 40
0.0
  0
LTYPE
  5
16
100
AcDbSymbolTableRecord
100
AcDbLinetypeTableRecord
  2
CONTINUOUS
 70
64
  3
Solid line
 72
65
 73
0
 40
0.0
  0
LTYPE
  5
1F5
100
AcDbSymbolTableRecord
100
AcDbLinetypeTableRecord
  2
CENTER
 70
64
  3
____ _ ____ _ ____ _ ____ _ ____ _ ____ _ ____
 72
65
 73
4
 40
0.6
 49
0.375
 74
0
 49
-0.075
 74
0
 49
0.075
 74
0
 49
-0.075
 74
0
  0
LTYPE
  5
1F6
100
AcDbSymbolTableRecord
100
AcDbLinetypeTableRecord
  2
HIDDEN
 70
64
  3
- - - - - - - - - - - - - - - - - - - -
 72
65
 73
2
 40
0.2
 49
0.1
 74
0
 49
-0.1
 74
0
  0
LTYPE
  5
1F7
100
AcDbSymbolTableRecord
100
AcDbLinetypeTableRecord
  2
PHANTOM
 70
64
  3
_____ _ _ _____ _ _ _____ _ _ _____
 72
65
 73
6
 40
0.8
 49
0.45
 74
0
 49
-0.05
 74
0
 49
0.1
 74
0
 49
-0.05
 74
0
 49
0.1
 74
0
 49
-0.05
 74
0
  0
LTYPE
  5
1F8
100
AcDbSymbolTableRecord
100
AcDbLinetypeTableRecord
  2
DOT
 70
64
  3
. . . . . . . . . . . . . . . . . . . .
 72
65
 73
2
 40
0.2
 49
0.1
 74
0
 49
-0.1
 74
0
  0
LTYPE
  5
1F9
100
AcDbSymbolTableRecord
100
AcDbLinetypeTableRecord
  2
DASHED
 70
64
  3
- - - - - - - - - - - - - - - - - - - -
 72
65
 73
2
 40
0.2
 49
0.1
 74
0
 49
-0.1
 74
0
  0
ENDTAB
  0
TABLE
  2
LAYER
  5
2
100
AcDbSymbolTable
 70
36
  0
LAYER
  5
10
100
AcDbSymbolTableRecord
100
AcDbLayerTableRecord
  2
0
 70
0
 62
7
  6
CONTINUOUS
370
-3
390
F
  0
LAYER
  5
1FA
100
AcDbSymbolTableRecord
100
AcDbLayerTableRecord
  2
DEFAULT_1
 70
0
 62
7
  6
CENTER
370
-3
390
F
  0
LAYER
  5
1FB
100
AcDbSymbolTableRecord
100
AcDbLayerTableRecord
  2
DEFAULT_2
 70
0
 62
7
  6
HIDDEN
370
-3
390
F
  0
LAYER
  5
1FC
100
AcDbSymbolTableRecord
100
AcDbLayerTableRecord
  2
DEFAULT_3
 70
0
 62
7
  6
PHANTOM
370
-3
390
F
  0
LAYER
  5
1FD
100
AcDbSymbolTableRecord
100
AcDbLayerTableRecord
  2
ASSI
 70
0
 62
7
  6
CONTINUOUS
370
-3
390
F
  0
LAYER
  5
1FE
100
AcDbSymbolTableRecord
100
AcDbLayerTableRecord
  2
COORDINATE
 70
0
 62
7
  6
CONTINUOUS
370
-3
390
F
  0
LAYER
  5
1FF
100
AcDbSymbolTableRecord
100
AcDbLayerTableRecord
  2
COPY_PUBLISH
 70
0
 62
7
  6
CONTINUOUS
370
-3
390
F
  0
LAYER
  5
200
100
AcDbSymbolTableRecord
100
AcDbLayerTableRecord
  2
COSMETICI
 70
0
 62
7
  6
CONTINUOUS
370
-3
390
F
  0
LAYER
  5
201
100
AcDbSymbolTableRecord
100
AcDbLayerTableRecord
  2
CURVE
 70
0
 62
7
  6
CONTINUOUS
370
-3
390
F
  0
LAYER
  5
202
100
AcDbSymbolTableRecord
100
AcDbLayerTableRecord
  2
DRAFT
 70
0
 62
7
  6
CONTINUOUS
370
-3
390
F
  0
LAYER
  5
203
100
AcDbSymbolTableRecord
100
AcDbLayerTableRecord
  2
IMPORT_IGES
 70
0
 62
7
  6
CONTINUOUS
370
-3
390
F
  0
LAYER
  5
204
100
AcDbSymbolTableRecord
100
AcDbLayerTableRecord
  2
NOTE
 70
0
 62
7
  6
CONTINUOUS
370
-3
390
F
  0
LAYER
  5
205
100
AcDbSymbolTableRecord
100
AcDbLayerTableRecord
  2
PIANI
 70
0
 62
7
  6
CONTINUOUS
370
-3
390
F
  0
LAYER
  5
206
100
AcDbSymbolTableRecord
100
AcDbLayerTableRecord
  2
PUNTI
 70
0
 62
7
  6
CONTINUOUS
370
-3
390
F
  0
LAYER
  5
207
100
AcDbSymbolTableRecord
100
AcDbLayerTableRecord
  2
RACCORDO
 70
0
 62
7
  6
CONTINUOUS
370
-3
390
F
  0
LAYER
  5
208
100
AcDbSymbolTableRecord
100
AcDbLayerTableRecord
  2
SIMBOLI
 70
0
 62
7
  6
CONTINUOUS
370
-3
390
F
  0
LAYER
  5
209
100
AcDbSymbolTableRecord
100
AcDbLayerTableRecord
  2
SMUSSO
 70
0
 62
7
  6
CONTINUOUS
370
-3
390
F
  0
LAYER
  5
20A
100
AcDbSymbolTableRecord
100
AcDbLayerTableRecord
  2
SNAPLINE
 70
0
 62
7
  6
CONTINUOUS
370
-3
390
F
  0
LAYER
  5
20B
100
AcDbSymbolTableRecord
100
AcDbLayerTableRecord
  2
SUPERFICI
 70
0
 62
7
  6
CONTINUOUS
370
-3
390
F
  0
LAYER
  5
20C
100
AcDbSymbolTableRecord
100
AcDbLayerTableRecord
  2
TRASH
 70
0
 62
7
  6
CONTINUOUS
370
-3
390
F
  0
ENDTAB
  0
TABLE
  2
STYLE
  5
3
100
AcDbSymbolTable
 70
1
  0
STYLE
  5
11
100
AcDbSymbolTableRecord
100
AcDbTextStyleTableRecord
  2
STANDARD
 70
0
 40
0.0
 41
0.8
 50
0.0
 71
0
 42
0.2
  3
txt
  4

  0
STYLE
  5
20D
100
AcDbSymbolTableRecord
100
AcDbTextStyleTableRecord
  2
TEXTSTYLE_1
 70
0
 40
0.0
 41
0.8
 50
0.0
 71
0
 42
0.2
  3
gdt
  4

  0
ENDTAB
  0
TABLE
  2
VIEW
  5
6
100
AcDbSymbolTable
 70
0
  0
ENDTAB
  0
TABLE
  2
UCS
  5
7
100
AcDbSymbolTable
 70
0
  0
ENDTAB
  0
TABLE
  2
APPID
  5
9
100
AcDbSymbolTable
 70
1
  0
APPID
  5
20E
100
AcDbSymbolTableRecord
100
AcDbRegAppTableRecord
  2
ACAD
 70
0
  0
ENDTAB
  0
TABLE
  2
BLOCK_RECORD
  5
1
100
AcDbSymbolTable
 70
0
  0
BLOCK_RECORD
  5
20F
100
AcDbSymbolTableRecord
100
AcDbBlockTableRecord
  2
*Model_Space
  0
BLOCK_RECORD
  5
210
100
AcDbSymbolTableRecord
100
AcDbBlockTableRecord
  2
*Paper_Space
  0
BLOCK_RECORD
  5
211
100
AcDbSymbolTableRecord
100
AcDbBlockTableRecord
  2
_FILLED
  0
ENDTAB
  0
TABLE
  2
DIMSTYLE
  5
A
100
AcDbSymbolTable
 70
1
100
AcDbDimStyleTable
 71
0
  0
DIMSTYLE
105
212
100
AcDbSymbolTableRecord
100
AcDbDimStyleTableRecord
  2
STANDARD
 70
0
  3

  4

 40
1.0
 41
3.0
 42
0.5
 43
0.38
 44
1.5
 45
0.0
 46
0.0
 47
0.01
 48
0.01
140
3.0
141
0.09
142
0.0
143
25.4
144
1.0
145
0.0
146
1.0
147
0.625
 71
1
 72
0
 73
0
 74
0
 75
0
 76
0
 77
1
 78
8
 79
2
170
0
171
1
172
0
173
0
174
0
175
0
176
0
177
0
178
0
270
2
179
2
271
2
272
2
273
2
274
2
275
0
280
0
281
0
282
0
283
1
284
8
285
0
286
0
287
3
288
0
340
11
278
44
341
211
342
211
343
211
344
211
  0
ENDTAB
  0
ENDSEC
  0
SECTION
  2
BLOCKS
  0
BLOCK
  5
20
100
AcDbEntity
  8
0
100
AcDbBlockBegin
  2
*Model_Space
 70
0
 10
0.0
 20
0.0
 30
0.0
  3
*Model_Space
  1

  0
ENDBLK
  5
21
100
AcDbEntity
  8
0
100
AcDbBlockEnd
  0
BLOCK
  5
1C
100
AcDbEntity
  8
0
100
AcDbBlockBegin
  2
*Paper_Space
 70
0
 10
0.0
 20
0.0
 30
0.0
  3
*Paper_Space
  1

  0
ENDBLK
  5
1D
100
AcDbEntity
  8
0
100
AcDbBlockEnd
  0
BLOCK
  5
213
100
AcDbEntity
  8
0
100
AcDbBlockBegin
  2
_FILLED
 70
64
 10
0.0
 20
0.0
  3
_FILLED
  1

  0
SOLID
  5
214
100
AcDbEntity
  8
0
  6
BYBLOCK
 62
0
100
AcDbTrace
 10
0.0
 20
0.0
 11
-1.0
 21
0.3166666667
 12
-1.0
 22
-0.3166666667
 13
-1.0
 23
-0.3166666667
  0
ENDBLK
  5
215
100
AcDbEntity
  8
0
  6
BYBLOCK
 62
0
100
AcDbBlockEnd
  0
ENDSEC
  0
SECTION
  2
ENTITIES
  0
LWPOLYLINE
  5
216
100
AcDbEntity
  8
DRAFT
100
AcDbPolyline
 62
7
  6
CONTINUOUS
 90
11
 70
0
 10
-30.6413398071
 20
40.8702484406
 10
-30.6081712245
 20
40.891078896
 10
-30.5765998247
 20
40.9165353447
 10
-30.5476927363
 20
40.9460752611
 10
-30.5217228547
 20
40.9794063546
 10
-30.4986551849
 20
41.0166722226
 10
-30.4785247218
 20
41.0577292677
 10
-30.461709346
 20
41.1018544065
 10
-30.4483350177
 20
41.1488066116
 10
-30.4382757766
 20
41.1988269105
 10
-30.4315316228
 20
41.2519153032
  0
LINE
  5
217
100
AcDbEntity
  8
DRAFT
100
AcDbLine
 62
7
  6
CONTINUOUS
 10
-29.2825190787
 20
41.8721660927
 11
-30.4315316228
 21
41.2519153032
  0
LINE
  5
218
100
AcDbEntity
  8
DRAFT
100
AcDbLine
 62
7
  6
CONTINUOUS
 10
-29.9839749852
 20
41.5426645136
 11
-31.1350939868
 21
40.9233201453
  0
LINE
  5
219
100
AcDbEntity
  8
DRAFT
100
AcDbLine
 62
7
  6
CONTINUOUS
 10
-28.4731700699
 20
36.842275093
 11
-28.3990400572
 21
36.9273931967
  0
LWPOLYLINE
  5
21A
100
AcDbEntity
  8
DRAFT
100
AcDbPolyline
 62
7
  6
CONTINUOUS
 90
9
 70
0
 10
-28.8871926407
 20
36.1024705992
 10
-28.8719800481
 20
36.1130180684
 10
-28.8584764806
 20
36.1245039419
 10
-28.8454752948
 20
36.1376769936
 10
-28.8328639419
 20
36.1526040361
 10
-28.8207851086
 20
36.1690568892
 10
-28.8092863572
 20
36.1869594927
 10
-28.7983201253
 20
36.2063879068
 10
-28.7878864131
 20
36.2273421314
  0
LINE
  5
21B
100
AcDbEntity
  8
RACCORDO
100
AcDbLine
 62
7
  6
CONTINUOUS
 10
-25.02549062
 20
38.0058971638
 11
-26.6627938795
 21
36.9933642681
  0
LINE
  5
21C
100
AcDbEntity
  8
RACCORDO
100
AcDbLine
 62
250
  6
CONTINUOUS
 10
-24.771186804
 20
37.9837031456
 11
-26.4059814476
 21
36.9727216156
  0
LWPOLYLINE
  5
21D
100
AcDbEntity
  8
RACCORDO
100
AcDbPolyline
 62
250
  6
CONTINUOUS
 90
11
 70
0
 10
-26.6627938795
 20
36.9933642681
 10
-26.65845983
 20
36.9959545387
 10
-26.6356912535
 20
37.0069028912
 10
-26.6111281821
 20
37.0145130691
 10
-26.5849574834
 20
37.018727177
 10
-26.5573782548
 20
37.0195131552
 10
-26.5286003097
 20
37.0168650244
 10
-26.4988425807
 20
37.0108029306
 10
-26.4683314543
 20
37.0013729921
 10
-26.4372990487
 20
36.9886469486
 10
-26.4059814476
 20
36.9727216156
  0
LINE
  5
21E
100
AcDbEntity
  8
DRAFT
100
AcDbLine
 62
7
  6
CONTINUOUS
 10
-28.0629403043
 20
37.1311238869
 11
-28.4681871989
 21
36.8890766221
  0
LWPOLYLINE
  5
21F
100
AcDbEntity
  8
DRAFT
100
AcDbPolyline
 62
7
  6
CONTINUOUS
 90
11
 70
0
 10
-28.9208839609
 20
38.9328285188
 10
-28.9245089931
 20
38.930782475
 10
-28.9463303364
 20
38.9158750422
 10
-28.9660434127
 20
38.8975699908
 10
-28.983378895
 20
38.8761375109
 10
-28.9983730025
 20
38.8514119685
 10
-29.010989516
 20
38.8235589977
 10
-29.0208504504
 20
38.7933456915
 10
-29.0278298109
 20
38.7610277478
 10
-29.0320535923
 20
38.7263494689
 10
-29.0335217948
 20
38.6893108546
  0
LWPOLYLINE
  5
220
100
AcDbEntity
  8
DRAFT
100
AcDbPolyline
 62
7
  6
CONTINUOUS
 90
11
 70
0
 10
-26.7995636173
 20
37.7080047388
 10
-26.8031886496
 20
37.705958695
 10
-26.8250099928
 20
37.6910512623
 10
-26.8447230692
 20
37.6727462108
 10
-26.8620585515
 20
37.651313731
 10
-26.877052659
 20
37.6265881885
 10
-26.8896691724
 20
37.5987352177
 10
-26.8995301068
 20
37.5685219116
 10
-26.9065094673
 20
37.5362039679
 10
-26.9107332488
 20
37.5015256889
 10
-26.9122014513
 20
37.4644870746
  0
LWPOLYLINE
  5
221
100
AcDbEntity
  8
RACCORDO
100
AcDbPolyline
 62
250
  6
CONTINUOUS
 90
19
 70
0
 10
-26.4059814482
 20
36.972721616
 10
-26.4386400754
 20
36.9543889729
 10
-26.4703259693
 20
36.9333096353
 10
-26.5012604812
 20
36.9096156243
 10
-26.5318980138
 20
36.8833445565
 10
-26.5620095576
 20
36.8544846077
 10
-26.5907096729
 20
36.8233024011
 10
-26.6179484865
 20
36.7903480685
 10
-26.6438445961
 20
36.7557633346
 10
-26.6677252033
 20
36.719574027
 10
-26.6895134289
 20
36.6823510784
 10
-26.7093329319
 20
36.6444903495
 10
-26.7267061998
 20
36.6058419478
 10
-26.7416104349
 20
36.5668667862
 10
-26.7541315419
 20
36.5280831128
 10
-26.7638557509
 20
36.4894211639
 10
-26.77067839
 20
36.4511750279
 10
-26.7748713448
 20
36.4139943314
 10
-26.7765831343
 20
36.3783248382
  0
LINE
  5
222
100
AcDbEntity
  8
DRAFT
100
AcDbLine
 62
250
  6
CONTINUOUS
 10
-29.0335217948
 20
38.6893108546
 11
-28.6540255709
 21
38.9009090672
  0
LINE
  5
223
100
AcDbEntity
  8
DRAFT
100
AcDbLine
 62
250
  6
CONTINUOUS
 10
-26.9122014513
 20
37.4644870746
 11
-26.5327052273
 21
37.6760852872
  0
LINE
  5
224
100
AcDbEntity
  8
DRAFT
100
AcDbLine
 62
7
  6
CONTINUOUS
 10
-26.8998110901
 20
36.4733648306
 11
-26.9122014513
 21
36.4667016954
  0
LWPOLYLINE
  5
225
100
AcDbEntity
  8
DRAFT
100
AcDbPolyline
 62
250
  6
CONTINUOUS
 90
31
 70
0
 10
-29.0335217948
 20
36.244094166
 10
-29.1207952334
 20
36.198522734
 10
-29.2028245721
 20
36.1451339913
 10
-29.2796098109
 20
36.083927938
 10
-29.3513579448
 20
36.0146585313
 10
-29.4178619788
 20
35.9375718139
 10
-29.4785009281
 20
35.8534059137
 10
-29.5332164655
 20
35.7620915773
 10
-29.5820669182
 20
35.6636980581
 10
-29.6246062832
 20
35.5591712439
 10
-29.6607716147
 20
35.4484615462
 10
-29.6906258587
 20
35.3316185537
 10
-29.7139118499
 20
35.2097369199
 10
-29.7305710788
 20
35.0827823915
 10
-29.740662055
 20
34.9507892218
 10
-29.7441031421
 20
34.8149548248
 10
-29.7408412131
 20
34.6752550916
 10
-29.7309293951
 20
34.5317141309
 10
-29.7144454326
 20
34.3856016831
 10
-29.6913608203
 20
34.2369556147
 10
-29.6617040635
 20
34.0857380592
 10
-29.6256384222
 20
33.9331051575
 10
-29.5831256827
 20
33.7790081665
 10
-29.5342040587
 20
33.6234958292
 10
-29.4791514515
 20
33.4678705162
 10
-29.4175834268
 20
33.3115575081
 10
-29.3498844188
 20
33.1551315242
 10
-29.2774856312
 20
33.0016190924
 10
-29.200864132
 20
32.8520290552
 10
-29.1195428532
 20
32.70535257
 10
-29.0335217948
 20
32.5615896369
  0
LINE
  5
226
100
AcDbEntity
  8
DRAFT
100
AcDbLine
 62
7
  6
CONTINUOUS
 10
-28.7878864131
 20
36.2273421314
 11
-28.7232321286
 21
36.3657727207
  0
LINE
  5
227
100
AcDbEntity
  8
DRAFT
100
AcDbLine
 62
7
  6
CONTINUOUS
 10
-28.7232321286
 20
36.3657727207
 11
-28.6549434447
 21
36.5090760438
  0
LINE
  5
228
100
AcDbEntity
  8
DRAFT
100
AcDbLine
 62
7
  6
CONTINUOUS
 10
-28.6549434447
 20
36.5090760438
 11
-28.5830088312
 21
36.657288579
  0
LWPOLYLINE
  5
229
100
AcDbEntity
  8
DRAFT
100
AcDbPolyline
 62
7
  6
CONTINUOUS
 90
3
 70
0
 10
-28.5830088312
 20
36.657288579
 10
-28.5073821672
 20
36.8105562395
 10
-28.4681871989
 20
36.8890766221
  0
LINE
  5
22A
100
AcDbEntity
  8
DRAFT
100
AcDbLine
 62
7
  6
CONTINUOUS
 10
-28.5313079221
 20
36.7622578153
 11
-28.4731700699
 21
36.842275093
  0
LINE
  5
22B
100
AcDbEntity
  8
DRAFT
100
AcDbLine
 62
7
  6
CONTINUOUS
 10
-27.3803074323
 20
32.3462190527
 11
-27.1135703098
 21
32.5302298307
  0
LINE
  5
22C
100
AcDbEntity
  8
DRAFT
100
AcDbLine
 62
7
  6
CONTINUOUS
 10
-27.3068432925
 20
32.6418232287
 11
-28.1020719454
 21
32.1826696935
  0
LINE
  5
22D
100
AcDbEntity
  8
DRAFT
100
AcDbLine
 62
7
  6
CONTINUOUS
 10
-29.0335217948
 20
31.1141583276
 11
-28.5780217749
 21
31.3771574583
  0
LINE
  5
22E
100
AcDbEntity
  8
DRAFT
100
AcDbLine
 62
7
  6
CONTINUOUS
 10
-28.044973934
 20
33.0973697627
 11
-27.4830478402
 21
33.4147587947
  0
LINE
  5
22F
100
AcDbEntity
  8
DRAFT
100
AcDbLine
 62
7
  6
CONTINUOUS
 10
-27.3068432925
 20
33.1487768196
 11
-28.4681871989
 21
32.5470418596
  0
LINE
  5
230
100
AcDbEntity
  8
RACCORDO
100
AcDbLine
 62
250
  6
CONTINUOUS
 10
-28.4368898746
 20
33.8457326104
 11
-28.3274454313
 21
33.902303381
  0
LWPOLYLINE
  5
231
100
AcDbEntity
  8
RACCORDO
100
AcDbPolyline
 62
7
  6
CONTINUOUS
 90
9
 70
0
 10
-28.4696243061
 20
33.9211200791
 10
-28.4565509672
 20
33.9262944139
 10
-28.4403298348
 20
33.9299557276
 10
-28.4230968034
 20
33.9312151086
 10
-28.4048903085
 20
33.9301008841
 10
-28.3861754171
 20
33.9266490041
 10
-28.3671071516
 20
33.920871452
 10
-28.3475304897
 20
33.9127562442
 10
-28.3274454313
 20
33.902303381
  0
LINE
  5
232
100
AcDbEntity
  8
DRAFT
100
AcDbLine
 62
7
  6
CONTINUOUS
 10
-28.7441391137
 20
36.3003967617
 11
-28.7213759216
 21
36.3696870089
  0
LINE
  5
233
100
AcDbEntity
  8
DRAFT
100
AcDbLine
 62
7
  6
CONTINUOUS
 10
-28.1020719454
 20
32.1826696935
 11
-28.5780217749
 21
31.3771574583
  0
LINE
  5
234
100
AcDbEntity
  8
DRAFT
100
AcDbLine
 62
7
  6
CONTINUOUS
 10
-28.777470542
 20
36.1706156661
 11
-28.7441391137
 21
36.3003967617
  0
LINE
  5
235
100
AcDbEntity
  8
DRAFT
100
AcDbLine
 62
7
  6
CONTINUOUS
 10
-31.1350939868
 20
40.9233201453
 11
-31.1350939868
 21
30.309206547
  0
LINE
  5
236
100
AcDbEntity
  8
DRAFT
100
AcDbLine
 62
7
  6
CONTINUOUS
 10
-31.1350939868
 20
4.1821576897
 11
-31.1350939868
 21
-6.4319559086
  0
LWPOLYLINE
  5
237
100
AcDbEntity
  8
DRAFT
100
AcDbPolyline
 62
7
  6
CONTINUOUS
 90
22
 70
0
 10
-30.4315316228
 20
-7.573007249
 10
-30.4382757766
 20
-7.5121308765
 10
-30.4483350177
 20
-7.4504944182
 10
-30.461709346
 20
-7.388097874
 10
-30.4785247218
 20
-7.3245547606
 10
-30.4986551849
 20
-7.2602515615
 10
-30.5217228547
 20
-7.1963477265
 10
-30.5476927363
 20
-7.1330272648
 10
-30.5765998247
 20
-7.0701061672
 10
-30.6081712245
 20
-7.0081918574
 10
-30.642561905
 20
-6.9470879923
 10
-30.6796168969
 20
-6.8869909149
 10
-30.718598397
 20
-6.8290970771
 10
-30.7593982321
 20
-6.7736364486
 10
-30.8021245754
 20
-6.7203790597
 10
-30.8463641426
 20
-6.6698314528
 10
-30.8922628277
 20
-6.621885009
 10
-30.9396747368
 20
-6.5766483473
 10
-30.9877489038
 20
-6.5349538665
 10
-31.0362016735
 20
-6.497079033
 10
-31.0853167011
 20
-6.4627463803
 10
-31.1350939868
 20
-6.4319559086
  0
LWPOLYLINE
  5
238
100
AcDbEntity
  8
DRAFT
100
AcDbPolyline
 62
7
  6
CONTINUOUS
 90
3
 70
0
 10
-29.3796490969
 20
-1.87652476
 10
-29.3943551175
 20
-1.7169997745
 10
-29.3962870281
 20
-1.6761269978
  0
LWPOLYLINE
  5
239
100
AcDbEntity
  8
DRAFT
100
AcDbPolyline
 62
7
  6
CONTINUOUS
 90
17
 70
0
 10
-29.0335217948
 20
-0.4970682896
 10
-29.032223455
 20
-0.5219940185
 10
-29.0295631231
 20
-0.5447211899
 10
-29.0255407991
 20
-0.5652498037
 10
-29.0200373699
 20
-0.5835284258
 10
-29.0131719486
 20
-0.5996084904
 10
-29.0053018748
 20
-0.6136442998
 10
-28.9964577996
 20
-0.6257128435
 10
-28.9866090719
 20
-0.635737132
 10
-28.9760210779
 20
-0.6436404991
 10
-28.9646994753
 20
-0.6494312879
 10
-28.9526386063
 20
-0.6531011554
 10
-28.9400868843
 20
-0.654548406
 10
-28.9269952714
 20
-0.6537261568
 10
-28.9134128053
 20
-0.6506812907
 10
-28.8997350127
 20
-0.6454527607
 10
-28.8871927253
 20
-0.6386898875
  0
LWPOLYLINE
  5
23A
100
AcDbEntity
  8
RACCORDO
100
AcDbPolyline
 62
250
  6
CONTINUOUS
 90
10
 70
0
 10
-26.89981109
 20
-11.3734039121
 10
-26.899019807
 20
-11.389632278
 10
-26.8949949206
 20
-11.4133702263
 10
-26.8875899988
 20
-11.4368353369
 10
-26.8768563113
 20
-11.459866097
 10
-26.8628667729
 20
-11.4823067152
 10
-26.8457171659
 20
-11.5040036813
 10
-26.825524801
 20
-11.524808845
 10
-26.8024275378
 20
-11.544580389
 10
-26.7765831343
 20
-11.563183439
  0
LWPOLYLINE
  5
23B
100
AcDbEntity
  8
DRAFT
100
AcDbPolyline
 62
7
  6
CONTINUOUS
 90
29
 70
0
 10
-29.0335217948
 20
-6.6247895074
 10
-29.0320535923
 20
-6.6635235651
 10
-29.0278298109
 20
-6.703079361
 10
-29.0208504504
 20
-6.7434568952
 10
-29.010989516
 20
-6.7850573613
 10
-28.9983730025
 20
-6.8274795656
 10
-28.983378895
 20
-6.8695199275
 10
-28.9660434127
 20
-6.9109709878
 10
-28.9463303364
 20
-6.9520402057
 10
-28.9245089931
 20
-6.9921463786
 10
-28.9003986421
 20
-7.0314950425
 10
-28.8741800242
 20
-7.0698806613
 10
-28.8466646889
 20
-7.1061054252
 10
-28.8179655405
 20
-7.1399298303
 10
-28.7879696748
 20
-7.1715933804
 10
-28.7571499294
 20
-7.2006167768
 10
-28.7253892902
 20
-7.227055312
 10
-28.6928047714
 20
-7.2508536934
 10
-28.6602202526
 20
-7.2713667444
 10
-28.6276357338
 20
-7.288481479
 10
-28.595051215
 20
-7.3023108831
 10
-28.5632905758
 20
-7.3125487379
 10
-28.5324708304
 20
-7.319115211
 10
-28.5024749647
 20
-7.3220901348
 10
-28.4737758163
 20
-7.3214067869
 10
-28.446260481
 20
-7.3169560424
 10
-28.4200418631
 20
-7.3088470264
 10
-28.3959315121
 20
-7.2973403916
 10
-28.3929765579
 20
-7.2955873834
  0
LWPOLYLINE
  5
23C
100
AcDbEntity
  8
DRAFT
100
AcDbPolyline
 62
250
  6
CONTINUOUS
 90
15
 70
0
 10
-29.4026823728
 20
-1.8463845324
 10
-29.4018953743
 20
-1.9123347766
 10
-29.3950250289
 20
-2.0549328686
 10
-29.3811078009
 20
-2.2008924722
 10
-29.3601890932
 20
-2.3497264312
 10
-29.3323205438
 20
-2.5010101968
 10
-29.2976153415
 20
-2.6540984154
 10
-29.2561595773
 20
-2.8085865019
 10
-29.2079275007
 20
-2.9644122251
 10
-29.1528333805
 20
-3.1215247026
 10
-29.0911415924
 20
-3.2788796524
 10
-29.0234497434
 20
-3.4349263927
 10
-28.9502068292
 20
-3.5887962832
 10
-28.8715796362
 20
-3.7402914948
 10
-28.7878864131
 20
-3.8888997044
  0
LWPOLYLINE
  5
23D
100
AcDbEntity
  8
DRAFT
100
AcDbPolyline
 62
250
  6
CONTINUOUS
 90
15
 70
0
 10
-29.4026823728
 20
34.8947779233
 10
-29.4018950022
 20
34.8288119834
 10
-29.395023785
 20
34.6862123206
 10
-29.3811055451
 20
34.5402508938
 10
-29.3601856813
 20
34.3914150345
 10
-29.3323159132
 20
34.2401297352
 10
-29.2976096996
 20
34.0870412542
 10
-29.2561530409
 20
33.9325533323
 10
-29.2079195001
 20
33.7767259897
 10
-29.1528217817
 20
33.619606515
 10
-29.0911250966
 20
33.4622428518
 10
-29.0234307323
 20
33.3061942671
 10
-28.9501898631
 20
33.152332063
 10
-28.8715687991
 20
33.000850927
 10
-28.7878864131
 20
32.8522627513
  0
LINE
  5
23E
100
AcDbEntity
  8
DRAFT
100
AcDbLine
 62
7
  6
CONTINUOUS
 10
-29.0335217948
 20
32.5615896369
 11
-29.0335217948
 21
31.1141583276
  0
LINE
  5
23F
100
AcDbEntity
  8
DRAFT
100
AcDbLine
 62
7
  6
CONTINUOUS
 10
-29.0335217948
 20
0.9503630197
 11
-29.0335217948
 21
-0.4970682896
  0
LINE
  5
240
100
AcDbEntity
  8
DRAFT
100
AcDbLine
 62
7
  6
CONTINUOUS
 10
-29.0335217948
 20
-6.6247895074
 11
-29.0335217948
 21
-4.1795728188
  0
LINE
  5
241
100
AcDbEntity
  8
DRAFT
100
AcDbLine
 62
7
  6
CONTINUOUS
 10
-29.0335217948
 20
36.244094166
 11
-29.0335217948
 21
38.6893108546
  0
LINE
  5
242
100
AcDbEntity
  8
DRAFT
100
AcDbLine
 62
7
  6
CONTINUOUS
 10
-28.2869187104
 20
-7.0558687712
 11
-28.2869187104
 21
-6.0580833919
  0
LINE
  5
243
100
AcDbEntity
  8
DRAFT
100
AcDbLine
 62
7
  6
CONTINUOUS
 10
-28.2869187104
 20
37.2604462115
 11
-28.2869187104
 21
38.2582315908
  0
LINE
  5
244
100
AcDbEntity
  8
DRAFT
100
AcDbLine
 62
7
  6
CONTINUOUS
 10
-27.8824027933
 20
-5.2141820307
 11
-27.8824027933
 21
-5.807924681
  0
LWPOLYLINE
  5
245
100
AcDbEntity
  8
RACCORDO
100
AcDbPolyline
 62
7
  6
CONTINUOUS
 90
15
 70
0
 10
-29.4026823728
 20
34.8947779233
 10
-29.3999309687
 20
35.0139915977
 10
-29.3917053476
 20
35.1292150592
 10
-29.3780691218
 20
35.2400598116
 10
-29.3591484987
 20
35.345987281
 10
-29.3350388795
 20
35.4468515412
 10
-29.3057232514
 20
35.5427930848
 10
-29.2713471905
 20
35.6333074511
 10
-29.2319908477
 20
35.7181864659
 10
-29.1873768521
 20
35.7977963892
 10
-29.1374218148
 20
35.8718483604
 10
-29.0822690597
 20
35.9397458501
 10
-29.0218226999
 20
36.0012591612
 10
-28.9560217966
 20
36.0560706181
 10
-28.8871903095
 20
36.102415662
  0
LWPOLYLINE
  5
246
100
AcDbEntity
  8
RACCORDO
100
AcDbPolyline
 62
7
  6
CONTINUOUS
 90
15
 70
0
 10
-29.4026823728
 20
-1.8463845324
 10
-29.3999309687
 20
-1.727170858
 10
-29.3917053476
 20
-1.6119473964
 10
-29.3780691218
 20
-1.5011026441
 10
-29.3591484987
 20
-1.3951751747
 10
-29.3350388795
 20
-1.2943109145
 10
-29.3057232514
 20
-1.1983693709
 10
-29.2713471905
 20
-1.1078550046
 10
-29.2319908477
 20
-1.0229759897
 10
-29.1873768521
 20
-0.9433660665
 10
-29.1374218148
 20
-0.8693140953
 10
-29.0822690597
 20
-0.8014166056
 10
-29.0218226999
 20
-0.7399032945
 10
-28.9560217966
 20
-0.6850918376
 10
-28.8871903095
 20
-0.6387467937
  0
LWPOLYLINE
  5
247
100
AcDbEntity
  8
DRAFT
100
AcDbPolyline
 62
7
  6
CONTINUOUS
 90
12
 70
0
 10
-30.4279872056
 20
4.5903533731
 10
-30.4300190608
 20
4.5300919424
 10
-30.4359173246
 20
4.4729940628
 10
-30.4456819969
 20
4.4190597345
 10
-30.4594406697
 20
4.3679673854
 10
-30.4770657511
 20
4.3200385875
 10
-30.4981744653
 20
4.2762380571
 10
-30.5227392664
 20
4.2367550965
 10
-30.5507877003
 20
4.2014004035
 10
-30.5820196286
 20
4.1705707872
 10
-30.6166204844
 20
4.1442337171
 10
-30.6412529056
 20
4.1291337069
  0
LINE
  5
248
100
AcDbEntity
  8
DRAFT
100
AcDbLine
 62
7
  6
CONTINUOUS
 10
-28.777470542
 20
-0.5705467896
 11
-28.7441391137
 21
-0.440765694
  0
LWPOLYLINE
  5
249
100
AcDbEntity
  8
DRAFT
100
AcDbPolyline
 62
7
  6
CONTINUOUS
 90
3
 70
0
 10
-29.3796490969
 20
34.8646376956
 10
-29.3943551175
 20
35.0241626812
 10
-29.3962870281
 20
35.0650354579
  0
LWPOLYLINE
  5
24A
100
AcDbEntity
  8
DRAFT
100
AcDbPolyline
 62
7
  6
CONTINUOUS
 90
17
 70
0
 10
-29.0335217948
 20
36.244094166
 10
-29.0322239665
 20
36.2191706902
 10
-29.0295640085
 20
36.1964449751
 10
-29.0255419207
 20
36.1759170206
 10
-29.0200393414
 20
36.1576384267
 10
-29.0131746324
 20
36.1415575934
 10
-29.0053028789
 20
36.1275197207
 10
-28.9964525491
 20
36.1154462344
 10
-28.9865951748
 20
36.1054157086
 10
-28.9760004368
 20
36.0975090665
 10
-28.9646771316
 20
36.09171979
 10
-28.9526164627
 20
36.0880543971
 10
-28.940061721
 20
36.0866133652
 10
-28.9269594789
 20
36.0874441039
 10
-28.9133631639
 20
36.0904992035
 10
-28.8996763492
 20
36.0957369122
 10
-28.8871926407
 20
36.1024705992
  0
LWPOLYLINE
  5
24B
100
AcDbEntity
  8
RACCORDO
100
AcDbPolyline
 62
250
  6
CONTINUOUS
 90
10
 70
0
 10
-26.8998110861
 20
36.5680748148
 10
-26.8990418861
 20
36.5521039315
 10
-26.895049457
 20
36.5283639267
 10
-26.8876725086
 20
36.5048848123
 10
-26.876950947
 20
36.4818164286
 10
-26.8629564928
 20
36.4593288202
 10
-26.8457917056
 20
36.4375894704
 10
-26.8255797109
 20
36.4167509129
 10
-26.80245705
 20
36.3969510307
 10
-26.7765831343
 20
36.3783248382
  0
LWPOLYLINE
  5
24C
100
AcDbEntity
  8
DRAFT
100
AcDbPolyline
 62
7
  6
CONTINUOUS
 90
4
 70
0
 10
-26.9122014513
 20
-7.8496132874
 10
-26.9107332488
 20
-7.8883473451
 10
-26.9065094673
 20
-7.927903141
 10
-26.8998110901
 20
-7.9666551091
  0
LWPOLYLINE
  5
24D
100
AcDbEntity
  8
DRAFT
100
AcDbPolyline
 62
7
  6
CONTINUOUS
 90
28
 70
0
 10
-28.2869187104
 20
38.2582315908
 10
-28.2883869129
 20
38.2969656485
 10
-28.2926106943
 20
38.3365214444
 10
-28.2995900548
 20
38.3768989786
 10
-28.3094509892
 20
38.4184994447
 10
-28.3220675027
 20
38.460921649
 10
-28.3370616102
 20
38.5029620109
 10
-28.3543970925
 20
38.5444130712
 10
-28.3741101688
 20
38.5854822891
 10
-28.3959315121
 20
38.625588462
 10
-28.4200418631
 20
38.6649371259
 10
-28.446260481
 20
38.7033227447
 10
-28.4737758163
 20
38.7395475086
 10
-28.5024749647
 20
38.7733719137
 10
-28.5324708304
 20
38.8050354638
 10
-28.5632905758
 20
38.8340588602
 10
-28.595051215
 20
38.8604973954
 10
-28.6276357338
 20
38.8842957768
 10
-28.6602202526
 20
38.9048088278
 10
-28.6928047714
 20
38.9219235624
 10
-28.7253892902
 20
38.9357529665
 10
-28.7571499294
 20
38.9459908212
 10
-28.7879696748
 20
38.9525572944
 10
-28.8179655405
 20
38.9555322181
 10
-28.8466646889
 20
38.9548488703
 10
-28.8741800242
 20
38.9503981258
 10
-28.9003986421
 20
38.9422891098
 10
-28.9208839609
 20
38.9328285188
  0
LINE
  5
24E
100
AcDbEntity
  8
DRAFT
100
AcDbLine
 62
7
  6
CONTINUOUS
 10
-27.3068432925
 20
33.1487768196
 11
-27.3068432925
 21
32.6418232287
  0
LINE
  5
24F
100
AcDbEntity
  8
DRAFT
100
AcDbLine
 62
7
  6
CONTINUOUS
 10
-27.3068432925
 20
-3.592385636
 11
-27.3068432925
 21
-4.8396373445
  0
LINE
  5
250
100
AcDbEntity
  8
DRAFT
100
AcDbLine
 62
7
  6
CONTINUOUS
 10
-26.9122014513
 20
37.4644870746
 11
-26.9122014513
 21
36.4667016954
  0
LINE
  5
251
100
AcDbEntity
  8
DRAFT
100
AcDbLine
 62
7
  6
CONTINUOUS
 10
-26.9122014513
 20
-6.8518279081
 11
-26.9122014513
 21
-7.8496132874
  0
LINE
  5
252
100
AcDbEntity
  8
RACCORDO
100
AcDbLine
 62
7
  6
CONTINUOUS
 10
-26.8998110901
 20
-11.3733969368
 11
-26.8998110901
 21
36.5681113404
  0
LINE
  5
253
100
AcDbEntity
  8
RACCORDO
100
AcDbLine
 62
250
  6
CONTINUOUS
 10
-26.7765831343
 20
-11.563183439
 11
-26.7765831343
 21
36.3783248382
  0
LINE
  5
254
100
AcDbEntity
  8
DRAFT
100
AcDbLine
 62
7
  6
CONTINUOUS
 10
-28.7441391137
 20
-0.440765694
 11
-28.7213759216
 21
-0.3714754467
  0
LINE
  5
255
100
AcDbEntity
  8
DRAFT
100
AcDbLine
 62
7
  6
CONTINUOUS
 10
-28.7878864131
 20
-0.5138203243
 11
-28.7232321286
 21
-0.375389735
  0
LINE
  5
256
100
AcDbEntity
  8
DRAFT
100
AcDbLine
 62
7
  6
CONTINUOUS
 10
-28.7232321286
 20
-0.375389735
 11
-28.6549434447
 21
-0.2320864119
  0
LINE
  5
257
100
AcDbEntity
  8
DRAFT
100
AcDbLine
 62
7
  6
CONTINUOUS
 10
-28.6549434447
 20
-0.2320864119
 11
-28.5830088312
 21
-0.0838738767
  0
LWPOLYLINE
  5
258
100
AcDbEntity
  8
DRAFT
100
AcDbPolyline
 62
7
  6
CONTINUOUS
 90
3
 70
0
 10
-28.5830088312
 20
-0.0838738767
 10
-28.5073821672
 20
0.0693937838
 10
-28.4681871989
 20
0.1479141664
  0
LWPOLYLINE
  5
259
100
AcDbEntity
  8
RACCORDO
100
AcDbPolyline
 62
250
  6
CONTINUOUS
 90
15
 70
0
 10
21.2967742729
 20
-39.3201375052
 10
17.8848412043
 20
-37.5815637962
 10
14.5195828057
 20
-35.8357803879
 10
11.2008047696
 20
-34.0832318862
 10
7.9407327682
 20
-32.3310954713
 10
4.7265183843
 20
-30.5731942669
 10
1.5212779741
 20
-28.7893636246
 10
-1.6867883748
 20
-26.972295813
 10
-4.8842057343
 20
-25.12889621
 10
-8.0690300472
 20
-23.2597754861
 10
-11.2438025472
 20
-21.3628673523
 10
-14.404473193
 20
-19.4399990616
 10
-17.5395489946
 20
-17.4978215941
 10
-20.6450609874
 20
-15.5386844161
 10
-23.7242119192
 20
-13.5604425828
  0
LWPOLYLINE
  5
25A
100
AcDbEntity
  8
RACCORDO
100
AcDbPolyline
 62
250
  6
CONTINUOUS
 90
11
 70
0
 10
21.4000621645
 20
-39.548901087
 10
21.3911896196
 20
-39.544019251
 10
21.372046663
 20
-39.530429454
 10
21.3550864462
 20
-39.5138048743
 10
21.3398964007
 20
-39.4939581217
 10
21.326802384
 20
-39.4711487998
 10
21.3161830796
 20
-39.4457261099
 10
21.3076755248
 20
-39.4175909529
 10
21.301340278
 20
-39.3869420153
 10
21.2976401651
 20
-39.3543186772
 10
21.2967742729
 20
-39.3201375052
  0
LINE
  5
25B
100
AcDbEntity
  8
RACCORDO
100
AcDbLine
 62
250
  6
CONTINUOUS
 10
-23.7242119192
 20
-13.5604425828
 11
-26.7765831343
 21
-11.563183439
  0
LWPOLYLINE
  5
25C
100
AcDbEntity
  8
RACCORDO
100
AcDbPolyline
 62
7
  6
CONTINUOUS
 90
16
 70
0
 10
-26.6753363796
 20
-11.7906328591
 10
-23.7198351243
 20
-13.7250600415
 10
-20.6848226758
 20
-15.6763244021
 10
-17.6192000381
 20
-17.6121348424
 10
-14.523253953
 20
-19.5323093607
 10
-11.3972346925
 20
-21.436695608
 10
-8.2413719602
 20
-23.3251554025
 10
-5.0559094045
 20
-25.1975425539
 10
-1.8411219014
 20
-27.0536975501
 10
1.4027141646
 20
-28.8934618909
 10
4.6753209874
 20
-30.7166774752
 10
7.9764436489
 20
-32.5232039395
 10
11.3058404804
 20
-34.3129092285
 10
14.6632480275
 20
-36.0856506127
 10
18.0483506279
 20
-37.8412636727
 10
21.4000816403
 20
-39.5489109242
  0
LWPOLYLINE
  5
25D
100
AcDbEntity
  8
RACCORDO
100
AcDbPolyline
 62
250
  6
CONTINUOUS
 90
10
 70
0
 10
-26.6753263425
 20
-11.7906394867
 10
-26.6895134153
 20
-11.7802870202
 10
-26.7093329196
 20
-11.7620115257
 10
-26.7267061889
 20
-11.7409042084
 10
-26.7416104256
 20
-11.717049689
 10
-26.754131534
 20
-11.6905289213
 10
-26.7638557446
 20
-11.661691282
 10
-26.7706783856
 20
-11.6307609277
 10
-26.7748713426
 20
-11.5978530255
 10
-26.7765831343
 20
-11.563183439
  0
LWPOLYLINE
  5
25E
100
AcDbEntity
  8
DRAFT
100
AcDbPolyline
 62
7
  6
CONTINUOUS
 90
15
 70
0
 10
-28.4681871989
 20
-4.194120596
 10
-28.5709544372
 20
-4.0395671482
 10
-28.6690015758
 20
-3.8812123813
 10
-28.7620154454
 20
-3.7195459898
 10
-28.8497372269
 20
-3.5549924459
 10
-28.9318400971
 20
-3.3881378731
 10
-29.0079569687
 20
-3.2197375607
 10
-29.0777881214
 20
-3.0505212317
 10
-29.1412256859
 20
-2.8808226513
 10
-29.1982040146
 20
-2.7108100804
 10
-29.2485957154
 20
-2.5407463681
 10
-29.2921228456
 20
-2.3714363345
 10
-29.3285375054
 20
-2.2038529464
 10
-29.3577083434
 20
-2.0388182722
 10
-29.3796490969
 20
-1.87652476
  0
LWPOLYLINE
  5
25F
100
AcDbEntity
  8
DRAFT
100
AcDbPolyline
 62
7
  6
CONTINUOUS
 90
10
 70
0
 10
-27.4830478402
 20
-3.326403661
 10
-27.4641452323
 20
-3.3565179903
 10
-27.4450720609
 20
-3.3864946081
 10
-27.4258283261
 20
-3.4163335144
 10
-27.4064118349
 20
-3.4460380194
 10
-27.3868247802
 20
-3.475604813
 10
-27.3670737408
 20
-3.5050239645
 10
-27.3471609095
 20
-3.5342921638
 10
-27.3270840934
 20
-3.5634127209
 10
-27.3068432925
 20
-3.592385636
  0
LWPOLYLINE
  5
260
100
AcDbEntity
  8
DRAFT
100
AcDbPolyline
 62
7
  6
CONTINUOUS
 90
20
 70
0
 10
-28.044973934
 20
-3.643792693
 10
-28.1421688827
 20
-3.4816406846
 10
-28.2335394636
 20
-3.3174801638
 10
-28.3190856768
 20
-3.1513111306
 10
-28.3990400572
 20
-2.9825980589
 10
-28.4731700699
 20
-2.8118764747
 10
-28.54077811
 20
-2.6407529569
 10
-28.6018026169
 20
-2.4692236861
 10
-28.6563051512
 20
-2.2972924817
 10
-28.7037727896
 20
-2.1265773807
 10
-28.7441391137
 20
-1.9570898837
 10
-28.777470542
 20
-1.7888184902
 10
-28.8034534063
 20
-1.6233467354
 10
-28.8220183363
 20
-1.4607010389
 10
-28.8332347022
 20
-1.3008549812
 10
-28.8369969479
 20
-1.1453128392
 10
-28.8332347022
 20
-0.9941152441
 10
-28.8220183363
 20
-0.8472215647
 10
-28.8034534063
 20
-0.7060141839
 10
-28.777470542
 20
-0.5705467896
  0
LINE
  5
261
100
AcDbEntity
  8
DRAFT
100
AcDbLine
 62
7
  6
CONTINUOUS
 10
-22.3669699
 20
37.6385253756
 11
-22.3669699
 21
37.8792146691
  0
LINE
  5
262
100
AcDbEntity
  8
DRAFT
100
AcDbLine
 62
7
  6
CONTINUOUS
 10
-27.3167173683
 20
-4.8457436211
 11
-27.8470474542
 21
-5.7860604089
  0
LINE
  5
263
100
AcDbEntity
  8
DRAFT
100
AcDbLine
 62
7
  6
CONTINUOUS
 10
-28.5313079221
 20
0.0210953596
 11
-28.4731700699
 21
0.1011126373
  0
LINE
  5
264
100
AcDbEntity
  8
DRAFT
100
AcDbLine
 62
7
  6
CONTINUOUS
 10
-28.4731700699
 20
0.1011126373
 11
-28.3990400572
 21
0.186230741
  0
LWPOLYLINE
  5
265
100
AcDbEntity
  8
DRAFT
100
AcDbPolyline
 62
7
  6
CONTINUOUS
 90
13
 70
0
 10
29.6760891953
 20
-41.5435709348
 10
29.6263119097
 20
-41.5168798448
 10
29.577196882
 20
-41.4944956946
 10
29.5287441124
 20
-41.4764184843
 10
29.4806699453
 20
-41.462598122
 10
29.4332580363
 20
-41.4530846996
 10
29.3873593512
 20
-41.4480284922
 10
29.3431197839
 20
-41.4474893558
 10
29.3003934407
 20
-41.4514074345
 10
29.2595936055
 20
-41.459753436
 10
29.2206121055
 20
-41.4726324147
 10
29.1835571135
 20
-41.4899393162
 10
29.1700060809
 20
-41.4976139579
  0
LINE
  5
266
100
AcDbEntity
  8
DRAFT
100
AcDbLine
 62
7
  6
CONTINUOUS
 10
-30.4315316228
 20
-7.573007249
 11
-26.8998110901
 21
-9.6121784217
  0
LINE
  5
267
100
AcDbEntity
  8
DRAFT
100
AcDbLine
 62
7
  6
CONTINUOUS
 10
23.4550284845
 20
-38.6864316978
 11
28.9725268313
 21
-41.8721660927
  0
LWPOLYLINE
  5
268
100
AcDbEntity
  8
DRAFT
100
AcDbPolyline
 62
7
  6
CONTINUOUS
 90
10
 70
0
 10
-28.4681871989
 20
-4.194120596
 10
-28.5073388664
 20
-4.159348242
 10
-28.5455809221
 20
-4.1247963213
 10
-28.5829133662
 20
-4.0904648339
 10
-28.619333227
 20
-4.0563613838
 10
-28.6548434761
 20
-4.022478367
 10
-28.6894530279
 20
-3.9887929719
 10
-28.7231648537
 20
-3.9552975944
 10
-28.7559759821
 20
-3.9219998386
 10
-28.7878864131
 20
-3.8888997044
  0
LWPOLYLINE
  5
269
100
AcDbEntity
  8
DRAFT
100
AcDbPolyline
 62
7
  6
CONTINUOUS
 90
25
 70
0
 10
-28.7878864131
 20
-3.8888997044
 10
-28.798347048
 20
-3.8795585212
 10
-28.8093446088
 20
-3.8723485756
 10
-28.8208790956
 20
-3.8672698676
 10
-28.8329904897
 20
-3.8642927659
 10
-28.8456388097
 20
-3.8634469019
 10
-28.8587041117
 20
-3.8648211686
 10
-28.872332157
 20
-3.8684964396
 10
-28.8863771843
 20
-3.8743918415
 10
-28.9002819661
 20
-3.8823536467
 10
-28.9139816798
 20
-3.892467512
 10
-28.9275411479
 20
-3.9046477805
 10
-28.940597611
 20
-3.9184837543
 10
-28.9531111343
 20
-3.9339679481
 10
-28.9651216525
 20
-3.9511078471
 10
-28.9763862108
 20
-3.9695152086
 10
-28.9869071307
 20
-3.9891771277
 10
-28.9966820907
 20
-4.0101065094
 10
-29.0054611716
 20
-4.0319538256
 10
-29.0132796062
 20
-4.054678214
 10
-29.0201021617
 20
-4.078320537
 10
-29.0255732201
 20
-4.1026538531
 10
-29.0295742421
 20
-4.1276025152
 10
-29.032223767
 20
-4.1532421705
 10
-29.0335217948
 20
-4.1795728188
  0
LINE
  5
26A
100
AcDbEntity
  8
DRAFT
100
AcDbLine
 62
7
  6
CONTINUOUS
 10
-29.2771365254
 20
5.2095428459
 11
-30.4279872056
 21
4.5903533731
  0
LINE
  5
26B
100
AcDbEntity
  8
DRAFT
100
AcDbLine
 62
7
  6
CONTINUOUS
 10
-30.4289424682
 20
4.5620218792
 11
-31.1350939868
 21
4.1821576897
  0
LWPOLYLINE
  5
26C
100
AcDbEntity
  8
DRAFT
100
AcDbPolyline
 62
7
  6
CONTINUOUS
 90
12
 70
0
 10
-30.6412529056
 20
4.1291337069
 10
-30.6544048345
 20
4.1224217239
 10
-30.6945162414
 20
4.1056292082
 10
-30.7368338068
 20
4.0940004777
 10
-30.781478429
 20
4.0873912247
 10
-30.8279563654
 20
4.0858629278
 10
-30.8764453352
 20
4.089486394
 10
-30.9267676191
 20
4.0981908162
 10
-30.9778963163
 20
4.1118252512
 10
-31.0294891265
 20
4.1303393846
 10
-31.08188835
 20
4.1537835307
 10
-31.1350939868
 20
4.1821576897
  0
LINE
  5
26D
100
AcDbEntity
  8
DRAFT
100
AcDbLine
 62
7
  6
CONTINUOUS
 10
-28.2869187104
 20
-6.0580833919
 11
-26.9122014513
 21
-6.8518279081
  0
LINE
  5
26E
100
AcDbEntity
  8
DRAFT
100
AcDbLine
 62
7
  6
CONTINUOUS
 10
26.8279139189
 20
-37.880697001
 11
25.4531966598
 21
-37.0869524849
  0
LINE
  5
26F
100
AcDbEntity
  8
DRAFT
100
AcDbLine
 62
7
  6
CONTINUOUS
 10
-27.8470474542
 20
-5.7860604089
 11
-26.8998110901
 21
-6.3329828139
  0
LINE
  5
270
100
AcDbEntity
  8
DRAFT
100
AcDbLine
 62
7
  6
CONTINUOUS
 10
25.8930679159
 20
-36.8149295019
 11
27.2834139388
 21
-37.6176978703
  0
LINE
  5
271
100
AcDbEntity
  8
DRAFT
100
AcDbLine
 62
7
  6
CONTINUOUS
 10
23.6656815552
 20
-34.4119470335
 11
23.088887795
 21
-34.0789135453
  0
LINE
  5
272
100
AcDbEntity
  8
DRAFT
100
AcDbLine
 62
7
  6
CONTINUOUS
 10
27.670356992
 20
-36.5945912069
 11
26.4233980018
 21
-35.874612714
  0
LINE
  5
273
100
AcDbEntity
  8
DRAFT
100
AcDbLine
 62
7
  6
CONTINUOUS
 10
-26.8998110901
 20
-5.0864600811
 11
-27.3167173683
 21
-4.8457436211
  0
LINE
  5
274
100
AcDbEntity
  8
DRAFT
100
AcDbLine
 62
7
  6
CONTINUOUS
 10
-26.9704424878
 20
-4.6316020407
 11
-26.8998110901
 21
-4.6723837245
  0
LINE
  5
275
100
AcDbEntity
  8
DRAFT
100
AcDbLine
 62
7
  6
CONTINUOUS
 10
27.9501295312
 20
-36.3420520081
 11
26.7696728824
 21
-35.6604711336
  0
LWPOLYLINE
  5
276
100
AcDbEntity
  8
DRAFT
100
AcDbPolyline
 62
7
  6
CONTINUOUS
 90
9
 70
0
 10
-28.8871927253
 20
-0.6386898875
 10
-28.8720342672
 20
-0.628185635
 10
-28.8585252014
 20
-0.6167041403
 10
-28.8455191813
 20
-0.6035339516
 10
-28.8329021314
 20
-0.5886076631
 10
-28.8208161226
 20
-0.5721506214
 10
-28.8093085117
 20
-0.5542379422
 10
-28.7983319419
 20
-0.5347945098
 10
-28.7878864131
 20
-0.5138203243
  0
LINE
  5
277
100
AcDbEntity
  8
DRAFT
100
AcDbLine
 62
7
  6
CONTINUOUS
 10
-28.0629403043
 20
0.3899614312
 11
-28.4681871989
 21
0.1479141664
  0
LINE
  5
278
100
AcDbEntity
  8
RACCORDO
100
AcDbLine
 62
250
  6
CONTINUOUS
 10
-28.6596817737
 20
3.5693559788
 11
-27.5085627721
 21
4.1883905262
  0
LINE
  5
279
100
AcDbEntity
  8
DRAFT
100
AcDbLine
 62
7
  6
CONTINUOUS
 10
-28.3274454313
 20
-2.8388590747
 11
-27.4830478402
 21
-3.326403661
  0
LINE
  5
27A
100
AcDbEntity
  8
DRAFT
100
AcDbLine
 62
7
  6
CONTINUOUS
 10
25.4126699388
 20
-33.8677281676
 11
26.25706753
 21
-34.3552727539
  0
LINE
  5
27B
100
AcDbEntity
  8
DRAFT
100
AcDbLine
 62
7
  6
CONTINUOUS
 10
30.7877118935
 20
-33.9460182134
 11
31.1350939868
 21
-34.1465922803
  0
LINE
  5
27C
100
AcDbEntity
  8
DRAFT
100
AcDbLine
 62
7
  6
CONTINUOUS
 10
27.5745170034
 20
-31.7344091171
 11
24.7065935753
 21
-30.0785060732
  0
LINE
  5
27D
100
AcDbEntity
  8
DRAFT
100
AcDbLine
 62
7
  6
CONTINUOUS
 10
-26.8998110901
 20
-0.2816147996
 11
-29.0335217948
 21
0.9503630197
  0
LWPOLYLINE
  5
27E
100
AcDbEntity
  8
DRAFT
100
AcDbPolyline
 62
7
  6
CONTINUOUS
 90
10
 70
0
 10
-28.3929765579
 20
-7.2955873834
 10
-28.3741101688
 20
-7.2824329588
 10
-28.3543970925
 20
-7.2641279074
 10
-28.3370616102
 20
-7.2426954276
 10
-28.3220675027
 20
-7.2179698851
 10
-28.3094509892
 20
-7.1901169143
 10
-28.2995900548
 20
-7.1599036081
 10
-28.2926106943
 20
-7.1275856645
 10
-28.2883869129
 20
-7.0929073855
 10
-28.2869187104
 20
-7.0558687712
  0
LINE
  5
27F
100
AcDbEntity
  8
DRAFT
100
AcDbLine
 62
7
  6
CONTINUOUS
 10
-26.9704424878
 20
-4.6316020407
 11
-27.3167173683
 21
-4.8457436211
  0
LINE
  5
280
100
AcDbEntity
  8
DRAFT
100
AcDbLine
 62
7
  6
CONTINUOUS
 10
-28.044973934
 20
-3.643792693
 11
-27.4830478402
 21
-3.326403661
  0
LWPOLYLINE
  5
281
100
AcDbEntity
  8
DRAFT
100
AcDbPolyline
 62
250
  6
CONTINUOUS
 90
31
 70
0
 10
-29.0335217948
 20
-0.4970682896
 10
-29.1207938214
 20
-0.5426388963
 10
-29.2028219264
 20
-0.5960265557
 10
-29.2796061098
 20
-0.657231268
 10
-29.3513533532
 20
-0.7264990574
 10
-29.4178566749
 20
-0.8035838995
 10
-29.4784951303
 20
-0.8877477217
 10
-29.5332104024
 20
-0.9790597785
 10
-29.5820608083
 20
-1.0774508153
 10
-29.6246003545
 20
-1.181974996
 10
-29.660766098
 20
-1.2926819051
 10
-29.6906209818
 20
-1.4095219582
 10
-29.7139078423
 20
-1.5314005658
 10
-29.7305681724
 20
-1.6583519898
 10
-29.7406604791
 20
-1.7903419684
 10
-29.7441031197
 20
-1.9261731269
 10
-29.7408429798
 20
-2.0658695195
 10
-29.7309331737
 20
-2.209407092
 10
-29.7144514024
 20
-2.3555163074
 10
-29.6913690843
 20
-2.5041595659
 10
-29.6617148011
 20
-2.6553744672
 10
-29.6256519983
 20
-2.8080042735
 10
-29.5831425313
 20
-2.9620973783
 10
-29.5342245449
 20
-3.1176053881
 10
-29.4791759185
 20
-3.2732263855
 10
-29.4176142671
 20
-3.4295318962
 10
-29.3499219759
 20
-3.5859503945
 10
-29.2775240796
 20
-3.7394653854
 10
-29.2008955897
 20
-3.8890713706
 10
-29.1195614948
 20
-4.0357738484
 10
-29.0335217948
 20
-4.1795728188
  0
LINE
  5
282
100
AcDbEntity
  8
RACCORDO
100
AcDbLine
 62
250
  6
CONTINUOUS
 10
-28.4368898746
 20
-2.8954298452
 11
-28.3274454313
 21
-2.8388590747
  0
LINE
  5
283
100
AcDbEntity
  8
RACCORDO
100
AcDbLine
 62
7
  6
CONTINUOUS
 10
-30.4279872056
 20
4.5903533731
 11
-28.6596817737
 21
3.5693559788
  0
LINE
  5
284
100
AcDbEntity
  8
RACCORDO
100
AcDbLine
 62
7
  6
CONTINUOUS
 10
27.2006769822
 20
-28.6837150721
 11
28.9689824141
 21
-29.7047124664
  0
LINE
  5
285
100
AcDbEntity
  8
RACCORDO
100
AcDbLine
 62
7
  6
CONTINUOUS
 10
-29.2771365254
 20
5.2095428459
 11
-27.5085627721
 21
4.1883905262
  0
LINE
  5
286
100
AcDbEntity
  8
RACCORDO
100
AcDbLine
 62
7
  6
CONTINUOUS
 10
28.3122996805
 20
-28.0418758542
 11
30.0808734338
 21
-29.063028174
  0
LWPOLYLINE
  5
287
100
AcDbEntity
  8
DRAFT
100
AcDbPolyline
 62
7
  6
CONTINUOUS
 90
22
 70
0
 10
29.6760891953
 20
-30.9294573365
 10
29.6228835585
 20
-30.8963909598
 10
29.5704843351
 20
-30.8593257961
 10
29.5188915249
 20
-30.8182618455
 10
29.4677628277
 20
-30.7728541425
 10
29.4174405437
 20
-30.7234476526
 10
29.3689515739
 20
-30.6710772719
 10
29.3224736376
 20
-30.6158774191
 10
29.2778290154
 20
-30.5577136755
 10
29.2355114499
 20
-30.4972176811
 10
29.195400043
 20
-30.4341055182
 10
29.1576156929
 20
-30.3686611045
 10
29.1230148371
 20
-30.3023678335
 10
29.0917829089
 20
-30.2354723693
 10
29.0637344749
 20
-30.1677280478
 10
29.0391696738
 20
-30.0998782706
 10
29.0180609596
 20
-30.0317019262
 10
29.0004358782
 20
-29.9634201261
 10
28.9866772054
 20
-29.8964396065
 10
28.9769125331
 20
-29.8312292793
 10
28.9710142693
 20
-29.7673202326
 10
28.9689824141
 20
-29.7047124664
  0
LWPOLYLINE
  5
288
100
AcDbEntity
  8
DRAFT
100
AcDbPolyline
 62
7
  6
CONTINUOUS
 90
23
 70
0
 10
-26.2133130323
 20
37.2713299664
 10
-26.2157412666
 20
37.2781382309
 10
-26.2330767489
 20
37.3195892912
 10
-26.2527898252
 20
37.3606585091
 10
-26.2746111685
 20
37.400764682
 10
-26.2987215195
 20
37.4401133459
 10
-26.3249401375
 20
37.4784989648
 10
-26.3524554727
 20
37.5147237286
 10
-26.3811546212
 20
37.5485481337
 10
-26.4111504869
 20
37.5802116838
 10
-26.4419702323
 20
37.6092350802
 10
-26.4737308714
 20
37.6356736154
 10
-26.5063153902
 20
37.6594719968
 10
-26.538899909
 20
37.6799850478
 10
-26.5714844279
 20
37.6970997824
 10
-26.6040689467
 20
37.7109291865
 10
-26.6358295858
 20
37.7211670413
 10
-26.6666493312
 20
37.7277335144
 10
-26.6966451969
 20
37.7307084382
 10
-26.7253443454
 20
37.7300250903
 10
-26.7528596806
 20
37.7255743459
 10
-26.7790782985
 20
37.7174653298
 10
-26.7995636173
 20
37.7080047388
  0
LINE
  5
289
100
AcDbEntity
  8
DRAFT
100
AcDbLine
 62
7
  6
CONTINUOUS
 10
-27.8470474542
 20
-5.7860604089
 11
-28.2869187104
 21
-6.0580833919
  0
LINE
  5
28A
100
AcDbEntity
  8
DRAFT
100
AcDbLine
 62
7
  6
CONTINUOUS
 10
-26.8998110901
 20
-6.8446738926
 11
-26.9122014513
 21
-6.8518279081
  0
LINE
  5
28B
100
AcDbEntity
  8
DRAFT
100
AcDbLine
 62
7
  6
CONTINUOUS
 10
-27.8824027933
 20
-5.2141820307
 11
-27.3548488146
 21
-4.9133536624
  0
LINE
  5
28C
100
AcDbEntity
  8
DRAFT
100
AcDbLine
 62
250
  6
CONTINUOUS
 10
-29.0335217948
 20
-6.6247895074
 11
-28.2869187104
 21
-6.2085011012
  0
LINE
  5
28D
100
AcDbEntity
  8
DRAFT
100
AcDbLine
 62
7
  6
CONTINUOUS
 10
-27.3068432925
 20
-3.592385636
 11
-28.4681871989
 21
-4.194120596
  0
LWPOLYLINE
  5
28E
100
AcDbEntity
  8
RACCORDO
100
AcDbPolyline
 62
7
  6
CONTINUOUS
 90
9
 70
0
 10
-28.4696243061
 20
-2.8200423766
 10
-28.4565509672
 20
-2.8148680418
 10
-28.4403298348
 20
-2.8112067281
 10
-28.4230968034
 20
-2.8099473471
 10
-28.4048903085
 20
-2.8110615716
 10
-28.3861754171
 20
-2.8145134515
 10
-28.3671071516
 20
-2.8202910037
 10
-28.3475304897
 20
-2.8284062114
 10
-28.3274454313
 20
-2.8388590747
  0
LWPOLYLINE
  5
28F
100
AcDbEntity
  8
DRAFT
100
AcDbPolyline
 62
7
  6
CONTINUOUS
 90
10
 70
0
 10
27.1206307072
 20
-35.7490215544
 10
27.198736273
 20
-35.8179646667
 10
27.2772870005
 20
-35.8843801499
 10
27.3562828897
 20
-35.9482680041
 10
27.4357978256
 20
-36.0096826421
 10
27.5157579232
 20
-36.0685696511
 10
27.595941527
 20
-36.1247657925
 10
27.6762747518
 20
-36.1782166536
 10
27.7568314828
 20
-36.2289766471
 10
27.83761172
 20
-36.277045773
  0
LWPOLYLINE
  5
290
100
AcDbEntity
  8
DRAFT
100
AcDbPolyline
 62
7
  6
CONTINUOUS
 90
10
 70
0
 10
25.2719281713
 20
-35.222989689
 10
25.2327765038
 20
-35.1882173349
 10
25.194534448
 20
-35.1536654142
 10
25.157202004
 20
-35.1193339268
 10
25.1207821432
 20
-35.0852304767
 10
25.085271894
 20
-35.0513474599
 10
25.0506623423
 20
-35.0176620648
 10
25.0169505165
 20
-34.9841666873
 10
24.9841393881
 20
-34.9508689315
 10
24.952228957
 20
-34.9177687973
  0
LWPOLYLINE
  5
291
100
AcDbEntity
  8
DRAFT
100
AcDbPolyline
 62
7
  6
CONTINUOUS
 90
25
 70
0
 10
24.952228957
 20
-34.9177687973
 10
24.9417683222
 20
-34.9084276141
 10
24.9307707614
 20
-34.9012176685
 10
24.9192362746
 20
-34.8961389605
 10
24.9071248805
 20
-34.8931618588
 10
24.8944765605
 20
-34.8923159948
 10
24.8814112584
 20
-34.8936902615
 10
24.8677832132
 20
-34.8973655325
 10
24.8537381858
 20
-34.9032609344
 10
24.839833404
 20
-34.9112227396
 10
24.8261336904
 20
-34.9213366049
 10
24.8125742223
 20
-34.9335168735
 10
24.7995177591
 20
-34.9473528472
 10
24.7870042359
 20
-34.962837041
 10
24.7749937177
 20
-34.97997694
 10
24.7637291594
 20
-34.9983843015
 10
24.7532082395
 20
-35.0180462206
 10
24.7434332795
 20
-35.0389756023
 10
24.7346541986
 20
-35.0608229185
 10
24.726835764
 20
-35.0835473069
 10
24.7200132085
 20
-35.1071896299
 10
24.71454215
 20
-35.131522946
 10
24.710541128
 20
-35.1564716081
 10
24.7078916031
 20
-35.1821112634
 10
24.7065935753
 20
-35.2084419117
  0
LWPOLYLINE
  5
292
100
AcDbEntity
  8
DRAFT
100
AcDbPolyline
 62
7
  6
CONTINUOUS
 90
20
 70
0
 10
-28.044973934
 20
33.0973697627
 10
-28.1421688827
 20
33.2595217711
 10
-28.2335394636
 20
33.4236822919
 10
-28.3190856768
 20
33.589851325
 10
-28.3990400572
 20
33.7585643968
 10
-28.4731700699
 20
33.929285981
 10
-28.54077811
 20
34.1004094987
 10
-28.6018026169
 20
34.2719387696
 10
-28.6563051512
 20
34.443869974
 10
-28.7037727896
 20
34.614585075
 10
-28.7441391137
 20
34.784072572
 10
-28.777470542
 20
34.9523439655
 10
-28.8034534063
 20
35.1178157203
 10
-28.8220183363
 20
35.2804614168
 10
-28.8332347022
 20
35.4403074745
 10
-28.8369969479
 20
35.5958496165
 10
-28.8332347022
 20
35.7470472116
 10
-28.8220183363
 20
35.893940891
 10
-28.8034534063
 20
36.0351482718
 10
-28.777470542
 20
36.1706156661
  0
LINE
  5
293
100
AcDbEntity
  8
DRAFT
100
AcDbLine
 62
250
  6
CONTINUOUS
 10
-26.9122014513
 20
-7.8496132874
 11
-26.8998110901
 21
-7.842704712
  0
LWPOLYLINE
  5
294
100
AcDbEntity
  8
DRAFT
100
AcDbPolyline
 62
7
  6
CONTINUOUS
 90
15
 70
0
 10
-28.4681871989
 20
32.5470418596
 10
-28.5709544372
 20
32.7015953075
 10
-28.6690015758
 20
32.8599500744
 10
-28.7620154454
 20
33.0216164659
 10
-28.8497372269
 20
33.1861700097
 10
-28.9318400971
 20
33.3530245826
 10
-29.0079569687
 20
33.5214248949
 10
-29.0777881214
 20
33.690641224
 10
-29.1412256859
 20
33.8603398043
 10
-29.1982040146
 20
34.0303523753
 10
-29.2485957154
 20
34.2004160876
 10
-29.2921228456
 20
34.3697261211
 10
-29.3285375054
 20
34.5373095092
 10
-29.3577083434
 20
34.7023441835
 10
-29.3796490969
 20
34.8646376956
  0
LWPOLYLINE
  5
295
100
AcDbEntity
  8
DRAFT
100
AcDbPolyline
 62
7
  6
CONTINUOUS
 90
10
 70
0
 10
-27.4830478402
 20
33.4147587947
 10
-27.4641452323
 20
33.3846444654
 10
-27.4450720609
 20
33.3546678476
 10
-27.4258283261
 20
33.3248289413
 10
-27.4064118349
 20
33.2951244362
 10
-27.3868247802
 20
33.2655576427
 10
-27.3670737408
 20
33.2361384912
 10
-27.3471609095
 20
33.2068702919
 10
-27.3270840934
 20
33.1777497347
 10
-27.3068432925
 20
33.1487768196
  0
LINE
  5
296
100
AcDbEntity
  8
RACCORDO
100
AcDbLine
 62
250
  6
CONTINUOUS
 10
21.6193026022
 20
9.2435245034
 11
23.3121820125
 21
10.2209686171
  0
LINE
  5
297
100
AcDbEntity
  8
RACCORDO
100
AcDbLine
 62
250
  6
CONTINUOUS
 10
21.9728021449
 20
8.6312453356
 11
23.6656815552
 21
9.6086894493
  0
LWPOLYLINE
  5
298
100
AcDbEntity
  8
RACCORDO
100
AcDbPolyline
 62
250
  6
CONTINUOUS
 90
19
 70
0
 10
21.9728021449
 20
8.6312453356
 10
21.9422429752
 20
8.6155490249
 10
21.9094853456
 20
8.6013159779
 10
21.8747353579
 20
8.5886527212
 10
21.8381861806
 20
8.5776484182
 10
21.8001016465
 20
8.5684004532
 10
21.7608250935
 20
8.5609995804
 10
21.72065889
 20
8.5555001105
 10
21.6798442198
 20
8.5519324632
 10
21.6386509328
 20
8.5503207806
 10
21.5973543354
 20
8.5506773717
 10
21.5562416517
 20
8.5530012906
 10
21.5156015063
 20
8.5572767997
 10
21.4757136296
 20
8.5634742963
 10
21.4368478429
 20
8.5715516805
 10
21.3992700164
 20
8.5814536486
 10
21.3632367372
 20
8.593112467
 10
21.3289936247
 20
8.6064485373
 10
21.2967742729
 20
8.621370772
  0
LWPOLYLINE
  5
299
100
AcDbEntity
  8
DRAFT
100
AcDbPolyline
 62
7
  6
CONTINUOUS
 90
3
 70
0
 10
-27.1135703098
 20
32.5302298307
 10
-26.9870204106
 20
32.387031275
 10
-26.8998110901
 20
32.2946655611
  0
LWPOLYLINE
  5
29A
100
AcDbEntity
  8
DRAFT
100
AcDbPolyline
 62
7
  6
CONTINUOUS
 90
15
 70
0
 10
25.2719281713
 20
-35.222989689
 10
25.169160933
 20
-35.0684362411
 10
25.0711137943
 20
-34.9100814742
 10
24.9780999248
 20
-34.7484150827
 10
24.8903781433
 20
-34.5838615388
 10
24.8082752731
 20
-34.417006966
 10
24.7321584015
 20
-34.2486066536
 10
24.6623272488
 20
-34.0793903246
 10
24.5988896843
 20
-33.9096917443
 10
24.5419113556
 20
-33.7396791733
 10
24.4915196548
 20
-33.569615461
 10
24.4479925246
 20
-33.4003054274
 10
24.4115778647
 20
-33.2327220393
 10
24.3824070268
 20
-33.0676873651
 10
24.3604662732
 20
-32.905393853
  0
LWPOLYLINE
  5
29B
100
AcDbEntity
  8
RACCORDO
100
AcDbPolyline
 62
250
  6
CONTINUOUS
 90
19
 70
0
 10
21.6193026029
 20
9.243524503
 10
21.5912429596
 20
9.2225364723
 10
21.5635083478
 20
9.1991757221
 10
21.5362096545
 20
9.173382443
 10
21.5095221782
 20
9.1448306703
 10
21.4834964263
 20
9.1136116439
 10
21.4582531793
 20
9.080433489
 10
21.4343974916
 20
9.0455257791
 10
21.4121332736
 20
9.0088440287
 10
21.3911896267
 20
8.9709589502
 10
21.3720466676
 20
8.932208655
 10
21.3550864493
 20
8.8926970096
 10
21.3398964023
 20
8.8527880416
 10
21.3268023835
 20
8.8127676804
 10
21.3161830773
 20
8.7728859274
 10
21.3076755215
 20
8.7335214946
 10
21.3013402747
 20
8.6949939409
 10
21.297640163
 20
8.6575286797
 10
21.2967742729
 20
8.621370772
  0
LINE
  5
29C
100
AcDbEntity
  8
DRAFT
100
AcDbLine
 62
7
  6
CONTINUOUS
 10
23.6656815552
 20
5.6207493044
 11
23.0181771168
 21
5.2468895965
  0
LWPOLYLINE
  5
29D
100
AcDbEntity
  8
DRAFT
100
AcDbPolyline
 62
7
  6
CONTINUOUS
 90
11
 70
0
 10
24.8192314093
 20
7.9039594259
 10
24.8156063771
 20
7.901913382
 10
24.7937850338
 20
7.8870059493
 10
24.7740719574
 20
7.8687008979
 10
24.7567364751
 20
7.847268418
 10
24.7417423677
 20
7.8225428756
 10
24.7291258542
 20
7.7946899047
 10
24.7192649198
 20
7.7644765986
 10
24.7122855593
 20
7.7321586549
 10
24.7080617778
 20
7.697480376
 10
24.7065935753
 20
7.6604417617
  0
LINE
  5
29E
100
AcDbEntity
  8
DRAFT
100
AcDbLine
 62
250
  6
CONTINUOUS
 10
24.7065935753
 20
7.6604417617
 11
25.0860897993
 21
7.8720399743
  0
LWPOLYLINE
  5
29F
100
AcDbEntity
  8
DRAFT
100
AcDbPolyline
 62
250
  6
CONTINUOUS
 90
31
 70
0
 10
24.7065935753
 20
5.2152250731
 10
24.619321541
 20
5.1696544619
 10
24.5372934292
 20
5.1162667965
 10
24.4605092401
 20
5.055062077
 10
24.388761992
 20
4.9857942789
 10
24.3222586664
 20
4.9087094266
 10
24.2616202083
 20
4.8245455931
 10
24.2069049348
 20
4.733233524
 10
24.1580545287
 20
4.6348424737
 10
24.1155149834
 20
4.5303182786
 10
24.0793492422
 20
4.4196113543
 10
24.0494943618
 20
4.3027712853
 10
24.0262075061
 20
4.1808926612
 10
24.009547182
 20
4.0539412202
 10
23.9994548825
 20
3.9219512242
 10
23.9960122503
 20
3.7861200481
 10
23.9992724
 20
3.6464236375
 10
24.009182217
 20
3.5028860468
 10
24.0256640002
 20
3.3567768137
 10
24.048746331
 20
3.2081335392
 10
24.078400628
 20
3.0569186224
 10
24.1144634463
 20
2.9042887987
 10
24.1569729307
 20
2.7501956738
 10
24.2058909364
 20
2.5946876421
 10
24.2609395845
 20
2.4390666216
 10
24.3225012717
 20
2.2827610675
 10
24.3901936013
 20
2.1263425247
 10
24.4625915035
 20
1.9728275457
 10
24.5392199549
 20
1.823221648
 10
24.6205539788
 20
1.6765193141
 10
24.7065935753
 20
1.532720544
  0
LWPOLYLINE
  5
2A0
100
AcDbEntity
  8
RACCORDO
100
AcDbPolyline
 62
7
  6
CONTINUOUS
 90
9
 70
0
 10
25.270491064
 20
2.8922509862
 10
25.283564403
 20
2.897425321
 10
25.2997855354
 20
2.9010866346
 10
25.3170185667
 20
2.9023460157
 10
25.3352250617
 20
2.9012317912
 10
25.3539399531
 20
2.8977799112
 10
25.3730082186
 20
2.892002359
 10
25.3925848805
 20
2.8838871513
 10
25.4126699388
 20
2.8734342881
  0
LWPOLYLINE
  5
2A1
100
AcDbEntity
  8
DRAFT
100
AcDbPolyline
 62
7
  6
CONTINUOUS
 90
10
 70
0
 10
-28.4681871989
 20
32.5470418596
 10
-28.5073388664
 20
32.5818142137
 10
-28.5455809221
 20
32.6163661344
 10
-28.5829133662
 20
32.6506976218
 10
-28.619333227
 20
32.6848010719
 10
-28.6548434761
 20
32.7186840887
 10
-28.6894530279
 20
32.7523694838
 10
-28.7231648537
 20
32.7858648613
 10
-28.7559759821
 20
32.8191626171
 10
-28.7878864131
 20
32.8522627513
  0
LWPOLYLINE
  5
2A2
100
AcDbEntity
  8
DRAFT
100
AcDbPolyline
 62
7
  6
CONTINUOUS
 90
25
 70
0
 10
-28.7878864131
 20
32.8522627513
 10
-28.798347048
 20
32.8616039345
 10
-28.8093446088
 20
32.8688138801
 10
-28.8208790956
 20
32.8738925881
 10
-28.8329904897
 20
32.8768696897
 10
-28.8456388097
 20
32.8777155538
 10
-28.8587041117
 20
32.8763412871
 10
-28.872332157
 20
32.872666016
 10
-28.8863771843
 20
32.8667706142
 10
-28.9002819661
 20
32.858808809
 10
-28.9139816798
 20
32.8486949437
 10
-28.9275411479
 20
32.8365146751
 10
-28.940597611
 20
32.8226787014
 10
-28.9531111343
 20
32.8071945076
 10
-28.9651216525
 20
32.7900546086
 10
-28.9763862108
 20
32.7716472471
 10
-28.9869071307
 20
32.751985328
 10
-28.9966820907
 20
32.7310559463
 10
-29.0054611716
 20
32.7092086301
 10
-29.0132796062
 20
32.6864842416
 10
-29.0201021617
 20
32.6628419187
 10
-29.0255732201
 20
32.6385086026
 10
-29.0295742421
 20
32.6135599405
 10
-29.032223767
 20
32.5879202852
 10
-29.0335217948
 20
32.5615896369
  0
LWPOLYLINE
  5
2A3
100
AcDbEntity
  8
DRAFT
100
AcDbPolyline
 62
7
  6
CONTINUOUS
 90
10
 70
0
 10
26.25706753
 20
-34.3552727539
 10
26.2759701379
 20
-34.3853870832
 10
26.2950433092
 20
-34.415363701
 10
26.3142870441
 20
-34.4452026073
 10
26.3337035353
 20
-34.4749071124
 10
26.3532905899
 20
-34.5044739059
 10
26.3730416294
 20
-34.5338930574
 10
26.3929544607
 20
-34.5631612567
 10
26.4130312768
 20
-34.5922818138
 10
26.4332720777
 20
-34.621254729
  0
LWPOLYLINE
  5
2A4
100
AcDbEntity
  8
DRAFT
100
AcDbPolyline
 62
7
  6
CONTINUOUS
 90
20
 70
0
 10
25.6951414361
 20
-34.6726617859
 10
25.5979464875
 20
-34.5105097775
 10
25.5065759065
 20
-34.3463492567
 10
25.4210296933
 20
-34.1801802236
 10
25.3410753129
 20
-34.0114671518
 10
25.2669453003
 20
-33.8407455676
 10
25.1993372602
 20
-33.6696220498
 10
25.1383127533
 20
-33.498092779
 10
25.083810219
 20
-33.3261615746
 10
25.0363425806
 20
-33.1554464736
 10
24.9959762565
 20
-32.9859589766
 10
24.9626448282
 20
-32.8176875831
 10
24.9366619638
 20
-32.6522158283
 10
24.9180970339
 20
-32.4895701318
 10
24.9068806679
 20
-32.3297240741
 10
24.9031184223
 20
-32.1741819321
 10
24.9068806679
 20
-32.022984337
 10
24.9180970339
 20
-31.8760906576
 10
24.9366619638
 20
-31.7348832768
 10
24.9626448282
 20
-31.5994158825
  0
LINE
  5
2A5
100
AcDbEntity
  8
DRAFT
100
AcDbLine
 62
250
  6
CONTINUOUS
 10
27.6540336324
 20
-33.3147234046
 11
27.5745170034
 21
-33.1818404264
  0
LWPOLYLINE
  5
2A6
100
AcDbEntity
  8
RACCORDO
100
AcDbPolyline
 62
7
  6
CONTINUOUS
 90
30
 70
0
 10
27.6000170518
 20
-33.2949801854
 10
27.6274066143
 20
-33.3419309041
 10
27.7045873233
 20
-33.4808937099
 10
27.7771726809
 20
-33.6218815311
 10
27.8449407154
 20
-33.7644525962
 10
27.9076749417
 20
-33.9081345169
 10
27.9651682592
 20
-34.0524215314
 10
28.0172523518
 20
-34.1968440216
 10
28.0637802835
 20
-34.3409346618
 10
28.1046137317
 20
-34.4841816211
 10
28.1396501339
 20
-34.6261083213
 10
28.1688153157
 20
-34.7662651897
 10
28.1920512379
 20
-34.9041744345
 10
28.2093264688
 20
-35.039359016
 10
28.2206428907
 20
-35.1714119863
 10
28.2260223119
 20
-35.2999499183
 10
28.225507196
 20
-35.4244831704
 10
28.2191691597
 20
-35.5446815735
 10
28.2070747397
 20
-35.6603639564
 10
28.1893375542
 20
-35.7710121569
 10
28.1660669165
 20
-35.8763799656
 10
28.137258961
 20
-35.9765855351
 10
28.1030688618
 20
-36.0710824786
 10
28.0635888397
 20
-36.1596413917
 10
28.0185531622
 20
-36.2426272664
 10
27.9678683366
 20
-36.3197522502
 10
27.911709074
 20
-36.3903510268
 10
27.8500633579
 20
-36.4541104745
 10
27.782922662
 20
-36.5107043799
 10
27.7110829174
 20
-36.5593237795
  0
LWPOLYLINE
  5
2A7
100
AcDbEntity
  8
DRAFT
100
AcDbPolyline
 62
7
  6
CONTINUOUS
 90
9
 70
0
 10
24.8529227295
 20
5.0736015063
 10
24.8681353221
 20
5.0841489754
 10
24.8816388896
 20
5.095634849
 10
24.8946400754
 20
5.1088079007
 10
24.9072514283
 20
5.1237349432
 10
24.9193302616
 20
5.1401877963
 10
24.930829013
 20
5.1580903998
 10
24.9417952448
 20
5.1775188139
 10
24.952228957
 20
5.1984730385
  0
LINE
  5
2A8
100
AcDbEntity
  8
DRAFT
100
AcDbLine
 62
7
  6
CONTINUOUS
 10
25.6771750659
 20
6.102254794
 11
25.2719281713
 21
5.8602075292
  0
LINE
  5
2A9
100
AcDbEntity
  8
DRAFT
100
AcDbLine
 62
7
  6
CONTINUOUS
 10
30.7877118935
 20
6.4538541579
 11
29.6760891953
 21
5.8117051192
  0
LINE
  5
2AA
100
AcDbEntity
  8
RACCORDO
100
AcDbLine
 62
7
  6
CONTINUOUS
 10
23.088887795
 20
1.8457786336
 11
23.0181771168
 21
1.8049510341
  0
LINE
  5
2AB
100
AcDbEntity
  8
DRAFT
100
AcDbLine
 62
7
  6
CONTINUOUS
 10
30.086255987
 20
7.5933794352
 11
28.9725268313
 21
6.9527564595
  0
LINE
  5
2AC
100
AcDbEntity
  8
DRAFT
100
AcDbLine
 62
7
  6
CONTINUOUS
 10
25.6951414361
 20
2.0685006698
 11
26.25706753
 21
2.3858897018
  0
LWPOLYLINE
  5
2AD
100
AcDbEntity
  8
DRAFT
100
AcDbPolyline
 62
7
  6
CONTINUOUS
 90
11
 70
0
 10
26.9405517528
 20
6.6791356459
 10
26.9369267206
 20
6.6770896021
 10
26.9151053773
 20
6.6621821693
 10
26.895392301
 20
6.6438771179
 10
26.8780568187
 20
6.6224446381
 10
26.8630627112
 20
6.5977190956
 10
26.8504461978
 20
6.5698661248
 10
26.8405852633
 20
6.5396528186
 10
26.8336059029
 20
6.507334875
 10
26.8293821214
 20
6.472656596
 10
26.8279139189
 20
6.4356179817
  0
LINE
  5
2AE
100
AcDbEntity
  8
DRAFT
100
AcDbLine
 62
250
  6
CONTINUOUS
 10
26.8279139189
 20
6.4356179817
 11
27.2074101429
 21
6.6472161943
  0
LINE
  5
2AF
100
AcDbEntity
  8
DRAFT
100
AcDbLine
 62
7
  6
CONTINUOUS
 10
27.2834139388
 20
5.6827857726
 11
26.8279139189
 21
5.4378326024
  0
LINE
  5
2B0
100
AcDbEntity
  8
DRAFT
100
AcDbLine
 62
7
  6
CONTINUOUS
 10
23.6656815552
 20
1.5127451454
 11
23.0181771168
 21
1.1645382125
  0
LINE
  5
2B1
100
AcDbEntity
  8
DRAFT
100
AcDbLine
 62
7
  6
CONTINUOUS
 10
26.4332720777
 20
2.1199077267
 11
25.2719281713
 21
1.5181727667
  0
LINE
  5
2B2
100
AcDbEntity
  8
RACCORDO
100
AcDbLine
 62
250
  6
CONTINUOUS
 10
25.3032254956
 20
2.8168635175
 11
25.4126699388
 21
2.8734342881
  0
LINE
  5
2B3
100
AcDbEntity
  8
RACCORDO
100
AcDbLine
 62
7
  6
CONTINUOUS
 10
28.9689824141
 20
-5.2106041626
 11
27.2006769822
 21
-4.1896067683
  0
LINE
  5
2B4
100
AcDbEntity
  8
RACCORDO
100
AcDbLine
 62
7
  6
CONTINUOUS
 10
-28.6596817737
 20
28.0634642826
 11
-30.4279872056
 21
29.0844616769
  0
LWPOLYLINE
  5
2B5
100
AcDbEntity
  8
DRAFT
100
AcDbPolyline
 62
7
  6
CONTINUOUS
 90
22
 70
0
 10
-31.1350939868
 20
30.309206547
 10
-31.08188835
 20
30.2761401703
 10
-31.0294891265
 20
30.2390750066
 10
-30.9778963163
 20
30.198011056
 10
-30.9267676191
 20
30.152603353
 10
-30.8764453352
 20
30.1031968631
 10
-30.8279563654
 20
30.0508264824
 10
-30.781478429
 20
29.9956266296
 10
-30.7368338068
 20
29.937462886
 10
-30.6945162414
 20
29.8769668916
 10
-30.6544048345
 20
29.8138547287
 10
-30.6166204844
 20
29.748410315
 10
-30.5820196286
 20
29.682117044
 10
-30.5507877003
 20
29.6152215798
 10
-30.5227392664
 20
29.5474772583
 10
-30.4981744653
 20
29.4796274811
 10
-30.4770657511
 20
29.4114511367
 10
-30.4594406697
 20
29.3431693366
 10
-30.4456819969
 20
29.276188817
 10
-30.4359173246
 20
29.2109784898
 10
-30.4300190608
 20
29.1470694431
 10
-30.4279872056
 20
29.0844616769
  0
LWPOLYLINE
  5
2B6
100
AcDbEntity
  8
DRAFT
100
AcDbPolyline
 62
7
  6
CONTINUOUS
 90
7
 70
0
 10
27.6000273352
 20
-33.2949678663
 10
27.5940646577
 20
-33.2837608745
 10
27.5874761924
 20
-33.2678619068
 10
27.5821928527
 20
-33.2497380454
 10
27.5783291107
 20
-33.2293303995
 10
27.5757704943
 20
-33.2066978598
 10
27.5745170034
 20
-33.1818404264
  0
LINE
  5
2B7
100
AcDbEntity
  8
DRAFT
100
AcDbLine
 62
7
  6
CONTINUOUS
 10
26.3598079379
 20
1.3173499598
 11
26.6265450604
 21
1.5013607378
  0
LINE
  5
2B8
100
AcDbEntity
  8
DRAFT
100
AcDbLine
 62
7
  6
CONTINUOUS
 10
26.4332720777
 20
1.6129541357
 11
25.6380434248
 21
1.1538006006
  0
LINE
  5
2B9
100
AcDbEntity
  8
DRAFT
100
AcDbLine
 62
7
  6
CONTINUOUS
 10
24.7065935753
 20
0.0852892347
 11
25.1620935952
 21
0.3482883653
  0
LINE
  5
2BA
100
AcDbEntity
  8
DRAFT
100
AcDbLine
 62
7
  6
CONTINUOUS
 10
30.7877118935
 20
2.3939954198
 11
31.1350939868
 21
2.5945701754
  0
LWPOLYLINE
  5
2BB
100
AcDbEntity
  8
DRAFT
100
AcDbPolyline
 62
250
  6
CONTINUOUS
 90
33
 70
0
 10
27.5745170034
 20
-0.1231824999
 10
27.6545294954
 20
-0.0817676185
 10
27.7301140405
 20
-0.0339005171
 10
27.8012706388
 20
0.0204188042
 10
27.8681198222
 20
0.0813584357
 10
27.9305410588
 20
0.1487502872
 10
27.9881727526
 20
0.2220900879
 10
28.0410077608
 20
0.301428251
 10
28.0890532263
 20
0.3867143632
 10
28.1319689814
 20
0.4772929135
 10
28.1697203139
 20
0.573199336
 10
28.2023419361
 20
0.6743981965
 10
28.2295978178
 20
0.7801276817
 10
28.2514512561
 20
0.8904222583
 10
28.2679389538
 20
1.0052474596
 10
28.2789349899
 20
1.1237380721
 10
28.28439924
 20
1.2459259291
 10
28.2843718285
 20
1.3717791973
 10
28.2788472065
 20
1.5003371632
 10
28.267783156
 20
1.6316224788
 10
28.2512218951
 20
1.7656124922
 10
28.2292845297
 20
1.9012785335
 10
28.2019296996
 20
2.0386334919
 10
28.169198765
 20
2.1776644781
 10
28.1313369127
 20
2.3173041547
 10
28.0883044598
 20
2.4575581845
 10
28.0401410893
 20
2.5984209046
 10
27.987211037
 20
2.7388079887
 10
27.9294780068
 20
2.8787154561
 10
27.8669782949
 20
3.0181472875
 10
27.8001850261
 20
3.1560310989
 10
27.7292559087
 20
3.292009429
 10
27.6540332345
 20
3.4264397392
  0
LINE
  5
2BC
100
AcDbEntity
  8
DRAFT
100
AcDbLine
 62
7
  6
CONTINUOUS
 10
23.1707068084
 20
11.5863308588
 11
22.7464427397
 21
11.5906063213
  0
LINE
  5
2BD
100
AcDbEntity
  8
DRAFT
100
AcDbLine
 62
7
  6
CONTINUOUS
 10
-29.0335217948
 20
31.1141583276
 11
-26.8998110901
 21
29.8821805083
  0
LINE
  5
2BE
100
AcDbEntity
  8
DRAFT
100
AcDbLine
 62
7
  6
CONTINUOUS
 10
24.7065935753
 20
0.0852892347
 11
27.5745170034
 21
-1.5706138092
  0
LINE
  5
2BF
100
AcDbEntity
  8
DRAFT
100
AcDbLine
 62
7
  6
CONTINUOUS
 10
-28.5780217749
 20
31.3771574583
 11
-26.8998110901
 21
30.4081796417
  0
LINE
  5
2C0
100
AcDbEntity
  8
DRAFT
100
AcDbLine
 62
7
  6
CONTINUOUS
 10
25.1620935952
 20
0.3482883653
 11
27.5745170034
 21
-1.0446146758
  0
LINE
  5
2C1
100
AcDbEntity
  8
DRAFT
100
AcDbLine
 62
7
  6
CONTINUOUS
 10
23.6656815552
 20
1.5127451454
 11
23.088887795
 21
1.8457786336
  0
LINE
  5
2C2
100
AcDbEntity
  8
DRAFT
100
AcDbLine
 62
7
  6
CONTINUOUS
 10
-28.1020719454
 20
32.1826696935
 11
-26.8998110901
 21
31.4884993435
  0
LINE
  5
2C3
100
AcDbEntity
  8
DRAFT
100
AcDbLine
 62
7
  6
CONTINUOUS
 10
27.6002540445
 20
0.020844781
 11
25.6380434248
 21
1.1538006006
  0
LINE
  5
2C4
100
AcDbEntity
  8
DRAFT
100
AcDbLine
 62
7
  6
CONTINUOUS
 10
-27.3803074323
 20
32.3462190527
 11
-26.8998110901
 21
32.0687864868
  0
LINE
  5
2C5
100
AcDbEntity
  8
DRAFT
100
AcDbLine
 62
7
  6
CONTINUOUS
 10
27.9501337589
 20
0.3991157623
 11
26.3598079379
 21
1.3173499598
  0
LINE
  5
2C6
100
AcDbEntity
  8
DRAFT
100
AcDbLine
 62
7
  6
CONTINUOUS
 10
25.2088074481
 20
5.7333887224
 11
25.2669453003
 21
5.8134060001
  0
LINE
  5
2C7
100
AcDbEntity
  8
DRAFT
100
AcDbLine
 62
7
  6
CONTINUOUS
 10
25.2669453003
 20
5.8134060001
 11
25.3410753129
 21
5.8985241038
  0
LINE
  5
2C8
100
AcDbEntity
  8
DRAFT
100
AcDbLine
 62
7
  6
CONTINUOUS
 10
30.7877118935
 20
-0.0554154106
 11
31.1350939868
 21
0.1594108867
  0
LINE
  5
2C9
100
AcDbEntity
  8
RACCORDO
100
AcDbLine
 62
250
  6
CONTINUOUS
 10
23.6656815552
 20
-6.2302743347
 11
24.7773042535
 21
-5.5428301834
  0
LINE
  5
2CA
100
AcDbEntity
  8
DRAFT
100
AcDbLine
 62
7
  6
CONTINUOUS
 10
-27.3068432925
 20
32.6418232287
 11
-27.1135703098
 21
32.5302298307
  0
LINE
  5
2CB
100
AcDbEntity
  8
DRAFT
100
AcDbLine
 62
7
  6
CONTINUOUS
 10
26.4332720777
 20
1.6129541357
 11
26.6265450604
 21
1.5013607378
  0
LINE
  5
2CC
100
AcDbEntity
  8
DRAFT
100
AcDbLine
 62
7
  6
CONTINUOUS
 10
-28.3274454313
 20
33.902303381
 11
-27.4830478402
 21
33.4147587947
  0
LINE
  5
2CD
100
AcDbEntity
  8
DRAFT
100
AcDbLine
 62
7
  6
CONTINUOUS
 10
25.4126699388
 20
2.8734342881
 11
26.25706753
 21
2.3858897018
  0
LINE
  5
2CE
100
AcDbEntity
  8
DRAFT
100
AcDbLine
 62
7
  6
CONTINUOUS
 10
30.7877118935
 20
2.7951442422
 11
31.1350939868
 21
2.5945701754
  0
LWPOLYLINE
  5
2CF
100
AcDbEntity
  8
RACCORDO
100
AcDbPolyline
 62
250
  6
CONTINUOUS
 90
16
 70
0
 10
-26.4059814476
 20
36.9727216156
 10
-23.4037366254
 20
35.0008131515
 10
-20.3895168642
 20
33.0561746172
 10
-17.363322164
 20
31.1388060128
 10
-14.3365957326
 20
29.2557041402
 10
-11.2978943622
 20
27.3998721975
 10
-8.2128884294
 20
25.5503197783
 10
-5.0699315821
 20
23.6993849615
 10
-1.8806701723
 20
21.8547296682
 10
1.3542863675
 20
20.0183492553
 10
4.6385534813
 20
18.1884757114
 10
7.9685157252
 20
16.3668770478
 10
11.3327173355
 20
14.5608526561
 10
14.7273397246
 20
12.7728356667
 10
18.1562014801
 20
11.0003929491
 10
21.6193026022
 20
9.2435245034
  0
LWPOLYLINE
  5
2D0
100
AcDbEntity
  8
RACCORDO
100
AcDbPolyline
 62
250
  6
CONTINUOUS
 90
16
 70
0
 10
-26.7765831343
 20
36.3783248382
 10
-23.7726008938
 20
34.4042513984
 10
-20.7551073202
 20
32.4577071336
 10
-17.7248721398
 20
30.5385800025
 10
-14.6943133583
 20
28.6539354533
 10
-11.6527448421
 20
26.7963487813
 10
-8.5652788118
 20
24.9445049273
 10
-5.4192824223
 20
23.0915725258
 10
-2.2266911325
 20
21.2453503841
 10
1.0114727367
 20
19.4069970338
 10
4.2987933118
 20
17.5750527633
 10
7.6321001177
 20
15.7518482595
 10
10.9998921241
 20
13.9440322562
 10
14.3981060681
 20
12.153900565
 10
17.8304506043
 20
10.3795995351
 10
21.2967742729
 20
8.621370772
  0
LWPOLYLINE
  5
2D1
100
AcDbEntity
  8
DRAFT
100
AcDbPolyline
 62
7
  6
CONTINUOUS
 90
3
 70
0
 10
24.3604662732
 20
-32.905393853
 10
24.3457602527
 20
-32.7458688674
 10
24.3438283421
 20
-32.7049960907
  0
LINE
  5
2D2
100
AcDbEntity
  8
RACCORDO
100
AcDbLine
 62
250
  6
CONTINUOUS
 10
21.2967742729
 20
8.621370772
 11
21.2967742729
 21
-39.3201375052
  0
LINE
  5
2D3
100
AcDbEntity
  8
DRAFT
100
AcDbLine
 62
7
  6
CONTINUOUS
 10
24.952228957
 20
5.1984730385
 11
25.0168832416
 21
5.3369036278
  0
LINE
  5
2D4
100
AcDbEntity
  8
DRAFT
100
AcDbLine
 62
7
  6
CONTINUOUS
 10
25.0168832416
 20
5.3369036278
 11
25.0851719255
 21
5.4802069509
  0
LINE
  5
2D5
100
AcDbEntity
  8
DRAFT
100
AcDbLine
 62
7
  6
CONTINUOUS
 10
25.0851719255
 20
5.4802069509
 11
25.157106539
 21
5.6284194861
  0
LWPOLYLINE
  5
2D6
100
AcDbEntity
  8
DRAFT
100
AcDbPolyline
 62
7
  6
CONTINUOUS
 90
3
 70
0
 10
25.157106539
 20
5.6284194861
 10
25.2327332029
 20
5.7816871466
 10
25.2719281713
 20
5.8602075292
  0
LINE
  5
2D7
100
AcDbEntity
  8
DRAFT
100
AcDbLine
 62
7
  6
CONTINUOUS
 10
29.6509380181
 20
-4.7889955488
 11
28.9689824141
 21
-5.2106041626
  0
LINE
  5
2D8
100
AcDbEntity
  8
DRAFT
100
AcDbLine
 62
7
  6
CONTINUOUS
 10
30.7877118935
 20
-4.1152741488
 11
29.6760891953
 21
-4.8024084792
  0
LWPOLYLINE
  5
2D9
100
AcDbEntity
  8
DRAFT
100
AcDbPolyline
 62
7
  6
CONTINUOUS
 90
12
 70
0
 10
29.169957692
 20
-4.7564808266
 10
29.195400043
 20
-4.7426725134
 10
29.2355114499
 20
-4.7258799977
 10
29.2778290154
 20
-4.7142512672
 10
29.3224736376
 20
-4.7076420142
 10
29.3689515739
 20
-4.7061137173
 10
29.4174405437
 20
-4.7097371835
 10
29.4677628277
 20
-4.7184416057
 10
29.5188915249
 20
-4.7320760407
 10
29.5704843351
 20
-4.7505901741
 10
29.6228835585
 20
-4.7740343202
 10
29.6760891953
 20
-4.8024084792
  0
LINE
  5
2DA
100
AcDbEntity
  8
DRAFT
100
AcDbLine
 62
7
  6
CONTINUOUS
 10
26.8279139189
 20
5.4378326024
 11
25.4531966598
 21
6.2315771186
  0
LINE
  5
2DB
100
AcDbEntity
  8
DRAFT
100
AcDbLine
 62
7
  6
CONTINUOUS
 10
-26.9122014513
 20
36.4667016954
 11
-28.2869187104
 21
37.2604462115
  0
LINE
  5
2DC
100
AcDbEntity
  8
DRAFT
100
AcDbLine
 62
7
  6
CONTINUOUS
 10
27.5745170034
 20
5.5147384399
 11
27.2834139388
 21
5.6827857726
  0
LINE
  5
2DD
100
AcDbEntity
  8
RACCORDO
100
AcDbLine
 62
7
  6
CONTINUOUS
 10
-24.771186804
 20
37.9837031456
 11
23.3121820125
 21
10.2209686171
  0
LINE
  5
2DE
100
AcDbEntity
  8
DRAFT
100
AcDbLine
 62
7
  6
CONTINUOUS
 10
28.9725268313
 20
6.9527564595
 11
-30.4315316228
 21
41.2519153032
  0
LWPOLYLINE
  5
2DF
100
AcDbEntity
  8
RACCORDO
100
AcDbPolyline
 62
250
  6
CONTINUOUS
 90
19
 70
0
 10
21.6193026022
 20
9.2435245034
 10
21.6495921166
 20
9.2238786601
 10
21.6796981407
 20
9.2013041405
 10
21.7093916384
 20
9.1759726836
 10
21.7384467118
 20
9.1480770024
 10
21.7666423199
 20
9.1178293176
 10
21.7937639603
 20
9.0854597432
 10
21.8196053009
 20
9.0512145357
 10
21.8439697497
 20
9.0153542208
 10
21.8666719504
 20
8.9781516115
 10
21.8875391924
 20
8.9398897323
 10
21.9064127252
 20
8.9008596664
 10
21.9231489652
 20
8.861358341
 10
21.9376205891
 20
8.8216862684
 10
21.9497175017
 20
8.7821452603
 10
21.9593476738
 20
8.7430361308
 10
21.9664378424
 20
8.7046564088
 10
21.970934068
 20
8.667298074
 10
21.9728021449
 20
8.6312453356
  0
LWPOLYLINE
  5
2E0
100
AcDbEntity
  8
DRAFT
100
AcDbPolyline
 62
7
  6
CONTINUOUS
 90
10
 70
0
 10
25.2719281713
 20
1.5181727667
 10
25.2327765038
 20
1.5529451208
 10
25.194534448
 20
1.5874970415
 10
25.157202004
 20
1.6218285289
 10
25.1207821432
 20
1.655931979
 10
25.085271894
 20
1.6898149958
 10
25.0506623423
 20
1.7235003909
 10
25.0169505165
 20
1.7569957684
 10
24.9841393881
 20
1.7902935242
 10
24.952228957
 20
1.8233936584
  0
LWPOLYLINE
  5
2E1
100
AcDbEntity
  8
DRAFT
100
AcDbPolyline
 62
7
  6
CONTINUOUS
 90
25
 70
0
 10
24.952228957
 20
1.8233936584
 10
24.9417683222
 20
1.8327348416
 10
24.9307707614
 20
1.8399447872
 10
24.9192362746
 20
1.8450234952
 10
24.9071248805
 20
1.8480005968
 10
24.8944765605
 20
1.8488464609
 10
24.8814112584
 20
1.8474721942
 10
24.8677832132
 20
1.8437969231
 10
24.8537381858
 20
1.8379015213
 10
24.839833404
 20
1.8299397161
 10
24.8261336904
 20
1.8198258508
 10
24.8125742223
 20
1.8076455822
 10
24.7995177591
 20
1.7938096085
 10
24.7870042359
 20
1.7783254147
 10
24.7749937177
 20
1.7611855157
 10
24.7637291594
 20
1.7427781542
 10
24.7532082395
 20
1.7231162351
 10
24.7434332795
 20
1.7021868534
 10
24.7346541986
 20
1.6803395372
 10
24.726835764
 20
1.6576151487
 10
24.7200132085
 20
1.6339728258
 10
24.71454215
 20
1.6096395096
 10
24.710541128
 20
1.5846908475
 10
24.7078916031
 20
1.5590511923
 10
24.7065935753
 20
1.532720544
  0
LWPOLYLINE
  5
2E2
100
AcDbEntity
  8
DRAFT
100
AcDbPolyline
 62
7
  6
CONTINUOUS
 90
10
 70
0
 10
26.6265450604
 20
1.5013607378
 10
26.7530949633
 20
1.3581621781
 10
26.8819302135
 20
1.2217093337
 10
27.0130508112
 20
1.0920022047
 10
27.146832868
 20
0.9687186704
 10
27.2829002722
 20
0.8521808515
 10
27.4201246884
 20
0.7433551097
 10
27.5581300048
 20
0.6425635658
 10
27.6972923331
 20
0.5494840991
 10
27.8376116735
 20
0.4641167096
  0
LWPOLYLINE
  5
2E3
100
AcDbEntity
  8
DRAFT
100
AcDbPolyline
 62
7
  6
CONTINUOUS
 90
3
 70
0
 10
24.3604662732
 20
3.8357686027
 10
24.3457602527
 20
3.9952935883
 10
24.3438283421
 20
4.036166365
  0
LWPOLYLINE
  5
2E4
100
AcDbEntity
  8
DRAFT
100
AcDbPolyline
 62
7
  6
CONTINUOUS
 90
17
 70
0
 10
24.7065935753
 20
-31.5259373826
 10
24.7078919152
 20
-31.5508631114
 10
24.7105522471
 20
-31.5735902828
 10
24.7145745711
 20
-31.5941188966
 10
24.7200780003
 20
-31.6123975187
 10
24.7269434216
 20
-31.6284775833
 10
24.7348134954
 20
-31.6425133927
 10
24.7436575706
 20
-31.6545819364
 10
24.7535062983
 20
-31.6646062249
 10
24.7640942923
 20
-31.672509592
 10
24.7754158949
 20
-31.6783003808
 10
24.7874767639
 20
-31.6819702483
 10
24.8000284859
 20
-31.6834174989
 10
24.8131200988
 20
-31.6825952497
 10
24.8267025649
 20
-31.6795503836
 10
24.8403803575
 20
-31.6743218536
 10
24.8529226449
 20
-31.6675589804
  0
LWPOLYLINE
  5
2E5
100
AcDbEntity
  8
DRAFT
100
AcDbPolyline
 62
7
  6
CONTINUOUS
 90
29
 70
0
 10
24.7065935753
 20
-37.6536586003
 10
24.7080617778
 20
-37.692392658
 10
24.7122855593
 20
-37.7319484539
 10
24.7192649198
 20
-37.7723259882
 10
24.7291258542
 20
-37.8139264542
 10
24.7417423677
 20
-37.8563486585
 10
24.7567364751
 20
-37.8983890204
 10
24.7740719574
 20
-37.9398400807
 10
24.7937850338
 20
-37.9809092986
 10
24.8156063771
 20
-38.0210154715
 10
24.8397167281
 20
-38.0603641354
 10
24.865935346
 20
-38.0987497543
 10
24.8934506812
 20
-38.1349745181
 10
24.9221498297
 20
-38.1687989232
 10
24.9521456954
 20
-38.2004624733
 10
24.9829654408
 20
-38.2294858697
 10
25.0147260799
 20
-38.2559244049
 10
25.0473105988
 20
-38.2797227863
 10
25.0798951176
 20
-38.3002358373
 10
25.1124796364
 20
-38.3173505719
 10
25.1450641552
 20
-38.331179976
 10
25.1768247943
 20
-38.3414178308
 10
25.2076445397
 20
-38.3479843039
 10
25.2376404055
 20
-38.3509592277
 10
25.2663395539
 20
-38.3502758798
 10
25.2938548891
 20
-38.3458251353
 10
25.3200735071
 20
-38.3377161193
 10
25.3441838581
 20
-38.3262094845
 10
25.3471388123
 20
-38.3244564763
  0
LWPOLYLINE
  5
2E6
100
AcDbEntity
  8
DRAFT
100
AcDbPolyline
 62
250
  6
CONTINUOUS
 90
15
 70
0
 10
24.3374329973
 20
-32.8752536253
 10
24.3382203683
 20
-32.9412195798
 10
24.3450915863
 20
-33.0838192441
 10
24.3590098272
 20
-33.2297806724
 10
24.379929692
 20
-33.3786165334
 10
24.4077994613
 20
-33.5299018341
 10
24.4425056758
 20
-33.6829903153
 10
24.4839623353
 20
-33.8374782372
 10
24.5321958775
 20
-33.9933055816
 10
24.5872935998
 20
-34.150425064
 10
24.6489902901
 20
-34.3077887368
 10
24.7166846572
 20
-34.4638373239
 10
24.7899255244
 20
-34.6176995204
 10
24.8685465822
 20
-34.7691806421
 10
24.952228957
 20
-34.9177687973
  0
LWPOLYLINE
  5
2E7
100
AcDbEntity
  8
DRAFT
100
AcDbPolyline
 62
250
  6
CONTINUOUS
 90
15
 70
0
 10
24.3374329973
 20
3.8659088304
 10
24.3382199973
 20
3.7999585238
 10
24.3450903462
 20
3.6573604256
 10
24.3590075782
 20
3.5114008151
 10
24.3799262904
 20
3.3625668491
 10
24.4077948446
 20
3.2112830776
 10
24.4425000508
 20
3.058194858
 10
24.4839558186
 20
2.9037067718
 10
24.5321879016
 20
2.7478810405
 10
24.5872820379
 20
2.5907685301
 10
24.6489738484
 20
2.4334135393
 10
24.7166657093
 20
2.2773667887
 10
24.789908615
 20
2.1234969307
 10
24.8685357814
 20
1.9720017802
 10
24.952228957
 20
1.8233936584
  0
LINE
  5
2E8
100
AcDbEntity
  8
RACCORDO
100
AcDbLine
 62
250
  6
CONTINUOUS
 10
21.9728021449
 20
8.6312453356
 11
21.9728021449
 21
-39.3102629416
  0
LINE
  5
2E9
100
AcDbEntity
  8
DRAFT
100
AcDbLine
 62
7
  6
CONTINUOUS
 10
23.0181771168
 20
-34.7601539664
 11
23.0181771168
 21
-30.6778025824
  0
LINE
  5
2EA
100
AcDbEntity
  8
DRAFT
100
AcDbLine
 62
7
  6
CONTINUOUS
 10
23.0181771168
 20
1.1645382125
 11
23.0181771168
 21
5.2468895965
  0
LINE
  5
2EB
100
AcDbEntity
  8
DRAFT
100
AcDbLine
 62
7
  6
CONTINUOUS
 10
23.088887795
 20
5.2877169204
 11
23.088887795
 21
1.8457786336
  0
LINE
  5
2EC
100
AcDbEntity
  8
DRAFT
100
AcDbLine
 62
7
  6
CONTINUOUS
 10
23.088887795
 20
-34.0789135453
 11
23.088887795
 21
-30.6369752585
  0
LINE
  5
2ED
100
AcDbEntity
  8
RACCORDO
100
AcDbLine
 62
7
  6
CONTINUOUS
 10
23.6656815552
 20
9.6086894493
 11
23.6656815552
 21
5.6207493044
  0
LINE
  5
2EE
100
AcDbEntity
  8
DRAFT
100
AcDbLine
 62
7
  6
CONTINUOUS
 10
23.6656815552
 20
1.5127451454
 11
23.6656815552
 21
-30.3039428745
  0
LINE
  5
2EF
100
AcDbEntity
  8
RACCORDO
100
AcDbLine
 62
7
  6
CONTINUOUS
 10
23.6656815552
 20
-6.2302743347
 11
23.6656815552
 21
-22.5609233944
  0
LINE
  5
2F0
100
AcDbEntity
  8
RACCORDO
100
AcDbLine
 62
7
  6
CONTINUOUS
 10
23.6656815552
 20
-34.4119470335
 11
23.6656815552
 21
-38.3998871785
  0
LINE
  5
2F1
100
AcDbEntity
  8
DRAFT
100
AcDbLine
 62
7
  6
CONTINUOUS
 10
24.7065935753
 20
1.532720544
 11
24.7065935753
 21
0.0852892347
  0
LINE
  5
2F2
100
AcDbEntity
  8
DRAFT
100
AcDbLine
 62
7
  6
CONTINUOUS
 10
24.7065935753
 20
-37.6536586003
 11
24.7065935753
 21
-35.2084419117
  0
LINE
  5
2F3
100
AcDbEntity
  8
DRAFT
100
AcDbLine
 62
7
  6
CONTINUOUS
 10
24.7065935753
 20
-30.0785060732
 11
24.7065935753
 21
-31.5259373826
  0
LINE
  5
2F4
100
AcDbEntity
  8
DRAFT
100
AcDbLine
 62
7
  6
CONTINUOUS
 10
24.7065935753
 20
5.2152250731
 11
24.7065935753
 21
7.6604417617
  0
LINE
  5
2F5
100
AcDbEntity
  8
RACCORDO
100
AcDbLine
 62
7
  6
CONTINUOUS
 10
24.7773042535
 20
-5.5428301834
 11
24.7773042535
 21
-21.9190841765
  0
LWPOLYLINE
  5
2F6
100
AcDbEntity
  8
RACCORDO
100
AcDbPolyline
 62
7
  6
CONTINUOUS
 90
15
 70
0
 10
24.3374329973
 20
3.8659088304
 10
24.3401844014
 20
3.9851225048
 10
24.3484100225
 20
4.1003459663
 10
24.3620462484
 20
4.2111907187
 10
24.3809668715
 20
4.3171181881
 10
24.4050764907
 20
4.4179824483
 10
24.4343921187
 20
4.5139239918
 10
24.4687681797
 20
4.6044383582
 10
24.5081245225
 20
4.689317373
 10
24.552738518
 20
4.7689272963
 10
24.6026935554
 20
4.8429792675
 10
24.6578463105
 20
4.9108767572
 10
24.7182926703
 20
4.9723900683
 10
24.7840935736
 20
5.0272015252
 10
24.8529250606
 20
5.073546569
  0
LWPOLYLINE
  5
2F7
100
AcDbEntity
  8
RACCORDO
100
AcDbPolyline
 62
250
  6
CONTINUOUS
 90
11
 70
0
 10
21.9728021449
 20
-39.3102629416
 10
21.970934068
 20
-39.3453456804
 10
21.9664378424
 20
-39.3785816487
 10
21.9593476738
 20
-39.4097179987
 10
21.9497175017
 20
-39.4385178559
 10
21.9376205891
 20
-39.4647621209
 10
21.9231489652
 20
-39.4882511362
 10
21.9064127252
 20
-39.5088062057
 10
21.8875391924
 20
-39.5262709535
 10
21.8666719504
 20
-39.5405125137
 10
21.8622859518
 20
-39.5429570887
  0
LINE
  5
2F8
100
AcDbEntity
  8
DRAFT
100
AcDbLine
 62
7
  6
CONTINUOUS
 10
24.9626448282
 20
5.1417465732
 11
24.9959762565
 21
5.2715276688
  0
LINE
  5
2F9
100
AcDbEntity
  8
DRAFT
100
AcDbLine
 62
7
  6
CONTINUOUS
 10
24.9959762565
 20
5.2715276688
 11
25.0187394486
 21
5.340817916
  0
LINE
  5
2FA
100
AcDbEntity
  8
DRAFT
100
AcDbLine
 62
7
  6
CONTINUOUS
 10
25.6380434248
 20
1.1538006006
 11
25.1620935952
 21
0.3482883653
  0
LINE
  5
2FB
100
AcDbEntity
  8
DRAFT
100
AcDbLine
 62
7
  6
CONTINUOUS
 10
-29.9839749852
 20
41.5426645136
 11
-29.9369301022
 21
41.5188475244
  0
LWPOLYLINE
  5
2FC
100
AcDbEntity
  8
DRAFT
100
AcDbPolyline
 62
7
  6
CONTINUOUS
 90
12
 70
0
 10
-31.1350939868
 20
40.9233201453
 10
-31.0853167011
 20
40.8966290553
 10
-31.0362016735
 20
40.8742449051
 10
-30.9877489038
 20
40.8561676948
 10
-30.9396747368
 20
40.8423473325
 10
-30.8922628277
 20
40.8328339101
 10
-30.8463641426
 20
40.8277777027
 10
-30.8021245754
 20
40.8272385663
 10
-30.7593982321
 20
40.831156645
 10
-30.718598397
 20
40.8395026465
 10
-30.6796168969
 20
40.8523816252
 10
-30.6413398071
 20
40.8702484406
  0
LINE
  5
2FD
100
AcDbEntity
  8
DRAFT
100
AcDbLine
 62
7
  6
CONTINUOUS
 10
22.7464427397
 20
11.5906063213
 11
-22.3669699
 21
37.6385253756
  0
LINE
  5
2FE
100
AcDbEntity
  8
DRAFT
100
AcDbLine
 62
7
  6
CONTINUOUS
 10
30.086255987
 20
7.5933794352
 11
23.1707068084
 21
11.5863308588
  0
LINE
  5
2FF
100
AcDbEntity
  8
DRAFT
100
AcDbLine
 62
7
  6
CONTINUOUS
 10
-22.3669699
 20
37.8792146691
 11
-29.2825190787
 21
41.8721660927
  0
LWPOLYLINE
  5
300
100
AcDbEntity
  8
DRAFT
100
AcDbPolyline
 62
7
  6
CONTINUOUS
 90
15
 70
0
 10
25.2719281713
 20
1.5181727667
 10
25.169160933
 20
1.6727262146
 10
25.0711137943
 20
1.8310809814
 10
24.9780999248
 20
1.992747373
 10
24.8903781433
 20
2.1573009168
 10
24.8082752731
 20
2.3241554897
 10
24.7321584015
 20
2.492555802
 10
24.6623272488
 20
2.6617721311
 10
24.5988896843
 20
2.8314707114
 10
24.5419113556
 20
3.0014832824
 10
24.4915196548
 20
3.1715469947
 10
24.4479925246
 20
3.3408570282
 10
24.4115778647
 20
3.5084404163
 10
24.3824070268
 20
3.6734750906
 10
24.3604662732
 20
3.8357686027
  0
LWPOLYLINE
  5
301
100
AcDbEntity
  8
DRAFT
100
AcDbPolyline
 62
7
  6
CONTINUOUS
 90
10
 70
0
 10
26.25706753
 20
2.3858897018
 10
26.2759701379
 20
2.3557753725
 10
26.2950433092
 20
2.3257987547
 10
26.3142870441
 20
2.2959598484
 10
26.3337035353
 20
2.2662553433
 10
26.3532905899
 20
2.2366885498
 10
26.3730416294
 20
2.2072693983
 10
26.3929544607
 20
2.178001199
 10
26.4130312768
 20
2.1488806418
 10
26.4332720777
 20
2.1199077267
  0
LWPOLYLINE
  5
302
100
AcDbEntity
  8
DRAFT
100
AcDbPolyline
 62
7
  6
CONTINUOUS
 90
20
 70
0
 10
25.6951414361
 20
2.0685006698
 10
25.5979464875
 20
2.2306526782
 10
25.5065759065
 20
2.394813199
 10
25.4210296933
 20
2.5609822321
 10
25.3410753129
 20
2.7296953039
 10
25.2669453003
 20
2.9004168881
 10
25.1993372602
 20
3.0715404058
 10
25.1383127533
 20
3.2430696767
 10
25.083810219
 20
3.4150008811
 10
25.0363425806
 20
3.5857159821
 10
24.9959762565
 20
3.7552034791
 10
24.9626448282
 20
3.9234748726
 10
24.9366619638
 20
4.0889466274
 10
24.9180970339
 20
4.2515923238
 10
24.9068806679
 20
4.4114383816
 10
24.9031184223
 20
4.5669805236
 10
24.9068806679
 20
4.7181781187
 10
24.9180970339
 20
4.8650717981
 10
24.9366619638
 20
5.0062791789
 10
24.9626448282
 20
5.1417465732
  0
LWPOLYLINE
  5
303
100
AcDbEntity
  8
DRAFT
100
AcDbPolyline
 62
7
  6
CONTINUOUS
 90
17
 70
0
 10
24.7065935753
 20
5.2152250731
 10
24.7078914036
 20
5.1903015973
 10
24.7105513617
 20
5.1675758822
 10
24.7145734495
 20
5.1470479276
 10
24.7200760287
 20
5.1287693338
 10
24.7269407378
 20
5.1126885005
 10
24.7348124913
 20
5.0986506278
 10
24.7436628211
 20
5.0865771414
 10
24.7535201954
 20
5.0765466157
 10
24.7641149334
 20
5.0686399736
 10
24.7754382386
 20
5.0628506971
 10
24.7874989074
 20
5.0591853042
 10
24.8000536492
 20
5.0577442723
 10
24.8131558913
 20
5.058575011
 10
24.8267522063
 20
5.0616301105
 10
24.8404390209
 20
5.0668678193
 10
24.8529227295
 20
5.0736015063
  0
LWPOLYLINE
  5
304
100
AcDbEntity
  8
DRAFT
100
AcDbPolyline
 62
7
  6
CONTINUOUS
 90
29
 70
0
 10
26.8279139189
 20
-38.8784823803
 10
26.8293821214
 20
-38.917216438
 10
26.8336059029
 20
-38.9567722339
 10
26.8405852633
 20
-38.9971497681
 10
26.8504461978
 20
-39.0387502342
 10
26.8630627112
 20
-39.0811724385
 10
26.8780568187
 20
-39.1232128004
 10
26.895392301
 20
-39.1646638607
 10
26.9151053773
 20
-39.2057330786
 10
26.9369267206
 20
-39.2458392515
 10
26.9610370716
 20
-39.2851879154
 10
26.9872556896
 20
-39.3235735342
 10
27.0147710248
 20
-39.3597982981
 10
27.0434701733
 20
-39.3936227032
 10
27.073466039
 20
-39.4252862533
 10
27.1042857844
 20
-39.4543096496
 10
27.1360464235
 20
-39.4807481849
 10
27.1686309423
 20
-39.5045465663
 10
27.2012154611
 20
-39.5250596173
 10
27.23379998
 20
-39.5421743519
 10
27.2663844988
 20
-39.556003756
 10
27.2981451379
 20
-39.5662416107
 10
27.3289648833
 20
-39.5728080839
 10
27.358960749
 20
-39.5757830076
 10
27.3876598975
 20
-39.5750996598
 10
27.4151752327
 20
-39.5706489153
 10
27.4413938506
 20
-39.5625398993
 10
27.4655042017
 20
-39.5510332645
 10
27.4684591558
 20
-39.5492802563
  0
LWPOLYLINE
  5
305
100
AcDbEntity
  8
DRAFT
100
AcDbPolyline
 62
7
  6
CONTINUOUS
 90
28
 70
0
 10
25.4531966598
 20
7.2293624979
 10
25.4517284573
 20
7.2680965556
 10
25.4475046758
 20
7.3076523515
 10
25.4405253154
 20
7.3480298857
 10
25.4306643809
 20
7.3896303518
 10
25.4180478675
 20
7.4320525561
 10
25.40305376
 20
7.474092918
 10
25.3857182777
 20
7.5155439783
 10
25.3660052014
 20
7.5566131962
 10
25.3441838581
 20
7.5967193691
 10
25.3200735071
 20
7.6360680329
 10
25.2938548891
 20
7.6744536518
 10
25.2663395539
 20
7.7106784157
 10
25.2376404055
 20
7.7445028208
 10
25.2076445397
 20
7.7761663709
 10
25.1768247943
 20
7.8051897672
 10
25.1450641552
 20
7.8316283025
 10
25.1124796364
 20
7.8554266839
 10
25.0798951176
 20
7.8759397349
 10
25.0473105988
 20
7.8930544695
 10
25.0147260799
 20
7.9068838736
 10
24.9829654408
 20
7.9171217283
 10
24.9521456954
 20
7.9236882015
 10
24.9221498297
 20
7.9266631252
 10
24.8934506812
 20
7.9259797774
 10
24.865935346
 20
7.9215290329
 10
24.8397167281
 20
7.9134200169
 10
24.8192314093
 20
7.9039594259
  0
LWPOLYLINE
  5
306
100
AcDbEntity
  8
DRAFT
100
AcDbPolyline
 62
7
  6
CONTINUOUS
 90
28
 70
0
 10
27.5745170034
 20
6.0045387179
 10
27.5730488009
 20
6.0432727756
 10
27.5688250194
 20
6.0828285715
 10
27.5618456589
 20
6.1232061057
 10
27.5519847245
 20
6.1648065718
 10
27.5393682111
 20
6.2072287761
 10
27.5243741036
 20
6.249269138
 10
27.5070386213
 20
6.2907201983
 10
27.4873255449
 20
6.3317894162
 10
27.4655042017
 20
6.3718955891
 10
27.4413938506
 20
6.411244253
 10
27.4151752327
 20
6.4496298718
 10
27.3876598975
 20
6.4858546357
 10
27.358960749
 20
6.5196790408
 10
27.3289648833
 20
6.5513425909
 10
27.2981451379
 20
6.5803659873
 10
27.2663844988
 20
6.6068045225
 10
27.23379998
 20
6.6306029039
 10
27.2012154611
 20
6.6511159549
 10
27.1686309423
 20
6.6682306895
 10
27.1360464235
 20
6.6820600936
 10
27.1042857844
 20
6.6922979484
 10
27.073466039
 20
6.6988644215
 10
27.0434701733
 20
6.7018393453
 10
27.0147710248
 20
6.7011559974
 10
26.9872556896
 20
6.6967052529
 10
26.9610370716
 20
6.6885962369
 10
26.9405517528
 20
6.6791356459
  0
LINE
  5
307
100
AcDbEntity
  8
DRAFT
100
AcDbLine
 62
7
  6
CONTINUOUS
 10
25.4531966598
 20
-38.0847378641
 11
25.4531966598
 21
-37.0869524849
  0
LINE
  5
308
100
AcDbEntity
  8
DRAFT
100
AcDbLine
 62
7
  6
CONTINUOUS
 10
25.4531966598
 20
6.2315771186
 11
25.4531966598
 21
7.2293624979
  0
LINE
  5
309
100
AcDbEntity
  8
DRAFT
100
AcDbLine
 62
7
  6
CONTINUOUS
 10
25.8577125769
 20
-36.2430511236
 11
25.8577125769
 21
-36.8367937739
  0
LINE
  5
30A
100
AcDbEntity
  8
DRAFT
100
AcDbLine
 62
7
  6
CONTINUOUS
 10
26.4332720777
 20
2.1199077267
 11
26.4332720777
 21
1.6129541357
  0
LINE
  5
30B
100
AcDbEntity
  8
DRAFT
100
AcDbLine
 62
7
  6
CONTINUOUS
 10
26.4332720777
 20
-34.621254729
 11
26.4332720777
 21
-35.8685064374
  0
LINE
  5
30C
100
AcDbEntity
  8
DRAFT
100
AcDbLine
 62
7
  6
CONTINUOUS
 10
26.8279139189
 20
6.4356179817
 11
26.8279139189
 21
5.4378326024
  0
LINE
  5
30D
100
AcDbEntity
  8
DRAFT
100
AcDbLine
 62
7
  6
CONTINUOUS
 10
26.8279139189
 20
-37.880697001
 11
26.8279139189
 21
-38.8784823803
  0
LINE
  5
30E
100
AcDbEntity
  8
DRAFT
100
AcDbLine
 62
7
  6
CONTINUOUS
 10
27.5745170034
 20
6.0045387179
 11
27.5745170034
 21
3.5593220293
  0
LINE
  5
30F
100
AcDbEntity
  8
DRAFT
100
AcDbLine
 62
7
  6
CONTINUOUS
 10
27.5745170034
 20
-33.1818404264
 11
27.5745170034
 21
-31.7344091171
  0
LINE
  5
310
100
AcDbEntity
  8
DRAFT
100
AcDbLine
 62
7
  6
CONTINUOUS
 10
27.5745170034
 20
-36.8643449555
 11
27.5745170034
 21
-39.3095616441
  0
LINE
  5
311
100
AcDbEntity
  8
DRAFT
100
AcDbLine
 62
7
  6
CONTINUOUS
 10
27.5745170034
 20
-1.5706138092
 11
27.5745170034
 21
-0.1231824999
  0
LWPOLYLINE
  5
312
100
AcDbEntity
  8
RACCORDO
100
AcDbPolyline
 62
7
  6
CONTINUOUS
 90
15
 70
0
 10
24.3374329973
 20
-32.8752536253
 10
24.3401844014
 20
-32.7560399509
 10
24.3484100225
 20
-32.6408164893
 10
24.3620462484
 20
-32.529971737
 10
24.3809668715
 20
-32.4240442676
 10
24.4050764907
 20
-32.3231800074
 10
24.4343921187
 20
-32.2272384638
 10
24.4687681797
 20
-32.1367240975
 10
24.5081245225
 20
-32.0518450827
 10
24.552738518
 20
-31.9722351594
 10
24.6026935554
 20
-31.8981831882
 10
24.6578463105
 20
-31.8302856985
 10
24.7182926703
 20
-31.7687723874
 10
24.7840935736
 20
-31.7139609305
 10
24.8529250606
 20
-31.6676158866
  0
LWPOLYLINE
  5
313
100
AcDbEntity
  8
DRAFT
100
AcDbPolyline
 62
7
  6
CONTINUOUS
 90
17
 70
0
 10
27.5745170034
 20
-0.1231824999
 10
27.5757707956
 20
-0.0967832019
 10
27.5783398483
 20
-0.0710366494
 10
27.5822241614
 20
-0.0459428425
 10
27.5875387612
 20
-0.021418026
 10
27.5941686215
 20
0.0024540451
 10
27.6017686634
 20
0.0254221054
 10
27.6103092875
 20
0.0475283566
 10
27.6198200933
 20
0.0687305971
 10
27.6300448003
 20
0.0886509569
 10
27.6409779448
 20
0.1072913579
 10
27.6526249906
 20
0.1246498781
 10
27.6647460477
 20
0.1403428822
 10
27.6773884713
 20
0.1543791432
 10
27.6905049063
 20
0.1667498879
 10
27.7037133971
 20
0.177045161
 10
27.7110829563
 20
0.1818095766
  0
LINE
  5
314
100
AcDbEntity
  8
DRAFT
100
AcDbLine
 62
250
  6
CONTINUOUS
 10
27.6540332345
 20
3.4264397392
 11
27.5745170034
 21
3.5593220293
  0
LWPOLYLINE
  5
315
100
AcDbEntity
  8
RACCORDO
100
AcDbPolyline
 62
7
  6
CONTINUOUS
 90
30
 70
0
 10
27.6000170518
 20
3.4461822703
 10
27.6274066143
 20
3.3992315516
 10
27.7045873233
 20
3.2602687457
 10
27.7771726809
 20
3.1192809246
 10
27.8449407154
 20
2.9767098595
 10
27.9076749417
 20
2.8330279388
 10
27.9651682592
 20
2.6887409242
 10
28.0172523518
 20
2.5443184341
 10
28.0637802835
 20
2.4002277939
 10
28.1046137317
 20
2.2569808345
 10
28.1396501339
 20
2.1150541344
 10
28.1688153157
 20
1.974897266
 10
28.1920512379
 20
1.8369880211
 10
28.2093264688
 20
1.7018034397
 10
28.2206428907
 20
1.5697504694
 10
28.2260223119
 20
1.4412125374
 10
28.225507196
 20
1.3166792853
 10
28.2191691597
 20
1.1964808822
 10
28.2070747397
 20
1.0807984993
 10
28.1893375542
 20
0.9701502988
 10
28.1660669165
 20
0.8647824901
 10
28.137258961
 20
0.7645769206
 10
28.1030688618
 20
0.6700799771
 10
28.0635888397
 20
0.581521064
 10
28.0185531622
 20
0.4985351893
 10
27.9678683366
 20
0.4214102055
 10
27.911709074
 20
0.3508114289
 10
27.8500633579
 20
0.2870519812
 10
27.782922662
 20
0.2304580758
 10
27.7110829174
 20
0.1818386762
  0
LWPOLYLINE
  5
316
100
AcDbEntity
  8
DRAFT
100
AcDbPolyline
 62
7
  6
CONTINUOUS
 90
7
 70
0
 10
27.6000273352
 20
3.4461945894
 10
27.5940646577
 20
3.4574015812
 10
27.5874761924
 20
3.4733005488
 10
27.5821928527
 20
3.4914244103
 10
27.5783291107
 20
3.5118320562
 10
27.5757704943
 20
3.5344645959
 10
27.5745170034
 20
3.5593220293
  0
LWPOLYLINE
  5
317
100
AcDbEntity
  8
DRAFT
100
AcDbPolyline
 62
7
  6
CONTINUOUS
 90
22
 70
0
 10
30.0808734338
 20
-29.063028174
 10
30.0842496873
 20
-29.1258358852
 10
30.0913145028
 20
-29.1897958912
 10
30.1020678805
 20
-29.2549081919
 10
30.1166327478
 20
-29.3216078221
 10
30.1348861772
 20
-29.3894597469
 10
30.1564593862
 20
-29.4571588627
 10
30.1813233759
 20
-29.5244991483
 10
30.2095071453
 20
-29.5916866248
 10
30.2407289091
 20
-29.6580342513
 10
30.2751585707
 20
-29.7237699846
 10
30.3126262267
 20
-29.788665868
 10
30.3523403816
 20
-29.851350991
 10
30.394188573
 20
-29.9115642382
 10
30.4382832634
 20
-29.9695667249
 10
30.4841703441
 20
-30.0247708872
 10
30.5320137387
 20
-30.0773048561
 10
30.5816495236
 20
-30.1270405006
 10
30.6321318194
 20
-30.1730058627
 10
30.6831453331
 20
-30.2148769567
 10
30.7350053579
 20
-30.2529777683
 10
30.7877118935
 20
-30.2873082978
  0
LINE
  5
318
100
AcDbEntity
  8
DRAFT
100
AcDbLine
 62
7
  6
CONTINUOUS
 10
29.6760891953
 20
-41.5435709348
 11
29.6760891953
 21
-30.9294573365
  0
LINE
  5
319
100
AcDbEntity
  8
DRAFT
100
AcDbLine
 62
7
  6
CONTINUOUS
 10
29.6760891953
 20
-4.8024084792
 11
29.6760891953
 21
5.8117051192
  0
LINE
  5
31A
100
AcDbEntity
  8
DRAFT
100
AcDbLine
 62
7
  6
CONTINUOUS
 10
30.7877118935
 20
-40.8564366044
 11
30.7877118935
 21
-36.7965778663
  0
LINE
  5
31B
100
AcDbEntity
  8
DRAFT
100
AcDbLine
 62
7
  6
CONTINUOUS
 10
30.7877118935
 20
-34.3471670359
 11
30.7877118935
 21
-30.2873082978
  0
LINE
  5
31C
100
AcDbEntity
  8
DRAFT
100
AcDbLine
 62
7
  6
CONTINUOUS
 10
30.7877118935
 20
-4.1152741488
 11
30.7877118935
 21
-0.0554154106
  0
LINE
  5
31D
100
AcDbEntity
  8
DRAFT
100
AcDbLine
 62
7
  6
CONTINUOUS
 10
30.7877118935
 20
2.3939954198
 11
30.7877118935
 21
6.4538541579
  0
LINE
  5
31E
100
AcDbEntity
  8
DRAFT
100
AcDbLine
 62
7
  6
CONTINUOUS
 10
31.1350939868
 20
2.5945701754
 11
31.1350939868
 21
0.1594108867
  0
LINE
  5
31F
100
AcDbEntity
  8
DRAFT
100
AcDbLine
 62
7
  6
CONTINUOUS
 10
31.1350939868
 20
-34.1465922803
 11
31.1350939868
 21
-36.581751569
  0
LWPOLYLINE
  5
320
100
AcDbEntity
  8
DRAFT
100
AcDbPolyline
 62
7
  6
CONTINUOUS
 90
12
 70
0
 10
28.9689824141
 20
-5.2106041626
 10
28.9710142693
 20
-5.1503427319
 10
28.9769125331
 20
-5.0932448523
 10
28.9866772054
 20
-5.039310524
 10
29.0004358782
 20
-4.9882181749
 10
29.0180609596
 20
-4.940289377
 10
29.0391696738
 20
-4.8964888466
 10
29.0637344749
 20
-4.857005886
 10
29.0917829089
 20
-4.821651193
 10
29.1230148371
 20
-4.7908215767
 10
29.1576156929
 20
-4.7644845066
 10
29.169957692
 20
-4.7564808266
  0
LWPOLYLINE
  5
321
100
AcDbEntity
  8
DRAFT
100
AcDbPolyline
 62
7
  6
CONTINUOUS
 90
17
 70
0
 10
27.5745170034
 20
-36.8643449555
 10
27.5757703016
 20
-36.8379484913
 10
27.5783389932
 20
-36.8122038193
 10
27.5822230782
 20
-36.7871109397
 10
27.5875368573
 20
-36.7625871161
 10
27.5941660297
 20
-36.7387150847
 10
27.6017676937
 20
-36.7157430548
 10
27.6103143579
 20
-36.6936247621
 10
27.6198335136
 20
-36.6724064707
 10
27.6300647332
 20
-36.6524751817
 10
27.6409995218
 20
-36.6338343608
 10
27.6526463744
 20
-36.6164805422
 10
27.6647703476
 20
-36.6007903296
 10
27.6774230357
 20
-36.5867504943
 10
27.6905528445
 20
-36.574374265
 10
27.7037700477
 20
-36.564077931
 10
27.7110829567
 20
-36.5593512172
  0
LINE
  5
322
100
AcDbEntity
  8
RACCORDO
100
AcDbLine
 62
250
  6
CONTINUOUS
 10
23.6656815552
 20
-22.5609233944
 11
24.7773042535
 21
-21.9190841765
  0
LWPOLYLINE
  5
323
100
AcDbEntity
  8
DRAFT
100
AcDbPolyline
 62
7
  6
CONTINUOUS
 90
22
 70
0
 10
30.086255987
 20
7.5933794352
 10
30.0940801783
 20
7.53256797
 10
30.1050593422
 20
7.4711039317
 10
30.1191934788
 20
7.4089873203
 10
30.136602331
 20
7.3458606076
 10
30.1571661559
 20
7.2820813219
 10
30.1805257245
 20
7.2187220481
 10
30.2066461145
 20
7.155953716
 10
30.2355622481
 20
7.0936053958
 10
30.2670196632
 20
7.0322368832
 10
30.301160147
 20
6.971666675
 10
30.3378419122
 20
6.9120762743
 10
30.3763851346
 20
6.8545699862
 10
30.4166897516
 20
6.7993589197
 10
30.4588558259
 20
6.7462319657
 10
30.5025037211
 20
6.6956601022
 10
30.5477675646
 20
6.6475400854
 10
30.594513229
 20
6.601975159
 10
30.641958696
 20
6.5597460321
 10
30.6898432927
 20
6.5211129412
 10
30.7384276919
 20
6.4858156498
 10
30.7877118935
 20
6.4538541579
  0
LWPOLYLINE
  5
324
100
AcDbEntity
  8
DRAFT
100
AcDbPolyline
 62
7
  6
CONTINUOUS
 90
22
 70
0
 10
28.9725268313
 20
6.9527564595
 10
28.9792709851
 20
6.891880087
 10
28.9893302262
 20
6.8302436287
 10
29.0027045546
 20
6.7678470845
 10
29.0195199303
 20
6.7043039711
 10
29.0396503934
 20
6.640000772
 10
29.0627180632
 20
6.576096937
 10
29.0886879448
 20
6.5127764753
 10
29.1175950332
 20
6.4498553777
 10
29.149166433
 20
6.3879410679
 10
29.1835571135
 20
6.3268372028
 10
29.2206121055
 20
6.2667401254
 10
29.2595936055
 20
6.2088462876
 10
29.3003934407
 20
6.1533856591
 10
29.3431197839
 20
6.1001282702
 10
29.3873593512
 20
6.0495806633
 10
29.4332580363
 20
6.0016342195
 10
29.4806699453
 20
5.9563975578
 10
29.5287441124
 20
5.914703077
 10
29.577196882
 20
5.8768282435
 10
29.6263119097
 20
5.8424955908
 10
29.6760891953
 20
5.8117051192
  0
LINE
  5
325
100
AcDbEntity
  8
DRAFT
100
AcDbLine
 62
7
  6
CONTINUOUS
 10
24.9626448282
 20
-31.5994158825
 11
24.9959762565
 21
-31.4696347869
  0
LINE
  5
326
100
AcDbEntity
  8
DRAFT
100
AcDbLine
 62
7
  6
CONTINUOUS
 10
24.9959762565
 20
-31.4696347869
 11
25.0187394486
 21
-31.4003445397
  0
LINE
  5
327
100
AcDbEntity
  8
DRAFT
100
AcDbLine
 62
7
  6
CONTINUOUS
 10
24.952228957
 20
-31.5426894172
 11
25.0168832416
 21
-31.4042588279
  0
LINE
  5
328
100
AcDbEntity
  8
DRAFT
100
AcDbLine
 62
7
  6
CONTINUOUS
 10
25.0168832416
 20
-31.4042588279
 11
25.0851719255
 21
-31.2609555048
  0
LINE
  5
329
100
AcDbEntity
  8
DRAFT
100
AcDbLine
 62
7
  6
CONTINUOUS
 10
25.0851719255
 20
-31.2609555048
 11
25.157106539
 21
-31.1127429696
  0
LWPOLYLINE
  5
32A
100
AcDbEntity
  8
DRAFT
100
AcDbPolyline
 62
7
  6
CONTINUOUS
 90
3
 70
0
 10
25.157106539
 20
-31.1127429696
 10
25.2327332029
 20
-30.9594753091
 10
25.2719281713
 20
-30.8809549265
  0
LINE
  5
32B
100
AcDbEntity
  8
DRAFT
100
AcDbLine
 62
7
  6
CONTINUOUS
 10
25.2088074481
 20
-31.0077737333
 11
25.2669453003
 21
-30.9277564556
  0
LINE
  5
32C
100
AcDbEntity
  8
DRAFT
100
AcDbLine
 62
7
  6
CONTINUOUS
 10
23.6656815552
 20
-30.3039428745
 11
23.0181771168
 21
-30.6778025824
  0
LINE
  5
32D
100
AcDbEntity
  8
RACCORDO
100
AcDbLine
 62
250
  6
CONTINUOUS
 10
27.2006769822
 20
-28.6837150721
 11
28.3122996805
 21
-28.0418758542
  0
LINE
  5
32E
100
AcDbEntity
  8
DRAFT
100
AcDbLine
 62
7
  6
CONTINUOUS
 10
25.8930679159
 20
-36.8149295019
 11
26.4233980018
 21
-35.874612714
  0
LINE
  5
32F
100
AcDbEntity
  8
DRAFT
100
AcDbLine
 62
7
  6
CONTINUOUS
 10
25.2669453003
 20
-30.9277564556
 11
25.3410753129
 21
-30.8426383519
  0
LWPOLYLINE
  5
330
100
AcDbEntity
  8
DRAFT
100
AcDbPolyline
 62
7
  6
CONTINUOUS
 90
9
 70
0
 10
24.8529226449
 20
-31.6675589804
 10
24.868081103
 20
-31.6570547279
 10
24.8815901688
 20
-31.6455732332
 10
24.8945961889
 20
-31.6324030445
 10
24.9072132388
 20
-31.617476756
 10
24.9192992476
 20
-31.6010197143
 10
24.9308068585
 20
-31.5831070351
 10
24.9417834283
 20
-31.5636636027
 10
24.952228957
 20
-31.5426894172
  0
LINE
  5
331
100
AcDbEntity
  8
DRAFT
100
AcDbLine
 62
7
  6
CONTINUOUS
 10
25.6771750659
 20
-30.6389076617
 11
25.2719281713
 21
-30.8809549265
  0
LINE
  5
332
100
AcDbEntity
  8
RACCORDO
100
AcDbLine
 62
7
  6
CONTINUOUS
 10
23.088887795
 20
-34.0789135453
 11
23.0181771168
 21
-34.1197411448
  0
LINE
  5
333
100
AcDbEntity
  8
DRAFT
100
AcDbLine
 62
7
  6
CONTINUOUS
 10
30.7877118935
 20
-30.2873082978
 11
29.6760891953
 21
-30.9294573365
  0
LINE
  5
334
100
AcDbEntity
  8
DRAFT
100
AcDbLine
 62
7
  6
CONTINUOUS
 10
30.0808734338
 20
-29.063028174
 11
28.9689824141
 21
-29.7047124664
  0
LINE
  5
335
100
AcDbEntity
  8
DRAFT
100
AcDbLine
 62
7
  6
CONTINUOUS
 10
23.6656815552
 20
-34.4119470335
 11
23.0181771168
 21
-34.7601539664
  0
LWPOLYLINE
  5
336
100
AcDbEntity
  8
DRAFT
100
AcDbPolyline
 62
250
  6
CONTINUOUS
 90
31
 70
0
 10
24.7065935753
 20
-31.5259373826
 10
24.619320135
 20
-31.5715088156
 10
24.5372907947
 20
-31.6248975597
 10
24.4605055546
 20
-31.6861036148
 10
24.3887574195
 20
-31.7553730235
 10
24.3222533846
 20
-31.8324597433
 10
24.2616144347
 20
-31.9166256461
 10
24.206898897
 20
-32.0079399854
 10
24.1580484442
 20
-32.1063335078
 10
24.1155090794
 20
-32.2108603254
 10
24.0793437484
 20
-32.3215700266
 10
24.0494895053
 20
-32.4384130229
 10
24.0262035152
 20
-32.5602946606
 10
24.0095442877
 20
-32.687249193
 10
23.9994533132
 20
-32.8192423667
 10
23.9960122281
 20
-32.9550767679
 10
23.9992741593
 20
-33.0947765053
 10
24.0091859798
 20
-33.2383174703
 10
24.0256699452
 20
-33.3844299222
 10
24.0487545605
 20
-33.5330759944
 10
24.0784113205
 20
-33.6842935535
 10
24.1144769655
 20
-33.8369264593
 10
24.156989709
 20
-33.9910234551
 10
24.2059113375
 20
-34.1465357974
 10
24.2609639499
 20
-34.3021611159
 10
24.322531983
 20
-34.4584741342
 10
24.390231
 20
-34.6149001285
 10
24.4626297889
 20
-34.7684125576
 10
24.5392512791
 20
-34.9180025742
 10
24.6205725413
 20
-35.0646790256
 10
24.7065935753
 20
-35.2084419117
  0
LINE
  5
337
100
AcDbEntity
  8
RACCORDO
100
AcDbLine
 62
250
  6
CONTINUOUS
 10
25.3032254954
 20
-33.9242989377
 11
25.4126699388
 21
-33.8677281676
  0
LWPOLYLINE
  5
338
100
AcDbEntity
  8
RACCORDO
100
AcDbPolyline
 62
7
  6
CONTINUOUS
 90
9
 70
0
 10
25.270491064
 20
-33.8489114695
 10
25.283564403
 20
-33.8437371347
 10
25.2997855354
 20
-33.840075821
 10
25.3170185667
 20
-33.83881644
 10
25.3352250617
 20
-33.8399306645
 10
25.3539399531
 20
-33.8433825445
 10
25.3730082186
 20
-33.8491600966
 10
25.3925848805
 20
-33.8572753043
 10
25.4126699388
 20
-33.8677281676
  0
LINE
  5
339
100
AcDbEntity
  8
DRAFT
100
AcDbLine
 62
7
  6
CONTINUOUS
 10
27.2834139388
 20
-37.6176978703
 11
27.5745170034
 21
-37.1250260262
  0
LINE
  5
33A
100
AcDbEntity
  8
DRAFT
100
AcDbLine
 62
7
  6
CONTINUOUS
 10
26.4233980018
 20
-35.874612714
 11
26.7696728824
 21
-35.6604711336
  0
LINE
  5
33B
100
AcDbEntity
  8
DRAFT
100
AcDbLine
 62
7
  6
CONTINUOUS
 10
25.8930679159
 20
-36.8149295019
 11
25.4531966598
 21
-37.0869524849
  0
LINE
  5
33C
100
AcDbEntity
  8
DRAFT
100
AcDbLine
 62
7
  6
CONTINUOUS
 10
27.0222814999
 20
-35.8062954927
 11
27.1206307072
 21
-35.7490215544
  0
LINE
  5
33D
100
AcDbEntity
  8
DRAFT
100
AcDbLine
 62
7
  6
CONTINUOUS
 10
30.7877118935
 20
-34.3471670359
 11
31.1350939868
 21
-34.1465922803
  0
LINE
  5
33E
100
AcDbEntity
  8
DRAFT
100
AcDbLine
 62
7
  6
CONTINUOUS
 10
25.8577125769
 20
-36.2430511236
 11
26.3852665556
 21
-35.9422227554
  0
LINE
  5
33F
100
AcDbEntity
  8
DRAFT
100
AcDbLine
 62
7
  6
CONTINUOUS
 10
25.6951414361
 20
-34.6726617859
 11
26.25706753
 21
-34.3552727539
  0
LINE
  5
340
100
AcDbEntity
  8
DRAFT
100
AcDbLine
 62
250
  6
CONTINUOUS
 10
24.7065935753
 20
-37.6536586003
 11
25.4531966598
 21
-37.2373701941
  0
LINE
  5
341
100
AcDbEntity
  8
RACCORDO
100
AcDbLine
 62
250
  6
CONTINUOUS
 10
23.6656815552
 20
-38.3998871785
 11
21.9728021449
 21
-39.3102629416
  0
LINE
  5
342
100
AcDbEntity
  8
RACCORDO
100
AcDbLine
 62
7
  6
CONTINUOUS
 10
23.5577631248
 20
-38.6311843328
 11
21.8622859518
 21
-39.5429570887
  0
LINE
  5
343
100
AcDbEntity
  8
DRAFT
100
AcDbLine
 62
7
  6
CONTINUOUS
 10
26.4332720777
 20
-34.621254729
 11
25.2719281713
 21
-35.222989689
  0
LWPOLYLINE
  5
344
100
AcDbEntity
  8
DRAFT
100
AcDbPolyline
 62
250
  6
CONTINUOUS
 90
33
 70
0
 10
27.5745170034
 20
-36.8643449555
 10
27.6545227144
 20
-36.82293526
 10
27.7301026617
 20
-36.7750720016
 10
27.8012568453
 20
-36.7207551805
 10
27.8681066296
 20
-36.6598162234
 10
27.9305306502
 20
-36.5924237036
 10
27.9881648132
 20
-36.5190833405
 10
28.0410010665
 20
-36.4397452428
 10
28.0890474622
 20
-36.3544593018
 10
28.1319640637
 20
-36.2638809116
 10
28.1697162209
 20
-36.1679746301
 10
28.2023385839
 20
-36.0667758995
 10
28.2295951655
 20
-35.9610464407
 10
28.2514492823
 20
-35.8507517379
 10
28.2679376178
 20
-35.735926307
 10
28.2789342352
 20
-35.6174354163
 10
28.2843990055
 20
-35.4952472537
 10
28.2843720577
 20
-35.3693936312
 10
28.2788478423
 20
-35.2408352536
 10
28.267784141
 20
-35.1095494582
 10
28.251223172
 20
-34.9755589076
 10
28.2292860413
 20
-34.8398922946
 10
28.2019313887
 20
-34.702536736
 10
28.1692005743
 20
-34.5635051149
 10
28.1313387835
 20
-34.4238647741
 10
28.0883063309
 20
-34.2836100444
 10
28.0401429019
 20
-34.1427465949
 10
27.9872127384
 20
-34.0023587764
 10
27.9294795437
 20
-33.8624505721
 10
27.8669796144
 20
-33.7230179986
 10
27.8001860825
 20
-33.5851334573
 10
27.7292566587
 20
-33.4491544149
 10
27.6540336324
 20
-33.3147234046
  0
LWPOLYLINE
  5
345
100
AcDbEntity
  8
RACCORDO
100
AcDbPolyline
 62
250
  6
CONTINUOUS
 90
19
 70
0
 10
21.9728021449
 20
-39.3102629416
 10
21.9423934809
 20
-39.3258880673
 10
21.9097795393
 20
-39.3400749733
 10
21.8751591215
 20
-39.352714688
 10
21.8387254195
 20
-39.3637132705
 10
21.8007306938
 20
-39.3729721693
 10
21.7614929422
 20
-39.3803999738
 10
21.7212771976
 20
-39.385938704
 10
21.6803539901
 20
-39.3895434636
 10
21.6390718722
 20
-39.3911809862
 10
21.5977491003
 20
-39.3908436537
 10
21.556632855
 20
-39.3885384752
 10
21.5159684558
 20
-39.3842791176
 10
21.4760154174
 20
-39.3780886224
 10
21.4370682464
 20
-39.3700083999
 10
21.3994170139
 20
-39.3600976669
 10
21.3633258987
 20
-39.3484275144
 10
21.3290337063
 20
-39.3350767799
 10
21.2967742729
 20
-39.3201375052
  0
LWPOLYLINE
  5
346
100
AcDbEntity
  8
DRAFT
100
AcDbPolyline
 62
7
  6
CONTINUOUS
 90
10
 70
0
 10
25.3471388123
 20
-38.3244564763
 10
25.3660052014
 20
-38.3113020518
 10
25.3857182777
 20
-38.2929970003
 10
25.40305376
 20
-38.2715645205
 10
25.4180478675
 20
-38.246838978
 10
25.4306643809
 20
-38.2189860072
 10
25.4405253154
 20
-38.1887727011
 10
25.4475046758
 20
-38.1564547574
 10
25.4517284573
 20
-38.1217764784
 10
25.4531966598
 20
-38.0847378641
  0
LWPOLYLINE
  5
347
100
AcDbEntity
  8
DRAFT
100
AcDbPolyline
 62
7
  6
CONTINUOUS
 90
10
 70
0
 10
27.4684591558
 20
-39.5492802563
 10
27.4873255449
 20
-39.5361258317
 10
27.5070386213
 20
-39.5178207803
 10
27.5243741036
 20
-39.4963883004
 10
27.5393682111
 20
-39.471662758
 10
27.5519847245
 20
-39.4438097872
 10
27.5618456589
 20
-39.413596481
 10
27.5688250194
 20
-39.3812785373
 10
27.5730488009
 20
-39.3466002584
 10
27.5745170034
 20
-39.3095616441
  0
LWPOLYLINE
  5
348
100
AcDbEntity
  8
DRAFT
100
AcDbPolyline
 62
7
  6
CONTINUOUS
 90
11
 70
0
 10
29.1700060809
 20
-41.4976139579
 10
29.149166433
 20
-41.5113296855
 10
29.1175950332
 20
-41.5367861342
 10
29.0886879448
 20
-41.5663260506
 10
29.0627180632
 20
-41.5996571441
 10
29.0396503934
 20
-41.6369230121
 10
29.0195199303
 20
-41.6779800572
 10
29.0027045546
 20
-41.722105196
 10
28.9893302262
 20
-41.7690574011
 10
28.9792709851
 20
-41.8190777
 10
28.9725268313
 20
-41.8721660927
  0
LINE
  5
349
100
AcDbEntity
  8
DRAFT
100
AcDbLine
 62
7
  6
CONTINUOUS
 10
30.7877118935
 20
-36.7965778663
 11
31.1350939868
 21
-36.581751569
  0
LINE
  5
34A
100
AcDbEntity
  8
DRAFT
100
AcDbLine
 62
7
  6
CONTINUOUS
 10
30.7877118935
 20
-40.8564366044
 11
29.6760891953
 21
-41.5435709348
  0
LINE
  5
34B
100
AcDbEntity
  8
DRAFT
100
AcDbLine
 62
7
  6
CONTINUOUS
 10
29.5818956552
 20
-41.4966371582
 11
28.9725268313
 21
-41.8721660927
  0
LINE
  5
34C
100
AcDbEntity
  8
DRAFT
100
AcDbLine
 62
7
  6
CONTINUOUS
 10
27.2834139388
 20
-37.6176978703
 11
26.8279139189
 21
-37.880697001
  0
LINE
  5
34D
100
AcDbEntity
  8
DRAFT
100
AcDbLine
 62
250
  6
CONTINUOUS
 10
26.8279139189
 20
-38.8784823803
 11
27.5745170034
 21
-38.4621939741
  0
ARC
  5
34E
100
AcDbEntity
  8
RACCORDO
100
AcDbCircle
 62
7
  6
CONTINUOUS
 10
21.6254729597
 20
-39.1025940489
 40
0.5
100
AcDbArc
 50
243.2112433761
 51
298.2699256375
  0
ARC
  5
34F
100
AcDbEntity
  8
RACCORDO
100
AcDbCircle
 62
7
  6
CONTINUOUS
 10
-26.3998110901
 20
36.5681113404
 40
0.5
100
AcDbArc
 50
121.7332683129
 51
180.004185522
  0
ARC
  5
350
100
AcDbEntity
  8
RACCORDO
100
AcDbCircle
 62
7
  6
CONTINUOUS
 10
-26.3998110901
 20
-11.3733969368
 40
0.5
100
AcDbArc
 50
180.0007993134
 51
236.5616758374
  0
ELLIPSE
  5
351
100
AcDbEntity
  8
RACCORDO
100
AcDbEllipse
 62
7
  6
CONTINUOUS
 10
23.3120743085
 20
-38.1955944241
 30
0.0
 11
-0.2500882309
 21
0.4331376414
 31
0.0
 40
0.5771558487
 41
-3.159039784
 42
-2.3563950755
  0
ELLIPSE
  5
352
100
AcDbEntity
  8
RACCORDO
100
AcDbEllipse
 62
7
  6
CONTINUOUS
 10
23.3120743085
 20
9.81273348
 30
0.0
 11
-0.2500120911
 21
0.4330057209
 31
0.0
 40
0.5775075436
 41
-2.3560905478
 42
-0.7855988075
  0
ELLIPSE
  5
353
100
AcDbEntity
  8
RACCORDO
100
AcDbEllipse
 62
7
  6
CONTINUOUS
 10
-24.7710791
 20
37.5753436346
 30
0.0
 11
-0.2500882309
 21
0.4331376414
 31
0.0
 40
0.5771558487
 41
-0.7852941622
 42
0.0174471304
  0
ELLIPSE
  5
354
100
AcDbEntity
  8
RACCORDO
100
AcDbEllipse
 62
7
  6
CONTINUOUS
 10
28.3133767204
 20
-7.5857577269
 30
0.0
 11
-2.5008823094
 21
4.3313764139
 31
0.0
 40
0.5771558487
 41
0.2452607778
 42
0.7851975781
  0
ELLIPSE
  5
355
100
AcDbEntity
  8
RACCORDO
100
AcDbEllipse
 62
7
  6
CONTINUOUS
 10
-27.509639812
 20
8.2719856361
 30
0.0
 11
-2.5008823094
 21
4.3313764139
 31
0.0
 40
0.5771558487
 41
-3.9268868158
 42
-3.7538141304
  0
ELLIPSE
  5
356
100
AcDbEntity
  8
RACCORDO
100
AcDbEllipse
 62
7
  6
CONTINUOUS
 10
-28.6607588136
 20
23.9811129114
 30
0.0
 11
-2.5001209111
 21
4.3300572086
 31
0.0
 40
0.5775075436
 41
-1.3066208853
 42
-0.7855988075
  0
ELLIPSE
  5
357
100
AcDbEntity
  8
RACCORDO
100
AcDbEllipse
 62
7
  6
CONTINUOUS
 10
28.3133767204
 20
-23.959524483
 30
0.0
 11
-2.5001209111
 21
4.3300572086
 31
0.0
 40
0.5775075436
 41
0.7855021057
 42
2.355993846
  0
ELLIPSE
  5
358
100
AcDbEntity
  8
RACCORDO
100
AcDbEllipse
 62
7
  6
CONTINUOUS
 10
27.2017540221
 20
-8.2732018782
 30
0.0
 11
-2.5008823094
 21
4.3313764139
 31
0.0
 40
0.5771558487
 41
5.497891145
 42
7.0683828853
  0
ELLIPSE
  5
359
100
AcDbEntity
  8
RACCORDO
100
AcDbEllipse
 62
7
  6
CONTINUOUS
 10
27.2017540221
 20
-24.6013637009
 30
0.0
 11
-2.5001209111
 21
4.3300572086
 31
0.0
 40
0.5775075436
 41
0.7855021057
 42
2.355993846
  0
ELLIPSE
  5
35A
100
AcDbEntity
  8
RACCORDO
100
AcDbEllipse
 62
7
  6
CONTINUOUS
 10
-28.6607588136
 20
7.6529510887
 30
0.0
 11
-2.5008823094
 21
4.3313764139
 31
0.0
 40
0.5771558487
 41
-3.9268868158
 42
-3.405864739
  0
ENDSEC
  0
SECTION
  2
OBJECTS
  0
DICTIONARY
  5
C
100
AcDbDictionary
280
0
281
1
  3
ACAD_GROUP
350
D
  3
ACAD_MLINESTYLE
350
17
  3
ACAD_LAYOUT
350
1A
  3
ACAD_PLOTSETTINGS
350
19
  3
ACAD_PLOTSTYLENAME
350
E
  0
DICTIONARY
  5
D
102
{ACAD_REACTORS
330
C
102
}
100
AcDbDictionary
280
0
281
1
  0
ACDBDICTIONARYWDFLT
  5
E
102
{ACAD_REACTORS
330
C
102
}
100
AcDbDictionary
281
1
  3
Normal
350
F
100
AcDbDictionaryWithDefault
340
F
  0
DICTIONARY
  5
17
102
{ACAD_REACTORS
330
C
102
}
100
AcDbDictionary
280
0
281
1
  3
Standard
350
18
  0
DICTIONARY
  5
19
102
{ACAD_REACTORS
330
C
102
}
100
AcDbDictionary
281
1
  0
DICTIONARY
  5
1A
102
{ACAD_REACTORS
330
C
102
}
100
AcDbDictionary
281
1
  3
Model
350
35B
  3
Layout1
350
35C
  0
ACDBPLACEHOLDER
  5
F
102
{ACAD_REACTORS
330
E
102
}
  0
MLINESTYLE
  5
18
102
{ACAD_REACTORS
330
17
102
}
100
AcDbMlineStyle
  2
STANDARD
 70
0
  3

 62
256
 51
90.0
 52
90.0
 71
2
 49
0.5
 62
256
  6
BYLAYER
 49
-0.5
 62
256
  6
BYLAYER
  0
LAYOUT
  5
35B
102
{ACAD_REACTORS
330
1A
102
}
100
AcDbPlotSettings
  1

  2
none_device
  4
ISO_A4_(297.00_x_210.00_MM)
  6

 40
0.0
 41
0.0
 42
0.0
 43
0.0
 44
297.0
 45
210.0
 46
0.0
 47
0.0
 48
0.0
 49
0.0
140
0.0
141
0.0
142
1.0
143
1.0
 70
1024
 72
1
 73
0
 74
0
  7

 75
0
147
1.0
148
0.0
149
0.0
100
AcDbLayout
  1
Model
 70
0
 71
0
 10
0.0
 20
0.0
 11
297.0
 21
210.0
 12
0.0
 22
0.0
 32
0.0
 14
0.0
 24
0.0
 34
0.0
 15
0.0
 25
0.0
 35
0.0
146
0.0
 13
0.0
 23
0.0
 33
0.0
 16
1.0
 26
0.0
 36
0.0
 17
0.0
 27
1.0
 37
0.0
 76
0
330
20F
345
0
346
0
  0
LAYOUT
  5
35C
102
{ACAD_REACTORS
330
1A
102
}
100
AcDbPlotSettings
  1

  2
none_device
  4
ISO_A4_(297.00_x_210.00_MM)
  6

 40
0.0
 41
0.0
 42
0.0
 43
0.0
 44
297.0
 45
210.0
 46
0.0
 47
0.0
 48
0.0
 49
0.0
140
0.0
141
0.0
142
1.0
143
1.0
 70
0
 72
1
 73
0
 74
0
  7

 75
0
147
1.0
148
0.0
149
0.0
100
AcDbLayout
  1
Layout1
 70
0
 71
1
 10
0.0
 20
0.0
 11
297.0
 21
210.0
 12
0.0
 22
0.0
 32
0.0
 14
0.0
 24
0.0
 34
0.0
 15
0.0
 25
0.0
 35
0.0
146
0.0
 13
0.0
 23
0.0
 33
0.0
 16
1.0
 26
0.0
 36
0.0
 17
0.0
 27
1.0
 37
0.0
 76
0
330
210
345
0
346
0
  0
ENDSEC
  0
EOF
