  0
SECTION
  2
HEADER
  9
$ACADVER
  1
AC1024
  9
$DWGCODEPAGE
  3
ANSI_1252
  9
$EXTMAX
 10
297.0
 20
210.0
 30
0.0
  9
$EXTMIN
 10
0.0
 20
0.0
 30
0.0
  9
$LIMMIN
 10
0.0
 20
0.0
  9
$LIMMAX
 10
297.0
 20
210.0
  9
$VIEWCTR
 10
148.5
 20
105.0
  9
$VIEWSIZE
 40
210.0
  9
$CLAYER
  8
0
  9
$LTSCALE
 40
16.335
  9
$CELTYPE
  6
BYLAYER
  9
$DIMSCALE
 40
1.0
  9
$DIMASZ
 40
3.0
  9
$DIMEXO
 40
0.5
  9
$DIMDLI
 40
11.286
  9
$DIMEXE
 40
1.5
  9
$DIMCEN
 40
2.673
  9
$DIMLFAC
 40
1.0
  9
$DIMBLK
  1
_FILLED
  9
$DIMALT
 70
0
  9
$DIMALTF
 40
0.0393700787
  9
$DIMTXT
 40
3.0
  9
$DIMTOL
 70
1
  9
$DIMLIM
 70
0
  9
$DIMTFAC
 40
1.0
  9
$DIMTP
 40
0.01
  9
$DIMTM
 40
0.01
  9
$DIMGAP
 40
0.625
  9
$DIMDSEP
 70
44
  9
$AUNITS
 70
0
  9
$PDMODE
 70
3
  9
$PDSIZE
 40
3.0
  9
$HANDSEED
  5
2A9
  9
$TILEMODE
 70
1
  9
$MEASUREMENT
 70
1
  9
$INSUNITS
 70
4
  0
ENDSEC
  0
SECTION
  2
CLASSES
  0
CLASS
  1
ACDBDICTIONARYWDFLT
  2
AcDbDictionaryWithDefault
  3
AutoCAD 2000
 90
0
 91
1
280
0
281
0
  0
CLASS
  1
ACDBPLACEHOLDER
  2
AcDbPlaceHolder
  3
AutoCAD 2000
 90
0
 91
1
280
0
281
0
  0
CLASS
  1
LAYOUT
  2
AcDbLayout
  3
AutoCAD 2000
 90
0
 91
0
280
0
281
0
  0
ENDSEC
  0
SECTION
  2
TABLES
  0
TABLE
  2
VPORT
  5
8
100
AcDbSymbolTable
 70
2
  0
VPORT
  5
1F4
100
AcDbSymbolTableRecord
100
AcDbViewportTableRecord
  2
*ACTIVE
 70
0
 10
0.0
 20
0.0
 11
1.0
 21
1.0
 12
148.5
 22
105.0
 13
0.0
 23
0.0
 14
1.0
 24
1.0
 15
0.0
 25
0.0
 16
0.0
 26
0.0
 36
1.0
 17
0.0
 27
0.0
 37
0.0
 40
210.0
 41
1.4142857143
 42
50.0
 43
0.0
 44
0.0
 50
0.0
 51
0.0
 71
0
 72
100
 73
1
 74
1
 75
0
 76
0
 77
0
 78
0
  0
ENDTAB
  0
TABLE
  2
LTYPE
  5
5
100
AcDbSymbolTable
 70
6
  0
LTYPE
  5
14
100
AcDbSymbolTableRecord
100
AcDbLinetypeTableRecord
  2
BYBLOCK
 70
0
  3

 72
65
 73
0
 40
0.0
  0
LTYPE
  5
15
100
AcDbSymbolTableRecord
100
AcDbLinetypeTableRecord
  2
BYLAYER
 70
0
  3

 72
65
 73
0
 40
0.0
  0
LTYPE
  5
16
100
AcDbSymbolTableRecord
100
AcDbLinetypeTableRecord
  2
CONTINUOUS
 70
64
  3
Solid line
 72
65
 73
0
 40
0.0
  0
LTYPE
  5
1F5
100
AcDbSymbolTableRecord
100
AcDbLinetypeTableRecord
  2
CENTER
 70
64
  3
____ _ ____ _ ____ _ ____ _ ____ _ ____ _ ____
 72
65
 73
4
 40
0.6
 49
0.375
 74
0
 49
-0.075
 74
0
 49
0.075
 74
0
 49
-0.075
 74
0
  0
LTYPE
  5
1F6
100
AcDbSymbolTableRecord
100
AcDbLinetypeTableRecord
  2
HIDDEN
 70
64
  3
- - - - - - - - - - - - - - - - - - - -
 72
65
 73
2
 40
0.2
 49
0.1
 74
0
 49
-0.1
 74
0
  0
LTYPE
  5
1F7
100
AcDbSymbolTableRecord
100
AcDbLinetypeTableRecord
  2
PHANTOM
 70
64
  3
_____ _ _ _____ _ _ _____ _ _ _____
 72
65
 73
6
 40
0.8
 49
0.45
 74
0
 49
-0.05
 74
0
 49
0.1
 74
0
 49
-0.05
 74
0
 49
0.1
 74
0
 49
-0.05
 74
0
  0
LTYPE
  5
1F8
100
AcDbSymbolTableRecord
100
AcDbLinetypeTableRecord
  2
DOT
 70
64
  3
. . . . . . . . . . . . . . . . . . . .
 72
65
 73
2
 40
0.2
 49
0.1
 74
0
 49
-0.1
 74
0
  0
LTYPE
  5
1F9
100
AcDbSymbolTableRecord
100
AcDbLinetypeTableRecord
  2
DASHED
 70
64
  3
- - - - - - - - - - - - - - - - - - - -
 72
65
 73
2
 40
0.2
 49
0.1
 74
0
 49
-0.1
 74
0
  0
ENDTAB
  0
TABLE
  2
LAYER
  5
2
100
AcDbSymbolTable
 70
36
  0
LAYER
  5
10
100
AcDbSymbolTableRecord
100
AcDbLayerTableRecord
  2
0
 70
0
 62
7
  6
CONTINUOUS
370
-3
390
F
  0
LAYER
  5
1FA
100
AcDbSymbolTableRecord
100
AcDbLayerTableRecord
  2
DEFAULT_1
 70
0
 62
7
  6
CENTER
370
-3
390
F
  0
LAYER
  5
1FB
100
AcDbSymbolTableRecord
100
AcDbLayerTableRecord
  2
DEFAULT_2
 70
0
 62
7
  6
HIDDEN
370
-3
390
F
  0
LAYER
  5
1FC
100
AcDbSymbolTableRecord
100
AcDbLayerTableRecord
  2
DEFAULT_3
 70
0
 62
7
  6
PHANTOM
370
-3
390
F
  0
LAYER
  5
1FD
100
AcDbSymbolTableRecord
100
AcDbLayerTableRecord
  2
ASSI
 70
0
 62
7
  6
CONTINUOUS
370
-3
390
F
  0
LAYER
  5
1FE
100
AcDbSymbolTableRecord
100
AcDbLayerTableRecord
  2
COORDINATE
 70
0
 62
7
  6
CONTINUOUS
370
-3
390
F
  0
LAYER
  5
1FF
100
AcDbSymbolTableRecord
100
AcDbLayerTableRecord
  2
COPY_PUBLISH
 70
0
 62
7
  6
CONTINUOUS
370
-3
390
F
  0
LAYER
  5
200
100
AcDbSymbolTableRecord
100
AcDbLayerTableRecord
  2
COSMETIC
 70
0
 62
7
  6
CONTINUOUS
370
-3
390
F
  0
LAYER
  5
201
100
AcDbSymbolTableRecord
100
AcDbLayerTableRecord
  2
COSMETICI
 70
0
 62
7
  6
CONTINUOUS
370
-3
390
F
  0
LAYER
  5
202
100
AcDbSymbolTableRecord
100
AcDbLayerTableRecord
  2
CURVE
 70
0
 62
7
  6
CONTINUOUS
370
-3
390
F
  0
LAYER
  5
203
100
AcDbSymbolTableRecord
100
AcDbLayerTableRecord
  2
DRAFT
 70
0
 62
7
  6
CONTINUOUS
370
-3
390
F
  0
LAYER
  5
204
100
AcDbSymbolTableRecord
100
AcDbLayerTableRecord
  2
IMPORT_IGES
 70
0
 62
7
  6
CONTINUOUS
370
-3
390
F
  0
LAYER
  5
205
100
AcDbSymbolTableRecord
100
AcDbLayerTableRecord
  2
INTFCLR_11
 70
0
 62
7
  6
CONTINUOUS
370
-3
390
F
  0
LAYER
  5
206
100
AcDbSymbolTableRecord
100
AcDbLayerTableRecord
  2
INTF_1
 70
0
 62
7
  6
CONTINUOUS
370
-3
390
F
  0
LAYER
  5
207
100
AcDbSymbolTableRecord
100
AcDbLayerTableRecord
  2
INTF_3
 70
0
 62
7
  6
CONTINUOUS
370
-3
390
F
  0
LAYER
  5
208
100
AcDbSymbolTableRecord
100
AcDbLayerTableRecord
  2
INTF_9
 70
0
 62
7
  6
CONTINUOUS
370
-3
390
F
  0
LAYER
  5
209
100
AcDbSymbolTableRecord
100
AcDbLayerTableRecord
  2
NOTE
 70
0
 62
7
  6
CONTINUOUS
370
-3
390
F
  0
LAYER
  5
20A
100
AcDbSymbolTableRecord
100
AcDbLayerTableRecord
  2
PIANI
 70
0
 62
7
  6
CONTINUOUS
370
-3
390
F
  0
LAYER
  5
20B
100
AcDbSymbolTableRecord
100
AcDbLayerTableRecord
  2
PIANI_RIFERIMENTO
 70
0
 62
7
  6
CONTINUOUS
370
-3
390
F
  0
LAYER
  5
20C
100
AcDbSymbolTableRecord
100
AcDbLayerTableRecord
  2
PUNTI
 70
0
 62
7
  6
CONTINUOUS
370
-3
390
F
  0
LAYER
  5
20D
100
AcDbSymbolTableRecord
100
AcDbLayerTableRecord
  2
RACCORDO
 70
0
 62
7
  6
CONTINUOUS
370
-3
390
F
  0
LAYER
  5
20E
100
AcDbSymbolTableRecord
100
AcDbLayerTableRecord
  2
SIMBOLI
 70
0
 62
7
  6
CONTINUOUS
370
-3
390
F
  0
LAYER
  5
20F
100
AcDbSymbolTableRecord
100
AcDbLayerTableRecord
  2
SMUSSO
 70
0
 62
7
  6
CONTINUOUS
370
-3
390
F
  0
LAYER
  5
210
100
AcDbSymbolTableRecord
100
AcDbLayerTableRecord
  2
SNAPLINE
 70
0
 62
7
  6
CONTINUOUS
370
-3
390
F
  0
LAYER
  5
211
100
AcDbSymbolTableRecord
100
AcDbLayerTableRecord
  2
SUPERFICI
 70
0
 62
7
  6
CONTINUOUS
370
-3
390
F
  0
LAYER
  5
212
100
AcDbSymbolTableRecord
100
AcDbLayerTableRecord
  2
TRASH
 70
0
 62
7
  6
CONTINUOUS
370
-3
390
F
  0
LAYER
  5
213
100
AcDbSymbolTableRecord
100
AcDbLayerTableRecord
  2
___SHELL
 70
0
 62
7
  6
CONTINUOUS
370
-3
390
F
  0
ENDTAB
  0
TABLE
  2
STYLE
  5
3
100
AcDbSymbolTable
 70
1
  0
STYLE
  5
11
100
AcDbSymbolTableRecord
100
AcDbTextStyleTableRecord
  2
STANDARD
 70
0
 40
0.0
 41
0.8
 50
0.0
 71
0
 42
0.2
  3
txt
  4

  0
STYLE
  5
214
100
AcDbSymbolTableRecord
100
AcDbTextStyleTableRecord
  2
TEXTSTYLE_1
 70
0
 40
0.0
 41
0.8
 50
0.0
 71
0
 42
0.2
  3
gdt
  4

  0
ENDTAB
  0
TABLE
  2
VIEW
  5
6
100
AcDbSymbolTable
 70
0
  0
ENDTAB
  0
TABLE
  2
UCS
  5
7
100
AcDbSymbolTable
 70
0
  0
ENDTAB
  0
TABLE
  2
APPID
  5
9
100
AcDbSymbolTable
 70
1
  0
APPID
  5
215
100
AcDbSymbolTableRecord
100
AcDbRegAppTableRecord
  2
ACAD
 70
0
  0
ENDTAB
  0
TABLE
  2
BLOCK_RECORD
  5
1
100
AcDbSymbolTable
 70
0
  0
BLOCK_RECORD
  5
216
100
AcDbSymbolTableRecord
100
AcDbBlockTableRecord
  2
*Model_Space
  0
BLOCK_RECORD
  5
217
100
AcDbSymbolTableRecord
100
AcDbBlockTableRecord
  2
*Paper_Space
  0
BLOCK_RECORD
  5
218
100
AcDbSymbolTableRecord
100
AcDbBlockTableRecord
  2
_FILLED
  0
ENDTAB
  0
TABLE
  2
DIMSTYLE
  5
A
100
AcDbSymbolTable
 70
1
100
AcDbDimStyleTable
 71
0
  0
DIMSTYLE
105
219
100
AcDbSymbolTableRecord
100
AcDbDimStyleTableRecord
  2
STANDARD
 70
0
  3

  4

 40
1.0
 41
3.0
 42
0.5
 43
0.38
 44
1.5
 45
0.0
 46
0.0
 47
0.01
 48
0.01
140
3.0
141
0.09
142
0.0
143
25.4
144
1.0
145
0.0
146
1.0
147
0.625
 71
1
 72
0
 73
0
 74
0
 75
0
 76
0
 77
1
 78
8
 79
2
170
0
171
1
172
0
173
0
174
0
175
0
176
0
177
0
178
0
270
2
179
2
271
2
272
2
273
2
274
2
275
0
280
0
281
0
282
0
283
1
284
8
285
0
286
0
287
3
288
0
340
11
278
44
341
218
342
218
343
218
344
218
  0
ENDTAB
  0
ENDSEC
  0
SECTION
  2
BLOCKS
  0
BLOCK
  5
20
100
AcDbEntity
  8
0
100
AcDbBlockBegin
  2
*Model_Space
 70
0
 10
0.0
 20
0.0
 30
0.0
  3
*Model_Space
  1

  0
ENDBLK
  5
21
100
AcDbEntity
  8
0
100
AcDbBlockEnd
  0
BLOCK
  5
1C
100
AcDbEntity
  8
0
100
AcDbBlockBegin
  2
*Paper_Space
 70
0
 10
0.0
 20
0.0
 30
0.0
  3
*Paper_Space
  1

  0
ENDBLK
  5
1D
100
AcDbEntity
  8
0
100
AcDbBlockEnd
  0
BLOCK
  5
21A
100
AcDbEntity
  8
0
100
AcDbBlockBegin
  2
_FILLED
 70
64
 10
0.0
 20
0.0
  3
_FILLED
  1

  0
SOLID
  5
21B
100
AcDbEntity
  8
0
  6
BYBLOCK
 62
0
100
AcDbTrace
 10
0.0
 20
0.0
 11
-1.0
 21
0.3166666667
 12
-1.0
 22
-0.3166666667
 13
-1.0
 23
-0.3166666667
  0
ENDBLK
  5
21C
100
AcDbEntity
  8
0
  6
BYBLOCK
 62
0
100
AcDbBlockEnd
  0
ENDSEC
  0
SECTION
  2
ENTITIES
  0
LINE
  5
21D
100
AcDbEntity
  8
0
100
AcDbLine
 62
7
  6
CONTINUOUS
 10
-17.4743189299
 20
29.2593147682
 11
-16.9107094992
 21
29.6197364651
  0
LINE
  5
21E
100
AcDbEntity
  8
0
100
AcDbLine
 62
250
  6
CONTINUOUS
 10
-17.2141999286
 20
29.2408328071
 11
-16.6543148984
 21
29.5988727931
  0
LINE
  5
21F
100
AcDbEntity
  8
0
100
AcDbLine
 62
250
  6
CONTINUOUS
 10
-1.7559900429
 20
20.9967667414
 11
-2.3459857602
 21
20.6561122888
  0
LINE
  5
220
100
AcDbEntity
  8
0
100
AcDbLine
 62
7
  6
CONTINUOUS
 10
-17.4549570598
 20
-13.7466967573
 11
-2.5867428915
 21
-22.3314172756
  0
LINE
  5
221
100
AcDbEntity
  8
0
100
AcDbLine
 62
7
  6
CONTINUOUS
 10
-1.5450544831
 20
-22.9328751072
 11
13.3231596852
 21
-31.5175956255
  0
LINE
  5
222
100
AcDbEntity
  8
0
100
AcDbLine
 62
250
  6
CONTINUOUS
 10
-17.5584983704
 20
-13.5178283268
 11
-2.690284202
 21
-22.1025488451
  0
LINE
  5
223
100
AcDbEntity
  8
0
100
AcDbLine
 62
250
  6
CONTINUOUS
 10
-1.6485957937
 20
-22.7040066766
 11
13.2196183747
 21
-31.2887271949
  0
LINE
  5
224
100
AcDbEntity
  8
0
100
AcDbLine
 62
7
  6
CONTINUOUS
 10
-17.7049449798
 20
-13.3136910301
 11
-17.7049449798
 21
28.8380812521
  0
LINE
  5
225
100
AcDbEntity
  8
0
100
AcDbLine
 62
250
  6
CONTINUOUS
 10
-17.5584983704
 20
-13.5178283268
 11
-17.5584983704
 21
28.6339439555
  0
LINE
  5
226
100
AcDbEntity
  8
0
100
AcDbLine
 62
7
  6
CONTINUOUS
 10
-1.5644163532
 20
20.0731364183
 11
-1.0008069225
 21
20.4335581152
  0
LINE
  5
227
100
AcDbEntity
  8
0
100
AcDbLine
 62
250
  6
CONTINUOUS
 10
-1.3042973519
 20
20.0546544572
 11
-0.7444123217
 21
20.4126944432
  0
LINE
  5
228
100
AcDbEntity
  8
0
100
AcDbLine
 62
250
  6
CONTINUOUS
 10
-1.4025578063
 20
20.3846041511
 11
-1.9925535236
 21
20.0439496984
  0
LWPOLYLINE
  5
229
100
AcDbEntity
  8
0
100
AcDbPolyline
 62
7
  6
CONTINUOUS
 90
11
 70
0
 10
15.9285844498
 20
-14.454217567
 10
15.9292121283
 20
-14.4545656843
 10
15.9293366662
 20
-14.4545430761
 10
15.927676843
 20
-14.4524106852
 10
15.9243648229
 20
-14.4469186518
 10
15.9203545325
 20
-14.4381019215
 10
15.9162768213
 20
-14.4260096911
 10
15.9126310404
 20
-14.410777084
 10
15.9098022241
 20
-14.3925810054
 10
15.9080907707
 20
-14.3715457329
 10
15.9077006307
 20
-14.3548016459
  0
LINE
  5
22A
100
AcDbEntity
  8
0
100
AcDbLine
 62
7
  6
CONTINUOUS
 10
15.9286148448
 20
-14.4542369078
 11
15.9287028275
 21
-14.4542877563
  0
LINE
  5
22B
100
AcDbEntity
  8
0
100
AcDbLine
 62
250
  6
CONTINUOUS
 10
-2.690284202
 20
20.0492234372
 11
-2.690284202
 21
-22.1025488451
  0
LINE
  5
22C
100
AcDbEntity
  8
0
100
AcDbLine
 62
250
  6
CONTINUOUS
 10
14.1539125338
 20
11.8105883916
 11
13.5639168164
 21
11.4699339389
  0
LINE
  5
22D
100
AcDbEntity
  8
0
100
AcDbLine
 62
250
  6
CONTINUOUS
 10
14.5073447704
 20
11.1984258013
 11
13.9173490531
 21
10.8577713486
  0
LINE
  5
22E
100
AcDbEntity
  8
0
100
AcDbLine
 62
250
  6
CONTINUOUS
 10
15.9077006739
 20
-14.3180617452
 11
16.1113716532
 21
-14.4356588161
  0
LINE
  5
22F
100
AcDbEntity
  8
0
100
AcDbLine
 62
250
  6
CONTINUOUS
 10
16.1305968238
 20
-14.4247575013
 11
15.9077006739
 21
-14.2960600579
  0
LINE
  5
230
100
AcDbEntity
  8
0
100
AcDbLine
 62
7
  6
CONTINUOUS
 10
16.3182457228
 20
-14.4090039929
 11
15.9077006739
 21
-14.1719604271
  0
LINE
  5
231
100
AcDbEntity
  8
0
100
AcDbLine
 62
250
  6
CONTINUOUS
 10
-1.9925535236
 20
20.0439496984
 11
-1.9925535236
 21
-22.1078225838
  0
LINE
  5
232
100
AcDbEntity
  8
0
100
AcDbLine
 62
7
  6
CONTINUOUS
 10
-1.7950424031
 20
-22.49986938
 11
-1.7950424031
 21
19.6519029023
  0
LINE
  5
233
100
AcDbEntity
  8
0
100
AcDbLine
 62
250
  6
CONTINUOUS
 10
-1.6485957937
 20
-22.7040066766
 11
-1.6485957937
 21
19.4477656056
  0
LINE
  5
234
100
AcDbEntity
  8
0
100
AcDbLine
 62
7
  6
CONTINUOUS
 10
-1.4025578063
 20
20.1766430826
 11
-1.4025578063
 21
20.3846041511
  0
LINE
  5
235
100
AcDbEntity
  8
0
100
AcDbLine
 62
250
  6
CONTINUOUS
 10
15.9678489396
 20
0.8559305362
 11
15.90326456
 21
0.8186403248
  0
LINE
  5
236
100
AcDbEntity
  8
0
100
AcDbLine
 62
250
  6
CONTINUOUS
 10
15.9678489396
 20
-3.3080678754
 11
15.90326456
 21
-3.3453580868
  0
LINE
  5
237
100
AcDbEntity
  8
0
100
AcDbLine
 62
7
  6
CONTINUOUS
 10
15.9111881935
 20
-3.4084170703
 11
15.9264324154
 21
-3.3996152477
  0
LINE
  5
238
100
AcDbEntity
  8
0
100
AcDbLine
 62
250
  6
CONTINUOUS
 10
13.2196183747
 20
10.8630450873
 11
13.2196183747
 21
-31.2887271949
  0
LINE
  5
239
100
AcDbEntity
  8
0
100
AcDbLine
 62
250
  6
CONTINUOUS
 10
13.9173490531
 20
10.8577713486
 11
13.9173490531
 21
-31.2940009337
  0
LINE
  5
23A
100
AcDbEntity
  8
0
100
AcDbLine
 62
7
  6
CONTINUOUS
 10
14.5073447704
 20
-30.9881141874
 11
14.5073447704
 21
11.1984258013
  0
LWPOLYLINE
  5
23B
100
AcDbEntity
  8
0
100
AcDbPolyline
 62
7
  6
CONTINUOUS
 90
11
 70
0
 10
16.4585730945
 20
-14.6731644357
 10
16.4584955667
 20
-14.6653731269
 10
16.455890795
 20
-14.6280926758
 10
16.4495900871
 20
-14.5921117519
 10
16.4395654143
 20
-14.5576722571
 10
16.4258460297
 20
-14.5250966699
 10
16.4084895081
 20
-14.4946981131
 10
16.3876656888
 20
-14.4669014847
 10
16.3638366656
 20
-14.4423002106
 10
16.337501343
 20
-14.4212666247
 10
16.3182586227
 20
-14.4090171142
  0
LWPOLYLINE
  5
23C
100
AcDbEntity
  8
0
100
AcDbPolyline
 62
7
  6
CONTINUOUS
 90
10
 70
0
 10
15.9077006716
 20
5.1472969861
 10
15.9075266324
 20
5.179019539
 10
15.9049936066
 20
5.2712423275
 10
15.8994317529
 20
5.3618225084
 10
15.8908112381
 20
5.4507285945
 10
15.8791226778
 20
5.5377272732
 10
15.8644127315
 20
5.6224064428
 10
15.8467270328
 20
5.7045820762
 10
15.8260788892
 20
5.7842588061
 10
15.8201453164
 20
5.8048357628
  0
LINE
  5
23D
100
AcDbEntity
  8
0
100
AcDbLine
 62
250
  6
CONTINUOUS
 10
15.8527755481
 20
5.0678252356
 11
15.8527755481
 21
-14.4342152005
  0
LINE
  5
23E
100
AcDbEntity
  8
0
100
AcDbLine
 62
250
  6
CONTINUOUS
 10
15.8527755481
 20
-18.3308612527
 11
15.8527755481
 21
-23.1364367064
  0
LINE
  5
23F
100
AcDbEntity
  8
0
100
AcDbLine
 62
7
  6
CONTINUOUS
 10
15.90326456
 20
0.8186403248
 11
15.90326456
 21
-3.3453580868
  0
LINE
  5
240
100
AcDbEntity
  8
0
100
AcDbLine
 62
7
  6
CONTINUOUS
 10
15.9077006739
 20
5.1473146966
 11
15.9077006739
 21
0.9240325809
  0
LINE
  5
241
100
AcDbEntity
  8
0
100
AcDbLine
 62
7
  6
CONTINUOUS
 10
15.9077006739
 20
-3.4023768984
 11
15.9077006739
 21
-14.3547257409
  0
LINE
  5
242
100
AcDbEntity
  8
0
100
AcDbLine
 62
7
  6
CONTINUOUS
 10
15.9077006471
 20
-18.2513120228
 11
15.9077006739
 21
-23.0569472458
  0
LINE
  5
243
100
AcDbEntity
  8
0
100
AcDbLine
 62
7
  6
CONTINUOUS
 10
15.9678489396
 20
0.8559305362
 11
15.9678489396
 21
-3.3080678754
  0
LINE
  5
244
100
AcDbEntity
  8
0
100
AcDbLine
 62
250
  6
CONTINUOUS
 10
16.4036479789
 20
-14.7526170499
 11
16.4036479789
 21
-17.3421143795
  0
LINE
  5
245
100
AcDbEntity
  8
0
100
AcDbLine
 62
7
  6
CONTINUOUS
 10
16.4386650667
 20
-15.0383376132
 11
16.4386650667
 21
-16.9978662775
  0
LINE
  5
246
100
AcDbEntity
  8
0
100
AcDbLine
 62
7
  6
CONTINUOUS
 10
16.4585731047
 20
-14.6731275889
 11
16.4585731047
 21
-14.8825274945
  0
LINE
  5
247
100
AcDbEntity
  8
0
100
AcDbLine
 62
7
  6
CONTINUOUS
 10
16.4585731047
 20
-17.053225013
 11
16.4585731047
 21
-17.2626248763
  0
LINE
  5
248
100
AcDbEntity
  8
0
100
AcDbLine
 62
7
  6
CONTINUOUS
 10
16.5335343645
 20
-14.9835612696
 11
16.5335343645
 21
-16.9430899339
  0
LWPOLYLINE
  5
249
100
AcDbEntity
  8
0
100
AcDbPolyline
 62
7
  6
CONTINUOUS
 90
20
 70
0
 10
15.9077006471
 20
-18.2513120228
 10
15.9083392982
 20
-18.2287981229
 10
15.9108724912
 20
-18.1995686328
 10
15.915613983
 20
-18.1673984228
 10
15.9226850626
 20
-18.1331538646
 10
15.9321647707
 20
-18.0972707649
 10
15.9441136167
 20
-18.0600806464
 10
15.9583930348
 20
-18.0223525743
 10
15.9748801298
 20
-17.9845645535
 10
15.993454811
 20
-17.9470897497
 10
16.0138458387
 20
-17.9105100156
 10
16.0358248364
 20
-17.8752101573
 10
16.0591293175
 20
-17.8415618064
 10
16.083343726
 20
-17.810065461
 10
16.1081540022
 20
-17.7809874932
 10
16.1332297046
 20
-17.7545579189
 10
16.1580497433
 20
-17.7311248134
 10
16.1821767842
 20
-17.7108395961
 10
16.2053064447
 20
-17.6936734446
 10
16.2153600651
 20
-17.6869182727
  0
LINE
  5
24A
100
AcDbEntity
  8
0
100
AcDbLine
 62
250
  6
CONTINUOUS
 10
13.2196183747
 20
10.8630450873
 11
-1.6485957937
 21
19.4477656056
  0
LINE
  5
24B
100
AcDbEntity
  8
0
100
AcDbLine
 62
250
  6
CONTINUOUS
 10
-2.690284202
 20
20.0492234372
 11
-17.5584983704
 21
28.6339439555
  0
LINE
  5
24C
100
AcDbEntity
  8
0
100
AcDbLine
 62
250
  6
CONTINUOUS
 10
13.5639168164
 20
11.4699339389
 11
-1.3042973519
 21
20.0546544572
  0
LINE
  5
24D
100
AcDbEntity
  8
0
100
AcDbLine
 62
250
  6
CONTINUOUS
 10
-2.3459857602
 20
20.6561122888
 11
-17.2141999286
 21
29.2408328071
  0
LINE
  5
24E
100
AcDbEntity
  8
0
100
AcDbLine
 62
250
  6
CONTINUOUS
 10
14.5073447704
 20
9.9663049697
 11
15.7733777935
 21
5.6688087543
  0
LINE
  5
24F
100
AcDbEntity
  8
0
100
AcDbLine
 62
7
  6
CONTINUOUS
 10
14.5073447704
 20
10.2610823883
 11
15.8201510638
 21
5.8048162605
  0
LINE
  5
250
100
AcDbEntity
  8
0
100
AcDbLine
 62
250
  6
CONTINUOUS
 10
-1.9925535236
 20
-22.1078225838
 11
-1.7950424031
 21
-22.0054217829
  0
LINE
  5
251
100
AcDbEntity
  8
0
100
AcDbLine
 62
7
  6
CONTINUOUS
 10
-2.106594144
 20
-22.3423001767
 11
-1.7950424031
 21
-22.180774346
  0
LINE
  5
252
100
AcDbEntity
  8
0
100
AcDbLine
 62
7
  6
CONTINUOUS
 10
14.1539125338
 20
11.8105883916
 11
-0.7444123217
 21
20.4126944432
  0
LINE
  5
253
100
AcDbEntity
  8
0
100
AcDbLine
 62
7
  6
CONTINUOUS
 10
-1.7559900429
 20
20.9967667414
 11
-16.6543148984
 21
29.5988727931
  0
LWPOLYLINE
  5
254
100
AcDbEntity
  8
0
100
AcDbPolyline
 62
7
  6
CONTINUOUS
 90
9
 70
0
 10
15.8300213318
 20
-23.7675398152
 10
15.8488489707
 20
-23.6717395663
 10
15.8651315931
 20
-23.5764976237
 10
15.8788292485
 20
-23.4819534834
 10
15.8899088436
 20
-23.3882227062
 10
15.8983440218
 20
-23.2953923444
 10
15.9041063301
 20
-23.2035599953
 10
15.9071690584
 20
-23.1128529492
 10
15.9077006733
 20
-23.0569385053
  0
LINE
  5
255
100
AcDbEntity
  8
0
100
AcDbLine
 62
250
  6
CONTINUOUS
 10
15.7733777935
 20
-23.8340376755
 11
14.5073447704
 21
-29.6721427313
  0
LINE
  5
256
100
AcDbEntity
  8
0
100
AcDbLine
 62
7
  6
CONTINUOUS
 10
15.8300213318
 20
-23.7675398152
 11
14.5073447704
 21
-29.8673680967
  0
LINE
  5
257
100
AcDbEntity
  8
0
100
AcDbLine
 62
250
  6
CONTINUOUS
 10
16.5335343645
 20
-14.9835612696
 11
16.4386650667
 21
-15.0383376132
  0
LINE
  5
258
100
AcDbEntity
  8
0
100
AcDbLine
 62
250
  6
CONTINUOUS
 10
16.1113716532
 20
-14.4356588161
 11
16.1305968238
 21
-14.4247575013
  0
LINE
  5
259
100
AcDbEntity
  8
0
100
AcDbLine
 62
250
  6
CONTINUOUS
 10
16.2515109933
 20
-14.6811925737
 11
16.2707361638
 21
-14.6702912588
  0
LWPOLYLINE
  5
25A
100
AcDbEntity
  8
0
100
AcDbPolyline
 62
7
  6
CONTINUOUS
 90
12
 70
0
 10
16.2541865381
 20
-17.6608477709
 10
16.2867950329
 20
-17.634298205
 10
16.3170287471
 20
-17.6046522773
 10
16.3450610603
 20
-17.5719567928
 10
16.3707087275
 20
-17.5364943223
 10
16.3934322252
 20
-17.4991037286
 10
16.413150687
 20
-17.4600128598
 10
16.4297114372
 20
-17.4194120314
 10
16.442688583
 20
-17.3781909503
 10
16.4519204248
 20
-17.3366756033
 10
16.4572805629
 20
-17.2947756843
 10
16.4585730086
 20
-17.2625116594
  0
LINE
  5
25B
100
AcDbEntity
  8
0
100
AcDbLine
 62
7
  6
CONTINUOUS
 10
16.2344846598
 20
-17.6744899669
 11
16.2541865381
 21
-17.6608477709
  0
LINE
  5
25C
100
AcDbEntity
  8
0
100
AcDbLine
 62
250
  6
CONTINUOUS
 10
16.2707361638
 20
-17.5861777505
 11
16.2515109933
 21
-17.5986711397
  0
LINE
  5
25D
100
AcDbEntity
  8
0
100
AcDbLine
 62
7
  6
CONTINUOUS
 10
16.2346407359
 20
-17.6743888569
 11
16.2154155638
 21
-17.686882247
  0
LINE
  5
25E
100
AcDbEntity
  8
0
100
AcDbLine
 62
250
  6
CONTINUOUS
 10
16.5335343645
 20
-16.9430899339
 11
16.4386650667
 21
-16.9978662775
  0
LINE
  5
25F
100
AcDbEntity
  8
0
100
AcDbLine
 62
7
  6
CONTINUOUS
 10
16.4579964513
 20
-17.0543385685
 11
16.4921178403
 21
-17.0346373062
  0
LINE
  5
260
100
AcDbEntity
  8
0
100
AcDbLine
 62
250
  6
CONTINUOUS
 10
13.9173490531
 20
-31.2940009337
 11
14.5073447704
 21
-30.9881141874
  0
LINE
  5
261
100
AcDbEntity
  8
0
100
AcDbLine
 62
7
  6
CONTINUOUS
 10
13.8033084327
 20
-31.5284785265
 11
14.3972288831
 21
-31.2205569794
  0
ARC
  5
262
100
AcDbEntity
  8
0
100
AcDbCircle
 62
250
  6
CONTINUOUS
 10
12.0188131437
 20
-23.0195786885
 40
3.8418874464
100
AcDbArc
 50
347.7607396244
 51
349.1176110301
  0
ARC
  5
263
100
AcDbEntity
  8
0
100
AcDbCircle
 62
250
  6
CONTINUOUS
 10
16.4008754738
 20
-14.4343725942
 40
0.5480999483
100
AcDbArc
 50
179.983546806
 51
184.1919250196
  0
ARC
  5
264
100
AcDbEntity
  8
0
100
AcDbCircle
 62
7
  6
CONTINUOUS
 10
-17.2049449798
 20
-13.3136910301
 40
0.5
100
AcDbArc
 50
179.9840060021
 51
239.998401565
  0
ARC
  5
265
100
AcDbEntity
  8
0
100
AcDbCircle
 62
7
  6
CONTINUOUS
 10
-17.2049449798
 20
28.8380812521
 40
0.5
100
AcDbArc
 50
122.5992954229
 51
180.0013071277
  0
ARC
  5
266
100
AcDbEntity
  8
0
100
AcDbCircle
 62
7
  6
CONTINUOUS
 10
-2.3367308114
 20
-21.8984115484
 40
0.5
100
AcDbArc
 50
239.9984015654
 51
297.4194204711
  0
ARC
  5
267
100
AcDbEntity
  8
0
100
AcDbCircle
 62
7
  6
CONTINUOUS
 10
13.5731717653
 20
-31.0845898983
 40
0.5
100
AcDbArc
 50
239.9984015654
 51
297.4194204711
  0
ARC
  5
268
100
AcDbEntity
  8
0
100
AcDbCircle
 62
7
  6
CONTINUOUS
 10
-1.2950424031
 20
-22.49986938
 40
0.5
100
AcDbArc
 50
179.9840060021
 51
239.998401565
  0
ARC
  5
269
100
AcDbEntity
  8
0
100
AcDbCircle
 62
7
  6
CONTINUOUS
 10
-1.2950424031
 20
19.6519029023
 40
0.5
100
AcDbArc
 50
122.5992954229
 51
180.0013071277
  0
SPLINE
  5
26A
100
AcDbEntity
  8
0
100
AcDbSpline
 62
250
  6
CONTINUOUS
 70
0
 71
3
 72
11
 73
7
 74
0
 42
0.0000001
 43
0.0000001
 44
0.0000000001
 40
0.0
 40
0.0
 40
0.0
 40
0.0
 40
0.2388602045
 40
0.5016399213
 40
0.7635361171
 40
1.0
 40
1.0
 40
1.0
 40
1.0
 10
-1.9925535236
 20
-22.1078225838
 30
0.0
 10
-2.0429874832
 20
-22.1354563714
 30
0.0
 10
-2.158874057
 20
-22.1755239894
 30
0.0
 10
-2.343119812
 20
-22.1938226558
 30
0.0
 10
-2.5265006271
 20
-22.1728778857
 30
0.0
 10
-2.6409809493
 20
-22.1310159253
 30
0.0
 10
-2.690284202
 20
-22.1025488451
 30
0.0
  0
SPLINE
  5
26B
100
AcDbEntity
  8
0
100
AcDbSpline
 62
250
  6
CONTINUOUS
 70
0
 71
3
 72
11
 73
7
 74
0
 42
0.0000001
 43
0.0000001
 44
0.0000000001
 40
0.0
 40
0.0
 40
0.0
 40
0.0
 40
0.2388600828
 40
0.5016396571
 40
0.7635358149
 40
1.0
 40
1.0
 40
1.0
 40
1.0
 10
-1.9925535236
 20
20.0439496984
 30
0.0
 10
-2.0429874576
 20
20.0163159249
 30
0.0
 10
-2.1588739672
 20
19.9762483241
 30
0.0
 10
-2.343119644
 20
19.9579496227
 30
0.0
 10
-2.5265004928
 20
19.9788943545
 30
0.0
 10
-2.6409808862
 20
20.0207563205
 30
0.0
 10
-2.690284202
 20
20.0492234372
 30
0.0
  0
SPLINE
  5
26C
100
AcDbEntity
  8
0
100
AcDbSpline
 62
250
  6
CONTINUOUS
 70
0
 71
3
 72
11
 73
7
 74
0
 42
0.0000001
 43
0.0000001
 44
0.0000000001
 40
0.0
 40
0.0
 40
0.0
 40
0.0
 40
0.2365048227
 40
0.5000055582
 40
0.7635092084
 40
1.0
 40
1.0
 40
1.0
 40
1.0
 10
-1.9925535236
 20
20.0439496984
 30
0.0
 10
-1.9939089176
 20
20.1014877452
 30
0.0
 10
-2.0177850388
 20
20.2226717716
 30
0.0
 10
-2.0943064076
 20
20.3933163845
 30
0.0
 10
-2.2038300077
 20
20.5449026649
 30
0.0
 10
-2.2968377997
 20
20.626169868
 30
0.0
 10
-2.345985765
 20
20.656112286
 30
0.0
  0
SPLINE
  5
26D
100
AcDbEntity
  8
0
100
AcDbSpline
 62
250
  6
CONTINUOUS
 70
0
 71
3
 72
11
 73
7
 74
0
 42
0.0000001
 43
0.0000001
 44
0.0000000001
 40
0.0
 40
0.0
 40
0.0
 40
0.0
 40
0.2895555461
 40
0.5491054959
 40
0.78224375
 40
1.0
 40
1.0
 40
1.0
 40
1.0
 10
-2.690284202
 20
-22.1025488451
 30
0.0
 10
-2.6902842021
 20
-22.1278669
 30
0.0
 10
-2.6864234186
 20
-22.1760399078
 30
0.0
 10
-2.6669452443
 20
-22.2422361656
 30
0.0
 10
-2.634100827
 20
-22.2959728959
 30
0.0
 10
-2.6032198255
 20
-22.3218759789
 30
0.0
 10
-2.5867321407
 20
-22.3313986578
 30
0.0
  0
SPLINE
  5
26E
100
AcDbEntity
  8
0
100
AcDbSpline
 62
250
  6
CONTINUOUS
 70
0
 71
3
 72
11
 73
7
 74
0
 42
0.0000001
 43
0.0000001
 44
0.0000000001
 40
0.0
 40
0.0
 40
0.0
 40
0.0
 40
0.236473979
 40
0.4983651083
 40
0.7611427488
 40
1.0
 40
1.0
 40
1.0
 40
1.0
 10
-17.5584983704
 20
28.6339439555
 30
0.0
 10
-17.5584983705
 20
28.6908774187
 30
0.0
 10
-17.537507829
 20
28.8109511757
 30
0.0
 10
-17.4639512813
 20
28.980232944
 30
0.0
 10
-17.355984389
 20
29.1306423388
 30
0.0
 10
-17.2633459365
 20
29.2109705427
 30
0.0
 10
-17.2141999286
 20
29.2408328071
 30
0.0
  0
SPLINE
  5
26F
100
AcDbEntity
  8
0
100
AcDbSpline
 62
250
  6
CONTINUOUS
 70
0
 71
3
 72
11
 73
7
 74
0
 42
0.0000001
 43
0.0000001
 44
0.0000000001
 40
0.0
 40
0.0
 40
0.0
 40
0.0
 40
0.2177706871
 40
0.4509225472
 40
0.7104564026
 40
1.0
 40
1.0
 40
1.0
 40
1.0
 10
-17.704923766
 20
-13.313691029
 30
0.0
 10
-17.7049209298
 20
-13.33273497
 30
0.0
 10
-17.697928409
 20
-13.3724384
 30
0.0
 10
-17.6678084975
 20
-13.4277589727
 30
0.0
 10
-17.6202190805
 20
-13.4777359392
 30
0.0
 10
-17.5804261678
 20
-13.5051674913
 30
0.0
 10
-17.5584983704
 20
-13.5178283268
 30
0.0
  0
SPLINE
  5
270
100
AcDbEntity
  8
0
100
AcDbSpline
 62
250
  6
CONTINUOUS
 70
0
 71
3
 72
11
 73
7
 74
0
 42
0.0000001
 43
0.0000001
 44
0.0000000001
 40
0.0
 40
0.0
 40
0.0
 40
0.0
 40
0.2388572512
 40
0.5016348917
 40
0.763526021
 40
1.0
 40
1.0
 40
1.0
 40
1.0
 10
-2.3459857602
 20
20.6561122888
 30
0.0
 10
-2.3951317681
 20
20.6262500244
 30
0.0
 10
-2.4877702206
 20
20.5459218205
 30
0.0
 10
-2.5957371129
 20
20.3955124256
 30
0.0
 10
-2.6692936607
 20
20.2262306574
 30
0.0
 10
-2.6902842022
 20
20.1061569004
 30
0.0
 10
-2.690284202
 20
20.0492234372
 30
0.0
  0
SPLINE
  5
271
100
AcDbEntity
  8
0
100
AcDbSpline
 62
250
  6
CONTINUOUS
 70
0
 71
3
 72
11
 73
7
 74
0
 42
0.0000001
 43
0.0000001
 44
0.0000000001
 40
0.0
 40
0.0
 40
0.0
 40
0.0
 40
0.2177708055
 40
0.4509238441
 40
0.7104577977
 40
1.0
 40
1.0
 40
1.0
 40
1.0
 10
-17.7049237575
 20
28.8380698468
 30
0.0
 10
-17.7049196162
 20
28.8190267143
 30
0.0
 10
-17.6979250203
 20
28.7793254041
 30
0.0
 10
-17.6678044072
 20
28.7240083122
 30
0.0
 10
-17.6202163222
 20
28.6740343029
 30
0.0
 10
-17.5804251197
 20
28.6466041857
 30
0.0
 10
-17.5584983704
 20
28.6339439555
 30
0.0
  0
SPLINE
  5
272
100
AcDbEntity
  8
0
100
AcDbSpline
 62
250
  6
CONTINUOUS
 70
0
 71
3
 72
11
 73
7
 74
0
 42
0.0000001
 43
0.0000001
 44
0.0000000001
 40
0.0
 40
0.0
 40
0.0
 40
0.0
 40
0.2162922663
 40
0.448822321
 40
0.7089294576
 40
1.0
 40
1.0
 40
1.0
 40
1.0
 10
-17.4743071925
 20
29.2592964101
 30
0.0
 10
-17.4577355389
 20
29.2698871352
 30
0.0
 10
-17.4190654723
 20
29.2857102254
 30
0.0
 10
-17.3537671869
 20
29.2892720231
 30
0.0
 10
-17.2834758234
 20
29.2741257886
 30
0.0
 10
-17.2374177064
 20
29.2535368527
 30
0.0
 10
-17.2141999286
 20
29.2408328071
 30
0.0
  0
SPLINE
  5
273
100
AcDbEntity
  8
0
100
AcDbSpline
 62
250
  6
CONTINUOUS
 70
0
 71
3
 72
11
 73
7
 74
0
 42
0.0000001
 43
0.0000001
 44
0.0000000001
 40
0.0
 40
0.0
 40
0.0
 40
0.0
 40
0.291053558
 40
0.5511821606
 40
0.783715923
 40
1.0
 40
1.0
 40
1.0
 40
1.0
 10
-1.9925535236
 20
-22.1078225838
 30
0.0
 10
-1.9931607205
 20
-22.13426419
 30
0.0
 10
-1.9983589279
 20
-22.1844151215
 30
0.0
 10
-2.020359088
 20
-22.2528256598
 30
0.0
 10
-2.0560529956
 20
-22.3075732676
 30
0.0
 10
-2.0890513462
 20
-22.3331576226
 30
0.0
 10
-2.1064906699
 20
-22.3422215639
 30
0.0
  0
SPLINE
  5
274
100
AcDbEntity
  8
0
100
AcDbSpline
 62
250
  6
CONTINUOUS
 70
0
 71
3
 72
11
 73
7
 74
0
 42
0.0000001
 43
0.0000001
 44
0.0000000001
 40
0.0
 40
0.0
 40
0.0
 40
0.0
 40
0.21775625
 40
0.4508945041
 40
0.7104444539
 40
1.0
 40
1.0
 40
1.0
 40
1.0
 10
-17.454946309
 20
-13.7466781395
 30
0.0
 10
-17.4714339938
 20
-13.7371554606
 30
0.0
 10
-17.5023149954
 20
-13.7112523776
 30
0.0
 10
-17.5351594127
 20
-13.6575156473
 30
0.0
 10
-17.554637587
 20
-13.5913193895
 30
0.0
 10
-17.5584983704
 20
-13.5431463816
 30
0.0
 10
-17.5584983704
 20
-13.5178283268
 30
0.0
  0
SPLINE
  5
275
100
AcDbEntity
  8
0
100
AcDbSpline
 62
7
  6
CONTINUOUS
 70
0
 71
3
 72
11
 73
7
 74
0
 42
0.0000001
 43
0.0000001
 44
0.0000000001
 40
0.0
 40
0.0
 40
0.0
 40
0.0
 40
0.28853235
 40
0.5486296129
 40
0.7823061917
 40
1.0
 40
1.0
 40
1.0
 40
1.0
 10
15.9678489396
 20
-3.3080678754
 30
0.0
 10
15.9678489396
 20
-3.3181469113
 30
0.0
 10
15.9662615681
 20
-3.3373715134
 30
0.0
 10
15.9585224067
 20
-3.363822499
 30
0.0
 10
15.9454608482
 20
-3.3853720207
 30
0.0
 10
15.9331254616
 20
-3.3957531539
 30
0.0
 10
15.9265467158
 20
-3.3995674028
 30
0.0
  0
SPLINE
  5
276
100
AcDbEntity
  8
0
100
AcDbSpline
 62
7
  6
CONTINUOUS
 70
0
 71
3
 72
9
 73
5
 74
0
 42
0.0000001
 43
0.0000001
 44
0.0000000001
 40
0.0
 40
0.0
 40
0.0
 40
0.0
 40
0.5244974271
 40
1.0
 40
1.0
 40
1.0
 40
1.0
 10
15.9089872034
 20
1.0224964011
 30
0.0
 10
15.927093191
 20
0.9970551655
 30
0.0
 10
15.9550996888
 20
0.9437240887
 30
0.0
 10
15.9678489396
 20
0.8842399162
 30
0.0
 10
15.9678489396
 20
0.8559305362
 30
0.0
  0
SPLINE
  5
277
100
AcDbEntity
  8
0
100
AcDbSpline
 62
7
  6
CONTINUOUS
 70
0
 71
3
 72
10
 73
6
 74
0
 42
0.0000001
 43
0.0000001
 44
0.0000000001
 40
0.0
 40
0.0
 40
0.0
 40
0.0
 40
0.5470294119
 40
0.7816158601
 40
1.0
 40
1.0
 40
1.0
 40
1.0
 10
16.5335343645
 20
-16.9430899339
 30
0.0
 10
16.5335343645
 20
-16.9621545588
 30
0.0
 10
16.5293704953
 20
-16.9902203696
 30
0.0
 10
16.5111301308
 20
-17.020435811
 30
0.0
 10
16.4987588782
 20
-17.0308209019
 30
0.0
 10
16.4921704882
 20
-17.0346313647
 30
0.0
  0
SPLINE
  5
278
100
AcDbEntity
  8
0
100
AcDbSpline
 62
7
  6
CONTINUOUS
 70
0
 71
3
 72
9
 73
5
 74
0
 42
0.0000001
 43
0.0000001
 44
0.0000000001
 40
0.0
 40
0.0
 40
0.0
 40
0.0
 40
0.5220411404
 40
1.0
 40
1.0
 40
1.0
 40
1.0
 10
16.4587819607
 20
-14.7964177124
 30
0.0
 10
16.4816421762
 20
-14.823643943
 30
0.0
 10
16.5169943973
 20
-14.88306444
 30
0.0
 10
16.5335343645
 20
-14.9510124854
 30
0.0
 10
16.5335343645
 20
-14.9835612696
 30
0.0
  0
SPLINE
  5
279
100
AcDbEntity
  8
0
100
AcDbSpline
 62
250
  6
CONTINUOUS
 70
0
 71
3
 72
11
 73
7
 74
0
 42
0.0000001
 43
0.0000001
 44
0.0000000001
 40
0.0
 40
0.0
 40
0.0
 40
0.0
 40
0.2388572512
 40
0.5016348917
 40
0.763526021
 40
1.0
 40
1.0
 40
1.0
 40
1.0
 10
13.5639168164
 20
11.4699339389
 30
0.0
 10
13.5147708086
 20
11.4400716746
 30
0.0
 10
13.4221323561
 20
11.3597434706
 30
0.0
 10
13.3141654638
 20
11.2093340758
 30
0.0
 10
13.240608916
 20
11.0400523075
 30
0.0
 10
13.2196183745
 20
10.9199785505
 30
0.0
 10
13.2196183747
 20
10.8630450873
 30
0.0
  0
SPLINE
  5
27A
100
AcDbEntity
  8
0
100
AcDbSpline
 62
250
  6
CONTINUOUS
 70
0
 71
3
 72
11
 73
7
 74
0
 42
0.0000001
 43
0.0000001
 44
0.0000000001
 40
0.0
 40
0.0
 40
0.0
 40
0.0
 40
0.236473979
 40
0.4983651083
 40
0.7611427488
 40
1.0
 40
1.0
 40
1.0
 40
1.0
 10
-1.6485957937
 20
19.4477656056
 30
0.0
 10
-1.6485957938
 20
19.5046990688
 30
0.0
 10
-1.6276052523
 20
19.6247728258
 30
0.0
 10
-1.5540487046
 20
19.7940545941
 30
0.0
 10
-1.4460818123
 20
19.9444639889
 30
0.0
 10
-1.3534433598
 20
20.0247921929
 30
0.0
 10
-1.3042973519
 20
20.0546544572
 30
0.0
  0
SPLINE
  5
27B
100
AcDbEntity
  8
0
100
AcDbSpline
 62
250
  6
CONTINUOUS
 70
0
 71
3
 72
11
 73
7
 74
0
 42
0.0000001
 43
0.0000001
 44
0.0000000001
 40
0.0
 40
0.0
 40
0.0
 40
0.0
 40
0.2895555461
 40
0.5491054959
 40
0.78224375
 40
1.0
 40
1.0
 40
1.0
 40
1.0
 10
13.2196183747
 20
-31.2887271949
 30
0.0
 10
13.2196183746
 20
-31.3140452498
 30
0.0
 10
13.2234791581
 20
-31.3622182576
 30
0.0
 10
13.2429573324
 20
-31.4284145154
 30
0.0
 10
13.2758017497
 20
-31.4821512458
 30
0.0
 10
13.3066827512
 20
-31.5080543288
 30
0.0
 10
13.323170436
 20
-31.5175770077
 30
0.0
  0
SPLINE
  5
27C
100
AcDbEntity
  8
0
100
AcDbSpline
 62
250
  6
CONTINUOUS
 70
0
 71
3
 72
9
 73
5
 74
0
 42
0.0000001
 43
0.0000001
 44
0.0000000001
 40
0.0
 40
0.0
 40
0.0
 40
0.0
 40
0.4736131025
 40
1.0
 40
1.0
 40
1.0
 40
1.0
 10
16.2154151975
 20
-17.6868816834
 30
0.0
 10
16.2233856062
 20
-17.6816981808
 30
0.0
 10
16.2378302109
 20
-17.6667843736
 30
0.0
 10
16.2452925968
 20
-17.6476773644
 30
0.0
 10
16.2477988598
 20
-17.637411768
 30
0.0
  0
SPLINE
  5
27D
100
AcDbEntity
  8
0
100
AcDbSpline
 62
250
  6
CONTINUOUS
 70
0
 71
3
 72
8
 73
4
 74
0
 42
0.0000001
 43
0.0000001
 44
0.0000000001
 40
0.0
 40
0.0
 40
0.0
 40
0.0
 40
1.0
 40
1.0
 40
1.0
 40
1.0
 10
16.2477988598
 20
-17.637411768
 30
0.0
 10
16.2492832867
 20
-17.6313315888
 30
0.0
 10
16.2502835781
 20
-17.6251205058
 30
0.0
 10
16.2508830608
 20
-17.6188905199
 30
0.0
  0
SPLINE
  5
27E
100
AcDbEntity
  8
0
100
AcDbSpline
 62
250
  6
CONTINUOUS
 70
0
 71
3
 72
8
 73
4
 74
0
 42
0.0000001
 43
0.0000001
 44
0.0000000001
 40
0.0
 40
0.0
 40
0.0
 40
0.0
 40
1.0
 40
1.0
 40
1.0
 40
1.0
 10
16.2508830608
 20
-17.6188905199
 30
0.0
 10
16.2515289293
 20
-17.61217848
 30
0.0
 10
16.2517129762
 20
-17.6054111567
 30
0.0
 10
16.2515109933
 20
-17.5986711397
 30
0.0
  0
SPLINE
  5
27F
100
AcDbEntity
  8
0
100
AcDbSpline
 62
250
  6
CONTINUOUS
 70
0
 71
3
 72
9
 73
5
 74
0
 42
0.0000001
 43
0.0000001
 44
0.0000000001
 40
0.0
 40
0.0
 40
0.0
 40
0.0
 40
0.2415947438
 40
1.0
 40
1.0
 40
1.0
 40
1.0
 10
16.2346403699
 20
-17.6743882939
 30
0.0
 10
16.2375366614
 20
-17.6725047103
 30
0.0
 10
16.2489136016
 20
-17.6637626341
 30
0.0
 10
16.2572340979
 20
-17.6513866174
 30
0.0
 10
16.2615426883
 20
-17.6414336604
 30
0.0
  0
SPLINE
  5
280
100
AcDbEntity
  8
0
100
AcDbSpline
 62
250
  6
CONTINUOUS
 70
0
 71
3
 72
9
 73
5
 74
0
 42
0.0000001
 43
0.0000001
 44
0.0000000001
 40
0.0
 40
0.0
 40
0.0
 40
0.0
 40
0.2303153099
 40
1.0
 40
1.0
 40
1.0
 40
1.0
 10
16.2615426883
 20
-17.6414336604
 30
0.0
 10
16.2632590932
 20
-17.63746872
 30
0.0
 10
16.2694808187
 20
-17.6197202025
 30
0.0
 10
16.271168662
 20
-17.6006098672
 30
0.0
 10
16.2707361638
 20
-17.5861777505
 30
0.0
  0
SPLINE
  5
281
100
AcDbEntity
  8
0
100
AcDbSpline
 62
250
  6
CONTINUOUS
 70
0
 71
3
 72
9
 73
5
 74
0
 42
0.0000001
 43
0.0000001
 44
0.0000000001
 40
0.0
 40
0.0
 40
0.0
 40
0.0
 40
0.4514930095
 40
1.0
 40
1.0
 40
1.0
 40
1.0
 10
15.9077005393
 20
-23.0569472458
 30
0.0
 10
15.9076979694
 20
-23.0719804043
 30
0.0
 10
15.895135923
 20
-23.105405501
 30
0.0
 10
15.8683778843
 20
-23.1269436299
 30
0.0
 10
15.8527755481
 20
-23.1364367064
 30
0.0
  0
SPLINE
  5
282
100
AcDbEntity
  8
0
100
AcDbSpline
 62
250
  6
CONTINUOUS
 70
0
 71
3
 72
9
 73
5
 74
0
 42
0.0000001
 43
0.0000001
 44
0.0000000001
 40
0.0
 40
0.0
 40
0.0
 40
0.0
 40
0.4514930052
 40
1.0
 40
1.0
 40
1.0
 40
1.0
 10
15.9077005393
 20
-18.2513717917
 30
0.0
 10
15.9076979692
 20
-18.2664049501
 30
0.0
 10
15.895135923
 20
-18.2998300467
 30
0.0
 10
15.8683778844
 20
-18.321368176
 30
0.0
 10
15.8527755481
 20
-18.3308612527
 30
0.0
  0
SPLINE
  5
283
100
AcDbEntity
  8
0
100
AcDbSpline
 62
250
  6
CONTINUOUS
 70
0
 71
3
 72
11
 73
7
 74
0
 42
0.0000001
 43
0.0000001
 44
0.0000000001
 40
0.0
 40
0.0
 40
0.0
 40
0.0
 40
0.291053558
 40
0.5511821606
 40
0.783715923
 40
1.0
 40
1.0
 40
1.0
 40
1.0
 10
13.9173490531
 20
-31.2940009337
 30
0.0
 10
13.9167418562
 20
-31.3204425398
 30
0.0
 10
13.9115436487
 20
-31.3705934714
 30
0.0
 10
13.8895434887
 20
-31.4390040097
 30
0.0
 10
13.8538495811
 20
-31.4937516175
 30
0.0
 10
13.8208512305
 20
-31.5193359725
 30
0.0
 10
13.8034119068
 20
-31.5283999138
 30
0.0
  0
SPLINE
  5
284
100
AcDbEntity
  8
0
100
AcDbSpline
 62
250
  6
CONTINUOUS
 70
0
 71
3
 72
10
 73
6
 74
0
 42
0.0000001
 43
0.0000001
 44
0.0000000001
 40
0.0
 40
0.0
 40
0.0
 40
0.0
 40
0.4149631427
 40
0.6833389253
 40
1.0
 40
1.0
 40
1.0
 40
1.0
 10
15.8237536485
 20
-23.7969396151
 30
0.0
 10
15.8218415938
 20
-23.8057270851
 30
0.0
 10
15.8112935448
 20
-23.8183429116
 30
0.0
 10
15.7921605968
 20
-23.8283266551
 30
0.0
 10
15.780024522
 20
-23.832329635
 30
0.0
 10
15.7733777935
 20
-23.8340376755
 30
0.0
  0
SPLINE
  5
285
100
AcDbEntity
  8
0
100
AcDbSpline
 62
250
  6
CONTINUOUS
 70
0
 71
3
 72
11
 73
7
 74
0
 42
0.0000001
 43
0.0000001
 44
0.0000000001
 40
0.0
 40
0.0
 40
0.0
 40
0.0
 40
0.2388602045
 40
0.5016399213
 40
0.7635361171
 40
1.0
 40
1.0
 40
1.0
 40
1.0
 10
13.9173490531
 20
-31.2940009337
 30
0.0
 10
13.8669150935
 20
-31.3216347213
 30
0.0
 10
13.7510285197
 20
-31.3617023392
 30
0.0
 10
13.5667827647
 20
-31.3800010056
 30
0.0
 10
13.3834019496
 20
-31.3590562356
 30
0.0
 10
13.2689216274
 20
-31.3171942751
 30
0.0
 10
13.2196183747
 20
-31.2887271949
 30
0.0
  0
SPLINE
  5
286
100
AcDbEntity
  8
0
100
AcDbSpline
 62
250
  6
CONTINUOUS
 70
0
 71
3
 72
11
 73
7
 74
0
 42
0.0000001
 43
0.0000001
 44
0.0000000001
 40
0.0
 40
0.0
 40
0.0
 40
0.0
 40
0.2179397926
 40
0.4504244116
 40
0.7094717915
 40
1.0
 40
1.0
 40
1.0
 40
1.0
 10
15.9287022435
 20
-14.4542855021
 30
0.0
 10
15.9407746184
 20
-14.461251602
 30
0.0
 10
15.968443342
 20
-14.4713469034
 30
0.0
 10
16.0144432124
 20
-14.4724340264
 30
0.0
 10
16.0634447598
 20
-14.4603626534
 30
0.0
 10
16.0953160807
 20
-14.4450104336
 30
0.0
 10
16.1113713849
 20
-14.4356586612
 30
0.0
  0
SPLINE
  5
287
100
AcDbEntity
  8
0
100
AcDbSpline
 62
250
  6
CONTINUOUS
 70
0
 71
3
 72
9
 73
5
 74
0
 42
0.0000001
 43
0.0000001
 44
0.0000000001
 40
0.0
 40
0.0
 40
0.0
 40
0.0
 40
0.2346958191
 40
1.0
 40
1.0
 40
1.0
 40
1.0
 10
15.7733777935
 20
5.6688087543
 30
0.0
 10
15.7868061972
 20
5.6232267782
 30
0.0
 10
15.8356226977
 20
5.4265418443
 30
0.0
 10
15.8527752918
 20
5.2227762456
 30
0.0
 10
15.8527755481
 20
5.0678252356
 30
0.0
  0
SPLINE
  5
288
100
AcDbEntity
  8
0
100
AcDbSpline
 62
250
  6
CONTINUOUS
 70
0
 71
3
 72
15
 73
11
 74
0
 42
0.0000001
 43
0.0000001
 44
0.0000000001
 40
0.0
 40
0.0
 40
0.0
 40
0.0
 40
0.1432876846
 40
0.2716047746
 40
0.3877231247
 40
0.4970670396
 40
0.6069215451
 40
0.7244406814
 40
0.8548023209
 40
1.0
 40
1.0
 40
1.0
 40
1.0
 10
15.8542418084
 20
-14.4744374068
 30
0.0
 10
15.8562369597
 20
-14.501235179
 30
0.0
 10
15.8639919289
 20
-14.551911902
 30
0.0
 10
15.8896480816
 20
-14.6206101082
 30
0.0
 10
15.9284242486
 20
-14.6755536039
 30
0.0
 10
15.9795356798
 20
-14.7140821242
 30
0.0
 10
16.0406591104
 20
-14.7338811686
 30
0.0
 10
16.1086133737
 20
-14.7344902104
 30
0.0
 10
16.1807649928
 20
-14.716729363
 30
0.0
 10
16.2278220625
 20
-14.6946207157
 30
0.0
 10
16.2515109933
 20
-14.6811925737
 30
0.0
  0
SPLINE
  5
289
100
AcDbEntity
  8
0
100
AcDbSpline
 62
250
  6
CONTINUOUS
 70
0
 71
3
 72
13
 73
9
 74
0
 42
0.0000001
 43
0.0000001
 44
0.0000000001
 40
0.0
 40
0.0
 40
0.0
 40
0.0
 40
0.2698188192
 40
0.3847628994
 40
0.4928556037
 40
0.6022346394
 40
0.7205712948
 40
1.0
 40
1.0
 40
1.0
 40
1.0
 10
16.2707361638
 20
-14.6702912588
 30
0.0
 10
16.2864072621
 20
-14.661408527
 30
0.0
 10
16.3114181654
 20
-14.6516597768
 30
0.0
 10
16.3447569799
 20
-14.6532685643
 30
0.0
 10
16.3657883199
 20
-14.6616681337
 30
0.0
 10
16.3827830173
 20
-14.6769463091
 30
0.0
 10
16.3999348527
 20
-14.706624575
 30
0.0
 10
16.4036467086
 20
-14.7339619781
 30
0.0
 10
16.4036479789
 20
-14.7526170499
 30
0.0
  0
SPLINE
  5
28A
100
AcDbEntity
  8
0
100
AcDbSpline
 62
250
  6
CONTINUOUS
 70
0
 71
3
 72
11
 73
7
 74
0
 42
0.0000001
 43
0.0000001
 44
0.0000000001
 40
0.0
 40
0.0
 40
0.0
 40
0.0
 40
0.2372599906
 40
0.4997333875
 40
0.7622731433
 40
1.0
 40
1.0
 40
1.0
 40
1.0
 10
16.4036479789
 20
-17.3421143795
 30
0.0
 10
16.4036444328
 20
-17.364817088
 30
0.0
 10
16.3955482284
 20
-17.4126648138
 30
0.0
 10
16.3672214595
 20
-17.4804112842
 30
0.0
 10
16.3256137754
 20
-17.5409686197
 30
0.0
 10
16.2898091031
 20
-17.5737815267
 30
0.0
 10
16.2707361638
 20
-17.5861777505
 30
0.0
  0
SPLINE
  5
28B
100
AcDbEntity
  8
0
100
AcDbSpline
 62
250
  6
CONTINUOUS
 70
0
 71
3
 72
9
 73
5
 74
0
 42
0.0000001
 43
0.0000001
 44
0.0000000001
 40
0.0
 40
0.0
 40
0.0
 40
0.0
 40
0.2369034275
 40
1.0
 40
1.0
 40
1.0
 40
1.0
 10
16.2515109933
 20
-17.5986711397
 30
0.0
 10
16.2398616278
 20
-17.6062426289
 30
0.0
 10
16.191831147
 20
-17.6399521494
 30
0.0
 10
16.1482829728
 20
-17.6798475309
 30
0.0
 10
16.1176405833
 20
-17.7124652238
 30
0.0
  0
SPLINE
  5
28C
100
AcDbEntity
  8
0
100
AcDbSpline
 62
250
  6
CONTINUOUS
 70
0
 71
3
 72
9
 73
5
 74
0
 42
0.0000001
 43
0.0000001
 44
0.0000000001
 40
0.0
 40
0.0
 40
0.0
 40
0.0
 40
0.5025697576
 40
1.0
 40
1.0
 40
1.0
 40
1.0
 10
16.1176405833
 20
-17.7124652238
 30
0.0
 10
16.0554438333
 20
-17.7786713689
 30
0.0
 10
15.9511305876
 20
-17.9291137721
 30
0.0
 10
15.8865103492
 20
-18.1005822163
 30
0.0
 10
15.8682522085
 20
-18.1886186934
 30
0.0
  0
SPLINE
  5
28D
100
AcDbEntity
  8
0
100
AcDbSpline
 62
250
  6
CONTINUOUS
 70
0
 71
3
 72
9
 73
5
 74
0
 42
0.0000001
 43
0.0000001
 44
0.0000000001
 40
0.0
 40
0.0
 40
0.0
 40
0.0
 40
0.2611714907
 40
1.0
 40
1.0
 40
1.0
 40
1.0
 10
15.8682522085
 20
-18.1886186934
 30
0.0
 10
15.8657203096
 20
-18.2008269167
 30
0.0
 10
15.85709809
 20
-18.2477775297
 30
0.0
 10
15.8527790249
 20
-18.2955904814
 30
0.0
 10
15.8527755481
 20
-18.3308612527
 30
0.0
  0
SPLINE
  5
28E
100
AcDbEntity
  8
0
100
AcDbSpline
 62
250
  6
CONTINUOUS
 70
0
 71
3
 72
9
 73
5
 74
0
 42
0.0000001
 43
0.0000001
 44
0.0000000001
 40
0.0
 40
0.0
 40
0.0
 40
0.0
 40
0.2395531108
 40
1.0
 40
1.0
 40
1.0
 40
1.0
 10
15.8527755481
 20
-23.1364367064
 30
0.0
 10
15.852775587
 20
-23.1853102896
 30
0.0
 10
15.8472523036
 20
-23.3893188217
 30
0.0
 10
15.8208914842
 20
-23.5925443026
 30
0.0
 10
15.7916111162
 20
-23.7449024847
 30
0.0
  0
SPLINE
  5
28F
100
AcDbEntity
  8
0
100
AcDbSpline
 62
250
  6
CONTINUOUS
 70
0
 71
3
 72
11
 73
7
 74
0
 42
0.0000001
 43
0.0000001
 44
0.0000000001
 40
0.0
 40
0.0
 40
0.0
 40
0.0
 40
0.2388600828
 40
0.5016396571
 40
0.7635358149
 40
1.0
 40
1.0
 40
1.0
 40
1.0
 10
13.9173490531
 20
10.8577713486
 30
0.0
 10
13.8669151191
 20
10.830137575
 30
0.0
 10
13.7510286095
 20
10.7900699743
 30
0.0
 10
13.5667829327
 20
10.7717712728
 30
0.0
 10
13.3834020839
 20
10.7927160046
 30
0.0
 10
13.2689216905
 20
10.8345779706
 30
0.0
 10
13.2196183747
 20
10.8630450873
 30
0.0
  0
SPLINE
  5
290
100
AcDbEntity
  8
0
100
AcDbSpline
 62
250
  6
CONTINUOUS
 70
0
 71
3
 72
11
 73
7
 74
0
 42
0.0000001
 43
0.0000001
 44
0.0000000001
 40
0.0
 40
0.0
 40
0.0
 40
0.0
 40
0.2365048227
 40
0.5000055582
 40
0.7635092084
 40
1.0
 40
1.0
 40
1.0
 40
1.0
 10
13.9173490531
 20
10.8577713486
 30
0.0
 10
13.9159936591
 20
10.9153093953
 30
0.0
 10
13.8921175379
 20
11.0364934218
 30
0.0
 10
13.8155961691
 20
11.2071380346
 30
0.0
 10
13.706072569
 20
11.358724315
 30
0.0
 10
13.613064777
 20
11.4399915182
 30
0.0
 10
13.5639168116
 20
11.4699339361
 30
0.0
  0
SPLINE
  5
291
100
AcDbEntity
  8
0
100
AcDbSpline
 62
250
  6
CONTINUOUS
 70
0
 71
3
 72
10
 73
6
 74
0
 42
0.0000001
 43
0.0000001
 44
0.0000000001
 40
0.0
 40
0.0
 40
0.0
 40
0.0
 40
0.2284508283
 40
0.4678472012
 40
1.0
 40
1.0
 40
1.0
 40
1.0
 10
15.8201455175
 20
5.8048146268
 30
0.0
 10
15.8233783437
 20
5.7938380331
 30
0.0
 10
15.8262233305
 20
5.7700716417
 30
0.0
 10
15.8162503953
 20
5.7203397678
 30
0.0
 10
15.7926071039
 20
5.6872670512
 30
0.0
 10
15.7733777935
 20
5.6688087543
 30
0.0
  0
SPLINE
  5
292
100
AcDbEntity
  8
0
100
AcDbSpline
 62
250
  6
CONTINUOUS
 70
0
 71
3
 72
9
 73
5
 74
0
 42
0.0000001
 43
0.0000001
 44
0.0000000001
 40
0.0
 40
0.0
 40
0.0
 40
0.0
 40
0.4514976539
 40
1.0
 40
1.0
 40
1.0
 40
1.0
 10
15.9077005339
 20
5.1472969861
 30
0.0
 10
15.9076939453
 20
5.1322662236
 30
0.0
 10
15.8951283474
 20
5.0988503274
 30
0.0
 10
15.8683751061
 20
5.0773166219
 30
0.0
 10
15.8527755481
 20
5.0678252356
 30
0.0
  0
SPLINE
  5
293
100
AcDbEntity
  8
0
100
AcDbSpline
 62
7
  6
CONTINUOUS
 70
0
 71
3
 72
9
 73
5
 74
0
 42
0.0000001
 43
0.0000001
 44
0.0000000001
 40
0.0
 40
0.0
 40
0.0
 40
0.0
 40
0.519002114
 40
1.0
 40
1.0
 40
1.0
 40
1.0
 10
15.9077024396
 20
0.924032252
 30
0.0
 10
15.9076912495
 20
0.9057831741
 30
0.0
 10
15.9057263039
 20
0.870658111
 30
0.0
 10
15.90326456
 20
0.8355531067
 30
0.0
 10
15.90326456
 20
0.8186403248
 30
0.0
  0
SPLINE
  5
294
100
AcDbEntity
  8
0
100
AcDbSpline
 62
250
  6
CONTINUOUS
 70
0
 71
3
 72
9
 73
5
 74
0
 42
0.0000001
 43
0.0000001
 44
0.0000000001
 40
0.0
 40
0.0
 40
0.0
 40
0.0
 40
0.451512923
 40
1.0
 40
1.0
 40
1.0
 40
1.0
 10
15.9077004825
 20
-14.3548016458
 30
0.0
 10
15.9076806973
 20
-14.3698245265
 30
0.0
 10
15.8951034567
 20
-14.4032101953
 30
0.0
 10
15.868365977
 20
-14.4247293692
 30
0.0
 10
15.8527755481
 20
-14.4342152005
 30
0.0
  0
SPLINE
  5
295
100
AcDbEntity
  8
0
100
AcDbSpline
 62
250
  6
CONTINUOUS
 70
0
 71
3
 72
11
 73
7
 74
0
 42
0.0000001
 43
0.0000001
 44
0.0000000001
 40
0.0
 40
0.0
 40
0.0
 40
0.0
 40
0.2177706871
 40
0.4509225472
 40
0.7104564026
 40
1.0
 40
1.0
 40
1.0
 40
1.0
 10
-1.7950211893
 20
-22.4998693789
 30
0.0
 10
-1.7950183531
 20
-22.5189133198
 30
0.0
 10
-1.7880258323
 20
-22.5586167499
 30
0.0
 10
-1.7579059208
 20
-22.6139373226
 30
0.0
 10
-1.7103165038
 20
-22.6639142891
 30
0.0
 10
-1.6705235911
 20
-22.6913458412
 30
0.0
 10
-1.6485957937
 20
-22.7040066766
 30
0.0
  0
SPLINE
  5
296
100
AcDbEntity
  8
0
100
AcDbSpline
 62
250
  6
CONTINUOUS
 70
0
 71
3
 72
11
 73
7
 74
0
 42
0.0000001
 43
0.0000001
 44
0.0000000001
 40
0.0
 40
0.0
 40
0.0
 40
0.0
 40
0.2177708055
 40
0.4509238441
 40
0.7104577977
 40
1.0
 40
1.0
 40
1.0
 40
1.0
 10
-1.7950211808
 20
19.651891497
 30
0.0
 10
-1.7950170395
 20
19.6328483645
 30
0.0
 10
-1.7880224436
 20
19.5931470542
 30
0.0
 10
-1.7579018305
 20
19.5378299623
 30
0.0
 10
-1.7103137455
 20
19.4878559531
 30
0.0
 10
-1.670522543
 20
19.4604258359
 30
0.0
 10
-1.6485957937
 20
19.4477656056
 30
0.0
  0
SPLINE
  5
297
100
AcDbEntity
  8
0
100
AcDbSpline
 62
250
  6
CONTINUOUS
 70
0
 71
3
 72
9
 73
5
 74
0
 42
0.0000001
 43
0.0000001
 44
0.0000000001
 40
0.0
 40
0.0
 40
0.0
 40
0.0
 40
0.4515026825
 40
1.0
 40
1.0
 40
1.0
 40
1.0
 10
16.4585729535
 20
-14.6731644357
 30
0.0
 10
16.4585620246
 20
-14.6881926081
 30
0.0
 10
16.4459925929
 20
-14.7215985642
 30
0.0
 10
16.4192445348
 20
-14.7431274902
 30
0.0
 10
16.4036479789
 20
-14.7526170499
 30
0.0
  0
SPLINE
  5
298
100
AcDbEntity
  8
0
100
AcDbSpline
 62
250
  6
CONTINUOUS
 70
0
 71
3
 72
11
 73
7
 74
0
 42
0.0000001
 43
0.0000001
 44
0.0000000001
 40
0.0
 40
0.0
 40
0.0
 40
0.0
 40
0.2162922663
 40
0.448822321
 40
0.7089294576
 40
1.0
 40
1.0
 40
1.0
 40
1.0
 10
-1.5644046158
 20
20.0731180602
 30
0.0
 10
-1.5478329622
 20
20.0837087853
 30
0.0
 10
-1.5091628956
 20
20.0995318755
 30
0.0
 10
-1.4438646102
 20
20.1030936732
 30
0.0
 10
-1.3735732467
 20
20.0879474388
 30
0.0
 10
-1.3275151297
 20
20.0673585028
 30
0.0
 10
-1.3042973519
 20
20.0546544572
 30
0.0
  0
SPLINE
  5
299
100
AcDbEntity
  8
0
100
AcDbSpline
 62
250
  6
CONTINUOUS
 70
0
 71
3
 72
11
 73
7
 74
0
 42
0.0000001
 43
0.0000001
 44
0.0000000001
 40
0.0
 40
0.0
 40
0.0
 40
0.0
 40
0.21775625
 40
0.4508945041
 40
0.7104444539
 40
1.0
 40
1.0
 40
1.0
 40
1.0
 10
-1.5450437323
 20
-22.9328564894
 30
0.0
 10
-1.5615314171
 20
-22.9233338105
 30
0.0
 10
-1.5924124187
 20
-22.8974307274
 30
0.0
 10
-1.625256836
 20
-22.8436939971
 30
0.0
 10
-1.6447350103
 20
-22.7774977393
 30
0.0
 10
-1.6485957937
 20
-22.7293247315
 30
0.0
 10
-1.6485957937
 20
-22.7040066766
 30
0.0
  0
SPLINE
  5
29A
100
AcDbEntity
  8
0
100
AcDbSpline
 62
250
  6
CONTINUOUS
 70
0
 71
3
 72
9
 73
5
 74
0
 42
0.0000001
 43
0.0000001
 44
0.0000000001
 40
0.0
 40
0.0
 40
0.0
 40
0.0
 40
0.4514930155
 40
1.0
 40
1.0
 40
1.0
 40
1.0
 10
16.4585729704
 20
-17.2626248762
 30
0.0
 10
16.4585704032
 20
-17.2776580399
 30
0.0
 10
16.4460083509
 20
-17.311083147
 30
0.0
 10
16.4192503144
 20
-17.3326212909
 30
0.0
 10
16.4036479789
 20
-17.3421143795
 30
0.0
  0
SPLINE
  5
29B
100
AcDbEntity
  8
0
100
AcDbSpline
 62
7
  6
CONTINUOUS
 70
0
 71
3
 72
10
 73
6
 74
0
 42
0.0000001
 43
0.0000001
 44
0.0000000001
 40
0.0
 40
0.0
 40
0.0
 40
0.0
 40
0.5041123356
 40
0.7608771973
 40
1.0
 40
1.0
 40
1.0
 40
1.0
 10
16.4585716107
 20
-14.8825255396
 30
0.0
 10
16.4585746272
 20
-14.9089372427
 30
0.0
 10
16.4534434597
 20
-14.9487898213
 30
0.0
 10
16.4430709065
 20
-14.9999985218
 30
0.0
 10
16.4386650667
 20
-15.0258093728
 30
0.0
 10
16.4386650667
 20
-15.0383376132
 30
0.0
  0
SPLINE
  5
29C
100
AcDbEntity
  8
0
100
AcDbSpline
 62
7
  6
CONTINUOUS
 70
0
 71
3
 72
9
 73
5
 74
0
 42
0.0000001
 43
0.0000001
 44
0.0000000001
 40
0.0
 40
0.0
 40
0.0
 40
0.0
 40
0.6228803126
 40
1.0
 40
1.0
 40
1.0
 40
1.0
 10
15.90326456
 20
-3.3453580868
 30
0.0
 10
15.90326456
 20
-3.3567941711
 30
0.0
 10
15.904310381
 20
-3.3751742431
 30
0.0
 10
15.9072531281
 20
-3.3933335966
 30
0.0
 10
15.9076214418
 20
-3.4002477121
 30
0.0
  0
LINE
  5
29D
100
AcDbEntity
  8
0
100
AcDbLine
 62
7
  6
CONTINUOUS
 10
15.9076214418
 20
-3.4002477121
 11
15.9076883327
 21
-3.4024143846
  0
SPLINE
  5
29E
100
AcDbEntity
  8
0
100
AcDbSpline
 62
250
  6
CONTINUOUS
 70
0
 71
3
 72
11
 73
7
 74
0
 42
0.0000001
 43
0.0000001
 44
0.0000000001
 40
0.0
 40
0.0
 40
0.0
 40
0.0
 40
0.2377320258
 40
0.4994613445
 40
0.7614853529
 40
1.0
 40
1.0
 40
1.0
 40
1.0
 10
16.1113716532
 20
-14.4356588161
 30
0.0
 10
16.1318118658
 20
-14.4468801437
 30
0.0
 10
16.1704745303
 20
-14.4783693148
 30
0.0
 10
16.2150517767
 20
-14.5390826201
 30
0.0
 10
16.2446764273
 20
-14.6084164441
 30
0.0
 10
16.2521871267
 20
-14.6578077686
 30
0.0
 10
16.2515109933
 20
-14.6811925737
 30
0.0
  0
SPLINE
  5
29F
100
AcDbEntity
  8
0
100
AcDbSpline
 62
250
  6
CONTINUOUS
 70
0
 71
3
 72
11
 73
7
 74
0
 42
0.0000001
 43
0.0000001
 44
0.0000000001
 40
0.0
 40
0.0
 40
0.0
 40
0.0
 40
0.2377321135
 40
0.4994615419
 40
0.7614855028
 40
1.0
 40
1.0
 40
1.0
 40
1.0
 10
16.1305968238
 20
-14.4247575013
 30
0.0
 10
16.151037035
 20
-14.4359788442
 30
0.0
 10
16.1896996916
 20
-14.4674680466
 30
0.0
 10
16.2342769206
 20
-14.5281813706
 30
0.0
 10
16.2639015673
 20
-14.5975151762
 30
0.0
 10
16.2714122812
 20
-14.6469064705
 30
0.0
 10
16.2707361638
 20
-14.6702912588
 30
0.0
  0
SPLINE
  5
2A0
100
AcDbEntity
  8
0
100
AcDbSpline
 62
7
  6
CONTINUOUS
 70
0
 71
3
 72
11
 73
7
 74
0
 42
0.0000001
 43
0.0000001
 44
0.0000000001
 40
0.0
 40
0.0
 40
0.0
 40
0.0
 40
0.4252790675
 40
0.7033291152
 40
0.8910198967
 40
1.0
 40
1.0
 40
1.0
 40
1.0
 10
16.4386650667
 20
-16.9978662775
 30
0.0
 10
16.4386650667
 20
-17.0061734517
 30
0.0
 10
16.4405715905
 20
-17.0201382596
 30
0.0
 10
16.4484652719
 20
-17.0358246171
 30
0.0
 10
16.4544932891
 20
-17.0452099768
 30
0.0
 10
16.4577463582
 20
-17.0501276684
 30
0.0
 10
16.4583798681
 20
-17.0521599776
 30
0.0
  0
SPLINE
  5
2A1
100
AcDbEntity
  8
0
100
AcDbSpline
 62
250
  6
CONTINUOUS
 70
0
 71
3
 72
11
 73
7
 74
0
 42
0.0000001
 43
0.0000001
 44
0.0000000001
 40
0.0
 40
0.0
 40
0.0
 40
0.0
 40
0.2885574416
 40
0.5475073881
 40
0.7809736192
 40
1.0
 40
1.0
 40
1.0
 40
1.0
 10
16.1305969357
 20
-14.4247575658
 30
0.0
 10
16.1471341619
 20
-14.4156336732
 30
0.0
 10
16.1799931567
 20
-14.4007632219
 30
0.0
 10
16.2303093652
 20
-14.3894910298
 30
0.0
 10
16.2774600127
 20
-14.3913346598
 30
0.0
 10
16.3058179289
 20
-14.4018394493
 30
0.0
 10
16.3182353302
 20
-14.4090040824
 30
0.0
  0
ELLIPSE
  5
2A2
100
AcDbEntity
  8
0
100
AcDbEllipse
 62
7
  6
CONTINUOUS
 10
-1.7562323923
 20
20.5885315926
 30
0.0
 11
-0.2500121049
 21
0.4330057129
 31
0.0
 40
0.5777274115
 41
-2.3559002616
 42
-0.7857891675
  0
ELLIPSE
  5
2A3
100
AcDbEntity
  8
0
100
AcDbEllipse
 62
7
  6
CONTINUOUS
 10
-16.654072549
 20
29.1903577853
 30
0.0
 11
-0.2501834304
 21
0.4333025529
 31
0.0
 40
0.5769361983
 41
-0.7851038024
 42
0.0261609458
  0
ELLIPSE
  5
2A4
100
AcDbEntity
  8
0
100
AcDbEllipse
 62
7
  6
CONTINUOUS
 10
14.1536701844
 20
-30.7836270821
 30
0.0
 11
-0.2501834304
 21
0.4333025529
 31
0.0
 40
0.5769361983
 41
-3.1677535987
 42
-2.3565853618
  0
ELLIPSE
  5
2A5
100
AcDbEntity
  8
0
100
AcDbEllipse
 62
7
  6
CONTINUOUS
 10
14.1536701844
 20
11.4023532427
 30
0.0
 11
-0.2500121049
 21
0.4330057129
 31
0.0
 40
0.5777274115
 41
-2.3559002616
 42
-0.7857891675
  0
ELLIPSE
  5
2A6
100
AcDbEntity
  8
0
100
AcDbEllipse
 62
7
  6
CONTINUOUS
 10
-0.7441699723
 20
20.0041794354
 30
0.0
 11
-0.2501834304
 21
0.4333025529
 31
0.0
 40
0.5769361983
 41
-0.7851038024
 42
0.0261609458
  0
ENDSEC
  0
SECTION
  2
OBJECTS
  0
DICTIONARY
  5
C
100
AcDbDictionary
280
0
281
1
  3
ACAD_GROUP
350
D
  3
ACAD_MLINESTYLE
350
17
  3
ACAD_LAYOUT
350
1A
  3
ACAD_PLOTSETTINGS
350
19
  3
ACAD_PLOTSTYLENAME
350
E
  0
DICTIONARY
  5
D
102
{ACAD_REACTORS
330
C
102
}
100
AcDbDictionary
280
0
281
1
  0
ACDBDICTIONARYWDFLT
  5
E
102
{ACAD_REACTORS
330
C
102
}
100
AcDbDictionary
281
1
  3
Normal
350
F
100
AcDbDictionaryWithDefault
340
F
  0
DICTIONARY
  5
17
102
{ACAD_REACTORS
330
C
102
}
100
AcDbDictionary
280
0
281
1
  3
Standard
350
18
  0
DICTIONARY
  5
19
102
{ACAD_REACTORS
330
C
102
}
100
AcDbDictionary
281
1
  0
DICTIONARY
  5
1A
102
{ACAD_REACTORS
330
C
102
}
100
AcDbDictionary
281
1
  3
Model
350
2A7
  3
Layout1
350
2A8
  0
ACDBPLACEHOLDER
  5
F
102
{ACAD_REACTORS
330
E
102
}
  0
MLINESTYLE
  5
18
102
{ACAD_REACTORS
330
17
102
}
100
AcDbMlineStyle
  2
STANDARD
 70
0
  3

 62
256
 51
90.0
 52
90.0
 71
2
 49
0.5
 62
256
  6
BYLAYER
 49
-0.5
 62
256
  6
BYLAYER
  0
LAYOUT
  5
2A7
102
{ACAD_REACTORS
330
1A
102
}
100
AcDbPlotSettings
  1

  2
none_device
  4
ISO_A4_(297.00_x_210.00_MM)
  6

 40
0.0
 41
0.0
 42
0.0
 43
0.0
 44
297.0
 45
210.0
 46
0.0
 47
0.0
 48
0.0
 49
0.0
140
0.0
141
0.0
142
1.0
143
1.0
 70
1024
 72
1
 73
0
 74
0
  7

 75
0
147
1.0
148
0.0
149
0.0
100
AcDbLayout
  1
Model
 70
0
 71
0
 10
0.0
 20
0.0
 11
297.0
 21
210.0
 12
0.0
 22
0.0
 32
0.0
 14
0.0
 24
0.0
 34
0.0
 15
0.0
 25
0.0
 35
0.0
146
0.0
 13
0.0
 23
0.0
 33
0.0
 16
1.0
 26
0.0
 36
0.0
 17
0.0
 27
1.0
 37
0.0
 76
0
330
216
345
0
346
0
  0
LAYOUT
  5
2A8
102
{ACAD_REACTORS
330
1A
102
}
100
AcDbPlotSettings
  1

  2
none_device
  4
ISO_A4_(297.00_x_210.00_MM)
  6

 40
0.0
 41
0.0
 42
0.0
 43
0.0
 44
297.0
 45
210.0
 46
0.0
 47
0.0
 48
0.0
 49
0.0
140
0.0
141
0.0
142
1.0
143
1.0
 70
0
 72
1
 73
0
 74
0
  7

 75
0
147
1.0
148
0.0
149
0.0
100
AcDbLayout
  1
Layout1
 70
0
 71
1
 10
0.0
 20
0.0
 11
297.0
 21
210.0
 12
0.0
 22
0.0
 32
0.0
 14
0.0
 24
0.0
 34
0.0
 15
0.0
 25
0.0
 35
0.0
146
0.0
 13
0.0
 23
0.0
 33
0.0
 16
1.0
 26
0.0
 36
0.0
 17
0.0
 27
1.0
 37
0.0
 76
0
330
217
345
0
346
0
  0
ENDSEC
  0
EOF
