  0
SECTION
  2
HEADER
  9
$ACADVER
  1
AC1024
  9
$DWGCODEPAGE
  3
ANSI_1252
  9
$EXTMAX
 10
210.0
 20
297.0
 30
0.0
  9
$EXTMIN
 10
0.0
 20
0.0
 30
0.0
  9
$LIMMIN
 10
0.0
 20
0.0
  9
$LIMMAX
 10
210.0
 20
297.0
  9
$VIEWCTR
 10
105.0
 20
148.5
  9
$VIEWSIZE
 40
297.0
  9
$CLAYER
  8
0
  9
$LTSCALE
 40
19.36
  9
$CELTYPE
  6
BYLAYER
  9
$DIMSCALE
 40
1.0
  9
$DIMASZ
 40
3.0
  9
$DIMEXO
 40
0.5
  9
$DIMDLI
 40
13.376
  9
$DIMEXE
 40
1.5
  9
$DIMCEN
 40
3.168
  9
$DIMLFAC
 40
1.0
  9
$DIMBLK
  1
_FILLED
  9
$DIMALT
 70
0
  9
$DIMALTF
 40
0.0393700787
  9
$DIMTXT
 40
3.0
  9
$DIMTOL
 70
1
  9
$DIMLIM
 70
0
  9
$DIMTFAC
 40
1.0
  9
$DIMTP
 40
0.01
  9
$DIMTM
 40
0.01
  9
$DIMGAP
 40
0.625
  9
$DIMDSEP
 70
44
  9
$AUNITS
 70
0
  9
$PDMODE
 70
3
  9
$PDSIZE
 40
3.0
  9
$HANDSEED
  5
2CA
  9
$TILEMODE
 70
1
  9
$MEASUREMENT
 70
1
  9
$INSUNITS
 70
4
  0
ENDSEC
  0
SECTION
  2
CLASSES
  0
CLASS
  1
ACDBDICTIONARYWDFLT
  2
AcDbDictionaryWithDefault
  3
AutoCAD 2000
 90
0
 91
1
280
0
281
0
  0
CLASS
  1
ACDBPLACEHOLDER
  2
AcDbPlaceHolder
  3
AutoCAD 2000
 90
0
 91
1
280
0
281
0
  0
CLASS
  1
LAYOUT
  2
AcDbLayout
  3
AutoCAD 2000
 90
0
 91
0
280
0
281
0
  0
ENDSEC
  0
SECTION
  2
TABLES
  0
TABLE
  2
VPORT
  5
8
100
AcDbSymbolTable
 70
2
  0
VPORT
  5
1F4
100
AcDbSymbolTableRecord
100
AcDbViewportTableRecord
  2
*ACTIVE
 70
0
 10
0.0
 20
0.0
 11
1.0
 21
1.0
 12
105.0
 22
148.5
 13
0.0
 23
0.0
 14
1.0
 24
1.0
 15
0.0
 25
0.0
 16
0.0
 26
0.0
 36
1.0
 17
0.0
 27
0.0
 37
0.0
 40
297.0
 41
0.7070707071
 42
50.0
 43
0.0
 44
0.0
 50
0.0
 51
0.0
 71
0
 72
100
 73
1
 74
1
 75
0
 76
0
 77
0
 78
0
  0
ENDTAB
  0
TABLE
  2
LTYPE
  5
5
100
AcDbSymbolTable
 70
6
  0
LTYPE
  5
14
100
AcDbSymbolTableRecord
100
AcDbLinetypeTableRecord
  2
BYBLOCK
 70
0
  3

 72
65
 73
0
 40
0.0
  0
LTYPE
  5
15
100
AcDbSymbolTableRecord
100
AcDbLinetypeTableRecord
  2
BYLAYER
 70
0
  3

 72
65
 73
0
 40
0.0
  0
LTYPE
  5
16
100
AcDbSymbolTableRecord
100
AcDbLinetypeTableRecord
  2
CONTINUOUS
 70
64
  3
Solid line
 72
65
 73
0
 40
0.0
  0
LTYPE
  5
1F5
100
AcDbSymbolTableRecord
100
AcDbLinetypeTableRecord
  2
CENTER
 70
64
  3
____ _ ____ _ ____ _ ____ _ ____ _ ____ _ ____
 72
65
 73
4
 40
0.6
 49
0.375
 74
0
 49
-0.075
 74
0
 49
0.075
 74
0
 49
-0.075
 74
0
  0
LTYPE
  5
1F6
100
AcDbSymbolTableRecord
100
AcDbLinetypeTableRecord
  2
HIDDEN
 70
64
  3
- - - - - - - - - - - - - - - - - - - -
 72
65
 73
2
 40
0.2
 49
0.1
 74
0
 49
-0.1
 74
0
  0
LTYPE
  5
1F7
100
AcDbSymbolTableRecord
100
AcDbLinetypeTableRecord
  2
PHANTOM
 70
64
  3
_____ _ _ _____ _ _ _____ _ _ _____
 72
65
 73
6
 40
0.8
 49
0.45
 74
0
 49
-0.05
 74
0
 49
0.1
 74
0
 49
-0.05
 74
0
 49
0.1
 74
0
 49
-0.05
 74
0
  0
LTYPE
  5
1F8
100
AcDbSymbolTableRecord
100
AcDbLinetypeTableRecord
  2
DOT
 70
64
  3
. . . . . . . . . . . . . . . . . . . .
 72
65
 73
2
 40
0.2
 49
0.1
 74
0
 49
-0.1
 74
0
  0
LTYPE
  5
1F9
100
AcDbSymbolTableRecord
100
AcDbLinetypeTableRecord
  2
DASHED
 70
64
  3
- - - - - - - - - - - - - - - - - - - -
 72
65
 73
2
 40
0.2
 49
0.1
 74
0
 49
-0.1
 74
0
  0
ENDTAB
  0
TABLE
  2
LAYER
  5
2
100
AcDbSymbolTable
 70
36
  0
LAYER
  5
10
100
AcDbSymbolTableRecord
100
AcDbLayerTableRecord
  2
0
 70
0
 62
7
  6
CONTINUOUS
370
-3
390
F
  0
LAYER
  5
1FA
100
AcDbSymbolTableRecord
100
AcDbLayerTableRecord
  2
DEFAULT_1
 70
0
 62
7
  6
CENTER
370
-3
390
F
  0
LAYER
  5
1FB
100
AcDbSymbolTableRecord
100
AcDbLayerTableRecord
  2
DEFAULT_2
 70
0
 62
7
  6
HIDDEN
370
-3
390
F
  0
LAYER
  5
1FC
100
AcDbSymbolTableRecord
100
AcDbLayerTableRecord
  2
DEFAULT_3
 70
0
 62
7
  6
PHANTOM
370
-3
390
F
  0
LAYER
  5
1FD
100
AcDbSymbolTableRecord
100
AcDbLayerTableRecord
  2
ASSI
 70
0
 62
7
  6
CONTINUOUS
370
-3
390
F
  0
LAYER
  5
1FE
100
AcDbSymbolTableRecord
100
AcDbLayerTableRecord
  2
COORDINATE
 70
0
 62
7
  6
CONTINUOUS
370
-3
390
F
  0
LAYER
  5
1FF
100
AcDbSymbolTableRecord
100
AcDbLayerTableRecord
  2
COPY_PUBLISH
 70
0
 62
7
  6
CONTINUOUS
370
-3
390
F
  0
LAYER
  5
200
100
AcDbSymbolTableRecord
100
AcDbLayerTableRecord
  2
COSMETICI
 70
0
 62
7
  6
CONTINUOUS
370
-3
390
F
  0
LAYER
  5
201
100
AcDbSymbolTableRecord
100
AcDbLayerTableRecord
  2
CURVE
 70
0
 62
7
  6
CONTINUOUS
370
-3
390
F
  0
LAYER
  5
202
100
AcDbSymbolTableRecord
100
AcDbLayerTableRecord
  2
DRAFT
 70
0
 62
7
  6
CONTINUOUS
370
-3
390
F
  0
LAYER
  5
203
100
AcDbSymbolTableRecord
100
AcDbLayerTableRecord
  2
IMPORT_IGES
 70
0
 62
7
  6
CONTINUOUS
370
-3
390
F
  0
LAYER
  5
204
100
AcDbSymbolTableRecord
100
AcDbLayerTableRecord
  2
INTF_1
 70
0
 62
7
  6
CONTINUOUS
370
-3
390
F
  0
LAYER
  5
205
100
AcDbSymbolTableRecord
100
AcDbLayerTableRecord
  2
INTF_2
 70
0
 62
7
  6
CONTINUOUS
370
-3
390
F
  0
LAYER
  5
206
100
AcDbSymbolTableRecord
100
AcDbLayerTableRecord
  2
INTF_4
 70
0
 62
7
  6
CONTINUOUS
370
-3
390
F
  0
LAYER
  5
207
100
AcDbSymbolTableRecord
100
AcDbLayerTableRecord
  2
INTF_9
 70
0
 62
7
  6
CONTINUOUS
370
-3
390
F
  0
LAYER
  5
208
100
AcDbSymbolTableRecord
100
AcDbLayerTableRecord
  2
NOTE
 70
0
 62
7
  6
CONTINUOUS
370
-3
390
F
  0
LAYER
  5
209
100
AcDbSymbolTableRecord
100
AcDbLayerTableRecord
  2
PIANI
 70
0
 62
7
  6
CONTINUOUS
370
-3
390
F
  0
LAYER
  5
20A
100
AcDbSymbolTableRecord
100
AcDbLayerTableRecord
  2
PUNTI
 70
0
 62
7
  6
CONTINUOUS
370
-3
390
F
  0
LAYER
  5
20B
100
AcDbSymbolTableRecord
100
AcDbLayerTableRecord
  2
RACCORDO
 70
0
 62
7
  6
CONTINUOUS
370
-3
390
F
  0
LAYER
  5
20C
100
AcDbSymbolTableRecord
100
AcDbLayerTableRecord
  2
SIMBOLI
 70
0
 62
7
  6
CONTINUOUS
370
-3
390
F
  0
LAYER
  5
20D
100
AcDbSymbolTableRecord
100
AcDbLayerTableRecord
  2
SMUSSO
 70
0
 62
7
  6
CONTINUOUS
370
-3
390
F
  0
LAYER
  5
20E
100
AcDbSymbolTableRecord
100
AcDbLayerTableRecord
  2
SNAPLINE
 70
0
 62
7
  6
CONTINUOUS
370
-3
390
F
  0
LAYER
  5
20F
100
AcDbSymbolTableRecord
100
AcDbLayerTableRecord
  2
SUPERFICI
 70
0
 62
7
  6
CONTINUOUS
370
-3
390
F
  0
LAYER
  5
210
100
AcDbSymbolTableRecord
100
AcDbLayerTableRecord
  2
TRASH
 70
0
 62
7
  6
CONTINUOUS
370
-3
390
F
  0
ENDTAB
  0
TABLE
  2
STYLE
  5
3
100
AcDbSymbolTable
 70
1
  0
STYLE
  5
11
100
AcDbSymbolTableRecord
100
AcDbTextStyleTableRecord
  2
STANDARD
 70
0
 40
0.0
 41
0.8
 50
0.0
 71
0
 42
0.2
  3
txt
  4

  0
STYLE
  5
211
100
AcDbSymbolTableRecord
100
AcDbTextStyleTableRecord
  2
TEXTSTYLE_1
 70
0
 40
0.0
 41
0.8
 50
0.0
 71
0
 42
0.2
  3
gdt
  4

  0
ENDTAB
  0
TABLE
  2
VIEW
  5
6
100
AcDbSymbolTable
 70
0
  0
ENDTAB
  0
TABLE
  2
UCS
  5
7
100
AcDbSymbolTable
 70
0
  0
ENDTAB
  0
TABLE
  2
APPID
  5
9
100
AcDbSymbolTable
 70
1
  0
APPID
  5
212
100
AcDbSymbolTableRecord
100
AcDbRegAppTableRecord
  2
ACAD
 70
0
  0
ENDTAB
  0
TABLE
  2
BLOCK_RECORD
  5
1
100
AcDbSymbolTable
 70
0
  0
BLOCK_RECORD
  5
213
100
AcDbSymbolTableRecord
100
AcDbBlockTableRecord
  2
*Model_Space
  0
BLOCK_RECORD
  5
214
100
AcDbSymbolTableRecord
100
AcDbBlockTableRecord
  2
*Paper_Space
  0
BLOCK_RECORD
  5
215
100
AcDbSymbolTableRecord
100
AcDbBlockTableRecord
  2
_FILLED
  0
ENDTAB
  0
TABLE
  2
DIMSTYLE
  5
A
100
AcDbSymbolTable
 70
1
100
AcDbDimStyleTable
 71
0
  0
DIMSTYLE
105
216
100
AcDbSymbolTableRecord
100
AcDbDimStyleTableRecord
  2
STANDARD
 70
0
  3

  4

 40
1.0
 41
3.0
 42
0.5
 43
0.38
 44
1.5
 45
0.0
 46
0.0
 47
0.01
 48
0.01
140
3.0
141
0.09
142
0.0
143
25.4
144
1.0
145
0.0
146
1.0
147
0.625
 71
1
 72
0
 73
0
 74
0
 75
0
 76
0
 77
1
 78
8
 79
2
170
0
171
1
172
0
173
0
174
0
175
0
176
0
177
0
178
0
270
2
179
2
271
2
272
2
273
2
274
2
275
0
280
0
281
0
282
0
283
1
284
8
285
0
286
0
287
3
288
0
340
11
278
44
341
215
342
215
343
215
344
215
  0
ENDTAB
  0
ENDSEC
  0
SECTION
  2
BLOCKS
  0
BLOCK
  5
20
100
AcDbEntity
  8
0
100
AcDbBlockBegin
  2
*Model_Space
 70
0
 10
0.0
 20
0.0
 30
0.0
  3
*Model_Space
  1

  0
ENDBLK
  5
21
100
AcDbEntity
  8
0
100
AcDbBlockEnd
  0
BLOCK
  5
1C
100
AcDbEntity
  8
0
100
AcDbBlockBegin
  2
*Paper_Space
 70
0
 10
0.0
 20
0.0
 30
0.0
  3
*Paper_Space
  1

  0
ENDBLK
  5
1D
100
AcDbEntity
  8
0
100
AcDbBlockEnd
  0
BLOCK
  5
217
100
AcDbEntity
  8
0
100
AcDbBlockBegin
  2
_FILLED
 70
64
 10
0.0
 20
0.0
  3
_FILLED
  1

  0
SOLID
  5
218
100
AcDbEntity
  8
0
  6
BYBLOCK
 62
0
100
AcDbTrace
 10
0.0
 20
0.0
 11
-1.0
 21
0.3166666667
 12
-1.0
 22
-0.3166666667
 13
-1.0
 23
-0.3166666667
  0
ENDBLK
  5
219
100
AcDbEntity
  8
0
  6
BYBLOCK
 62
0
100
AcDbBlockEnd
  0
ENDSEC
  0
SECTION
  2
ENTITIES
  0
LWPOLYLINE
  5
21A
100
AcDbEntity
  8
ASSI
100
AcDbPolyline
 62
250
  6
CONTINUOUS
 90
16
 70
0
 10
-8.6643208975
 20
25.4905778031
 10
-8.700602068
 20
25.4663692778
 10
-8.7364008124
 20
25.4381503292
 10
-8.7713378657
 20
25.406219919
 10
-8.8050430919
 20
25.3709163297
 10
-8.8371594055
 20
25.3326135804
 10
-8.8673465545
 20
25.2917174646
 10
-8.895284725
 20
25.2486612506
 10
-8.9206779299
 20
25.2039010918
 10
-8.9432571443
 20
25.1579111936
 10
-8.9627831558
 20
25.1111787899
 10
-8.9790490986
 20
25.0641989807
 10
-8.9918826454
 20
25.0174694875
 10
-9.0011478329
 20
24.9714853796
 10
-9.0067465023
 20
24.9267338295
 10
-9.0086193392
 20
24.8836889515
  0
LINE
  5
21B
100
AcDbEntity
  8
ASSI
100
AcDbLine
 62
7
  6
CONTINUOUS
 10
-7.3437018893
 20
26.5199233955
 11
-8.9244398987
 21
25.5090597641
  0
LINE
  5
21C
100
AcDbEntity
  8
ASSI
100
AcDbLine
 62
250
  6
CONTINUOUS
 10
-7.115846338
 20
26.4808093322
 11
-8.6643208975
 21
25.4905778031
  0
LWPOLYLINE
  5
21D
100
AcDbEntity
  8
ASSI
100
AcDbPolyline
 62
250
  6
CONTINUOUS
 90
16
 70
0
 10
5.8595948291
 20
-25.8528038491
 10
5.8972791504
 20
-25.8724566993
 10
5.9383850493
 20
-25.8898633511
 10
5.982520533
 20
-25.9048150975
 10
6.0293146085
 20
-25.9171394337
 10
6.0782423119
 20
-25.9266535222
 10
6.1286073219
 20
-25.93320368
 10
6.1798009164
 20
-25.9367174908
 10
6.2313479941
 20
-25.9371689735
 10
6.2827191752
 20
-25.9345520037
 10
6.3333793361
 20
-25.9288895774
 10
6.382775676
 20
-25.9202391539
 10
6.4303640819
 20
-25.9086943743
 10
6.4756323156
 20
-25.894380096
 10
6.5181036341
 20
-25.87744769
 10
6.5573255076
 20
-25.8580775878
  0
LINE
  5
21E
100
AcDbEntity
  8
ASSI
100
AcDbLine
 62
7
  6
CONTINUOUS
 10
-8.9050780287
 20
-17.4969517613
 11
5.9631361397
 21
-26.0816722796
  0
LINE
  5
21F
100
AcDbEntity
  8
ASSI
100
AcDbLine
 62
250
  6
CONTINUOUS
 10
-9.0086193392
 20
-17.2680833308
 11
5.8595948291
 21
-25.8528038491
  0
LWPOLYLINE
  5
220
100
AcDbEntity
  8
ASSI
100
AcDbPolyline
 62
250
  6
CONTINUOUS
 90
9
 70
0
 10
-9.0086193392
 20
-17.2680833308
 10
-9.0424108599
 20
-17.2464990412
 10
-9.0724089701
 20
-17.2229372008
 10
-9.0982434206
 20
-17.1976130763
 10
-9.1195912677
 20
-17.1707490257
 10
-9.1361397909
 20
-17.1426233306
 10
-9.14762264
 20
-17.1135741772
 10
-9.1538728142
 20
-17.0838781225
 10
-9.1550659486
 20
-17.0639460341
  0
LWPOLYLINE
  5
221
100
AcDbEntity
  8
ASSI
100
AcDbPolyline
 62
250
  6
CONTINUOUS
 90
9
 70
0
 10
5.9631361397
 20
-26.0816722796
 10
5.9475362385
 20
-26.0714634543
 10
5.9249570241
 20
-26.0515474669
 10
5.9054310126
 20
-26.0273632118
 10
5.8891650697
 20
-25.9991669056
 10
5.876331523
 20
-25.9672572706
 10
5.8670663355
 20
-25.931972369
 10
5.8614676661
 20
-25.8936860219
 10
5.8595948291
 20
-25.8528038491
  0
LINE
  5
222
100
AcDbEntity
  8
CURVE
100
AcDbLine
 62
7
  6
CONTINUOUS
 10
-4.5818161822
 20
14.2925033287
 11
-4.2281022784
 21
14.6462172325
  0
LWPOLYLINE
  5
223
100
AcDbEntity
  8
CURVE
100
AcDbPolyline
 62
250
  6
CONTINUOUS
 90
28
 70
0
 10
-3.4278593837
 20
-12.9964756499
 10
-3.43514198
 20
-12.9954423232
 10
-3.442479462
 20
-12.9942010244
 10
-3.4498687441
 20
-12.9927588914
 10
-3.4573067409
 20
-12.9911230618
 10
-3.464790367
 20
-12.9893006736
 10
-3.4723165367
 20
-12.9872988644
 10
-3.4798821647
 20
-12.9851247721
 10
-3.4874841655
 20
-12.9827855344
 10
-3.4951194536
 20
-12.9802882891
 10
-3.5027849436
 20
-12.977640174
 10
-3.5104775498
 20
-12.9748483269
 10
-3.518194187
 20
-12.9719198855
 10
-3.5259317695
 20
-12.9688619877
 10
-3.5336872119
 20
-12.9656817712
 10
-3.5414574288
 20
-12.9623863737
 10
-3.5492393346
 20
-12.9589829332
 10
-3.5570298439
 20
-12.9554785873
 10
-3.5648258712
 20
-12.9518804739
 10
-3.572624331
 20
-12.9481957307
 10
-3.5804221379
 20
-12.9444314954
 10
-3.5882162063
 20
-12.940594906
 10
-3.5989341339
 20
-12.9352048417
 10
-3.6096429445
 20
-12.9296846665
 10
-3.6203464486
 20
-12.9240278206
 10
-3.6310484569
 20
-12.9182277438
 10
-3.6417527801
 20
-12.9122778761
 10
-3.6524632287
 20
-12.9061716576
  0
LWPOLYLINE
  5
224
100
AcDbEntity
  8
CURVE
100
AcDbPolyline
 62
250
  6
CONTINUOUS
 90
42
 70
0
 10
-3.320185957
 20
-13.4462512663
 10
-3.3060932351
 20
-13.4500296094
 10
-3.292127401
 20
-13.4532530688
 10
-3.2782904431
 20
-13.4559341057
 10
-3.2645843496
 20
-13.4580851819
 10
-3.2510111091
 20
-13.4597187587
 10
-3.23757271
 20
-13.4608472978
 10
-3.2242711405
 20
-13.4614832605
 10
-3.2111083892
 20
-13.4616391085
 10
-3.1980864444
 20
-13.4613273032
 10
-3.1852072945
 20
-13.4605603061
 10
-3.1724729279
 20
-13.4593505787
 10
-3.1598853331
 20
-13.4577105826
 10
-3.1474464983
 20
-13.4556527793
 10
-3.1351584121
 20
-13.4531896302
 10
-3.1230230628
 20
-13.4503335968
 10
-3.1110424388
 20
-13.4470971408
 10
-3.0992185285
 20
-13.4434927236
 10
-3.0875533203
 20
-13.4395328066
 10
-3.0760488026
 20
-13.4352298515
 10
-3.0647069638
 20
-13.4305963197
 10
-3.0535297923
 20
-13.4256446727
 10
-3.0420243418
 20
-13.4201378728
 10
-3.0307133455
 20
-13.4142907681
 10
-3.0196091029
 20
-13.4080971327
 10
-3.0087239139
 20
-13.4015507407
 10
-2.9980700781
 20
-13.3946453663
 10
-2.9876598953
 20
-13.3873747834
 10
-2.9775056651
 20
-13.3797327663
 10
-2.9676196874
 20
-13.3717130889
 10
-2.9580142617
 20
-13.3633095255
 10
-2.9487016879
 20
-13.3545158502
 10
-2.9396942656
 20
-13.3453258369
 10
-2.9310042946
 20
-13.3357332599
 10
-2.9226440745
 20
-13.3257318932
 10
-2.9146259051
 20
-13.3153155109
 10
-2.9069620862
 20
-13.3044778872
 10
-2.8996649173
 20
-13.2932127961
 10
-2.8927466983
 20
-13.2815140117
 10
-2.8862197289
 20
-13.2693753082
 10
-2.8800963087
 20
-13.2567904596
 10
-2.8743887375
 20
-13.2437532401
  0
LWPOLYLINE
  5
225
100
AcDbEntity
  8
CURVE
100
AcDbPolyline
 62
250
  6
CONTINUOUS
 90
27
 70
0
 10
-3.6524632287
 20
-13.314030277
 10
-3.6383054928
 20
-13.322132359
 10
-3.624134029
 20
-13.3300921497
 10
-3.6099531806
 20
-13.3378990663
 10
-3.5957672909
 20
-13.3455425261
 10
-3.5815807033
 20
-13.3530119465
 10
-3.5673977612
 20
-13.3602967448
 10
-3.5532228078
 20
-13.3673863382
 10
-3.5390601865
 20
-13.3742701441
 10
-3.5249142407
 20
-13.3809375798
 10
-3.5107893137
 20
-13.3873780626
 10
-3.4966897487
 20
-13.3935810099
 10
-3.4826198893
 20
-13.3995358388
 10
-3.4685840786
 20
-13.4052319668
 10
-3.4545866601
 20
-13.4106588111
 10
-3.4406319771
 20
-13.4158057891
 10
-3.4267243729
 20
-13.4206623181
 10
-3.4128681909
 20
-13.4252178154
 10
-3.3990677743
 20
-13.4294616982
 10
-3.3853274666
 20
-13.4333833839
 10
-3.3758530149
 20
-13.4359006973
 10
-3.3664189386
 20
-13.4382334277
 10
-3.3570347168
 20
-13.4403565161
 10
-3.3477098286
 20
-13.4422449033
 10
-3.3384537532
 20
-13.4438735301
 10
-3.3292759696
 20
-13.4452173375
 10
-3.320185957
 20
-13.4462512663
  0
LWPOLYLINE
  5
226
100
AcDbEntity
  8
CURVE
100
AcDbPolyline
 62
250
  6
CONTINUOUS
 90
25
 70
0
 10
-3.6534376489
 20
-12.9056090396
 10
-3.6638388107
 20
-12.8995303015
 10
-3.6742546488
 20
-12.8932950834
 10
-3.6846813896
 20
-12.8869032676
 10
-3.6951152597
 20
-12.8803547363
 10
-3.7055524858
 20
-12.873649372
 10
-3.7159892944
 20
-12.866787057
 10
-3.7264219119
 20
-12.8597676735
 10
-3.7368465651
 20
-12.852591104
 10
-3.7472594805
 20
-12.8452572306
 10
-3.7576568846
 20
-12.8377659358
 10
-3.768035004
 20
-12.8301171019
 10
-3.7783900653
 20
-12.8223106111
 10
-3.788718295
 20
-12.8143463459
 10
-3.7990159198
 20
-12.8062241885
 10
-3.8092791661
 20
-12.7979440212
 10
-3.8195042605
 20
-12.7895057264
 10
-3.8296874297
 20
-12.7809091864
 10
-3.8398249001
 20
-12.7721542835
 10
-3.8499128984
 20
-12.7632409
 10
-3.8599476511
 20
-12.7541689183
 10
-3.8699253847
 20
-12.7449382206
 10
-3.8798423259
 20
-12.7355486894
 10
-3.8896947012
 20
-12.7260002069
 10
-3.8994787372
 20
-12.7162926554
  0
LINE
  5
227
100
AcDbEntity
  8
CURVE
100
AcDbLine
 62
7
  6
CONTINUOUS
 10
-4.5818161822
 20
13.2968969808
 11
-4.2281022784
 21
13.6506108846
  0
LINE
  5
228
100
AcDbEntity
  8
CURVE
100
AcDbLine
 62
7
  6
CONTINUOUS
 10
-4.5818161822
 20
12.3012906329
 11
-4.2281022784
 21
12.6550045367
  0
LINE
  5
229
100
AcDbEntity
  8
CURVE
100
AcDbLine
 62
7
  6
CONTINUOUS
 10
-4.3349956755
 20
11.5525047917
 11
-4.2281022784
 21
11.6593981888
  0
LINE
  5
22A
100
AcDbEntity
  8
CURVE
100
AcDbLine
 62
7
  6
CONTINUOUS
 10
-3.2960690582
 20
12.591431409
 11
-2.7687994338
 21
13.1187010334
  0
LINE
  5
22B
100
AcDbEntity
  8
CURVE
100
AcDbLine
 62
250
  6
CONTINUOUS
 10
-1.6814548667
 20
13.4466774863
 11
-2.5089811806
 21
12.9686852303
  0
LINE
  5
22C
100
AcDbEntity
  8
ASSI
100
AcDbLine
 62
250
  6
CONTINUOUS
 10
6.2038932709
 20
16.9058572848
 11
7.8356449861
 21
17.8480056278
  0
LWPOLYLINE
  5
22D
100
AcDbEntity
  8
CURVE
100
AcDbPolyline
 62
250
  6
CONTINUOUS
 90
55
 70
0
 10
-1.4885196766
 20
-12.1149060383
 10
-1.4901627377
 20
-12.1139963991
 10
-1.4918117686
 20
-12.1131603247
 10
-1.493465372
 20
-12.1123970083
 10
-1.4951221505
 20
-12.1117056432
 10
-1.4967807066
 20
-12.1110854228
 10
-1.4984396429
 20
-12.1105355402
 10
-1.500097562
 20
-12.1100551889
 10
-1.5017530665
 20
-12.1096435621
 10
-1.5034047589
 20
-12.1092998532
 10
-1.5050512418
 20
-12.1090232553
 10
-1.5066911178
 20
-12.1088129619
 10
-1.5083229894
 20
-12.1086681663
 10
-1.5099454593
 20
-12.1085880616
 10
-1.51155713
 20
-12.1085718413
 10
-1.513156604
 20
-12.1086186985
 10
-1.514742484
 20
-12.1087278268
 10
-1.5163133725
 20
-12.1088984192
 10
-1.5178678722
 20
-12.1091296692
 10
-1.5194045855
 20
-12.1094207699
 10
-1.520922115
 20
-12.1097709148
 10
-1.5224190634
 20
-12.1101792972
 10
-1.5238940332
 20
-12.1106451102
 10
-1.525345627
 20
-12.1111675473
 10
-1.5267724473
 20
-12.1117458017
 10
-1.5281730967
 20
-12.1123790667
 10
-1.5295461779
 20
-12.1130665357
 10
-1.5308902933
 20
-12.1138074019
 10
-1.5322040455
 20
-12.1146008586
 10
-1.5334860372
 20
-12.1154460991
 10
-1.5347348709
 20
-12.1163423167
 10
-1.5359491491
 20
-12.1172887048
 10
-1.5371274745
 20
-12.1182844566
 10
-1.5382684496
 20
-12.1193287654
 10
-1.539370677
 20
-12.1204208245
 10
-1.5404327593
 20
-12.1215598273
 10
-1.541453299
 20
-12.122744967
 10
-1.5424308987
 20
-12.1239754369
 10
-1.543364161
 20
-12.1252504303
 10
-1.5442516885
 20
-12.1265691406
 10
-1.5450920837
 20
-12.1279307609
 10
-1.5458839493
 20
-12.1293344847
 10
-1.5466258877
 20
-12.1307795053
 10
-1.5473165016
 20
-12.1322650158
 10
-1.5479543935
 20
-12.1337902097
 10
-1.5485381661
 20
-12.1353542802
 10
-1.5490664218
 20
-12.1369564206
 10
-1.5495377633
 20
-12.1385958242
 10
-1.5499507932
 20
-12.1402716844
 10
-1.5503041139
 20
-12.1419831943
 10
-1.5505963281
 20
-12.1437295475
 10
-1.5508260384
 20
-12.145509937
 10
-1.5509918474
 20
-12.1473235562
 10
-1.5510923575
 20
-12.1491695985
 10
-1.5511261714
 20
-12.1510472571
  0
LINE
  5
22E
100
AcDbEntity
  8
CURVE
100
AcDbLine
 62
250
  6
CONTINUOUS
 10
-1.4885196766
 20
-13.4467753918
 11
-0.7645255039
 21
-13.8648005533
  0
LINE
  5
22F
100
AcDbEntity
  8
CURVE
100
AcDbLine
 62
250
  6
CONTINUOUS
 10
-0.7642818988
 20
-12.5330718543
 11
-1.4885196766
 21
-12.1149060383
  0
LWPOLYLINE
  5
230
100
AcDbEntity
  8
CURVE
100
AcDbPolyline
 62
250
  6
CONTINUOUS
 90
43
 70
0
 10
-3.8994787372
 20
-12.7162926554
 10
-3.9055562071
 20
-12.7108618404
 10
-3.9115544378
 20
-12.7052235122
 10
-3.9174746603
 20
-12.699386695
 10
-3.9233181057
 20
-12.6933604131
 10
-3.929086005
 20
-12.6871536907
 10
-3.934779589
 20
-12.6807755522
 10
-3.9404000889
 20
-12.6742350219
 10
-3.9459487356
 20
-12.6675411241
 10
-3.9514267602
 20
-12.6607028829
 10
-3.9568353935
 20
-12.6537293229
 10
-3.9621758667
 20
-12.6466294681
 10
-3.9674494106
 20
-12.639412343
 10
-3.9726572563
 20
-12.6320869717
 10
-3.9778006349
 20
-12.6246623787
 10
-3.9828807772
 20
-12.6171475882
 10
-3.9878989143
 20
-12.6095516244
 10
-3.9928562772
 20
-12.6018835117
 10
-3.9977540968
 20
-12.5941522744
 10
-4.0025936042
 20
-12.5863669368
 10
-4.0073760304
 20
-12.5785365231
 10
-4.0121026063
 20
-12.5706700576
 10
-4.016774563
 20
-12.5627765647
 10
-4.0230585968
 20
-12.5519811311
 10
-4.0292374826
 20
-12.5411541052
 10
-4.0353053633
 20
-12.5302973766
 10
-4.0412563817
 20
-12.5194128351
 10
-4.0470846807
 20
-12.5085023703
 10
-4.0527844033
 20
-12.497567872
 10
-4.0583496923
 20
-12.48661123
 10
-4.0637746906
 20
-12.475634334
 10
-4.0690535412
 20
-12.4646390737
 10
-4.0741803869
 20
-12.4536273387
 10
-4.0791493705
 20
-12.442601019
 10
-4.0839546351
 20
-12.4315620041
 10
-4.0885903234
 20
-12.4205121838
 10
-4.0930505784
 20
-12.4094534479
 10
-4.097329543
 20
-12.398387686
 10
-4.1014213601
 20
-12.3873167879
 10
-4.1053201725
 20
-12.3762426433
 10
-4.1090201232
 20
-12.365167142
 10
-4.112515355
 20
-12.3540921736
 10
-4.1158000109
 20
-12.343019628
  0
LWPOLYLINE
  5
231
100
AcDbEntity
  8
CURVE
100
AcDbPolyline
 62
250
  6
CONTINUOUS
 90
26
 70
0
 10
-4.007152164
 20
-13.0417296975
 10
-3.9943029364
 20
-13.0548329166
 10
-3.9813529457
 20
-13.0676941794
 10
-3.9683081161
 20
-13.0803168064
 10
-3.9551743714
 20
-13.0927041181
 10
-3.9419576358
 20
-13.1048594351
 10
-3.9286638332
 20
-13.1167860778
 10
-3.9152988878
 20
-13.1284873667
 10
-3.9018687234
 20
-13.1399666225
 10
-3.8883792642
 20
-13.1512271655
 10
-3.8748364341
 20
-13.1622723163
 10
-3.8612461572
 20
-13.1731053955
 10
-3.8476143576
 20
-13.1837297235
 10
-3.8339469591
 20
-13.1941486208
 10
-3.820249886
 20
-13.2043654079
 10
-3.8065290621
 20
-13.2143834055
 10
-3.7927904115
 20
-13.2242059339
 10
-3.7790398583
 20
-13.2338363137
 10
-3.7652833264
 20
-13.2432778654
 10
-3.7515267399
 20
-13.2525339095
 10
-3.7351756351
 20
-13.2633027853
 10
-3.7188297731
 20
-13.2738193457
 10
-3.7024860988
 20
-13.2840888519
 10
-3.6861415569
 20
-13.2941165653
 10
-3.669793092
 20
-13.3039077472
 10
-3.6534376489
 20
-13.313467659
  0
LWPOLYLINE
  5
232
100
AcDbEntity
  8
ASSI
100
AcDbPolyline
 62
250
  6
CONTINUOUS
 90
9
 70
0
 10
-9.0086193392
 20
-17.2680833308
 10
-9.0067465023
 20
-17.3089655036
 10
-9.0011478329
 20
-17.3472518506
 10
-8.9918826454
 20
-17.3825367523
 10
-8.9790490986
 20
-17.4144463873
 10
-8.9627831558
 20
-17.4426426934
 10
-8.9432571443
 20
-17.4668269486
 10
-8.9206779299
 20
-17.4867429359
 10
-8.9050780287
 20
-17.4969517613
  0
LINE
  5
233
100
AcDbEntity
  8
ASSI
100
AcDbLine
 62
7
  6
CONTINUOUS
 10
-9.1550659486
 20
25.0878262481
 11
-9.1550659486
 21
4.6148848782
  0
LINE
  5
234
100
AcDbEntity
  8
ASSI
100
AcDbLine
 62
7
  6
CONTINUOUS
 10
-9.1550659486
 20
3.4089953359
 11
-9.1550659486
 21
-17.0639460341
  0
LWPOLYLINE
  5
235
100
AcDbEntity
  8
ASSI
100
AcDbPolyline
 62
250
  6
CONTINUOUS
 90
16
 70
0
 10
-9.0086193392
 20
3.2048580392
 10
-9.0067070685
 20
3.2483639834
 10
-9.0009926113
 20
3.2935974555
 10
-8.9915402372
 20
3.3400683783
 10
-8.9784632557
 20
3.3872460103
 10
-8.9619006596
 20
3.434647915
 10
-8.9419955029
 20
3.4818453565
 10
-8.9188957637
 20
3.5284236419
 10
-8.8928786374
 20
3.5737685147
 10
-8.864354753
 20
3.6171793535
 10
-8.8336858954
 20
3.6581670514
 10
-8.8011973034
 20
3.696353711
 10
-8.7673206396
 20
3.7312926551
 10
-8.7324591035
 20
3.7626437493
 10
-8.6969717802
 20
3.7901568245
 10
-8.6612363061
 20
3.813605611
  0
LINE
  5
236
100
AcDbEntity
  8
CURVE
100
AcDbLine
 62
7
  6
CONTINUOUS
 10
-2.9819766097
 20
11.9099175096
 11
-1.574512255
 21
13.3173818642
  0
LINE
  5
237
100
AcDbEntity
  8
CURVE
100
AcDbLine
 62
7
  6
CONTINUOUS
 10
-2.4177573996
 20
11.4785303717
 11
-1.574512255
 21
12.3217755163
  0
LINE
  5
238
100
AcDbEntity
  8
CURVE
100
AcDbLine
 62
250
  6
CONTINUOUS
 10
-0.8977774596
 20
12.1523155266
 11
-0.7238434625
 21
12.2555362444
  0
LINE
  5
239
100
AcDbEntity
  8
CURVE
100
AcDbLine
 62
250
  6
CONTINUOUS
 10
-0.2814567136
 20
12.5086651861
 11
-0.1070355065
 21
12.6110420313
  0
LINE
  5
23A
100
AcDbEntity
  8
CURVE
100
AcDbLine
 62
250
  6
CONTINUOUS
 10
0.3348640324
 20
12.8644522819
 11
0.5092852395
 21
12.9662665635
  0
LINE
  5
23B
100
AcDbEntity
  8
ASSI
100
AcDbLine
 62
250
  6
CONTINUOUS
 10
6.5573255076
 20
16.2936946944
 11
8.285581837
 21
17.2915633174
  0
LWPOLYLINE
  5
23C
100
AcDbEntity
  8
CURVE
100
AcDbPolyline
 62
250
  6
CONTINUOUS
 90
28
 70
0
 10
-3.8748746284
 20
-10.0487580168
 10
-3.8677277088
 20
-10.0497400638
 10
-3.8605231907
 20
-10.0509436579
 10
-3.8532644034
 20
-10.0523603868
 10
-3.8459546758
 20
-10.0539818385
 10
-3.838597337
 20
-10.0557996008
 10
-3.8311957162
 20
-10.0578052616
 10
-3.8237531424
 20
-10.0599904086
 10
-3.8162729446
 20
-10.0623466298
 10
-3.8087584521
 20
-10.064865513
 10
-3.8012129939
 20
-10.0675386461
 10
-3.793639899
 20
-10.0703576169
 10
-3.7860424965
 20
-10.0733140132
 10
-3.7784241157
 20
-10.0763994229
 10
-3.7707880854
 20
-10.0796054339
 10
-3.7631377349
 20
-10.0829236341
 10
-3.7554763931
 20
-10.0863456112
 10
-3.7478073893
 20
-10.0898629531
 10
-3.7401340524
 20
-10.0934672476
 10
-3.7324597117
 20
-10.0971500827
 10
-3.724787696
 20
-10.1009030462
 10
-3.7171213346
 20
-10.1047177259
 10
-3.7064109938
 20
-10.110146793
 10
-3.6957133015
 20
-10.1156900417
 10
-3.6850233288
 20
-10.1213573543
 10
-3.6743361467
 20
-10.1271586133
 10
-3.6636468264
 20
-10.1331037012
 10
-3.6529504388
 20
-10.1392025005
  0
LWPOLYLINE
  5
23D
100
AcDbEntity
  8
CURVE
100
AcDbPolyline
 62
250
  6
CONTINUOUS
 90
42
 70
0
 10
-3.9837660803
 20
-9.5982791279
 10
-3.997933365
 20
-9.5945335097
 10
-4.0119750375
 20
-9.5913334547
 10
-4.0258890815
 20
-9.588667205
 10
-4.0396734808
 20
-9.5865230031
 10
-4.053326219
 20
-9.584889091
 10
-4.0668452799
 20
-9.5837537111
 10
-4.0802286472
 20
-9.5831051056
 10
-4.0934743045
 20
-9.5829315168
 10
-4.1065802356
 20
-9.5832211869
 10
-4.1195444242
 20
-9.5839623581
 10
-4.1323648539
 20
-9.5851432726
 10
-4.1450395086
 20
-9.5867521729
 10
-4.1575663718
 20
-9.588777301
 10
-4.1699434274
 20
-9.5912068992
 10
-4.1821686589
 20
-9.5940292098
 10
-4.1942400502
 20
-9.5972324751
 10
-4.2061555849
 20
-9.6008049372
 10
-4.2179132468
 20
-9.6047348384
 10
-4.2295110195
 20
-9.609010421
 10
-4.2409468867
 20
-9.6136199271
 10
-4.2522188321
 20
-9.6185515992
 10
-4.2636553031
 20
-9.6239597396
 10
-4.2749025656
 20
-9.6297042257
 10
-4.2859475073
 20
-9.6357919932
 10
-4.2967770158
 20
-9.6422299778
 10
-4.3073779787
 20
-9.6490251155
 10
-4.3177372835
 20
-9.6561843419
 10
-4.3278418179
 20
-9.6637145928
 10
-4.3376784695
 20
-9.6716228041
 10
-4.3472341258
 20
-9.6799159115
 10
-4.3564956744
 20
-9.6886008508
 10
-4.365450003
 20
-9.6976845578
 10
-4.3740839991
 20
-9.7071739683
 10
-4.3823845503
 20
-9.7170760181
 10
-4.3903385443
 20
-9.727397643
 10
-4.3979328685
 20
-9.7381457787
 10
-4.4051544106
 20
-9.749327361
 10
-4.4119900582
 20
-9.7609493257
 10
-4.4184266989
 20
-9.7730186087
 10
-4.4244512202
 20
-9.7855421457
 10
-4.4300505098
 20
-9.7985268725
  0
LWPOLYLINE
  5
23E
100
AcDbEntity
  8
CURVE
100
AcDbPolyline
 62
250
  6
CONTINUOUS
 90
26
 70
0
 10
-3.6529504388
 20
-10.1392025005
 10
-3.6430763451
 20
-10.1449642799
 10
-3.633186002
 20
-10.1508588458
 10
-3.6232830466
 20
-10.1568873998
 10
-3.6133711163
 20
-10.1630511434
 10
-3.6034538483
 20
-10.1693512782
 10
-3.59353488
 20
-10.1757890057
 10
-3.5836178486
 20
-10.1823655277
 10
-3.5737063914
 20
-10.1890820456
 10
-3.5638041457
 20
-10.1959397609
 10
-3.5539147488
 20
-10.2029398754
 10
-3.5440418379
 20
-10.2100835906
 10
-3.5341890505
 20
-10.217372108
 10
-3.5243600237
 20
-10.2248066293
 10
-3.5145583948
 20
-10.2323883559
 10
-3.5047878012
 20
-10.2401184896
 10
-3.49505188
 20
-10.2479982318
 10
-3.4853542687
 20
-10.2560287842
 10
-3.4756986045
 20
-10.2642113483
 10
-3.4660885247
 20
-10.2725471257
 10
-3.4565276665
 20
-10.281037318
 10
-3.4470196673
 20
-10.2896831268
 10
-3.4375681644
 20
-10.2984857536
 10
-3.428176795
 20
-10.3074464
 10
-3.4188491964
 20
-10.3165662676
 10
-3.4095890059
 20
-10.325846558
  0
LWPOLYLINE
  5
23F
100
AcDbEntity
  8
CURVE
100
AcDbPolyline
 62
250
  6
CONTINUOUS
 90
44
 70
0
 10
-3.4095890059
 20
-10.325846558
 10
-3.4034998679
 20
-10.3312713337
 10
-3.3974844904
 20
-10.3368944761
 10
-3.3915420207
 20
-10.3427078298
 10
-3.3856716063
 20
-10.3487032392
 10
-3.3798723944
 20
-10.354872549
 10
-3.3741435326
 20
-10.3612076036
 10
-3.3684841682
 20
-10.3677002475
 10
-3.3628934486
 20
-10.3743423254
 10
-3.3573705212
 20
-10.3811256818
 10
-3.3519145334
 20
-10.3880421611
 10
-3.3465246327
 20
-10.3950836079
 10
-3.3411999664
 20
-10.4022418668
 10
-3.3359396819
 20
-10.4095087823
 10
-3.3307429266
 20
-10.4168761989
 10
-3.3256088479
 20
-10.4243359611
 10
-3.3205365932
 20
-10.4318799135
 10
-3.3155253099
 20
-10.4394999006
 10
-3.3105741455
 20
-10.447187767
 10
-3.3056822472
 20
-10.4549353572
 10
-3.3008487626
 20
-10.4627345156
 10
-3.2960728389
 20
-10.470577087
 10
-3.2913536237
 20
-10.4784549157
 10
-3.2866902642
 20
-10.4863598463
 10
-3.280655043
 20
-10.4967638463
 10
-3.2747202455
 20
-10.5071985925
 10
-3.26889157
 20
-10.5176622023
 10
-3.2631747151
 20
-10.5281527926
 10
-3.257575379
 20
-10.5386684807
 10
-3.2520992602
 20
-10.5492073838
 10
-3.2467520569
 20
-10.5597676188
 10
-3.2415394676
 20
-10.5703473031
 10
-3.2364671908
 20
-10.5809445538
 10
-3.2315409246
 20
-10.5915574879
 10
-3.2267663676
 20
-10.6021842227
 10
-3.222149218
 20
-10.6128228753
 10
-3.2176951744
 20
-10.6234715628
 10
-3.213409935
 20
-10.6341284024
 10
-3.2092991982
 20
-10.6447915113
 10
-3.2053686624
 20
-10.6554590065
 10
-3.201624026
 20
-10.6661290053
 10
-3.1980709874
 20
-10.6767996247
 10
-3.1947152449
 20
-10.687468982
 10
-3.1915624969
 20
-10.6981351942
  0
LWPOLYLINE
  5
240
100
AcDbEntity
  8
CURVE
100
AcDbPolyline
 62
250
  6
CONTINUOUS
 90
43
 70
0
 10
-3.3006975539
 20
-10.0011127884
 10
-3.316781187
 20
-9.9847504749
 10
-3.3330006533
 20
-9.9688502308
 10
-3.3493495722
 20
-9.9533949331
 10
-3.3658215628
 20
-9.9383674593
 10
-3.3824102444
 20
-9.9237506865
 10
-3.3991092364
 20
-9.909527492
 10
-3.4159121579
 20
-9.8956807531
 10
-3.4328126283
 20
-9.8821933469
 10
-3.4498042668
 20
-9.8690481507
 10
-3.4668806926
 20
-9.8562280418
 10
-3.4840355251
 20
-9.8437158973
 10
-3.5012623835
 20
-9.8314945947
 10
-3.518554887
 20
-9.819547011
 10
-3.535906655
 20
-9.8078560235
 10
-3.5533113067
 20
-9.7964045096
 10
-3.5707624613
 20
-9.7851753463
 10
-3.5882537382
 20
-9.7741514111
 10
-3.6057787566
 20
-9.763315581
 10
-3.6233311358
 20
-9.7526507334
 10
-3.6409044949
 20
-9.7421397455
 10
-3.6584924534
 20
-9.7317654946
 10
-3.6744717206
 20
-9.7224548537
 10
-3.6904501592
 20
-9.7132696939
 10
-3.7064201623
 20
-9.7042368468
 10
-3.7223741234
 20
-9.6953831441
 10
-3.7383044355
 20
-9.6867354174
 10
-3.7542034921
 20
-9.6783204983
 10
-3.7700636863
 20
-9.6701652184
 10
-3.7858774113
 20
-9.6622964094
 10
-3.8016370606
 20
-9.6547409028
 10
-3.8173350272
 20
-9.6475255303
 10
-3.8329637045
 20
-9.6406771236
 10
-3.8485154857
 20
-9.6342225142
 10
-3.8639827641
 20
-9.6281885337
 10
-3.8793579329
 20
-9.6226020139
 10
-3.8946333854
 20
-9.6174897863
 10
-3.9098015149
 20
-9.6128786825
 10
-3.9248547146
 20
-9.6087955341
 10
-3.9397853777
 20
-9.6052671729
 10
-3.9545858975
 20
-9.6023204304
 10
-3.9692486673
 20
-9.5999821382
 10
-3.9837660803
 20
-9.5982791279
  0
LWPOLYLINE
  5
241
100
AcDbEntity
  8
ASSI
100
AcDbPolyline
 62
250
  6
CONTINUOUS
 90
9
 70
0
 10
-9.1550658947
 20
3.4088613077
 10
-9.1541342816
 20
3.3913798225
 10
-9.1482818944
 20
3.3616001916
 10
-9.1371645414
 20
3.3324377054
 10
-9.1209184552
 20
3.3041371902
 10
-9.0996987863
 20
3.2769494104
 10
-9.0737123214
 20
3.2511506389
 10
-9.0432448367
 20
3.2270338482
 10
-9.0086193392
 20
3.2048580392
  0
LINE
  5
242
100
AcDbEntity
  8
ASSI
100
AcDbLine
 62
250
  6
CONTINUOUS
 10
-9.0086193392
 20
24.8836889515
 11
-9.0086193392
 21
4.4107475815
  0
LINE
  5
243
100
AcDbEntity
  8
ASSI
100
AcDbLine
 62
250
  6
CONTINUOUS
 10
-9.0086193392
 20
3.2048580392
 11
-9.0086193392
 21
-17.2680833308
  0
LINE
  5
244
100
AcDbEntity
  8
CURVE
100
AcDbLine
 62
7
  6
CONTINUOUS
 10
-2.0533401839
 20
10.8473412395
 11
-1.574512255
 21
11.3261691684
  0
LINE
  5
245
100
AcDbEntity
  8
CURVE
100
AcDbLine
 62
7
  6
CONTINUOUS
 10
-0.8450939384
 20
12.0555874851
 11
-0.6961000535
 21
12.20458137
  0
LINE
  5
246
100
AcDbEntity
  8
CURVE
100
AcDbLine
 62
7
  6
CONTINUOUS
 10
-1.6889229682
 20
10.2161521074
 11
-1.574512255
 21
10.3305628205
  0
LINE
  5
247
100
AcDbEntity
  8
CURVE
100
AcDbLine
 62
7
  6
CONTINUOUS
 10
-0.6179601153
 20
11.2871149602
 11
-0.4167626344
 21
11.4883124411
  0
LINE
  5
248
100
AcDbEntity
  8
CURVE
100
AcDbLine
 62
7
  6
CONTINUOUS
 10
0.0060987567
 20
11.9111738322
 11
0.1642266968
 21
12.0693017724
  0
LINE
  5
249
100
AcDbEntity
  8
CURVE
100
AcDbLine
 62
7
  6
CONTINUOUS
 10
0.5506214745
 20
12.4556965501
 11
0.7032646529
 21
12.6083397284
  0
LINE
  5
24A
100
AcDbEntity
  8
CURVE
100
AcDbLine
 62
7
  6
CONTINUOUS
 10
0.2225340313
 20
11.132002759
 11
0.4124888777
 21
11.3219576053
  0
LINE
  5
24B
100
AcDbEntity
  8
CURVE
100
AcDbLine
 62
7
  6
CONTINUOUS
 10
0.8437593193
 20
11.7532280469
 11
1.007003246
 21
11.9164719736
  0
LINE
  5
24C
100
AcDbEntity
  8
ASSI
100
AcDbLine
 62
7
  6
CONTINUOUS
 10
-8.921323002
 20
3.8322058999
 11
-8.623730068
 21
4.0194323645
  0
LINE
  5
24D
100
AcDbEntity
  8
ASSI
100
AcDbLine
 62
250
  6
CONTINUOUS
 10
-8.6612363061
 20
3.813605611
 11
-8.4726926363
 21
3.9322252444
  0
LWPOLYLINE
  5
24E
100
AcDbEntity
  8
CURVE
100
AcDbPolyline
 62
250
  6
CONTINUOUS
 90
49
 70
0
 10
-0.1070355065
 20
9.2210337001
 10
-0.0598138012
 20
9.2497070019
 10
-0.0141086547
 20
9.2811403188
 10
0.0300201252
 20
9.3152801673
 10
0.0725127309
 20
9.3520730642
 10
0.1133093544
 20
9.3914655261
 10
0.1523501882
 20
9.4334040698
 10
0.1895754243
 20
9.477835212
 10
0.2249252552
 20
9.5247054694
 10
0.258339873
 20
9.5739613587
 10
0.2897594699
 20
9.6255493966
 10
0.3191242383
 20
9.6794160998
 10
0.3463743704
 20
9.735507985
 10
0.3713932568
 20
9.7936038128
 10
0.3942510665
 20
9.853793024
 10
0.4149490477
 20
9.9160094068
 10
0.433488449
 20
9.9801867496
 10
0.4498705186
 20
10.0462588407
 10
0.464096505
 20
10.1141594682
 10
0.4763376353
 20
10.1849140616
 10
0.4863553745
 20
10.2573977001
 10
0.4941485781
 20
10.3315219711
 10
0.4997161021
 20
10.407198462
 10
0.503056802
 20
10.4843387605
 10
0.5041695337
 20
10.5628544539
 10
0.503054054
 20
10.6426383599
 10
0.4997116646
 20
10.7236189738
 10
0.4941435403
 20
10.8057066149
 10
0.4863508558
 20
10.8888116024
 10
0.4763347858
 20
10.9728442553
 10
0.464096505
 20
11.0577148929
 10
0.4498687161
 20
11.1420559852
 10
0.4334848789
 20
11.2270583757
 10
0.4149442596
 20
11.3126572015
 10
0.3942461243
 20
11.3987875997
 10
0.3713897392
 20
11.4853847074
 10
0.3463743704
 20
11.5723836618
 10
0.3191196321
 20
11.6599879421
 10
0.2897512107
 20
11.7478090582
 10
0.2583288793
 20
11.8357247183
 10
0.2249124108
 20
11.9236126311
 10
0.1895615784
 20
12.0113505047
 10
0.152336155
 20
12.0988160477
 10
0.1132959137
 20
12.1858869684
 10
0.0725006275
 20
12.2724409752
 10
0.0300100693
 20
12.3583557765
 10
-0.0141159878
 20
12.4435090806
 10
-0.0598177707
 20
12.5277785961
 10
-0.1070355065
 20
12.6110420313
  0
LWPOLYLINE
  5
24F
100
AcDbEntity
  8
CURVE
100
AcDbPolyline
 62
250
  6
CONTINUOUS
 90
49
 70
0
 10
-0.7238434625
 20
10.2882512902
 10
-0.6963135676
 20
10.3047936651
 10
-0.6696626295
 20
10.322942688
 10
-0.6439260688
 20
10.3426678145
 10
-0.6191393061
 20
10.3639385002
 10
-0.5953377618
 20
10.3867242009
 10
-0.5725568565
 20
10.4109943722
 10
-0.5508320106
 20
10.4367184698
 10
-0.5301986448
 20
10.4638659494
 10
-0.5106921794
 20
10.4924062667
 10
-0.492348035
 20
10.5223088773
 10
-0.4752016321
 20
10.553543237
 10
-0.4592883913
 20
10.5860788014
 10
-0.4446933463
 20
10.6197472596
 10
-0.4313567204
 20
10.654637937
 10
-0.4192783817
 20
10.6907124403
 10
-0.4084581984
 20
10.7279323762
 10
-0.3988960386
 20
10.7662593517
 10
-0.3905917706
 20
10.8056549735
 10
-0.3834497724
 20
10.8466900304
 10
-0.3776042818
 20
10.8887346624
 10
-0.3730562133
 20
10.9317372017
 10
-0.3698064816
 20
10.9756459804
 10
-0.3678560013
 20
11.0204093309
 10
-0.367205687
 20
11.0659755854
 10
-0.3678559892
 20
11.1122862324
 10
-0.3698062468
 20
11.1592952583
 10
-0.3730557067
 20
11.2069500208
 10
-0.377603616
 20
11.2551978778
 10
-0.3834492217
 20
11.3039861867
 10
-0.3905917706
 20
11.3532623053
 10
-0.3988963066
 20
11.4022370806
 10
-0.4084588911
 20
11.4515958107
 10
-0.419279458
 20
11.5013000659
 10
-0.4313579411
 20
11.5513114169
 10
-0.4446942742
 20
11.6015914339
 10
-0.4592883913
 20
11.6521016876
 10
-0.4752063614
 20
11.7030204099
 10
-0.4923574158
 20
11.7540614302
 10
-0.5107058993
 20
11.8051535586
 10
-0.5302161568
 20
11.8562256052
 10
-0.5508525332
 20
11.90720638
 10
-0.5725793732
 20
11.9580246933
 10
-0.5953610218
 20
12.008609355
 10
-0.6191618238
 20
12.0588891753
 10
-0.643946124
 20
12.1087929643
 10
-0.6696782673
 20
12.158249532
 10
-0.6963225985
 20
12.2071876887
 10
-0.7238434625
 20
12.2555362444
  0
LWPOLYLINE
  5
250
100
AcDbEntity
  8
CURVE
100
AcDbPolyline
 62
250
  6
CONTINUOUS
 90
67
 70
0
 10
0.0632444151
 20
-15.2985401084
 10
0.0647696397
 20
-15.3011103887
 10
0.0663621562
 20
-15.3036559527
 10
0.068018729
 20
-15.3061737519
 10
0.0697361227
 20
-15.3086607375
 10
0.0715111016
 20
-15.3111138606
 10
0.0733404302
 20
-15.3135300725
 10
0.075220873
 20
-15.3159063244
 10
0.0771491944
 20
-15.3182395676
 10
0.0791221589
 20
-15.3205267533
 10
0.081136531
 20
-15.3227648327
 10
0.0831890751
 20
-15.324950757
 10
0.0852765556
 20
-15.3270814774
 10
0.0873957371
 20
-15.3291539453
 10
0.0895433839
 20
-15.3311651118
 10
0.0917162606
 20
-15.3331119282
 10
0.0939111316
 20
-15.3349913456
 10
0.0961247613
 20
-15.3368003154
 10
0.0983539143
 20
-15.3385357887
 10
0.1005953549
 20
-15.3401947167
 10
0.1028458476
 20
-15.3417740508
 10
0.105102157
 20
-15.3432707421
 10
0.1073610474
 20
-15.3446817418
 10
0.1096192832
 20
-15.3460040012
 10
0.1118736291
 20
-15.3472344716
 10
0.1141208494
 20
-15.3483701041
 10
0.1163577085
 20
-15.3494078499
 10
0.118580971
 20
-15.3503446604
 10
0.1207874013
 20
-15.3511774866
 10
0.1229737638
 20
-15.35190328
 10
0.1251368231
 20
-15.3525189916
 10
0.1272733435
 20
-15.3530215727
 10
0.1293800896
 20
-15.3534079746
 10
0.1314538257
 20
-15.3536751484
 10
0.1334964052
 20
-15.3538211849
 10
0.1355009882
 20
-15.3538469464
 10
0.1374659968
 20
-15.3537550182
 10
0.1393898529
 20
-15.3535479855
 10
0.1412709784
 20
-15.3532284335
 10
0.1431077953
 20
-15.3527989474
 10
0.1448987256
 20
-15.3522621125
 10
0.1466421912
 20
-15.351620514
 10
0.148336614
 20
-15.350876737
 10
0.1499804161
 20
-15.3500333669
 10
0.1515720193
 20
-15.3490929888
 10
0.1531098457
 20
-15.348058188
 10
0.1545923172
 20
-15.3469315496
 10
0.1560178557
 20
-15.345715659
 10
0.1573848832
 20
-15.3444131012
 10
0.1586918217
 20
-15.3430264616
 10
0.159937093
 20
-15.3415583254
 10
0.1611191193
 20
-15.3400112778
 10
0.1622363223
 20
-15.3383879039
 10
0.1632871242
 20
-15.3366907891
 10
0.1642699468
 20
-15.3349225186
 10
0.165183212
 20
-15.3330856775
 10
0.1660253419
 20
-15.331182851
 10
0.1667947584
 20
-15.3292166245
 10
0.1674898835
 20
-15.3271895832
 10
0.1681091391
 20
-15.3251043121
 10
0.1686509471
 20
-15.3229633967
 10
0.1691137296
 20
-15.320769422
 10
0.1694959084
 20
-15.3185249734
 10
0.1697959056
 20
-15.316232636
 10
0.1700121431
 20
-15.313894995
 10
0.1701430428
 20
-15.3115146357
 10
0.1701870267
 20
-15.3090941433
  0
LINE
  5
251
100
AcDbEntity
  8
CURVE
100
AcDbLine
 62
250
  6
CONTINUOUS
 10
-0.7645255039
 20
-13.8648005533
 11
0.0632444151
 21
-15.2985401084
  0
LWPOLYLINE
  5
252
100
AcDbEntity
  8
CURVE
100
AcDbPolyline
 62
250
  6
CONTINUOUS
 90
15
 70
0
 10
-4.1158000109
 20
-12.343019628
 10
-4.1208476785
 20
-12.3282397328
 10
-4.1256566749
 20
-12.3134759481
 10
-4.1302393602
 20
-12.298728472
 10
-4.1346080943
 20
-12.2839975027
 10
-4.1387752374
 20
-12.2692832383
 10
-4.1427531496
 20
-12.254585877
 10
-4.1465541908
 20
-12.239905617
 10
-4.1501907212
 20
-12.2252426563
 10
-4.1536751008
 20
-12.2105971932
 10
-4.1570196897
 20
-12.1959694258
 10
-4.160236848
 20
-12.1813595523
 10
-4.1633389357
 20
-12.1667677708
 10
-4.1663383128
 20
-12.1521942794
 10
-4.1692473396
 20
-12.1376392764
  0
LWPOLYLINE
  5
253
100
AcDbEntity
  8
CURVE
100
AcDbPolyline
 62
250
  6
CONTINUOUS
 90
43
 70
0
 10
-4.4383330811
 20
-12.3227493413
 10
-4.4323991674
 20
-12.34315697
 10
-4.4260739036
 20
-12.3635899887
 10
-4.4193669129
 20
-12.3840415883
 10
-4.4122878185
 20
-12.4045049596
 10
-4.4048462437
 20
-12.4249732933
 10
-4.3970518117
 20
-12.4454397803
 10
-4.3889141457
 20
-12.4658976112
 10
-4.380442869
 20
-12.4863399769
 10
-4.3716476048
 20
-12.5067600682
 10
-4.3625379763
 20
-12.5271510759
 10
-4.3531236067
 20
-12.5475061906
 10
-4.3434141193
 20
-12.5678186033
 10
-4.3334191373
 20
-12.5880815046
 10
-4.323148284
 20
-12.6082880854
 10
-4.3126111825
 20
-12.6284315364
 10
-4.301817456
 20
-12.6485050485
 10
-4.290776728
 20
-12.6685018123
 10
-4.2794986214
 20
-12.6884150187
 10
-4.2679927597
 20
-12.7082378585
 10
-4.2562687659
 20
-12.7279635224
 10
-4.246391201
 20
-12.7442341161
 10
-4.2363710922
 20
-12.7604176294
 10
-4.226209165
 20
-12.7764984314
 10
-4.2159061452
 20
-12.7924608916
 10
-4.2054627584
 20
-12.8082893792
 10
-4.1948797301
 20
-12.8239682634
 10
-4.184157786
 20
-12.8394819137
 10
-4.1732976519
 20
-12.8548146991
 10
-4.1623000532
 20
-12.8699509891
 10
-4.1511657156
 20
-12.884875153
 10
-4.1398953648
 20
-12.8995715599
 10
-4.1284897264
 20
-12.9140245792
 10
-4.1169495261
 20
-12.9282185803
 10
-4.1052754894
 20
-12.9421379323
 10
-4.093468342
 20
-12.9557670045
 10
-4.0815288095
 20
-12.9690901663
 10
-4.0694576176
 20
-12.9820917869
 10
-4.057255492
 20
-12.9947562357
 10
-4.0449231581
 20
-13.0070678818
 10
-4.0324613417
 20
-13.0190110946
 10
-4.0198707685
 20
-13.0305702434
 10
-4.007152164
 20
-13.0417296975
  0
LINE
  5
254
100
AcDbEntity
  8
CURVE
100
AcDbLine
 62
7
  6
CONTINUOUS
 10
0.1510547743
 20
10.064917154
 11
0.497611989
 21
10.4114743687
  0
LINE
  5
255
100
AcDbEntity
  8
CURVE
100
AcDbLine
 62
7
  6
CONTINUOUS
 10
1.052934301
 20
10.9667966807
 11
1.2410734961
 21
11.1549358758
  0
LINE
  5
256
100
AcDbEntity
  8
CURVE
100
AcDbLine
 62
7
  6
CONTINUOUS
 10
1.1212268565
 20
10.0394828883
 11
1.3665039028
 21
10.2847599346
  0
LINE
  5
257
100
AcDbEntity
  8
CURVE
100
AcDbLine
 62
7
  6
CONTINUOUS
 10
0.4076237746
 20
8.3302734585
 11
1.2593209476
 21
9.1819706315
  0
LWPOLYLINE
  5
258
100
AcDbEntity
  8
CURVE
100
AcDbPolyline
 62
250
  6
CONTINUOUS
 90
49
 70
0
 10
0.5092852395
 20
8.1535348553
 10
0.5762502465
 20
8.1943704536
 10
0.6410598399
 20
8.2391214275
 10
0.7036298834
 20
8.287711283
 10
0.7638762407
 20
8.340063526
 10
0.8217147755
 20
8.3961016624
 10
0.8770613514
 20
8.4557491981
 10
0.9298318319
 20
8.5189296389
 10
0.9799420809
 20
8.5855664907
 10
1.0273079619
 20
8.6555832596
 10
1.0718453385
 20
8.7289034512
 10
1.1134700745
 20
8.8054505716
 10
1.1520980334
 20
8.8851481266
 10
1.1875618404
 20
8.9676752279
 10
1.219963825
 20
9.053165561
 10
1.2493054456
 20
9.1415260098
 10
1.275588161
 20
9.2326634581
 10
1.2988134295
 20
9.3264847897
 10
1.3189827097
 20
9.4228968884
 10
1.336330802
 20
9.5233073987
 10
1.3505296413
 20
9.6261664447
 10
1.3615770223
 20
9.7313492604
 10
1.3694707393
 20
9.8387310801
 10
1.3742085869
 20
9.9481871379
 10
1.3757883595
 20
10.0595926678
 10
1.3742085869
 20
10.1728224796
 10
1.3694707393
 20
10.2877496849
 10
1.3615770223
 20
10.4042469712
 10
1.3505296413
 20
10.5221870255
 10
1.336330802
 20
10.6414425353
 10
1.3189827097
 20
10.7618861877
 10
1.2988134295
 20
10.8815892657
 10
1.275588161
 20
11.0022305552
 10
1.2493054456
 20
11.1237186243
 10
1.219963825
 20
11.2459620412
 10
1.1875618404
 20
11.3688693739
 10
1.1520980334
 20
11.4923491905
 10
1.1134700745
 20
11.6166533443
 10
1.0718453385
 20
11.7412676664
 10
1.0273079619
 20
11.8660185043
 10
0.9799420809
 20
11.9907322052
 10
0.9298318319
 20
12.1152351165
 10
0.8770613514
 20
12.2393535855
 10
0.8217147755
 20
12.3629139597
 10
0.7638762407
 20
12.4857425862
 10
0.7036298834
 20
12.6076658125
 10
0.6410598399
 20
12.728509986
 10
0.5762502465
 20
12.8481014539
 10
0.5092852395
 20
12.9662665635
  0
LINE
  5
259
100
AcDbEntity
  8
CURVE
100
AcDbLine
 62
250
  6
CONTINUOUS
 10
1.0208558192
 20
-15.2135057945
 11
0.8469218221
 21
-14.9094304566
  0
LWPOLYLINE
  5
25A
100
AcDbEntity
  8
CURVE
100
AcDbPolyline
 62
250
  6
CONTINUOUS
 90
49
 70
0
 10
0.8469218221
 20
-13.3494415581
 10
0.8687733342
 20
-13.3877875306
 10
0.8899292632
 20
-13.4266031422
 10
0.910361149
 20
-13.4658317346
 10
0.9300405315
 20
-13.5054166497
 10
0.9489389506
 20
-13.5453012291
 10
0.9670279464
 20
-13.5854288146
 10
0.9842790587
 20
-13.6257427479
 10
1.0006638275
 20
-13.6661863708
 10
1.0161537927
 20
-13.7067030249
 10
1.0307204942
 20
-13.7472360521
 10
1.044335472
 20
-13.787728794
 10
1.0569702661
 20
-13.8281245924
 10
1.068547449
 20
-13.8681771731
 10
1.079125836
 20
-13.9080471096
 10
1.0887055585
 20
-13.94770388
 10
1.0972867482
 20
-13.9871169622
 10
1.1048695366
 20
-14.0262558343
 10
1.1114540554
 20
-14.0650899743
 10
1.1171163522
 20
-14.1041605486
 10
1.1217500335
 20
-14.1428441484
 10
1.1253547129
 20
-14.18109916
 10
1.1279300041
 20
-14.2188839701
 10
1.1294755207
 20
-14.2561569651
 10
1.1299908762
 20
-14.2928765315
 10
1.1294754951
 20
-14.3290140982
 10
1.1279295322
 20
-14.3645152357
 10
1.1253536971
 20
-14.3993389864
 10
1.1217486996
 20
-14.433444393
 10
1.1171152491
 20
-14.4667904977
 10
1.1114540554
 20
-14.4993363431
 10
1.1048700757
 20
-14.5305882787
 10
1.0972881399
 20
-14.5609924931
 10
1.0887077196
 20
-14.5905182325
 10
1.0791282861
 20
-14.619134743
 10
1.0685493112
 20
-14.6468112707
 10
1.0569702661
 20
-14.6735170617
 10
1.0443449244
 20
-14.6993195586
 10
1.0307392428
 20
-14.7240879743
 10
1.0161812126
 20
-14.7477974579
 10
1.000698825
 20
-14.7704231585
 10
0.9843200715
 20
-14.791940225
 10
0.9670729434
 20
-14.8123238065
 10
0.948985432
 20
-14.831549052
 10
0.9300855286
 20
-14.8495911106
 10
0.9104012246
 20
-14.8664251314
 10
0.8899605113
 20
-14.8820262633
 10
0.86879138
 20
-14.8963696553
 10
0.8469218221
 20
-14.9094304566
  0
LWPOLYLINE
  5
25B
100
AcDbEntity
  8
CURVE
100
AcDbPolyline
 62
250
  6
CONTINUOUS
 90
15
 70
0
 10
-3.1915624969
 20
-10.6981351942
 10
-3.1864451998
 20
-10.7130449847
 10
-3.1815633336
 20
-10.7279398468
 10
-3.1769050469
 20
-10.7428195106
 10
-3.1724584885
 20
-10.7576837062
 10
-3.168211807
 20
-10.7725321638
 10
-3.164153151
 20
-10.7873646134
 10
-3.1602706693
 20
-10.8021807851
 10
-3.1565525104
 20
-10.8169804091
 10
-3.152986823
 20
-10.8317632155
 10
-3.1495617557
 20
-10.8465289344
 10
-3.1462654573
 20
-10.8612772959
 10
-3.1430860764
 20
-10.8760080301
 10
-3.1400117616
 20
-10.8907208672
 10
-3.1370306616
 20
-10.9054155371
  0
LWPOLYLINE
  5
25C
100
AcDbEntity
  8
CURVE
100
AcDbPolyline
 62
250
  6
CONTINUOUS
 90
43
 70
0
 10
-2.8690294267
 20
-10.7184054809
 10
-2.8749185666
 20
-10.698113746
 10
-2.8812033167
 20
-10.6777960836
 10
-2.8878736217
 20
-10.6574594413
 10
-2.8949194264
 20
-10.6371107664
 10
-2.9023306754
 20
-10.6167570064
 10
-2.9100973137
 20
-10.5964051087
 10
-2.9182092859
 20
-10.5760620208
 10
-2.9266565369
 20
-10.55573469
 10
-2.9354290113
 20
-10.5354300639
 10
-2.9445166539
 20
-10.5151550898
 10
-2.9539094095
 20
-10.4949167152
 10
-2.9635972229
 20
-10.4747218875
 10
-2.9735700387
 20
-10.4545775542
 10
-2.9838178019
 20
-10.4344906626
 10
-2.994330457
 20
-10.4144681603
 10
-3.005097949
 20
-10.3945169947
 10
-3.0161102225
 20
-10.3746441131
 10
-3.0273572223
 20
-10.3548564631
 10
-3.0388288932
 20
-10.335160992
 10
-3.05051518
 20
-10.3155646474
 10
-3.0604471137
 20
-10.2992586927
 10
-3.0705213521
 20
-10.283042256
 10
-3.080737121
 20
-10.2669306622
 10
-3.0910936458
 20
-10.2509392364
 10
-3.1015901522
 20
-10.2350833035
 10
-3.1122258658
 20
-10.2193781886
 10
-3.1230000122
 20
-10.2038392166
 10
-3.1339118169
 20
-10.1884817125
 10
-3.1449605057
 20
-10.1733210014
 10
-3.1561453041
 20
-10.1583724082
 10
-3.1674654377
 20
-10.143651258
 10
-3.1789201321
 20
-10.1291728757
 10
-3.1905086129
 20
-10.1149525863
 10
-3.2022301057
 20
-10.1010057149
 10
-3.2140838362
 20
-10.0873475863
 10
-3.2260690299
 20
-10.0739935257
 10
-3.2381849124
 20
-10.0609588581
 10
-3.2504307094
 20
-10.0482589083
 10
-3.2628056465
 20
-10.0359090014
 10
-3.2753089492
 20
-10.0239244625
 10
-3.2879398431
 20
-10.0123206165
 10
-3.3006975539
 20
-10.0011127884
  0
LWPOLYLINE
  5
25D
100
AcDbEntity
  8
CURVE
100
AcDbPolyline
 62
250
  6
CONTINUOUS
 90
17
 70
0
 10
-4.1692473396
 20
-12.1376392764
 10
-4.174843782
 20
-12.1085855279
 10
-4.1779074692
 20
-12.0921643227
 10
-4.1808890699
 20
-12.0757746317
 10
-4.1837748565
 20
-12.0594234814
 10
-4.186551101
 20
-12.0431178983
 10
-4.1892040758
 20
-12.0268649087
 10
-4.191720053
 20
-12.0106715391
 10
-4.1940853049
 20
-11.9945448159
 10
-4.1962861037
 20
-11.9784917655
 10
-4.1983087216
 20
-11.9625194145
 10
-4.2001394308
 20
-11.9466347891
 10
-4.2017645036
 20
-11.9308449159
 10
-4.2031702122
 20
-11.9151568213
 10
-4.2043428288
 20
-11.8995775317
 10
-4.2052686257
 20
-11.8841140734
 10
-4.2059338749
 20
-11.8687734731
  0
LWPOLYLINE
  5
25E
100
AcDbEntity
  8
CURVE
100
AcDbPolyline
 62
250
  6
CONTINUOUS
 90
19
 70
0
 10
-3.1004542127
 20
-11.1737878126
 10
-3.0960213388
 20
-11.234750725
 10
-3.0923876083
 20
-11.2953301101
 10
-3.0894295128
 20
-11.3555780186
 10
-3.0870235442
 20
-11.4155465012
 10
-3.0850461941
 20
-11.4752876086
 10
-3.0826355637
 20
-11.5665567013
 10
-3.0809277464
 20
-11.6574309931
 10
-3.0798475134
 20
-11.7551835361
 10
-3.0795041795
 20
-11.8525219805
 10
-3.0798528652
 20
-11.949396863
 10
-3.0809353591
 20
-12.0458372171
 10
-3.0826588306
 20
-12.135340566
 10
-3.0851070953
 20
-12.2244113762
 10
-3.0871902177
 20
-12.2840053351
 10
-3.0897149551
 20
-12.3433233493
 10
-3.0927815641
 20
-12.4022909849
 10
-3.0964903011
 20
-12.4608338077
 10
-3.1009414228
 20
-12.5188773838
  0
LWPOLYLINE
  5
25F
100
AcDbEntity
  8
CURVE
100
AcDbPolyline
 62
250
  6
CONTINUOUS
 90
19
 70
0
 10
-4.2059338749
 20
-11.8687734731
 10
-4.2102680616
 20
-11.8076931255
 10
-4.2138227806
 20
-11.7469887414
 10
-4.2167177125
 20
-11.686609507
 10
-4.2190725377
 20
-11.6265046083
 10
-4.2210069367
 20
-11.5666232316
 10
-4.2233535146
 20
-11.475496363
 10
-4.2250150008
 20
-11.3847545424
 10
-4.2260644311
 20
-11.287335961
 10
-4.2263966981
 20
-11.1903206142
 10
-4.2260462454
 20
-11.093275235
 10
-4.2249579059
 20
-10.9966669608
 10
-4.2232167072
 20
-10.9070287295
 10
-4.220732881
 20
-10.817833498
 10
-4.2186082718
 20
-10.7580476362
 10
-4.2160252432
 20
-10.6985485657
 10
-4.2128784555
 20
-10.6394149592
 10
-4.2090625692
 20
-10.5807254894
 10
-4.2044722447
 20
-10.522558829
  0
LWPOLYLINE
  5
260
100
AcDbEntity
  8
CURVE
100
AcDbPolyline
 62
250
  6
CONTINUOUS
 90
32
 70
0
 10
-4.5584303648
 20
-11.6916869074
 10
-4.5576574295
 20
-11.7121111173
 10
-4.5565416559
 20
-11.7327014044
 10
-4.5550992348
 20
-11.7534487475
 10
-4.5533463567
 20
-11.7743441253
 10
-4.5512992125
 20
-11.7953785167
 10
-4.5489739928
 20
-11.8165429004
 10
-4.5463868883
 20
-11.8378282552
 10
-4.5435540897
 20
-11.8592255599
 10
-4.5404917877
 20
-11.8807257932
 10
-4.5372161729
 20
-11.9023199338
 10
-4.5337434362
 20
-11.9239989606
 10
-4.5300897681
 20
-11.9457538524
 10
-4.5262713594
 20
-11.9675755879
 10
-4.5223044008
 20
-11.9894551458
 10
-4.5182050829
 20
-12.011383505
 10
-4.5145081817
 20
-12.0306556392
 10
-4.5107071725
 20
-12.0499574175
 10
-4.5067873612
 20
-12.0692878656
 10
-4.5027340539
 20
-12.0886460092
 10
-4.4985325568
 20
-12.108030874
 10
-4.4941681757
 20
-12.1274414858
 10
-4.4896262168
 20
-12.1468768702
 10
-4.4848919861
 20
-12.166336053
 10
-4.4799507897
 20
-12.1858180598
 10
-4.4747879336
 20
-12.2053219165
 10
-4.4693887237
 20
-12.2248466486
 10
-4.4637384663
 20
-12.2443912819
 10
-4.4578224673
 20
-12.2639548421
 10
-4.4516260327
 20
-12.283536355
 10
-4.4451344687
 20
-12.3031348461
 10
-4.4383330811
 20
-12.3227493413
  0
LINE
  5
261
100
AcDbEntity
  8
CURVE
100
AcDbLine
 62
250
  6
CONTINUOUS
 10
-4.5818161822
 20
11.6950158589
 11
-4.5818161822
 21
15.2881096766
  0
LINE
  5
262
100
AcDbEntity
  8
CURVE
100
AcDbLine
 62
250
  6
CONTINUOUS
 10
-4.2281022784
 20
15.0838797016
 11
-4.2281022784
 21
11.4907858839
  0
LWPOLYLINE
  5
263
100
AcDbEntity
  8
CURVE
100
AcDbPolyline
 62
250
  6
CONTINUOUS
 90
32
 70
0
 10
-4.2044722447
 20
-10.522558829
 10
-4.2040387153
 20
-10.5094198573
 10
-4.2033438118
 20
-10.4964548244
 10
-4.2024010097
 20
-10.4836558458
 10
-4.2012237842
 20
-10.4710150367
 10
-4.1998256108
 20
-10.4585245126
 10
-4.198219965
 20
-10.4461763887
 10
-4.1964203221
 20
-10.4339627804
 10
-4.1944401575
 20
-10.4218758031
 10
-4.1922929466
 20
-10.409907572
 10
-4.1899921648
 20
-10.3980502027
 10
-4.1875512876
 20
-10.3862958103
 10
-4.1849837903
 20
-10.3746365103
 10
-4.1823031484
 20
-10.363064418
 10
-4.1795228372
 20
-10.3515716487
 10
-4.1766563322
 20
-10.3401503178
 10
-4.1737171087
 20
-10.3287925406
 10
-4.1702828179
 20
-10.3158911256
 10
-4.1667595014
 20
-10.30307579
 10
-4.1631354283
 20
-10.2903599818
 10
-4.1593988675
 20
-10.2777571486
 10
-4.1555380879
 20
-10.2652807382
 10
-4.1515413587
 20
-10.2529441986
 10
-4.1473969487
 20
-10.2407609774
 10
-4.1430931269
 20
-10.2287445225
 10
-4.1386181623
 20
-10.2169082817
 10
-4.133960324
 20
-10.2052657027
 10
-4.1291078808
 20
-10.1938302335
 10
-4.1240491018
 20
-10.1826153216
 10
-4.1187722559
 20
-10.1716344151
 10
-4.1132656122
 20
-10.1609009616
 10
-4.1075174396
 20
-10.1504284089
  0
LWPOLYLINE
  5
264
100
AcDbEntity
  8
CURVE
100
AcDbPolyline
 62
250
  6
CONTINUOUS
 90
21
 70
0
 10
-4.5572123396
 20
-10.2932944747
 10
-4.5613315989
 20
-10.3428107249
 10
-4.5648188075
 20
-10.3927554125
 10
-4.5677526631
 20
-10.4430711846
 10
-4.5702118632
 20
-10.4937006882
 10
-4.5722751054
 20
-10.5445865705
 10
-4.5740210873
 20
-10.5956714787
 10
-4.576652
 20
-10.6926245322
 10
-4.5784743147
 20
-10.7900547485
 10
-4.5795316459
 20
-10.8879331954
 10
-4.5798676082
 20
-10.9862309407
 10
-4.5795187092
 20
-11.0842020582
 10
-4.5784727981
 20
-11.1825725793
 10
-4.576700725
 20
-11.2813572386
 10
-4.5741733404
 20
-11.380570771
 10
-4.5725519711
 20
-11.4319186942
 10
-4.5706395123
 20
-11.4834205778
 10
-4.5683535432
 20
-11.5351123813
 10
-4.5656116428
 20
-11.5870300644
 10
-4.5623313903
 20
-11.6392095866
 10
-4.5584303648
 20
-11.6916869074
  0
LWPOLYLINE
  5
265
100
AcDbEntity
  8
CURVE
100
AcDbPolyline
 62
250
  6
CONTINUOUS
 90
17
 70
0
 10
-3.1370306616
 20
-10.9054155371
 10
-3.1313007007
 20
-10.9347492963
 10
-3.1282049216
 20
-10.9511364983
 10
-3.1251957108
 20
-10.9674922837
 10
-3.1222873551
 20
-10.9838090244
 10
-3.1194941413
 20
-11.0000790925
 10
-3.1168303564
 20
-11.0162948597
 10
-3.1143102873
 20
-11.0324486981
 10
-3.1119482209
 20
-11.0485329796
 10
-3.109758444
 20
-11.064540076
 10
-3.1077552436
 20
-11.0804623593
 10
-3.1059529065
 20
-11.0962922015
 10
-3.1043657197
 20
-11.1120219745
 10
-3.10300797
 20
-11.1276440501
 10
-3.1018939443
 20
-11.1431508004
 10
-3.1010379296
 20
-11.1585345973
 10
-3.1004542127
 20
-11.1737878126
  0
LWPOLYLINE
  5
266
100
AcDbEntity
  8
CURVE
100
AcDbPolyline
 62
250
  6
CONTINUOUS
 90
32
 70
0
 10
-2.7479577228
 20
-11.3517182236
 10
-2.7486548915
 20
-11.3313719787
 10
-2.7497065409
 20
-11.3108522526
 10
-2.7510957558
 20
-11.2901686732
 10
-2.7528056213
 20
-11.2693308682
 10
-2.7548192226
 20
-11.2483484654
 10
-2.7571196444
 20
-11.2272310928
 10
-2.759689972
 20
-11.2059883781
 10
-2.7625132903
 20
-11.1846299491
 10
-2.7655726843
 20
-11.1631654337
 10
-2.7688512391
 20
-11.1416044597
 10
-2.7723320396
 20
-11.1199566548
 10
-2.7759981709
 20
-11.098231647
 10
-2.779832718
 20
-11.0764390641
 10
-2.7838187659
 20
-11.0545885337
 10
-2.7879393997
 20
-11.0326896839
 10
-2.7916976699
 20
-11.0132324003
 10
-2.7955629974
 20
-10.9937456848
 10
-2.799549866
 20
-10.9742305446
 10
-2.8036727591
 20
-10.9546879874
 10
-2.8079461604
 20
-10.9351190206
 10
-2.8123845535
 20
-10.9155246515
 10
-2.8170024221
 20
-10.8959058878
 10
-2.8218142496
 20
-10.8762637367
 10
-2.8268345197
 20
-10.8565992058
 10
-2.8320777161
 20
-10.8369133026
 10
-2.8375583223
 20
-10.8172070345
 10
-2.8432908219
 20
-10.7974814089
 10
-2.8492896985
 20
-10.7777374333
 10
-2.8555694358
 20
-10.7579761151
 10
-2.8621445173
 20
-10.7381984618
 10
-2.8690294267
 20
-10.7184054809
  0
LWPOLYLINE
  5
267
100
AcDbEntity
  8
CURVE
100
AcDbPolyline
 62
250
  6
CONTINUOUS
 90
55
 70
0
 10
-3.2960690582
 20
12.1635599771
 10
-3.2960352443
 20
12.161643271
 10
-3.2959347342
 20
12.1596811622
 10
-3.2957689252
 20
12.1576760709
 10
-3.2955392149
 20
12.1556304177
 10
-3.2952470007
 20
12.1535466229
 10
-3.29489368
 20
12.151427107
 10
-3.2944806501
 20
12.1492742904
 10
-3.2940093086
 20
12.1470905934
 10
-3.2934810529
 20
12.1448784365
 10
-3.2928972804
 20
12.1426402401
 10
-3.2922593884
 20
12.1403784246
 10
-3.2915687745
 20
12.1380954104
 10
-3.2908268361
 20
12.135793618
 10
-3.2900349705
 20
12.1334754677
 10
-3.2891945753
 20
12.13114338
 10
-3.2883070478
 20
12.1287997753
 10
-3.2873737855
 20
12.1264470739
 10
-3.2863961858
 20
12.1240876963
 10
-3.2853756461
 20
12.121724063
 10
-3.2843135638
 20
12.1193585942
 10
-3.2832113364
 20
12.1169937105
 10
-3.2820703613
 20
12.1146318323
 10
-3.2808920359
 20
12.1122753799
 10
-3.2796777577
 20
12.1099267737
 10
-3.278428924
 20
12.1075884342
 10
-3.2771469323
 20
12.1052627819
 10
-3.2758331801
 20
12.102952237
 10
-3.2744890647
 20
12.1006592201
 10
-3.2731159835
 20
12.0983861514
 10
-3.2717153341
 20
12.0961354515
 10
-3.2702885138
 20
12.0939095408
 10
-3.26883692
 20
12.0917108396
 10
-3.2673619502
 20
12.0895417684
 10
-3.2658650018
 20
12.0874047476
 10
-3.2643474723
 20
12.0853021976
 10
-3.262810759
 20
12.0832365388
 10
-3.2612562593
 20
12.0812101917
 10
-3.2596853708
 20
12.0792255765
 10
-3.2580994908
 20
12.0772851138
 10
-3.2565000168
 20
12.075391224
 10
-3.2548883461
 20
12.0735463274
 10
-3.2532658762
 20
12.0717528446
 10
-3.2516340046
 20
12.0700131958
 10
-3.2499941286
 20
12.0683298015
 10
-3.2483476457
 20
12.0667050822
 10
-3.2466959533
 20
12.0651414582
 10
-3.2450404488
 20
12.0636413499
 10
-3.2433825297
 20
12.0622071778
 10
-3.2417235934
 20
12.0608413622
 10
-3.2400650373
 20
12.0595463236
 10
-3.2384082588
 20
12.0583244825
 10
-3.2367546554
 20
12.0571782591
 10
-3.2351056245
 20
12.0561100739
 10
-3.2334625635
 20
12.0551223474
  0
LWPOLYLINE
  5
268
100
AcDbEntity
  8
CURVE
100
AcDbPolyline
 62
250
  6
CONTINUOUS
 90
55
 70
0
 10
-1.5511261714
 20
-13.3383377621
 10
-1.5510923575
 20
-13.3402544681
 10
-1.5509918474
 20
-13.342216577
 10
-1.5508260384
 20
-13.3442216682
 10
-1.5505963281
 20
-13.3462673214
 10
-1.5503041139
 20
-13.3483511162
 10
-1.5499507932
 20
-13.3504706321
 10
-1.5495377633
 20
-13.3526234488
 10
-1.5490664218
 20
-13.3548071458
 10
-1.5485381661
 20
-13.3570193027
 10
-1.5479543935
 20
-13.3592574991
 10
-1.5473165016
 20
-13.3615193146
 10
-1.5466258877
 20
-13.3638023287
 10
-1.5458839493
 20
-13.3661041211
 10
-1.5450920837
 20
-13.3684222714
 10
-1.5442516885
 20
-13.3707543591
 10
-1.543364161
 20
-13.3730979639
 10
-1.5424308987
 20
-13.3754506653
 10
-1.541453299
 20
-13.3778100428
 10
-1.5404327593
 20
-13.3801736762
 10
-1.539370677
 20
-13.3825391449
 10
-1.5382684496
 20
-13.3849040286
 10
-1.5371274745
 20
-13.3872659069
 10
-1.5359491491
 20
-13.3896223593
 10
-1.5347348709
 20
-13.3919709655
 10
-1.5334860372
 20
-13.3943093049
 10
-1.5322040455
 20
-13.3966349573
 10
-1.5308902933
 20
-13.3989455022
 10
-1.5295461779
 20
-13.4012385191
 10
-1.5281730967
 20
-13.4035115877
 10
-1.5267724473
 20
-13.4057622876
 10
-1.525345627
 20
-13.4079881984
 10
-1.5238940332
 20
-13.4101868995
 10
-1.5224190634
 20
-13.4123559707
 10
-1.520922115
 20
-13.4144929915
 10
-1.5194045855
 20
-13.4165955415
 10
-1.5178678722
 20
-13.4186612003
 10
-1.5163133725
 20
-13.4206875475
 10
-1.514742484
 20
-13.4226721626
 10
-1.513156604
 20
-13.4246126253
 10
-1.51155713
 20
-13.4265065152
 10
-1.5099454593
 20
-13.4283514117
 10
-1.5083229894
 20
-13.4301448946
 10
-1.5066911178
 20
-13.4318845434
 10
-1.5050512418
 20
-13.4335679376
 10
-1.5034047589
 20
-13.435192657
 10
-1.5017530665
 20
-13.436756281
 10
-1.500097562
 20
-13.4382563893
 10
-1.4984396429
 20
-13.4396905614
 10
-1.4967807066
 20
-13.4410563769
 10
-1.4951221505
 20
-13.4423514155
 10
-1.493465372
 20
-13.4435732567
 10
-1.4918117686
 20
-13.4447194801
 10
-1.4901627377
 20
-13.4457876652
 10
-1.4885196766
 20
-13.4467753918
  0
LINE
  5
269
100
AcDbEntity
  8
CURVE
100
AcDbLine
 62
250
  6
CONTINUOUS
 10
-3.2960690582
 20
13.3508504821
 11
-3.2960690582
 21
12.1635599771
  0
LWPOLYLINE
  5
26A
100
AcDbEntity
  8
CURVE
100
AcDbPolyline
 62
250
  6
CONTINUOUS
 90
31
 70
0
 10
-3.1009414228
 20
-12.5188773838
 10
-3.1015257287
 20
-12.5329500732
 10
-3.1023876251
 20
-12.5468354653
 10
-3.1035121198
 20
-12.5605426101
 10
-3.1048842203
 20
-12.5740805577
 10
-3.1064889345
 20
-12.5874583578
 10
-3.10831127
 20
-12.6006850605
 10
-3.1103362345
 20
-12.6137697158
 10
-3.1125488356
 20
-12.6267213736
 10
-3.1149340811
 20
-12.6395490839
 10
-3.1174769786
 20
-12.6522618966
 10
-3.1201625359
 20
-12.6648688616
 10
-3.1229757605
 20
-12.677379029
 10
-3.1259016603
 20
-12.6898014487
 10
-3.1289252428
 20
-12.7021451707
 10
-3.1320315158
 20
-12.7144192449
 10
-3.1353668373
 20
-12.7272232134
 10
-3.1387892
 20
-12.7399458987
 10
-3.1423111778
 20
-12.7525726748
 10
-3.1459453447
 20
-12.7650889155
 10
-3.1497042746
 20
-12.7774799945
 10
-3.1536005415
 20
-12.7897312858
 10
-3.1576467192
 20
-12.8018281631
 10
-3.1618553819
 20
-12.8137560003
 10
-3.1662391033
 20
-12.8255001713
 10
-3.1708104575
 20
-12.8370460498
 10
-3.1755820184
 20
-12.8483790097
 10
-3.1805663599
 20
-12.8594844248
 10
-3.185776056
 20
-12.870347669
 10
-3.1912236806
 20
-12.8809541162
 10
-3.1969218078
 20
-12.89128914
  0
LWPOLYLINE
  5
26B
100
AcDbEntity
  8
CURVE
100
AcDbPolyline
 62
250
  6
CONTINUOUS
 90
21
 70
0
 10
-2.7482013279
 20
-12.7492668654
 10
-2.7442252983
 20
-12.6996006092
 10
-2.7408558432
 20
-12.6495253724
 10
-2.7380178088
 20
-12.5990955135
 10
-2.7356360413
 20
-12.5483653907
 10
-2.7336353868
 20
-12.4973893622
 10
-2.7319406916
 20
-12.4462217864
 10
-2.7293923752
 20
-12.3494488436
 10
-2.7276246148
 20
-12.2522152696
 10
-2.7265989385
 20
-12.1545472572
 10
-2.7262768745
 20
-12.0564709994
 10
-2.7266305553
 20
-11.9582079206
 10
-2.7276801999
 20
-11.8595461094
 10
-2.7294593614
 20
-11.7604673184
 10
-2.7320015928
 20
-11.6609532999
 10
-2.7336197697
 20
-11.6099362785
 10
-2.7355352318
 20
-11.5587621192
 10
-2.7378373688
 20
-11.5073920279
 10
-2.74061557
 20
-11.4557872108
 10
-2.7439592249
 20
-11.4039088741
 10
-2.7479577228
 20
-11.3517182236
  0
LWPOLYLINE
  5
26C
100
AcDbEntity
  8
ASSI
100
AcDbPolyline
 62
250
  6
CONTINUOUS
 90
16
 70
0
 10
5.8595948291
 20
-5.3798624791
 10
5.8969646063
 20
-5.3993671995
 10
5.9377608977
 20
-5.4166845605
 10
5.9816119432
 20
-5.4316003212
 10
6.028133878
 20
-5.44392753
 10
6.0768450736
 20
-5.4534848349
 10
6.1271590837
 20
-5.4601175939
 10
6.1785983096
 20
-5.463728866
 10
6.230570702
 20
-5.4642436009
 10
6.2822775498
 20
-5.461646346
 10
6.3330564748
 20
-5.4559943227
 10
6.3824793197
 20
-5.4473594335
 10
6.4301083558
 20
-5.4358241693
 10
6.4754596964
 20
-5.421500173
 10
6.5180179118
 20
-5.4045444045
 10
6.5573255076
 20
-5.3851362178
  0
LINE
  5
26D
100
AcDbEntity
  8
ASSI
100
AcDbLine
 62
250
  6
CONTINUOUS
 10
5.8595948291
 20
-5.3798624791
 11
-9.0086193392
 21
3.2048580392
  0
LWPOLYLINE
  5
26E
100
AcDbEntity
  8
CURVE
100
AcDbPolyline
 62
250
  6
CONTINUOUS
 90
67
 70
0
 10
-1.574512255
 20
13.3337368739
 10
-1.574556239
 20
13.3362081578
 10
-1.5746871387
 20
13.3387396768
 10
-1.5749033761
 20
13.3413270233
 10
-1.5752033733
 20
13.34396579
 10
-1.5755855522
 20
13.3466515692
 10
-1.5760483346
 20
13.3493799534
 10
-1.5765901427
 20
13.3521465352
 10
-1.5772093983
 20
13.3549469071
 10
-1.5779045233
 20
13.3577766614
 10
-1.5786739398
 20
13.3606313908
 10
-1.5795160697
 20
13.3635066878
 10
-1.580429335
 20
13.3663981447
 10
-1.5814121576
 20
13.3693013541
 10
-1.5824629594
 20
13.3722119086
 10
-1.5835801625
 20
13.3751254005
 10
-1.5847621887
 20
13.3780374224
 10
-1.5860074601
 20
13.3809435668
 10
-1.5873143986
 20
13.3838394262
 10
-1.5886814261
 20
13.386720593
 10
-1.5901069646
 20
13.3895826598
 10
-1.5915894361
 20
13.3924212191
 10
-1.5931272624
 20
13.3952318633
 10
-1.5947188657
 20
13.3980101849
 10
-1.5963626678
 20
13.4007517764
 10
-1.5980570906
 20
13.4034522304
 10
-1.5998005562
 20
13.4061071393
 10
-1.6015914865
 20
13.4087120956
 10
-1.6034283034
 20
13.4112626918
 10
-1.6053094289
 20
13.4137545204
 10
-1.607233285
 20
13.4161831739
 10
-1.6091982935
 20
13.4185442448
 10
-1.6112028766
 20
13.4208333255
 10
-1.6132454561
 20
13.4230460086
 10
-1.6153191922
 20
13.4251735333
 10
-1.6174259383
 20
13.427219949
 10
-1.6195624587
 20
13.4291845681
 10
-1.6217255179
 20
13.431066703
 10
-1.6239118805
 20
13.4328656664
 10
-1.6261183108
 20
13.4345807705
 10
-1.6283415732
 20
13.4362113278
 10
-1.6305784324
 20
13.4377566509
 10
-1.6328256527
 20
13.439216052
 10
-1.6350799985
 20
13.4405888438
 10
-1.6373382344
 20
13.4418743385
 10
-1.6395971248
 20
13.4430718488
 10
-1.6418534341
 20
13.444180687
 10
-1.6441039269
 20
13.4452001655
 10
-1.6463453675
 20
13.4461295969
 10
-1.6485745204
 20
13.4469682936
 10
-1.6507881502
 20
13.4477155679
 10
-1.6529830212
 20
13.4483707325
 10
-1.6551558978
 20
13.4489330997
 10
-1.6573035447
 20
13.4494019819
 10
-1.6594227261
 20
13.4497766916
 10
-1.6615102067
 20
13.4500565414
 10
-1.6635627508
 20
13.4502408435
 10
-1.6655771228
 20
13.4503289105
 10
-1.6675500873
 20
13.4503200548
 10
-1.6694784088
 20
13.4502135889
 10
-1.6713588516
 20
13.4500088251
 10
-1.6731881802
 20
13.4497050761
 10
-1.6749631591
 20
13.4493016541
 10
-1.6766805527
 20
13.4487978717
 10
-1.6783371256
 20
13.4481930413
 10
-1.6799296421
 20
13.4474864754
 10
-1.6814548667
 20
13.4466774863
  0
LWPOLYLINE
  5
26F
100
AcDbEntity
  8
CURVE
100
AcDbPolyline
 62
250
  6
CONTINUOUS
 90
67
 70
0
 10
0.1701870267
 20
-12.1680202108
 10
0.1701430428
 20
-12.1655489269
 10
0.1700121431
 20
-12.1630174079
 10
0.1697959056
 20
-12.1604300613
 10
0.1694959084
 20
-12.1577912947
 10
0.1691137296
 20
-12.1551055155
 10
0.1686509471
 20
-12.1523771312
 10
0.1681091391
 20
-12.1496105494
 10
0.1674898835
 20
-12.1468101776
 10
0.1667947584
 20
-12.1439804232
 10
0.1660253419
 20
-12.1411256938
 10
0.165183212
 20
-12.1382503969
 10
0.1642699468
 20
-12.13535894
 10
0.1632871242
 20
-12.1324557305
 10
0.1622363223
 20
-12.1295451761
 10
0.1611191193
 20
-12.1266316841
 10
0.159937093
 20
-12.1237196622
 10
0.1586918217
 20
-12.1208135178
 10
0.1573848832
 20
-12.1179176585
 10
0.1560178557
 20
-12.1150364916
 10
0.1545923172
 20
-12.1121744248
 10
0.1531098457
 20
-12.1093358656
 10
0.1515720193
 20
-12.1065252214
 10
0.1499804161
 20
-12.1037468998
 10
0.148336614
 20
-12.1010053082
 10
0.1466421912
 20
-12.0983048542
 10
0.1448987256
 20
-12.0956499454
 10
0.1431077953
 20
-12.093044989
 10
0.1412709784
 20
-12.0904943928
 10
0.1393898529
 20
-12.0880025642
 10
0.1374659968
 20
-12.0855739108
 10
0.1355009882
 20
-12.0832128399
 10
0.1334964052
 20
-12.0809237591
 10
0.1314538257
 20
-12.078711076
 10
0.1293800896
 20
-12.0765835514
 10
0.1272733435
 20
-12.0745371357
 10
0.1251368231
 20
-12.0725725166
 10
0.1229737638
 20
-12.0706903816
 10
0.1207874013
 20
-12.0688914183
 10
0.118580971
 20
-12.0671763142
 10
0.1163577085
 20
-12.0655457568
 10
0.1141208494
 20
-12.0640004338
 10
0.1118736291
 20
-12.0625410326
 10
0.1096192832
 20
-12.0611682409
 10
0.1073610474
 20
-12.0598827461
 10
0.105102157
 20
-12.0586852359
 10
0.1028458476
 20
-12.0575763977
 10
0.1005953549
 20
-12.0565569191
 10
0.0983539143
 20
-12.0556274878
 10
0.0961247613
 20
-12.0547887911
 10
0.0939111316
 20
-12.0540415167
 10
0.0917162606
 20
-12.0533863522
 10
0.0895433839
 20
-12.052823985
 10
0.0873957371
 20
-12.0523551028
 10
0.0852765556
 20
-12.051980393
 10
0.0831890751
 20
-12.0517005433
 10
0.081136531
 20
-12.0515162412
 10
0.0791221589
 20
-12.0514281742
 10
0.0771491944
 20
-12.0514370299
 10
0.075220873
 20
-12.0515434958
 10
0.0733404302
 20
-12.0517482595
 10
0.0715111016
 20
-12.0520520086
 10
0.0697361227
 20
-12.0524554305
 10
0.068018729
 20
-12.052959213
 10
0.0663621562
 20
-12.0535640434
 10
0.0647696397
 20
-12.0542706093
 10
0.0632444151
 20
-12.0550795984
  0
LINE
  5
270
100
AcDbEntity
  8
CURVE
100
AcDbLine
 62
250
  6
CONTINUOUS
 10
-1.574512255
 20
10.1926629413
 11
-1.574512255
 21
13.3337368739
  0
LINE
  5
271
100
AcDbEntity
  8
CURVE
100
AcDbLine
 62
250
  6
CONTINUOUS
 10
-1.5511261714
 20
-12.1510472571
 11
-1.5511261714
 21
-13.3383377621
  0
LWPOLYLINE
  5
272
100
AcDbEntity
  8
ASSI
100
AcDbPolyline
 62
250
  6
CONTINUOUS
 90
9
 70
0
 10
-8.6612363061
 20
3.813605611
 10
-8.6991023816
 20
3.8321373462
 10
-8.7364862652
 20
3.8460357429
 10
-8.772978609
 20
3.8551486157
 10
-8.8081798277
 20
3.8593761801
 10
-8.8417044735
 20
3.8586721451
 10
-8.8731854567
 20
3.8530442195
 10
-8.9022780656
 20
3.8425540284
 10
-8.921323002
 20
3.8322058999
  0
LINE
  5
273
100
AcDbEntity
  8
ASSI
100
AcDbLine
 62
250
  6
CONTINUOUS
 10
6.2069778623
 20
-4.7711149073
 11
-8.6612363061
 21
3.813605611
  0
LINE
  5
274
100
AcDbEntity
  8
ASSI
100
AcDbLine
 62
7
  6
CONTINUOUS
 10
-8.9050780287
 20
4.1818791509
 11
5.9631361397
 21
-4.4028413674
  0
LINE
  5
275
100
AcDbEntity
  8
ASSI
100
AcDbLine
 62
250
  6
CONTINUOUS
 10
-9.0086193392
 20
4.4107475815
 11
5.8595948291
 21
-4.1739729368
  0
LWPOLYLINE
  5
276
100
AcDbEntity
  8
ASSI
100
AcDbPolyline
 62
250
  6
CONTINUOUS
 90
9
 70
0
 10
-9.0086193392
 20
4.4107475815
 10
-9.0424003295
 20
4.4323244225
 10
-9.0723929462
 20
4.4558796898
 10
-9.0982261371
 20
4.4811987339
 10
-9.1195761136
 20
4.508059916
 10
-9.1361287848
 20
4.5361851498
 10
-9.1476163202
 20
4.5652358287
 10
-9.153870824
 20
4.5949361931
 10
-9.1550659486
 20
4.6148848782
  0
LWPOLYLINE
  5
277
100
AcDbEntity
  8
ASSI
100
AcDbPolyline
 62
250
  6
CONTINUOUS
 90
9
 70
0
 10
-8.9050780287
 20
4.1818791509
 10
-8.9197254446
 20
4.1913911827
 10
-8.9425404796
 20
4.2112576356
 10
-8.9622754242
 20
4.2354486747
 10
-8.9787188321
 20
4.2637051098
 10
-8.9916945237
 20
4.2957241927
 10
-9.0010634734
 20
4.3311628612
 10
-9.0067252994
 20
4.3696414145
 10
-9.0086193392
 20
4.4107475815
  0
LINE
  5
278
100
AcDbEntity
  8
CURVE
100
AcDbLine
 62
250
  6
CONTINUOUS
 10
0.1701870267
 20
-15.3090941433
 11
0.1701870267
 21
-12.1680202108
  0
LWPOLYLINE
  5
279
100
AcDbEntity
  8
CURVE
100
AcDbPolyline
 62
250
  6
CONTINUOUS
 90
42
 70
0
 10
-4.1075174396
 20
-10.1504284089
 10
-4.1050602317
 20
-10.1448797969
 10
-4.1024124255
 20
-10.1395451327
 10
-4.0995841763
 20
-10.1344134903
 10
-4.0965856392
 20
-10.1294739432
 10
-4.0934269695
 20
-10.1247155654
 10
-4.0901183222
 20
-10.1201274306
 10
-4.0866698526
 20
-10.1156986125
 10
-4.0830917159
 20
-10.1114181849
 10
-4.0793940672
 20
-10.1072752216
 10
-4.0755870618
 20
-10.1032587964
 10
-4.0716808547
 20
-10.099357983
 10
-4.0667075395
 20
-10.09466543
 10
-4.0615997545
 20
-10.0901385742
 10
-4.0563601813
 20
-10.0857818732
 10
-4.0509915016
 20
-10.0815997847
 10
-4.0454963971
 20
-10.0775967666
 10
-4.0398775495
 20
-10.0737772766
 10
-4.0341376404
 20
-10.0701457723
 10
-4.0282793515
 20
-10.0667067114
 10
-4.0223053645
 20
-10.0634645518
 10
-4.0162183611
 20
-10.0604237512
 10
-4.010021023
 20
-10.0575887672
 10
-4.0037160318
 20
-10.0549640576
 10
-3.9973060692
 20
-10.0525540802
 10
-3.9907938169
 20
-10.0503632926
 10
-3.9841819565
 20
-10.0483961526
 10
-3.9774731698
 20
-10.0466571179
 10
-3.9706701384
 20
-10.0451506462
 10
-3.9637755441
 20
-10.0438811953
 10
-3.9567920684
 20
-10.0428532229
 10
-3.949722393
 20
-10.0420711867
 10
-3.9425691997
 20
-10.0415395445
 10
-3.9353351701
 20
-10.0412627539
 10
-3.9280229859
 20
-10.0412452728
 10
-3.9206353288
 20
-10.0414915587
 10
-3.9131748804
 20
-10.0420060695
 10
-3.9056443224
 20
-10.0427932629
 10
-3.8980463366
 20
-10.0438575966
 10
-3.8903836045
 20
-10.0452035283
 10
-3.8826588079
 20
-10.0468355158
 10
-3.8748746284
 20
-10.0487580168
  0
LWPOLYLINE
  5
27A
100
AcDbEntity
  8
CURVE
100
AcDbPolyline
 62
250
  6
CONTINUOUS
 90
31
 70
0
 10
-4.4300505098
 20
-9.7985268725
 10
-4.4376986657
 20
-9.8120173244
 10
-4.4450204157
 20
-9.8258666524
 10
-4.4520304852
 20
-9.8400569181
 10
-4.4587435993
 20
-9.8545701833
 10
-4.4651744833
 20
-9.8693885095
 10
-4.4713378623
 20
-9.8844939585
 10
-4.4772484616
 20
-9.8998685919
 10
-4.4829210065
 20
-9.9154944715
 10
-4.488370222
 20
-9.9313536587
 10
-4.4936108335
 20
-9.9474282154
 10
-4.4986575661
 20
-9.9637002033
 10
-4.503525145
 20
-9.9801516838
 10
-4.5082282956
 20
-9.9967647189
 10
-4.5127817429
 20
-10.01352137
 10
-4.5172002122
 20
-10.0304036989
 10
-4.5213528315
 20
-10.0468352613
 10
-4.5253743152
 20
-10.0633779891
 10
-4.5292459646
 20
-10.0800423107
 10
-4.5329490808
 20
-10.0968386548
 10
-4.5364649653
 20
-10.1137774499
 10
-4.5397749192
 20
-10.1308691244
 10
-4.5428602438
 20
-10.1481241068
 10
-4.5457022404
 20
-10.1655528257
 10
-4.5482822103
 20
-10.1831657096
 10
-4.5505814547
 20
-10.200973187
 10
-4.552581275
 20
-10.2189856865
 10
-4.5542629723
 20
-10.2372136364
 10
-4.555607848
 20
-10.2556674654
 10
-4.5565972034
 20
-10.274357602
 10
-4.5572123396
 20
-10.2932944747
  0
LINE
  5
27B
100
AcDbEntity
  8
ASSI
100
AcDbLine
 62
7
  6
CONTINUOUS
 10
8.6017079528
 20
-3.404909909
 11
8.6078657751
 21
-3.4084653584
  0
LWPOLYLINE
  5
27C
100
AcDbEntity
  8
CURVE
100
AcDbPolyline
 62
250
  6
CONTINUOUS
 90
42
 70
0
 10
-3.1969218078
 20
-12.89128914
 10
-3.1999430852
 20
-12.8981218776
 10
-3.2031865591
 20
-12.9047231653
 10
-3.2066462192
 20
-12.911094488
 10
-3.210316055
 20
-12.9172373307
 10
-3.2141900563
 20
-12.9231531783
 10
-3.2182622128
 20
-12.9288435158
 10
-3.2225265141
 20
-12.934309828
 10
-3.2269769498
 20
-12.9395536001
 10
-3.2316075097
 20
-12.9445763168
 10
-3.2364121834
 20
-12.9493794632
 10
-3.2413849606
 20
-12.9539645241
 10
-3.2465198309
 20
-12.9583329846
 10
-3.2518107841
 20
-12.9624863296
 10
-3.2572518097
 20
-12.966426044
 10
-3.2628368974
 20
-12.9701536128
 10
-3.268560037
 20
-12.9736705209
 10
-3.2744152181
 20
-12.9769782533
 10
-3.2803964303
 20
-12.9800782948
 10
-3.2864976633
 20
-12.9829721306
 10
-3.2927129068
 20
-12.9856612454
 10
-3.2990361505
 20
-12.9881471243
 10
-3.3054613839
 20
-12.9904312521
 10
-3.3119825969
 20
-12.9925151139
 10
-3.318593779
 20
-12.9944001946
 10
-3.3252889199
 20
-12.9960879791
 10
-3.3320620094
 20
-12.9975799524
 10
-3.3389070369
 20
-12.9988775994
 10
-3.3458179923
 20
-12.9999824051
 10
-3.3527888652
 20
-13.0008958543
 10
-3.3598136452
 20
-13.0016194322
 10
-3.3657612418
 20
-13.0020798198
 10
-3.3717461755
 20
-13.0023938333
 10
-3.3777718926
 20
-13.0025483971
 10
-3.3838418393
 20
-13.0025304357
 10
-3.3899594619
 20
-13.0023268734
 10
-3.3961282068
 20
-13.0019246347
 10
-3.4023515201
 20
-13.001310644
 10
-3.4086328482
 20
-13.0004718257
 10
-3.4149756374
 20
-12.9993951043
 10
-3.4213833338
 20
-12.9980674042
 10
-3.4278593837
 20
-12.9964756499
  0
LWPOLYLINE
  5
27D
100
AcDbEntity
  8
CURVE
100
AcDbPolyline
 62
250
  6
CONTINUOUS
 90
67
 70
0
 10
-1.6814548667
 20
10.2032169762
 10
-1.6799296421
 20
10.200646696
 10
-1.6783371256
 20
10.1981011319
 10
-1.6766805527
 20
10.1955833327
 10
-1.6749631591
 20
10.1930963472
 10
-1.6731881802
 20
10.1906432241
 10
-1.6713588516
 20
10.1882270122
 10
-1.6694784088
 20
10.1858507602
 10
-1.6675500873
 20
10.1835175171
 10
-1.6655771228
 20
10.1812303314
 10
-1.6635627508
 20
10.178992252
 10
-1.6615102067
 20
10.1768063277
 10
-1.6594227261
 20
10.1746756072
 10
-1.6573035447
 20
10.1726031393
 10
-1.6551558978
 20
10.1705919728
 10
-1.6529830212
 20
10.1686451565
 10
-1.6507881502
 20
10.166765739
 10
-1.6485745204
 20
10.1649567693
 10
-1.6463453675
 20
10.163221296
 10
-1.6441039269
 20
10.1615623679
 10
-1.6418534341
 20
10.1599830339
 10
-1.6395971248
 20
10.1584863426
 10
-1.6373382344
 20
10.1570753428
 10
-1.6350799985
 20
10.1557530834
 10
-1.6328256527
 20
10.1545226131
 10
-1.6305784324
 20
10.1533869806
 10
-1.6283415732
 20
10.1523492347
 10
-1.6261183108
 20
10.1514124243
 10
-1.6239118805
 20
10.150579598
 10
-1.6217255179
 20
10.1498538047
 10
-1.6195624587
 20
10.1492380931
 10
-1.6174259383
 20
10.1487355119
 10
-1.6153191922
 20
10.1483491101
 10
-1.6132454561
 20
10.1480819362
 10
-1.6112028766
 20
10.1479358998
 10
-1.6091982935
 20
10.1479101382
 10
-1.607233285
 20
10.1480020665
 10
-1.6053094289
 20
10.1482090992
 10
-1.6034283034
 20
10.1485286512
 10
-1.6015914865
 20
10.1489581372
 10
-1.5998005562
 20
10.1494949722
 10
-1.5980570906
 20
10.1501365707
 10
-1.5963626678
 20
10.1508803477
 10
-1.5947188657
 20
10.1517237178
 10
-1.5931272624
 20
10.1526640959
 10
-1.5915894361
 20
10.1536988967
 10
-1.5901069646
 20
10.1548255351
 10
-1.5886814261
 20
10.1560414257
 10
-1.5873143986
 20
10.1573439834
 10
-1.5860074601
 20
10.158730623
 10
-1.5847621887
 20
10.1601987593
 10
-1.5835801625
 20
10.1617458069
 10
-1.5824629594
 20
10.1633691807
 10
-1.5814121576
 20
10.1650662955
 10
-1.580429335
 20
10.1668345661
 10
-1.5795160697
 20
10.1686714072
 10
-1.5786739398
 20
10.1705742336
 10
-1.5779045233
 20
10.1725404601
 10
-1.5772093983
 20
10.1745675015
 10
-1.5765901427
 20
10.1766527725
 10
-1.5760483346
 20
10.178793688
 10
-1.5755855522
 20
10.1809876626
 10
-1.5752033733
 20
10.1832321113
 10
-1.5749033761
 20
10.1855244487
 10
-1.5746871387
 20
10.1878620897
 10
-1.574556239
 20
10.1902424489
 10
-1.574512255
 20
10.1926629413
  0
LINE
  5
27E
100
AcDbEntity
  8
CURVE
100
AcDbLine
 62
250
  6
CONTINUOUS
 10
-2.5092247856
 20
11.6369565313
 11
-1.6814548667
 21
10.2032169762
  0
LWPOLYLINE
  5
27F
100
AcDbEntity
  8
ASSI
100
AcDbPolyline
 62
250
  6
CONTINUOUS
 90
9
 70
0
 10
5.8595948291
 20
-4.1739729368
 10
5.8615070999
 20
-4.2152706387
 10
5.8672215571
 20
-4.2539051989
 10
5.8766739312
 20
-4.289460757
 10
5.8897509126
 20
-4.3215374186
 10
5.9063135087
 20
-4.3498132525
 10
5.9262186654
 20
-4.374024718
 10
5.9493184047
 20
-4.3939280035
 10
5.9630256489
 20
-4.402777515
  0
LWPOLYLINE
  5
280
100
AcDbEntity
  8
ASSI
100
AcDbPolyline
 62
250
  6
CONTINUOUS
 90
16
 70
0
 10
5.8595948291
 20
16.2989684331
 10
5.8614676661
 20
16.3420133112
 10
5.8670663355
 20
16.3867648613
 10
5.876331523
 20
16.4327489691
 10
5.8891650697
 20
16.4794784624
 10
5.9054310126
 20
16.5264582715
 10
5.9249570241
 20
16.5731906753
 10
5.9475362385
 20
16.6191805735
 10
5.9729294434
 20
16.6639407323
 10
6.0008676139
 20
16.7069969462
 10
6.0310547628
 20
16.7478930621
 10
6.0631710765
 20
16.7861958114
 10
6.0968763027
 20
16.8214994007
 10
6.1318133559
 20
16.8534298109
 10
6.1676121003
 20
16.8816487595
 10
6.2038932709
 20
16.9058572848
  0
LWPOLYLINE
  5
281
100
AcDbEntity
  8
CURVE
100
AcDbPolyline
 62
250
  6
CONTINUOUS
 90
31
 70
0
 10
-2.8743887375
 20
-13.2437532401
 10
-2.8668425001
 20
-13.2303732184
 10
-2.8596234202
 20
-13.2166336619
 10
-2.8527165185
 20
-13.2025529228
 10
-2.8461068156
 20
-13.1881493529
 10
-2.8397793323
 20
-13.1734413043
 10
-2.8337190892
 20
-13.1584471289
 10
-2.8279111069
 20
-13.1431851786
 10
-2.822340406
 20
-13.1276738056
 10
-2.8169920073
 20
-13.1119313618
 10
-2.8118509313
 20
-13.095976199
 10
-2.8069021988
 20
-13.0798266694
 10
-2.8021308303
 20
-13.0635011249
 10
-2.7975218466
 20
-13.0470179175
 10
-2.7930602683
 20
-13.0303953991
 10
-2.7887311161
 20
-13.0136519218
 10
-2.7845943795
 20
-12.9970845412
 10
-2.7805883257
 20
-12.9804082179
 10
-2.7767300965
 20
-12.9636132038
 10
-2.7730368339
 20
-12.946689751
 10
-2.7695256798
 20
-12.9296281113
 10
-2.7662137761
 20
-12.9124185367
 10
-2.7631182648
 20
-12.8950512792
 10
-2.7602562877
 20
-12.8775165906
 10
-2.7576449867
 20
-12.8598047229
 10
-2.7553015039
 20
-12.8419059282
 10
-2.753242981
 20
-12.8238104582
 10
-2.75148656
 20
-12.805508565
 10
-2.7500493829
 20
-12.7869905005
 10
-2.7489485916
 20
-12.7682465166
 10
-2.7482013279
 20
-12.7492668654
  0
LINE
  5
282
100
AcDbEntity
  8
CURVE
100
AcDbLine
 62
7
  6
CONTINUOUS
 10
-4.5754389195
 20
-10.6575598236
 11
-4.1407600989
 21
-10.222881003
  0
LINE
  5
283
100
AcDbEntity
  8
CURVE
100
AcDbLine
 62
7
  6
CONTINUOUS
 10
-3.9615101405
 20
-10.0436310445
 11
-3.6529574117
 21
-9.7350783157
  0
LINE
  5
284
100
AcDbEntity
  8
CURVE
100
AcDbLine
 62
7
  6
CONTINUOUS
 10
-4.5617398823
 20
-11.6394671342
 11
-4.2255936888
 21
-11.3033209408
  0
LINE
  5
285
100
AcDbEntity
  8
CURVE
100
AcDbLine
 62
7
  6
CONTINUOUS
 10
-3.3342864586
 20
-10.4120137105
 11
-3.1244379075
 21
-10.2021651595
  0
LINE
  5
286
100
AcDbEntity
  8
CURVE
100
AcDbLine
 62
250
  6
CONTINUOUS
 10
-0.1070355065
 20
9.2210337001
 11
-0.2814567136
 21
9.5242652197
  0
LINE
  5
287
100
AcDbEntity
  8
CURVE
100
AcDbLine
 62
250
  6
CONTINUOUS
 10
0.5092852395
 20
8.1535348553
 11
0.3348640324
 21
8.456766375
  0
LINE
  5
288
100
AcDbEntity
  8
CURVE
100
AcDbLine
 62
250
  6
CONTINUOUS
 10
-0.7238434625
 20
10.2882512902
 11
-0.8977774596
 21
10.592326628
  0
LWPOLYLINE
  5
289
100
AcDbEntity
  8
CURVE
100
AcDbPolyline
 62
250
  6
CONTINUOUS
 90
49
 70
0
 10
-0.8977774596
 20
12.1523155266
 10
-0.8759428851
 20
12.1139672873
 10
-0.854802424
 20
12.0751515433
 10
-0.8343844687
 20
12.0359246758
 10
-0.8147174115
 20
11.9963430663
 10
-0.7958296448
 20
11.9564630961
 10
-0.7777495609
 20
11.9163411465
 10
-0.7605055521
 20
11.8760335989
 10
-0.7441260109
 20
11.8355968346
 10
-0.7286393294
 20
11.795087235
 10
-0.7140739002
 20
11.7545611814
 10
-0.7004581154
 20
11.7140750552
 10
-0.6878203676
 20
11.6736852377
 10
-0.6762356108
 20
11.6336286922
 10
-0.6656483224
 20
11.5937540519
 10
-0.6560587839
 20
11.5540919342
 10
-0.6474672769
 20
11.5146729564
 10
-0.6398740828
 20
11.4755277358
 10
-0.6332794834
 20
11.4366868899
 10
-0.6276080649
 20
11.3976120771
 10
-0.6229661967
 20
11.3589242176
 10
-0.6193545876
 20
11.3206652234
 10
-0.6167739467
 20
11.2828770066
 10
-0.615224983
 20
11.2456014792
 10
-0.6147084055
 20
11.2088805532
 10
-0.6152250058
 20
11.1727430367
 10
-0.6167744146
 20
11.1372433474
 10
-0.6193555993
 20
11.1024223681
 10
-0.6229675274
 20
11.068320982
 10
-0.6276091662
 20
11.034980072
 10
-0.6332794834
 20
11.0024405211
 10
-0.639873547
 20
10.9711935221
 10
-0.6474658911
 20
10.9407949761
 10
-0.6560566304
 20
10.9112752555
 10
-0.6656458797
 20
10.8826647324
 10
-0.6762337538
 20
10.8549937793
 10
-0.6878203676
 20
10.8282927684
 10
-0.7004486519
 20
10.8024996588
 10
-0.7140551299
 20
10.7777387885
 10
-0.7286118784
 20
10.7540348092
 10
-0.7440909742
 20
10.7314123727
 10
-0.7604644942
 20
10.7098961307
 10
-0.777704515
 20
10.6895107349
 10
-0.7957831135
 20
10.6702808371
 10
-0.8146723666
 20
10.652231089
 10
-0.8343443509
 20
10.6353861423
 10
-0.8547711433
 20
10.6197706488
 10
-0.8759248206
 20
10.6054092601
 10
-0.8977774596
 20
10.592326628
  0
LWPOLYLINE
  5
28A
100
AcDbEntity
  8
ASSI
100
AcDbPolyline
 62
250
  6
CONTINUOUS
 90
16
 70
0
 10
6.5573255076
 20
-5.3851362178
 10
6.5547579156
 20
-5.3414779229
 10
6.5484147673
 20
-5.2959992228
 10
6.5383692307
 20
-5.2492040765
 10
6.5247444044
 20
-5.2016387246
 10
6.5076885329
 20
-5.1538006811
 10
6.4873533226
 20
-5.1061327858
 10
6.4638965212
 20
-5.0590655699
 10
6.4376060927
 20
-5.0132298229
 10
6.4089010544
 20
-4.969341442
 10
6.3781501208
 20
-4.9279046752
 10
6.3456858012
 20
-4.8893124481
 10
6.3119452227
 20
-4.8540250567
 10
6.2773357522
 20
-4.8223941546
 10
6.2422200065
 20
-4.7946794231
 10
6.2069778623
 20
-4.7711149073
  0
LINE
  5
28B
100
AcDbEntity
  8
ASSI
100
AcDbLine
 62
250
  6
CONTINUOUS
 10
5.8595948291
 20
-25.8528038491
 11
5.8595948291
 21
-5.3798624791
  0
LINE
  5
28C
100
AcDbEntity
  8
ASSI
100
AcDbLine
 62
250
  6
CONTINUOUS
 10
5.8595948291
 20
-4.1739729368
 11
5.8595948291
 21
16.2989684331
  0
LINE
  5
28D
100
AcDbEntity
  8
ASSI
100
AcDbLine
 62
250
  6
CONTINUOUS
 10
6.5573255076
 20
-25.8580775878
 11
6.5573255076
 21
-5.3851362178
  0
LINE
  5
28E
100
AcDbEntity
  8
ASSI
100
AcDbLine
 62
250
  6
CONTINUOUS
 10
6.5573255076
 20
-4.1792466755
 11
6.5573255076
 21
16.2936946944
  0
LINE
  5
28F
100
AcDbEntity
  8
CURVE
100
AcDbLine
 62
7
  6
CONTINUOUS
 10
-4.389729157
 20
-12.4630627569
 11
-4.1503745768
 21
-12.2237081767
  0
LINE
  5
290
100
AcDbEntity
  8
CURVE
100
AcDbLine
 62
7
  6
CONTINUOUS
 10
-3.1004542127
 20
-11.1737878126
 11
-2.8182410564
 21
-10.8915746562
  0
LINE
  5
291
100
AcDbEntity
  8
CURVE
100
AcDbLine
 62
7
  6
CONTINUOUS
 10
-3.9899457604
 20
-13.0588857082
 11
-3.7639871644
 21
-12.8329271122
  0
LINE
  5
292
100
AcDbEntity
  8
CURVE
100
AcDbLine
 62
7
  6
CONTINUOUS
 10
-3.0834239683
 20
-12.152363916
 11
-2.7290203121
 21
-11.7979602599
  0
LINE
  5
293
100
AcDbEntity
  8
CURVE
100
AcDbLine
 62
7
  6
CONTINUOUS
 10
-3.3721693655
 20
-13.4367156612
 11
-2.752832969
 21
-12.8173792647
  0
LWPOLYLINE
  5
294
100
AcDbEntity
  8
ASSI
100
AcDbPolyline
 62
250
  6
CONTINUOUS
 90
16
 70
0
 10
6.2069778623
 20
-4.7711149073
 10
6.1704692409
 20
-4.7951176603
 10
6.1344178953
 20
-4.8231983591
 10
6.0992100905
 20
-4.8550561386
 10
6.0652230538
 20
-4.8903496646
 10
6.0328209328
 20
-4.9287007915
 10
6.0023508936
 20
-4.9696986135
 10
5.9741394017
 20
-5.0129038675
 10
5.9484887237
 20
-5.057853639
 10
5.9256736888
 20
-5.1040663224
 10
5.9059387442
 20
-5.1510467809
 10
5.8894953362
 20
-5.1982916513
 10
5.8765196446
 20
-5.2452947376
 10
5.8671506949
 20
-5.2915524344
 10
5.8614888689
 20
-5.3365691224
 10
5.8595948291
 20
-5.3798624791
  0
LWPOLYLINE
  5
295
100
AcDbEntity
  8
ASSI
100
AcDbPolyline
 62
250
  6
CONTINUOUS
 90
9
 70
0
 10
6.4467011115
 20
-4.4119363603
 10
6.4647378982
 20
-4.4008639508
 10
6.4879121269
 20
-4.3811702907
 10
6.5080777339
 20
-4.3569725807
 10
6.525013909
 20
-4.328535782
 10
6.5385352038
 20
-4.2961712731
 10
6.5484935622
 20
-4.2602334402
 10
6.5547799417
 20
-4.221115797
 10
6.5573255076
 20
-4.1792466755
  0
LINE
  5
296
100
AcDbEntity
  8
ASSI
100
AcDbLine
 62
250
  6
CONTINUOUS
 10
8.6078657751
 20
-3.4084653584
 11
6.2069778623
 21
-4.7711149073
  0
LINE
  5
297
100
AcDbEntity
  8
ASSI
100
AcDbLine
 62
250
  6
CONTINUOUS
 10
6.5573255076
 20
-4.1792466755
 11
8.9613787846
 21
-2.9092338275
  0
LINE
  5
298
100
AcDbEntity
  8
ASSI
100
AcDbLine
 62
7
  6
CONTINUOUS
 10
6.4467011115
 20
-4.4119363603
 11
8.852396607
 21
-3.1410559614
  0
LWPOLYLINE
  5
299
100
AcDbEntity
  8
ASSI
100
AcDbPolyline
 62
250
  6
CONTINUOUS
 90
16
 70
0
 10
6.5573255076
 20
-4.1792466755
 10
6.5190890114
 20
-4.1981777709
 10
6.4775250704
 20
-4.2148717527
 10
6.433014534
 20
-4.2291197764
 10
6.3859488085
 20
-4.2407404968
 10
6.3368177116
 20
-4.2495593737
 10
6.2862157164
 20
-4.2554301478
 10
6.2346242591
 20
-4.258262948
 10
6.1826392212
 20
-4.2579914408
 10
6.1310627104
 20
-4.2546123458
 10
6.0805550568
 20
-4.2481933255
 10
6.0315402846
 20
-4.238813039
 10
5.9844527024
 20
-4.2265610681
 10
5.9397707982
 20
-4.2115568089
 10
5.8980019825
 20
-4.1939652651
 10
5.8595948291
 20
-4.1739729368
  0
LWPOLYLINE
  5
29A
100
AcDbEntity
  8
CURVE
100
AcDbPolyline
 62
250
  6
CONTINUOUS
 90
49
 70
0
 10
-0.2814567136
 20
12.5086651861
 10
-0.2398701219
 20
12.4354033576
 10
-0.1996204759
 20
12.3612521312
 10
-0.1607603322
 20
12.2863195847
 10
-0.1233422477
 20
12.2107137959
 10
-0.0874187789
 20
12.1345428426
 10
-0.0530424828
 20
12.0579148026
 10
-0.020265916
 20
11.9809377538
 10
0.0108583648
 20
11.9037197738
 10
0.0402778028
 20
11.8263689406
 10
0.0679398414
 20
11.7489933319
 10
0.0937919236
 20
11.6717010256
 10
0.1177814929
 20
11.5946000993
 10
0.1398047932
 20
11.5180084175
 10
0.1599251305
 20
11.4417714143
 10
0.1781437215
 20
11.3659460134
 10
0.1944617824
 20
11.2905891383
 10
0.2088805297
 20
11.2157577127
 10
0.2214011796
 20
11.1415086603
 10
0.2321730785
 20
11.0667760334
 10
0.240988448
 20
10.9927813641
 10
0.2478463974
 20
10.9196035102
 10
0.2527460356
 20
10.8473213299
 10
0.2556864718
 20
10.776013681
 10
0.2566668152
 20
10.7057594216
 10
0.2556864718
 20
10.6366372382
 10
0.2527460356
 20
10.5687251313
 10
0.2478463974
 20
10.5021009304
 10
0.240988448
 20
10.4368424645
 10
0.2321730785
 20
10.373027563
 10
0.2214011796
 20
10.3107340549
 10
0.2088805297
 20
10.2509435352
 10
0.1944617824
 20
10.1927625176
 10
0.1781437215
 20
10.1362493302
 10
0.1599251305
 20
10.0814623014
 10
0.1398047932
 20
10.0284597595
 10
0.1177814929
 20
9.9773000327
 10
0.0937919236
 20
9.9279016598
 10
0.0679398414
 20
9.8804626901
 10
0.0402778028
 20
9.8350305101
 10
0.0108583648
 20
9.7916525064
 10
-0.020265916
 20
9.7503760658
 10
-0.0530424828
 20
9.7112485748
 10
-0.0874187789
 20
9.6743174199
 10
-0.1233422477
 20
9.6396299878
 10
-0.1607603322
 20
9.6072336652
 10
-0.1996204759
 20
9.5771758385
 10
-0.2398701219
 20
9.5495038945
 10
-0.2814567136
 20
9.5242652197
  0
LWPOLYLINE
  5
29B
100
AcDbEntity
  8
CURVE
100
AcDbPolyline
 62
250
  6
CONTINUOUS
 90
49
 70
0
 10
0.3348640324
 20
12.8644522819
 10
0.3961731213
 20
12.7562347665
 10
0.4555091874
 20
12.6467127243
 10
0.5127952318
 20
12.5360449979
 10
0.5679542552
 20
12.4243904298
 10
0.6209092587
 20
12.3119078627
 10
0.6715832432
 20
12.198756139
 10
0.7198992096
 20
12.0850941014
 10
0.765780159
 20
11.9710805924
 10
0.8091490921
 20
11.8568744546
 10
0.8499290101
 20
11.7426345305
 10
0.8880429137
 20
11.6285196628
 10
0.923413804
 20
11.514688694
 10
0.9558910792
 20
11.4016026789
 10
0.9855651721
 20
11.289040709
 10
1.012437253
 20
11.1770865464
 10
1.0365084923
 20
11.0658239533
 10
1.0577800603
 20
10.955336692
 10
1.0762531274
 20
10.8457085246
 10
1.092143203
 20
10.7353974361
 10
1.1051488819
 20
10.6261745057
 10
1.1152680647
 20
10.518156397
 10
1.1224986518
 20
10.4114597733
 10
1.1268385438
 20
10.3062012984
 10
1.128285641
 20
10.2024976356
 10
1.1268385438
 20
10.1004650443
 10
1.1224986518
 20
10.0002181678
 10
1.1152680647
 20
9.9018712449
 10
1.1051488819
 20
9.8055385148
 10
1.092143203
 20
9.7113342165
 10
1.0762531274
 20
9.6193725889
 10
1.0577800603
 20
9.5310766564
 10
1.0365084923
 20
9.4451532686
 10
1.012437253
 20
9.3616875393
 10
0.9855651721
 20
9.2807645822
 10
0.9558910792
 20
9.2024695109
 10
0.923413804
 20
9.1268874391
 10
0.8880429137
 20
9.0539018878
 10
0.8499290101
 20
8.9838000007
 10
0.8091490921
 20
8.9166517037
 10
0.765780159
 20
8.8525269228
 10
0.7198992096
 20
8.7914955841
 10
0.6715832432
 20
8.7336276134
 10
0.6209092587
 20
8.6789929368
 10
0.5679542552
 20
8.6276614803
 10
0.5127952318
 20
8.5797031699
 10
0.4555091874
 20
8.5351879316
 10
0.3961731213
 20
8.4941856912
 10
0.3348640324
 20
8.456766375
  0
LINE
  5
29C
100
AcDbEntity
  8
ASSI
100
AcDbLine
 62
7
  6
CONTINUOUS
 10
8.9613787846
 20
-21.7001510047
 11
8.9613787846
 21
-4.0206901327
  0
LINE
  5
29D
100
AcDbEntity
  8
ASSI
100
AcDbLine
 62
7
  6
CONTINUOUS
 10
8.9613787846
 20
-2.9092338275
 11
8.9613787846
 21
14.7702270445
  0
LINE
  5
29E
100
AcDbEntity
  8
CURVE
100
AcDbLine
 62
7
  6
CONTINUOUS
 10
-1.5511261714
 20
-12.611278815
 11
-1.2135293582
 21
-12.2736820017
  0
LINE
  5
29F
100
AcDbEntity
  8
CURVE
100
AcDbLine
 62
7
  6
CONTINUOUS
 10
-1.4267065341
 20
-13.4824655256
 11
-0.0848790676
 21
-12.1406380591
  0
LINE
  5
2A0
100
AcDbEntity
  8
CURVE
100
AcDbLine
 62
7
  6
CONTINUOUS
 10
-0.7955322864
 20
-13.8468976258
 11
0.1701870267
 21
-12.8811783127
  0
LINE
  5
2A1
100
AcDbEntity
  8
ASSI
100
AcDbLine
 62
250
  6
CONTINUOUS
 10
8.9613787846
 20
-4.0206901327
 11
6.5573255076
 21
-5.3851362178
  0
LINE
  5
2A2
100
AcDbEntity
  8
CURVE
100
AcDbLine
 62
250
  6
CONTINUOUS
 10
-4.2281022784
 20
11.4907858839
 11
-4.5818161822
 21
11.6950158589
  0
LINE
  5
2A3
100
AcDbEntity
  8
CURVE
100
AcDbLine
 62
250
  6
CONTINUOUS
 10
-3.2334625635
 20
12.0551223474
 11
-2.5092247856
 21
11.6369565313
  0
LINE
  5
2A4
100
AcDbEntity
  8
CURVE
100
AcDbLine
 62
7
  6
CONTINUOUS
 10
-0.4180104845
 20
-14.4649821718
 11
0.1701870267
 21
-13.8767846606
  0
LINE
  5
2A5
100
AcDbEntity
  8
CURVE
100
AcDbLine
 62
7
  6
CONTINUOUS
 10
-0.0535932688
 20
-15.096171304
 11
0.1701870267
 21
-14.8723910085
  0
LINE
  5
2A6
100
AcDbEntity
  8
CURVE
100
AcDbLine
 62
7
  6
CONTINUOUS
 10
1.0897069266
 20
-13.9528711086
 11
1.2621015432
 21
-13.780476492
  0
LINE
  5
2A7
100
AcDbEntity
  8
CURVE
100
AcDbLine
 62
250
  6
CONTINUOUS
 10
0.0632444151
 20
-12.0550795984
 11
-0.7642818988
 21
-12.5330718543
  0
LWPOLYLINE
  5
2A8
100
AcDbEntity
  8
CURVE
100
AcDbPolyline
 62
250
  6
CONTINUOUS
 90
55
 70
0
 10
-3.2334625635
 20
13.3869917009
 10
-3.2351056245
 20
13.38790134
 10
-3.2367546554
 20
13.3887374145
 10
-3.2384082588
 20
13.3895007309
 10
-3.2400650373
 20
13.390192096
 10
-3.2417235934
 20
13.3908123164
 10
-3.2433825297
 20
13.3913621989
 10
-3.2450404488
 20
13.3918425502
 10
-3.2466959533
 20
13.392254177
 10
-3.2483476457
 20
13.392597886
 10
-3.2499941286
 20
13.3928744838
 10
-3.2516340046
 20
13.3930847772
 10
-3.2532658762
 20
13.3932295729
 10
-3.2548883461
 20
13.3933096776
 10
-3.2565000168
 20
13.3933258979
 10
-3.2580994908
 20
13.3932790406
 10
-3.2596853708
 20
13.3931699124
 10
-3.2612562593
 20
13.39299932
 10
-3.262810759
 20
13.39276807
 10
-3.2643474723
 20
13.3924769692
 10
-3.2658650018
 20
13.3921268243
 10
-3.2673619502
 20
13.391718442
 10
-3.26883692
 20
13.3912526289
 10
-3.2702885138
 20
13.3907301919
 10
-3.2717153341
 20
13.3901519375
 10
-3.2731159835
 20
13.3895186724
 10
-3.2744890647
 20
13.3888312035
 10
-3.2758331801
 20
13.3880903373
 10
-3.2771469323
 20
13.3872968806
 10
-3.278428924
 20
13.3864516401
 10
-3.2796777577
 20
13.3855554224
 10
-3.2808920359
 20
13.3846090344
 10
-3.2820703613
 20
13.3836132826
 10
-3.2832113364
 20
13.3825689738
 10
-3.2843135638
 20
13.3814769146
 10
-3.2853756461
 20
13.3803379119
 10
-3.2863961858
 20
13.3791527722
 10
-3.2873737855
 20
13.3779223023
 10
-3.2883070478
 20
13.3766473089
 10
-3.2891945753
 20
13.3753285986
 10
-3.2900349705
 20
13.3739669782
 10
-3.2908268361
 20
13.3725632544
 10
-3.2915687745
 20
13.3711182339
 10
-3.2922593884
 20
13.3696327234
 10
-3.2928972804
 20
13.3681075295
 10
-3.2934810529
 20
13.366543459
 10
-3.2940093086
 20
13.3649413186
 10
-3.2944806501
 20
13.363301915
 10
-3.29489368
 20
13.3616260548
 10
-3.2952470007
 20
13.3599145448
 10
-3.2955392149
 20
13.3581681917
 10
-3.2957689252
 20
13.3563878022
 10
-3.2959347342
 20
13.3545741829
 10
-3.2960352443
 20
13.3527281407
 10
-3.2960690582
 20
13.3508504821
  0
LINE
  5
2A9
100
AcDbEntity
  8
CURVE
100
AcDbLine
 62
250
  6
CONTINUOUS
 10
-2.5089811806
 20
12.9686852303
 11
-3.2334625635
 21
13.3869917009
  0
LINE
  5
2AA
100
AcDbEntity
  8
CURVE
100
AcDbLine
 62
250
  6
CONTINUOUS
 10
-4.5818161822
 20
15.2881096766
 11
-4.2281022784
 21
15.0838797016
  0
LINE
  5
2AB
100
AcDbEntity
  8
CURVE
100
AcDbLine
 62
7
  6
CONTINUOUS
 10
0.9494725065
 20
-15.0887118767
 11
1.3560503948
 21
-14.6821339883
  0
LINE
  5
2AC
100
AcDbEntity
  8
CURVE
100
AcDbLine
 62
250
  6
CONTINUOUS
 10
0.8469218221
 20
-13.3494415581
 11
1.0208558192
 21
-13.2462208403
  0
LINE
  5
2AD
100
AcDbEntity
  8
ASSI
100
AcDbLine
 62
7
  6
CONTINUOUS
 10
8.9490162822
 20
14.8691124078
 11
8.285581837
 21
17.2915633174
  0
LINE
  5
2AE
100
AcDbEntity
  8
ASSI
100
AcDbLine
 62
7
  6
CONTINUOUS
 10
8.9490162822
 20
-21.8125836988
 11
8.285581837
 21
-24.9620529392
  0
LWPOLYLINE
  5
2AF
100
AcDbEntity
  8
CURVE
100
AcDbPolyline
 62
250
  6
CONTINUOUS
 90
49
 70
0
 10
1.0208558192
 20
-15.2135057945
 10
1.0483857258
 20
-15.1969634258
 10
1.0750366944
 20
-15.1788144196
 10
1.1007732982
 20
-15.1590893167
 10
1.1255601105
 20
-15.1378186579
 10
1.1493617042
 20
-15.1150329842
 10
1.1721426527
 20
-15.0907628364
 10
1.1938675291
 20
-15.0650387554
 10
1.2145009066
 20
-15.0378912821
 10
1.2340073583
 20
-15.0093509574
 10
1.2523514574
 20
-14.9794483221
 10
1.269497777
 20
-14.9482139171
 10
1.2854108904
 20
-14.9156782833
 10
1.3000057677
 20
-14.8820097336
 10
1.313342226
 20
-14.8471189649
 10
1.3254204474
 20
-14.8110443977
 10
1.336240614
 20
-14.7738244527
 10
1.3458029079
 20
-14.7354975503
 10
1.3541075111
 20
-14.6961021112
 10
1.3612500638
 20
-14.6550673563
 10
1.3670961618
 20
-14.6130230553
 10
1.3716446845
 20
-14.5700207636
 10
1.3748945113
 20
-14.5261120366
 10
1.3768445216
 20
-14.48134843
 10
1.3774935948
 20
-14.4357814993
 10
1.3768418591
 20
-14.3894963888
 10
1.3748907068
 20
-14.3425132296
 10
1.3716409168
 20
-14.2948846663
 10
1.3670932682
 20
-14.2466633439
 10
1.36124854
 20
-14.197901907
 10
1.3541075111
 20
-14.1486530004
 10
1.3458017293
 20
-14.0996863846
 10
1.3362379278
 20
-14.0503359256
 10
1.325416525
 20
-14.0006401584
 10
1.313337939
 20
-13.9506376182
 10
1.3000025881
 20
-13.9003668398
 10
1.2854108904
 20
-13.8498663584
 10
1.2694887105
 20
-13.798932183
 10
1.252334023
 20
-13.7478759658
 10
1.2339825397
 20
-13.6967687038
 10
1.2144699723
 20
-13.6456813941
 10
1.1938320327
 20
-13.5946850336
 10
1.1721044325
 20
-13.5438506194
 10
1.1493228836
 20
-13.4932491486
 10
1.1255230977
 20
-13.4429516181
 10
1.1007407865
 20
-13.393029025
 10
1.0750116619
 20
-13.3435523663
 10
1.0483714355
 20
-13.2945926391
 10
1.0208558192
 20
-13.2462208403
  0
LINE
  5
2B0
100
AcDbEntity
  8
ASSI
100
AcDbLine
 62
250
  6
CONTINUOUS
 10
5.8595948291
 20
16.2989684331
 11
-9.0086193392
 21
24.8836889515
  0
LWPOLYLINE
  5
2B1
100
AcDbEntity
  8
ASSI
100
AcDbPolyline
 62
250
  6
CONTINUOUS
 90
9
 70
0
 10
-9.0086193392
 20
24.8836889515
 10
-9.0426568813
 20
24.9054474063
 10
-9.0728041444
 20
24.9291814371
 10
-9.0986996603
 20
24.9546647122
 10
-9.1200446615
 20
24.981683025
 10
-9.1365224846
 20
25.0099332677
 10
-9.1478669598
 20
25.0390133932
 10
-9.1539526666
 20
25.0685719331
 10
-9.1550659479
 20
25.0878110805
  0
LWPOLYLINE
  5
2B2
100
AcDbEntity
  8
ASSI
100
AcDbPolyline
 62
250
  6
CONTINUOUS
 90
16
 70
0
 10
5.8595948291
 20
16.2989684331
 10
5.8969775068
 20
16.2794576326
 10
5.9377851822
 20
16.2621370997
 10
5.9816450267
 20
16.2472206118
 10
6.0281719296
 20
16.2348946324
 10
6.0768839241
 20
16.2253397225
 10
6.1271952923
 20
16.2187096694
 10
6.1786270541
 20
16.2151008972
 10
6.2305885168
 20
16.2145876702
 10
6.2822862474
 20
16.2171852674
 10
6.3330599136
 20
16.22283708
 10
6.3824795514
 20
16.2314715269
 10
6.4301068271
 20
16.2430063178
 10
6.4754575816
 20
16.2573299868
 10
6.5180163912
 20
16.2742858324
 10
6.5573255076
 20
16.2936946944
  0
LINE
  5
2B3
100
AcDbEntity
  8
ASSI
100
AcDbLine
 62
250
  6
CONTINUOUS
 10
6.2038932709
 20
16.9058572848
 11
-8.6643208975
 21
25.4905778031
  0
LWPOLYLINE
  5
2B4
100
AcDbEntity
  8
ASSI
100
AcDbPolyline
 62
250
  6
CONTINUOUS
 90
16
 70
0
 10
6.2038932709
 20
16.9058572848
 10
6.2394196512
 20
16.8820983156
 10
6.274803018
 20
16.8541856182
 10
6.3096579611
 20
16.8223731437
 10
6.3436405151
 20
16.7869149829
 10
6.3763189502
 20
16.7481996441
 10
6.4071991192
 20
16.7067849186
 10
6.4359019485
 20
16.6631903206
 10
6.4621573004
 20
16.6178380854
 10
6.485685234
 20
16.5712087487
 10
6.5062286984
 20
16.5238021568
 10
6.5235521636
 20
16.4761508227
 10
6.5374569433
 20
16.4287964303
 10
6.5477888972
 20
16.3822660011
 10
6.5544361437
 20
16.337066195
 10
6.5573255076
 20
16.2936946944
  0
LWPOLYLINE
  5
2B5
100
AcDbEntity
  8
ASSI
100
AcDbPolyline
 62
250
  6
CONTINUOUS
 90
9
 70
0
 10
-8.6643208975
 20
25.4905778031
 10
-8.7013816779
 20
25.5087690781
 10
-8.7381397757
 20
25.5226000712
 10
-8.7741950545
 20
25.5318556054
 10
-8.8091668835
 20
25.5363671608
 10
-8.8426308542
 20
25.5360061882
 10
-8.8741354139
 20
25.5307184204
 10
-8.9033376659
 20
25.5205062434
 10
-8.9244398987
 20
25.5090597641
  0
LINE
  5
2B6
100
AcDbEntity
  8
ASSI
100
AcDbLine
 62
7
  6
CONTINUOUS
 10
7.8356449861
 20
17.8480056278
 11
-7.115846338
 21
26.4808093322
  0
LWPOLYLINE
  5
2B7
100
AcDbEntity
  8
ASSI
100
AcDbPolyline
 62
250
  6
CONTINUOUS
 90
9
 70
0
 10
6.4433829351
 20
-26.0925043058
 10
6.4618069415
 20
-26.0813726192
 10
6.4855115924
 20
-26.0615171504
 10
6.5061173423
 20
-26.0371620764
 10
6.5234627796
 20
-26.0085595456
 10
6.5373930466
 20
-25.9759819292
 10
6.5477565336
 20
-25.9397626683
 10
6.5544263481
 20
-25.9003168149
 10
6.5573255076
 20
-25.8580775878
  0
LINE
  5
2B8
100
AcDbEntity
  8
ASSI
100
AcDbLine
 62
250
  6
CONTINUOUS
 10
8.285581837
 20
-24.9620529392
 11
6.5573255076
 21
-25.8580775878
  0
LINE
  5
2B9
100
AcDbEntity
  8
ASSI
100
AcDbLine
 62
7
  6
CONTINUOUS
 10
8.1054638593
 20
-25.2307887262
 11
6.4432848872
 21
-26.0925551807
  0
ARC
  5
2BA
100
AcDbEntity
  8
ASSI
100
AcDbCircle
 62
7
  6
CONTINUOUS
 10
-8.6550659486
 20
3.4089953359
 40
0.5
100
AcDbArc
 50
122.1754807991
 51
180.015358494
  0
ARC
  5
2BB
100
AcDbEntity
  8
ASSI
100
AcDbCircle
 62
7
  6
CONTINUOUS
 10
-8.6550659486
 20
-17.0639460341
 40
0.5
100
AcDbArc
 50
179.9900082978
 51
239.9984015652
  0
ARC
  5
2BC
100
AcDbEntity
  8
ASSI
100
AcDbCircle
 62
7
  6
CONTINUOUS
 10
6.2131482197
 20
-25.6486665524
 40
0.5
100
AcDbArc
 50
239.9984015652
 51
297.4174046156
  0
ARC
  5
2BD
100
AcDbEntity
  8
ASSI
100
AcDbCircle
 62
7
  6
CONTINUOUS
 10
6.2131482197
 20
-3.9698356402
 40
0.5
100
AcDbArc
 50
239.9837780751
 51
297.8465900872
  0
ARC
  5
2BE
100
AcDbEntity
  8
ASSI
100
AcDbCircle
 62
7
  6
CONTINUOUS
 10
-8.6550659486
 20
4.6148848782
 40
0.5
100
AcDbArc
 50
179.9841296142
 51
239.9984015652
  0
ARC
  5
2BF
100
AcDbEntity
  8
ASSI
100
AcDbCircle
 62
7
  6
CONTINUOUS
 10
-8.6550659486
 20
25.0878262481
 40
0.5
100
AcDbArc
 50
122.5989151677
 51
180.0017380816
  0
ELLIPSE
  5
2C0
100
AcDbEntity
  8
ASSI
100
AcDbEllipse
 62
7
  6
CONTINUOUS
 10
8.6077041986
 20
-3.8166693903
 30
0.0
 11
-0.2500883296
 21
0.432972707
 31
0.0
 40
0.5775954524
 41
-2.3562050126
 42
-0.7858655366
  0
ELLIPSE
  5
2C1
100
AcDbEntity
  8
ASSI
100
AcDbEllipse
 62
7
  6
CONTINUOUS
 10
8.2481545622
 20
-3.6161729765
 30
0.0
 11
0.499979581
 21
0.0076930498
 31
0.0
 40
0.5873737521
 41
7.0595459565
 42
7.4069329008
  0
ELLIPSE
  5
2C2
100
AcDbEntity
  8
ASSI
100
AcDbEllipse
 62
7
  6
CONTINUOUS
 10
8.5985672727
 20
-21.8989427781
 30
0.0
 11
0.2600728777
 21
0.4271418247
 31
0.0
 40
0.5922410672
 41
-1.033355665
 42
-0.7715562772
  0
ELLIPSE
  5
2C3
100
AcDbEntity
  8
ASSI
100
AcDbEllipse
 62
7
  6
CONTINUOUS
 10
7.9319734244
 20
-24.7575315259
 30
0.0
 11
-0.1121548712
 21
0.4957473682
 31
0.0
 40
0.7039445592
 41
-2.9595186474
 42
-2.1483506142
  0
ELLIPSE
  5
2C4
100
AcDbEntity
  8
ASSI
100
AcDbEllipse
 62
7
  6
CONTINUOUS
 10
-7.023961733
 20
26.1308984844
 30
0.0
 11
-0.3297163127
 21
0.381589989
 31
0.0
 40
0.4128243551
 41
-0.8709070521
 42
-0.0596421506
  0
ELLIPSE
  5
2C5
100
AcDbEntity
  8
ASSI
100
AcDbEllipse
 62
7
  6
CONTINUOUS
 10
8.6077041986
 20
-2.7048400232
 30
0.0
 11
-0.2502024451
 21
0.4331706506
 31
0.0
 40
0.5770679437
 41
-3.1633994611
 42
-2.3566614272
  0
ELLIPSE
  5
2C6
100
AcDbEntity
  8
ASSI
100
AcDbEllipse
 62
7
  6
CONTINUOUS
 10
8.5985672727
 20
14.5714352711
 30
0.0
 11
0.2600728777
 21
0.4271418247
 31
0.0
 40
0.5922410672
 41
-0.7715562772
 42
-0.5097568894
  0
ELLIPSE
  5
2C7
100
AcDbEntity
  8
ASSI
100
AcDbEllipse
 62
7
  6
CONTINUOUS
 10
7.9319734244
 20
17.4955289664
 30
0.0
 11
-0.3313794069
 21
0.3842968449
 31
0.0
 40
0.4077379513
 41
-2.4333010859
 42
-0.8631899918
  0
ENDSEC
  0
SECTION
  2
OBJECTS
  0
DICTIONARY
  5
C
100
AcDbDictionary
280
0
281
1
  3
ACAD_GROUP
350
D
  3
ACAD_MLINESTYLE
350
17
  3
ACAD_LAYOUT
350
1A
  3
ACAD_PLOTSETTINGS
350
19
  3
ACAD_PLOTSTYLENAME
350
E
  0
DICTIONARY
  5
D
102
{ACAD_REACTORS
330
C
102
}
100
AcDbDictionary
280
0
281
1
  0
ACDBDICTIONARYWDFLT
  5
E
102
{ACAD_REACTORS
330
C
102
}
100
AcDbDictionary
281
1
  3
Normal
350
F
100
AcDbDictionaryWithDefault
340
F
  0
DICTIONARY
  5
17
102
{ACAD_REACTORS
330
C
102
}
100
AcDbDictionary
280
0
281
1
  3
Standard
350
18
  0
DICTIONARY
  5
19
102
{ACAD_REACTORS
330
C
102
}
100
AcDbDictionary
281
1
  0
DICTIONARY
  5
1A
102
{ACAD_REACTORS
330
C
102
}
100
AcDbDictionary
281
1
  3
Model
350
2C8
  3
Layout1
350
2C9
  0
ACDBPLACEHOLDER
  5
F
102
{ACAD_REACTORS
330
E
102
}
  0
MLINESTYLE
  5
18
102
{ACAD_REACTORS
330
17
102
}
100
AcDbMlineStyle
  2
STANDARD
 70
0
  3

 62
256
 51
90.0
 52
90.0
 71
2
 49
0.5
 62
256
  6
BYLAYER
 49
-0.5
 62
256
  6
BYLAYER
  0
LAYOUT
  5
2C8
102
{ACAD_REACTORS
330
1A
102
}
100
AcDbPlotSettings
  1

  2
none_device
  4

  6

 40
0.0
 41
0.0
 42
0.0
 43
0.0
 44
210.0
 45
297.0
 46
0.0
 47
0.0
 48
0.0
 49
0.0
140
0.0
141
0.0
142
1.0
143
1.0
 70
1024
 72
1
 73
0
 74
0
  7

 75
0
147
1.0
148
0.0
149
0.0
100
AcDbLayout
  1
Model
 70
0
 71
0
 10
0.0
 20
0.0
 11
210.0
 21
297.0
 12
0.0
 22
0.0
 32
0.0
 14
0.0
 24
0.0
 34
0.0
 15
0.0
 25
0.0
 35
0.0
146
0.0
 13
0.0
 23
0.0
 33
0.0
 16
1.0
 26
0.0
 36
0.0
 17
0.0
 27
1.0
 37
0.0
 76
0
330
213
345
0
346
0
  0
LAYOUT
  5
2C9
102
{ACAD_REACTORS
330
1A
102
}
100
AcDbPlotSettings
  1

  2
none_device
  4

  6

 40
0.0
 41
0.0
 42
0.0
 43
0.0
 44
210.0
 45
297.0
 46
0.0
 47
0.0
 48
0.0
 49
0.0
140
0.0
141
0.0
142
1.0
143
1.0
 70
0
 72
1
 73
0
 74
0
  7

 75
0
147
1.0
148
0.0
149
0.0
100
AcDbLayout
  1
Layout1
 70
0
 71
1
 10
0.0
 20
0.0
 11
210.0
 21
297.0
 12
0.0
 22
0.0
 32
0.0
 14
0.0
 24
0.0
 34
0.0
 15
0.0
 25
0.0
 35
0.0
146
0.0
 13
0.0
 23
0.0
 33
0.0
 16
1.0
 26
0.0
 36
0.0
 17
0.0
 27
1.0
 37
0.0
 76
0
330
214
345
0
346
0
  0
ENDSEC
  0
EOF
