  0
SECTION
  2
HEADER
  9
$ACADVER
  1
AC1024
  9
$DWGCODEPAGE
  3
ANSI_1252
  9
$EXTMAX
 10
210.0
 20
297.0
 30
0.0
  9
$EXTMIN
 10
0.0
 20
0.0
 30
0.0
  9
$LIMMIN
 10
0.0
 20
0.0
  9
$LIMMAX
 10
210.0
 20
297.0
  9
$VIEWCTR
 10
105.0
 20
148.5
  9
$VIEWSIZE
 40
297.0
  9
$CLAYER
  8
0
  9
$LTSCALE
 40
19.36
  9
$CELTYPE
  6
BYLAYER
  9
$DIMSCALE
 40
1.0
  9
$DIMASZ
 40
3.0
  9
$DIMEXO
 40
0.5
  9
$DIMDLI
 40
13.376
  9
$DIMEXE
 40
1.5
  9
$DIMCEN
 40
3.168
  9
$DIMLFAC
 40
1.0
  9
$DIMBLK
  1
_FILLED
  9
$DIMALT
 70
0
  9
$DIMALTF
 40
0.0393700787
  9
$DIMTXT
 40
3.0
  9
$DIMTOL
 70
1
  9
$DIMLIM
 70
0
  9
$DIMTFAC
 40
1.0
  9
$DIMTP
 40
0.01
  9
$DIMTM
 40
0.01
  9
$DIMGAP
 40
0.625
  9
$DIMDSEP
 70
44
  9
$AUNITS
 70
0
  9
$PDMODE
 70
3
  9
$PDSIZE
 40
3.0
  9
$HANDSEED
  5
2B7
  9
$TILEMODE
 70
1
  9
$MEASUREMENT
 70
1
  9
$INSUNITS
 70
4
  0
ENDSEC
  0
SECTION
  2
CLASSES
  0
CLASS
  1
ACDBDICTIONARYWDFLT
  2
AcDbDictionaryWithDefault
  3
AutoCAD 2000
 90
0
 91
1
280
0
281
0
  0
CLASS
  1
ACDBPLACEHOLDER
  2
AcDbPlaceHolder
  3
AutoCAD 2000
 90
0
 91
1
280
0
281
0
  0
CLASS
  1
LAYOUT
  2
AcDbLayout
  3
AutoCAD 2000
 90
0
 91
0
280
0
281
0
  0
ENDSEC
  0
SECTION
  2
TABLES
  0
TABLE
  2
VPORT
  5
8
100
AcDbSymbolTable
 70
2
  0
VPORT
  5
1F4
100
AcDbSymbolTableRecord
100
AcDbViewportTableRecord
  2
*ACTIVE
 70
0
 10
0.0
 20
0.0
 11
1.0
 21
1.0
 12
105.0
 22
148.5
 13
0.0
 23
0.0
 14
1.0
 24
1.0
 15
0.0
 25
0.0
 16
0.0
 26
0.0
 36
1.0
 17
0.0
 27
0.0
 37
0.0
 40
297.0
 41
0.7070707071
 42
50.0
 43
0.0
 44
0.0
 50
0.0
 51
0.0
 71
0
 72
100
 73
1
 74
1
 75
0
 76
0
 77
0
 78
0
  0
ENDTAB
  0
TABLE
  2
LTYPE
  5
5
100
AcDbSymbolTable
 70
6
  0
LTYPE
  5
14
100
AcDbSymbolTableRecord
100
AcDbLinetypeTableRecord
  2
BYBLOCK
 70
0
  3

 72
65
 73
0
 40
0.0
  0
LTYPE
  5
15
100
AcDbSymbolTableRecord
100
AcDbLinetypeTableRecord
  2
BYLAYER
 70
0
  3

 72
65
 73
0
 40
0.0
  0
LTYPE
  5
16
100
AcDbSymbolTableRecord
100
AcDbLinetypeTableRecord
  2
CONTINUOUS
 70
64
  3
Solid line
 72
65
 73
0
 40
0.0
  0
LTYPE
  5
1F5
100
AcDbSymbolTableRecord
100
AcDbLinetypeTableRecord
  2
CENTER
 70
64
  3
____ _ ____ _ ____ _ ____ _ ____ _ ____ _ ____
 72
65
 73
4
 40
0.6
 49
0.375
 74
0
 49
-0.075
 74
0
 49
0.075
 74
0
 49
-0.075
 74
0
  0
LTYPE
  5
1F6
100
AcDbSymbolTableRecord
100
AcDbLinetypeTableRecord
  2
HIDDEN
 70
64
  3
- - - - - - - - - - - - - - - - - - - -
 72
65
 73
2
 40
0.2
 49
0.1
 74
0
 49
-0.1
 74
0
  0
LTYPE
  5
1F7
100
AcDbSymbolTableRecord
100
AcDbLinetypeTableRecord
  2
PHANTOM
 70
64
  3
_____ _ _ _____ _ _ _____ _ _ _____
 72
65
 73
6
 40
0.8
 49
0.45
 74
0
 49
-0.05
 74
0
 49
0.1
 74
0
 49
-0.05
 74
0
 49
0.1
 74
0
 49
-0.05
 74
0
  0
LTYPE
  5
1F8
100
AcDbSymbolTableRecord
100
AcDbLinetypeTableRecord
  2
DOT
 70
64
  3
. . . . . . . . . . . . . . . . . . . .
 72
65
 73
2
 40
0.2
 49
0.1
 74
0
 49
-0.1
 74
0
  0
LTYPE
  5
1F9
100
AcDbSymbolTableRecord
100
AcDbLinetypeTableRecord
  2
DASHED
 70
64
  3
- - - - - - - - - - - - - - - - - - - -
 72
65
 73
2
 40
0.2
 49
0.1
 74
0
 49
-0.1
 74
0
  0
ENDTAB
  0
TABLE
  2
LAYER
  5
2
100
AcDbSymbolTable
 70
36
  0
LAYER
  5
10
100
AcDbSymbolTableRecord
100
AcDbLayerTableRecord
  2
0
 70
0
 62
7
  6
CONTINUOUS
370
-3
390
F
  0
LAYER
  5
1FA
100
AcDbSymbolTableRecord
100
AcDbLayerTableRecord
  2
DEFAULT_1
 70
0
 62
7
  6
CENTER
370
-3
390
F
  0
LAYER
  5
1FB
100
AcDbSymbolTableRecord
100
AcDbLayerTableRecord
  2
DEFAULT_2
 70
0
 62
7
  6
HIDDEN
370
-3
390
F
  0
LAYER
  5
1FC
100
AcDbSymbolTableRecord
100
AcDbLayerTableRecord
  2
DEFAULT_3
 70
0
 62
7
  6
PHANTOM
370
-3
390
F
  0
LAYER
  5
1FD
100
AcDbSymbolTableRecord
100
AcDbLayerTableRecord
  2
ASSI
 70
0
 62
7
  6
CONTINUOUS
370
-3
390
F
  0
LAYER
  5
1FE
100
AcDbSymbolTableRecord
100
AcDbLayerTableRecord
  2
COORDINATE
 70
0
 62
7
  6
CONTINUOUS
370
-3
390
F
  0
LAYER
  5
1FF
100
AcDbSymbolTableRecord
100
AcDbLayerTableRecord
  2
COPY_PUBLISH
 70
0
 62
7
  6
CONTINUOUS
370
-3
390
F
  0
LAYER
  5
200
100
AcDbSymbolTableRecord
100
AcDbLayerTableRecord
  2
COSMETICI
 70
0
 62
7
  6
CONTINUOUS
370
-3
390
F
  0
LAYER
  5
201
100
AcDbSymbolTableRecord
100
AcDbLayerTableRecord
  2
CURVE
 70
0
 62
7
  6
CONTINUOUS
370
-3
390
F
  0
LAYER
  5
202
100
AcDbSymbolTableRecord
100
AcDbLayerTableRecord
  2
DRAFT
 70
0
 62
7
  6
CONTINUOUS
370
-3
390
F
  0
LAYER
  5
203
100
AcDbSymbolTableRecord
100
AcDbLayerTableRecord
  2
IMPORT_IGES
 70
0
 62
7
  6
CONTINUOUS
370
-3
390
F
  0
LAYER
  5
204
100
AcDbSymbolTableRecord
100
AcDbLayerTableRecord
  2
INTF_1
 70
0
 62
7
  6
CONTINUOUS
370
-3
390
F
  0
LAYER
  5
205
100
AcDbSymbolTableRecord
100
AcDbLayerTableRecord
  2
INTF_2
 70
0
 62
7
  6
CONTINUOUS
370
-3
390
F
  0
LAYER
  5
206
100
AcDbSymbolTableRecord
100
AcDbLayerTableRecord
  2
INTF_4
 70
0
 62
7
  6
CONTINUOUS
370
-3
390
F
  0
LAYER
  5
207
100
AcDbSymbolTableRecord
100
AcDbLayerTableRecord
  2
INTF_9
 70
0
 62
7
  6
CONTINUOUS
370
-3
390
F
  0
LAYER
  5
208
100
AcDbSymbolTableRecord
100
AcDbLayerTableRecord
  2
NOTE
 70
0
 62
7
  6
CONTINUOUS
370
-3
390
F
  0
LAYER
  5
209
100
AcDbSymbolTableRecord
100
AcDbLayerTableRecord
  2
PIANI
 70
0
 62
7
  6
CONTINUOUS
370
-3
390
F
  0
LAYER
  5
20A
100
AcDbSymbolTableRecord
100
AcDbLayerTableRecord
  2
PUNTI
 70
0
 62
7
  6
CONTINUOUS
370
-3
390
F
  0
LAYER
  5
20B
100
AcDbSymbolTableRecord
100
AcDbLayerTableRecord
  2
RACCORDO
 70
0
 62
7
  6
CONTINUOUS
370
-3
390
F
  0
LAYER
  5
20C
100
AcDbSymbolTableRecord
100
AcDbLayerTableRecord
  2
SIMBOLI
 70
0
 62
7
  6
CONTINUOUS
370
-3
390
F
  0
LAYER
  5
20D
100
AcDbSymbolTableRecord
100
AcDbLayerTableRecord
  2
SMUSSO
 70
0
 62
7
  6
CONTINUOUS
370
-3
390
F
  0
LAYER
  5
20E
100
AcDbSymbolTableRecord
100
AcDbLayerTableRecord
  2
SNAPLINE
 70
0
 62
7
  6
CONTINUOUS
370
-3
390
F
  0
LAYER
  5
20F
100
AcDbSymbolTableRecord
100
AcDbLayerTableRecord
  2
SUPERFICI
 70
0
 62
7
  6
CONTINUOUS
370
-3
390
F
  0
LAYER
  5
210
100
AcDbSymbolTableRecord
100
AcDbLayerTableRecord
  2
TRASH
 70
0
 62
7
  6
CONTINUOUS
370
-3
390
F
  0
ENDTAB
  0
TABLE
  2
STYLE
  5
3
100
AcDbSymbolTable
 70
1
  0
STYLE
  5
11
100
AcDbSymbolTableRecord
100
AcDbTextStyleTableRecord
  2
STANDARD
 70
0
 40
0.0
 41
0.8
 50
0.0
 71
0
 42
0.2
  3
txt
  4

  0
STYLE
  5
211
100
AcDbSymbolTableRecord
100
AcDbTextStyleTableRecord
  2
TEXTSTYLE_1
 70
0
 40
0.0
 41
0.8
 50
0.0
 71
0
 42
0.2
  3
gdt
  4

  0
ENDTAB
  0
TABLE
  2
VIEW
  5
6
100
AcDbSymbolTable
 70
0
  0
ENDTAB
  0
TABLE
  2
UCS
  5
7
100
AcDbSymbolTable
 70
0
  0
ENDTAB
  0
TABLE
  2
APPID
  5
9
100
AcDbSymbolTable
 70
1
  0
APPID
  5
212
100
AcDbSymbolTableRecord
100
AcDbRegAppTableRecord
  2
ACAD
 70
0
  0
ENDTAB
  0
TABLE
  2
BLOCK_RECORD
  5
1
100
AcDbSymbolTable
 70
0
  0
BLOCK_RECORD
  5
213
100
AcDbSymbolTableRecord
100
AcDbBlockTableRecord
  2
*Model_Space
  0
BLOCK_RECORD
  5
214
100
AcDbSymbolTableRecord
100
AcDbBlockTableRecord
  2
*Paper_Space
  0
BLOCK_RECORD
  5
215
100
AcDbSymbolTableRecord
100
AcDbBlockTableRecord
  2
_FILLED
  0
ENDTAB
  0
TABLE
  2
DIMSTYLE
  5
A
100
AcDbSymbolTable
 70
1
100
AcDbDimStyleTable
 71
0
  0
DIMSTYLE
105
216
100
AcDbSymbolTableRecord
100
AcDbDimStyleTableRecord
  2
STANDARD
 70
0
  3

  4

 40
1.0
 41
3.0
 42
0.5
 43
0.38
 44
1.5
 45
0.0
 46
0.0
 47
0.01
 48
0.01
140
3.0
141
0.09
142
0.0
143
25.4
144
1.0
145
0.0
146
1.0
147
0.625
 71
1
 72
0
 73
0
 74
0
 75
0
 76
0
 77
1
 78
8
 79
2
170
0
171
1
172
0
173
0
174
0
175
0
176
0
177
0
178
0
270
2
179
2
271
2
272
2
273
2
274
2
275
0
280
0
281
0
282
0
283
1
284
8
285
0
286
0
287
3
288
0
340
11
278
44
341
215
342
215
343
215
344
215
  0
ENDTAB
  0
ENDSEC
  0
SECTION
  2
BLOCKS
  0
BLOCK
  5
20
100
AcDbEntity
  8
0
100
AcDbBlockBegin
  2
*Model_Space
 70
0
 10
0.0
 20
0.0
 30
0.0
  3
*Model_Space
  1

  0
ENDBLK
  5
21
100
AcDbEntity
  8
0
100
AcDbBlockEnd
  0
BLOCK
  5
1C
100
AcDbEntity
  8
0
100
AcDbBlockBegin
  2
*Paper_Space
 70
0
 10
0.0
 20
0.0
 30
0.0
  3
*Paper_Space
  1

  0
ENDBLK
  5
1D
100
AcDbEntity
  8
0
100
AcDbBlockEnd
  0
BLOCK
  5
217
100
AcDbEntity
  8
0
100
AcDbBlockBegin
  2
_FILLED
 70
64
 10
0.0
 20
0.0
  3
_FILLED
  1

  0
SOLID
  5
218
100
AcDbEntity
  8
0
  6
BYBLOCK
 62
0
100
AcDbTrace
 10
0.0
 20
0.0
 11
-1.0
 21
0.3166666667
 12
-1.0
 22
-0.3166666667
 13
-1.0
 23
-0.3166666667
  0
ENDBLK
  5
219
100
AcDbEntity
  8
0
  6
BYBLOCK
 62
0
100
AcDbBlockEnd
  0
ENDSEC
  0
SECTION
  2
ENTITIES
  0
LWPOLYLINE
  5
21A
100
AcDbEntity
  8
ASSI
100
AcDbPolyline
 62
250
  6
CONTINUOUS
 90
16
 70
0
 10
-9.2930855137
 20
25.1775792508
 10
-9.3293666842
 20
25.1533707255
 10
-9.3651654286
 20
25.1251517769
 10
-9.4001024819
 20
25.0932213668
 10
-9.4338077081
 20
25.0579177775
 10
-9.4659240217
 20
25.0196150281
 10
-9.4961111707
 20
24.9787189123
 10
-9.5240493412
 20
24.9356626983
 10
-9.5494425461
 20
24.8909025395
 10
-9.5720217605
 20
24.8449126414
 10
-9.591547772
 20
24.7981802376
 10
-9.6078137148
 20
24.7512004284
 10
-9.6206472616
 20
24.7044709352
 10
-9.6299124491
 20
24.6584868273
 10
-9.6355111185
 20
24.6137352772
 10
-9.6373839554
 20
24.5706903992
  0
LINE
  5
21B
100
AcDbEntity
  8
ASSI
100
AcDbLine
 62
7
  6
CONTINUOUS
 10
-7.9724665055
 20
26.2069248432
 11
-9.5532045149
 21
25.1960612119
  0
LINE
  5
21C
100
AcDbEntity
  8
ASSI
100
AcDbLine
 62
250
  6
CONTINUOUS
 10
-7.7446109542
 20
26.1678107799
 11
-9.2930855137
 21
25.1775792508
  0
LWPOLYLINE
  5
21D
100
AcDbEntity
  8
ASSI
100
AcDbPolyline
 62
250
  6
CONTINUOUS
 90
16
 70
0
 10
5.2308302129
 20
-26.1658024014
 10
5.2685145342
 20
-26.1854552516
 10
5.3096204331
 20
-26.2028619034
 10
5.3537559168
 20
-26.2178136498
 10
5.4005499923
 20
-26.2301379859
 10
5.4494776956
 20
-26.2396520745
 10
5.4998427057
 20
-26.2462022323
 10
5.5510363002
 20
-26.2497160431
 10
5.6025833779
 20
-26.2501675258
 10
5.653954559
 20
-26.247550556
 10
5.7046147199
 20
-26.2418881297
 10
5.7540110597
 20
-26.2332377062
 10
5.8015994657
 20
-26.2216929266
 10
5.8468676994
 20
-26.2073786483
 10
5.8893390179
 20
-26.1904462423
 10
5.9285608914
 20
-26.1710761401
  0
LINE
  5
21E
100
AcDbEntity
  8
ASSI
100
AcDbLine
 62
7
  6
CONTINUOUS
 10
-9.5338426449
 20
-17.8099503136
 11
5.3343715234
 21
-26.3946708319
  0
LINE
  5
21F
100
AcDbEntity
  8
ASSI
100
AcDbLine
 62
250
  6
CONTINUOUS
 10
-9.6373839554
 20
-17.581081883
 11
5.2308302129
 21
-26.1658024014
  0
LWPOLYLINE
  5
220
100
AcDbEntity
  8
ASSI
100
AcDbPolyline
 62
250
  6
CONTINUOUS
 90
9
 70
0
 10
-9.6373839554
 20
-17.581081883
 10
-9.6711754761
 20
-17.5594975935
 10
-9.7011735863
 20
-17.5359357531
 10
-9.7270080368
 20
-17.5106116286
 10
-9.7483558839
 20
-17.483747578
 10
-9.7649044071
 20
-17.4556218829
 10
-9.7763872563
 20
-17.4265727294
 10
-9.7826374304
 20
-17.3968766748
 10
-9.7838305648
 20
-17.3769445864
  0
LWPOLYLINE
  5
221
100
AcDbEntity
  8
ASSI
100
AcDbPolyline
 62
250
  6
CONTINUOUS
 90
9
 70
0
 10
5.3343715234
 20
-26.3946708319
 10
5.3187716223
 20
-26.3844620065
 10
5.2961924078
 20
-26.3645460192
 10
5.2766663964
 20
-26.3403617641
 10
5.2604004535
 20
-26.3121654579
 10
5.2475669067
 20
-26.2802558229
 10
5.2383017193
 20
-26.2449709212
 10
5.2327030499
 20
-26.2066845742
 10
5.2308302129
 20
-26.1658024014
  0
LWPOLYLINE
  5
222
100
AcDbEntity
  8
CURVE
100
AcDbPolyline
 62
250
  6
CONTINUOUS
 90
64
 70
0
 10
-3.6785489811
 20
14.0884257347
 10
-3.6198364551
 20
14.1168396614
 10
-3.5590226038
 20
14.1416044991
 10
-3.4962250583
 20
14.1626899152
 10
-3.4315614498
 20
14.1800655772
 10
-3.3651494096
 20
14.1937011526
 10
-3.2971065689
 20
14.203566309
 10
-3.2275505588
 20
14.2096307137
 10
-3.1565990107
 20
14.2118640343
 10
-3.0843695558
 20
14.2102359382
 10
-3.0109798252
 20
14.204716093
 10
-2.934719984
 20
14.1950068434
 10
-2.8574552786
 20
14.1812175247
 10
-2.7792747932
 20
14.1633831371
 10
-2.700267612
 20
14.1415386813
 10
-2.620522819
 20
14.1157191575
 10
-2.5377515134
 20
14.0850264447
 10
-2.4544304838
 20
14.0502310206
 10
-2.3706974307
 20
14.011406556
 10
-2.2866900546
 20
13.9686267218
 10
-2.2025460561
 20
13.9219651886
 10
-2.1302753293
 20
13.8788493739
 10
-2.0580897278
 20
13.8329787146
 10
-1.9860735818
 20
13.7844071679
 10
-1.9143112215
 20
13.7331886908
 10
-1.8428869771
 20
13.6793772404
 10
-1.7718851786
 20
13.6230267738
 10
-1.7034187608
 20
13.5659275789
 10
-1.6354948567
 20
13.5065374503
 10
-1.5681780901
 20
13.4449088638
 10
-1.5015330851
 20
13.3810942954
 10
-1.4356244655
 20
13.3151462212
 10
-1.3705168554
 20
13.2471171171
 10
-1.2953661216
 20
13.1648741186
 10
-1.2215113036
 20
13.0799998566
 10
-1.1490608314
 20
12.9926458608
 10
-1.078123135
 20
12.9029636612
 10
-1.0088066445
 20
12.8111047875
 10
-0.94121979
 20
12.7172207696
 10
-0.8754710015
 20
12.6214631373
 10
-0.8116687091
 20
12.5239834204
 10
-0.7499213427
 20
12.4249331487
 10
-0.6903373325
 20
12.324463852
 10
-0.6330183935
 20
12.2227249303
 10
-0.5780433531
 20
12.1198643764
 10
-0.5254842708
 20
12.0160280825
 10
-0.4754132063
 20
11.9113619411
 10
-0.427902219
 20
11.8060118444
 10
-0.3830233687
 20
11.7001236848
 10
-0.3408487148
 20
11.5938433547
 10
-0.301450317
 20
11.4873167464
 10
-0.2649002348
 20
11.3806897522
 10
-0.2312705277
 20
11.2741082645
 10
-0.2023691003
 20
11.1740631315
 10
-0.1761322074
 20
11.0743393293
 10
-0.1525783869
 20
10.9750889484
 10
-0.1317261771
 20
10.8764640793
 10
-0.113594116
 20
10.7786168125
 10
-0.0982007418
 20
10.6816992385
 10
-0.0855645926
 20
10.5858634478
 10
-0.0757042064
 20
10.4912615309
 10
-0.0686381215
 20
10.3980455782
 10
-0.064384876
 20
10.3063676803
 10
-0.0629630079
 20
10.2163799277
  0
LINE
  5
223
100
AcDbEntity
  8
CURVE
100
AcDbLine
 62
250
  6
CONTINUOUS
 10
-2.3716079525
 20
-14.2638167505
 11
-0.4558979341
 21
-14.267861588
  0
LINE
  5
224
100
AcDbEntity
  8
CURVE
100
AcDbLine
 62
250
  6
CONTINUOUS
 10
-4.3194738359
 20
-13.1391434019
 11
-2.4183801198
 21
-13.1431874239
  0
LINE
  5
225
100
AcDbEntity
  8
CURVE
100
AcDbLine
 62
250
  6
CONTINUOUS
 10
-0.4558979341
 20
-15.3479837248
 11
-0.102183419
 21
-15.5522140527
  0
LINE
  5
226
100
AcDbEntity
  8
CURVE
100
AcDbLine
 62
7
  6
CONTINUOUS
 10
-4.9733033522
 20
13.0464858289
 11
-4.213527901
 21
13.80626128
  0
LINE
  5
227
100
AcDbEntity
  8
CURVE
100
AcDbLine
 62
7
  6
CONTINUOUS
 10
-3.7435126649
 20
14.2762765162
 11
-3.5170749909
 21
14.5027141901
  0
LINE
  5
228
100
AcDbEntity
  8
CURVE
100
AcDbLine
 62
7
  6
CONTINUOUS
 10
-4.5665967521
 20
12.4575860811
 11
-3.957849976
 21
13.0663328571
  0
LINE
  5
229
100
AcDbEntity
  8
CURVE
100
AcDbLine
 62
7
  6
CONTINUOUS
 10
-2.8466999417
 20
14.1774828914
 11
-2.6195800589
 21
14.4046027743
  0
LINE
  5
22A
100
AcDbEntity
  8
CURVE
100
AcDbLine
 62
7
  6
CONTINUOUS
 10
-4.3961650907
 20
11.6324113945
 11
-4.2212742707
 21
11.8073022145
  0
LINE
  5
22B
100
AcDbEntity
  8
CURVE
100
AcDbLine
 62
7
  6
CONTINUOUS
 10
-2.1438866043
 20
13.8846898809
 11
-1.9691429121
 21
14.0594335732
  0
LINE
  5
22C
100
AcDbEntity
  8
ASSI
100
AcDbLine
 62
250
  6
CONTINUOUS
 10
5.5751286547
 20
16.5928587325
 11
7.2068803699
 21
17.5350070755
  0
LWPOLYLINE
  5
22D
100
AcDbEntity
  8
ASSI
100
AcDbPolyline
 62
250
  6
CONTINUOUS
 90
9
 70
0
 10
-9.6373839554
 20
-17.581081883
 10
-9.6355111185
 20
-17.6219640559
 10
-9.6299124491
 20
-17.6602504029
 10
-9.6206472616
 20
-17.6955353045
 10
-9.6078137148
 20
-17.7274449396
 10
-9.591547772
 20
-17.7556412457
 10
-9.5720217605
 20
-17.7798255009
 10
-9.5494425461
 20
-17.7997414882
 10
-9.5338426449
 20
-17.8099503136
  0
LINE
  5
22E
100
AcDbEntity
  8
ASSI
100
AcDbLine
 62
7
  6
CONTINUOUS
 10
-9.7838305648
 20
24.7748276958
 11
-9.7838305648
 21
4.3018863259
  0
LINE
  5
22F
100
AcDbEntity
  8
ASSI
100
AcDbLine
 62
7
  6
CONTINUOUS
 10
-9.7838305648
 20
3.0959967836
 11
-9.7838305648
 21
-17.3769445864
  0
LWPOLYLINE
  5
230
100
AcDbEntity
  8
ASSI
100
AcDbPolyline
 62
250
  6
CONTINUOUS
 90
16
 70
0
 10
-9.6373839554
 20
2.8918594869
 10
-9.6354716847
 20
2.9353654311
 10
-9.6297572275
 20
2.9805989032
 10
-9.6203048534
 20
3.027069826
 10
-9.6072278719
 20
3.074247458
 10
-9.5906652758
 20
3.1216493628
 10
-9.5707601191
 20
3.1688468042
 10
-9.5476603799
 20
3.2154250896
 10
-9.5216432536
 20
3.2607699624
 10
-9.4931193692
 20
3.3041808013
 10
-9.4624505116
 20
3.3451684991
 10
-9.4299619196
 20
3.3833551587
 10
-9.3960852558
 20
3.4182941028
 10
-9.3612237197
 20
3.449645197
 10
-9.3257363964
 20
3.4771582722
 10
-9.2900009223
 20
3.5006070587
  0
LWPOLYLINE
  5
231
100
AcDbEntity
  8
CURVE
100
AcDbPolyline
 62
250
  6
CONTINUOUS
 90
61
 70
0
 10
-5.2030293085
 20
13.2550728047
 10
-5.2036653312
 20
13.2538985762
 10
-5.2042536265
 20
13.2526631131
 10
-5.2047940908
 20
13.2513687797
 10
-5.2052866206
 20
13.2500179399
 10
-5.2057311125
 20
13.2486129578
 10
-5.2061274628
 20
13.2471561974
 10
-5.206475568
 20
13.2456500229
 10
-5.2067753246
 20
13.2440967982
 10
-5.207026629
 20
13.2424988874
 10
-5.2072293778
 20
13.2408586546
 10
-5.2073834673
 20
13.2391784638
 10
-5.2074887941
 20
13.2374606791
 10
-5.2075452546
 20
13.2357076644
 10
-5.2075527452
 20
13.233921784
 10
-5.2075111625
 20
13.2321054018
 10
-5.2074204029
 20
13.2302608819
 10
-5.2072803629
 20
13.2283905883
 10
-5.2070909389
 20
13.226496885
 10
-5.2068520274
 20
13.2245821363
 10
-5.2065635249
 20
13.222648706
 10
-5.2062253278
 20
13.2206989582
 10
-5.2058373326
 20
13.2187352571
 10
-5.2053994358
 20
13.2167599666
 10
-5.2049115338
 20
13.2147754508
 10
-5.204373523
 20
13.2127840738
 10
-5.2037853001
 20
13.2107881996
 10
-5.2031467613
 20
13.2087901922
 10
-5.2024578033
 20
13.2067924158
 10
-5.2017183224
 20
13.2047972343
 10
-5.2009282151
 20
13.2028070118
 10
-5.2000848882
 20
13.2008175934
 10
-5.1991924322
 20
13.198837585
 10
-5.1982527796
 20
13.1968690259
 10
-5.197267863
 20
13.1949139553
 10
-5.1962396152
 20
13.1929744121
 10
-5.1951699687
 20
13.1910524356
 10
-5.1940608561
 20
13.189150065
 10
-5.19291421
 20
13.1872693392
 10
-5.1917319632
 20
13.1854122976
 10
-5.1905160481
 20
13.1835809792
 10
-5.1892683974
 20
13.1817774232
 10
-5.1879909438
 20
13.1800036687
 10
-5.1866856199
 20
13.1782617548
 10
-5.1853543582
 20
13.1765537207
 10
-5.1839990914
 20
13.1748816055
 10
-5.1826217522
 20
13.1732474483
 10
-5.1812242731
 20
13.1716532884
 10
-5.1798085869
 20
13.1701011648
 10
-5.1783766259
 20
13.1685931166
 10
-5.1769303231
 20
13.1671311831
 10
-5.1754716108
 20
13.1657174033
 10
-5.1740024218
 20
13.1643538164
 10
-5.1725246888
 20
13.1630424616
 10
-5.1710403442
 20
13.1617853778
 10
-5.1695513207
 20
13.1605846044
 10
-5.168059551
 20
13.1594421805
 10
-5.1665669677
 20
13.1583601451
 10
-5.1650755033
 20
13.1573405374
 10
-5.1635870906
 20
13.1563853965
 10
-5.1621036621
 20
13.1554967617
  0
LINE
  5
232
100
AcDbEntity
  8
CURVE
100
AcDbLine
 62
250
  6
CONTINUOUS
 10
-4.5070497151
 20
14.4660927883
 11
-5.2030293085
 21
13.2550728047
  0
LINE
  5
233
100
AcDbEntity
  8
CURVE
100
AcDbLine
 62
7
  6
CONTINUOUS
 10
-4.1166017488
 20
10.9163683885
 11
-3.9639036647
 21
11.0690664726
  0
LINE
  5
234
100
AcDbEntity
  8
CURVE
100
AcDbLine
 62
7
  6
CONTINUOUS
 10
-2.2780636179
 20
12.7549065194
 11
-2.1271911198
 21
12.9057790175
  0
LINE
  5
235
100
AcDbEntity
  8
CURVE
100
AcDbLine
 62
7
  6
CONTINUOUS
 10
-1.5787859482
 20
13.4541841891
 11
-1.4261606195
 21
13.6068095179
  0
LINE
  5
236
100
AcDbEntity
  8
CURVE
100
AcDbLine
 62
7
  6
CONTINUOUS
 10
-3.7639487727
 20
10.2734150168
 11
-3.6173114337
 21
10.4200523557
  0
LINE
  5
237
100
AcDbEntity
  8
CURVE
100
AcDbLine
 62
7
  6
CONTINUOUS
 10
-3.2033225565
 20
10.834041233
 11
-2.792698948
 21
11.2446648415
  0
LINE
  5
238
100
AcDbEntity
  8
CURVE
100
AcDbLine
 62
7
  6
CONTINUOUS
 10
-2.2780636179
 20
11.7593001715
 11
-1.736111795
 21
12.3012519945
  0
LINE
  5
239
100
AcDbEntity
  8
CURVE
100
AcDbLine
 62
7
  6
CONTINUOUS
 10
-1.1042141248
 20
12.9331496647
 11
-0.957719384
 21
13.0796444054
  0
LINE
  5
23A
100
AcDbEntity
  8
ASSI
100
AcDbLine
 62
250
  6
CONTINUOUS
 10
5.9285608914
 20
15.9806961421
 11
7.6568172208
 21
16.9785647651
  0
LINE
  5
23B
100
AcDbEntity
  8
CURVE
100
AcDbLine
 62
250
  6
CONTINUOUS
 10
-0.102183419
 20
-12.9632963062
 11
-0.4558979341
 21
-12.7590659783
  0
LWPOLYLINE
  5
23C
100
AcDbEntity
  8
CURVE
100
AcDbPolyline
 62
250
  6
CONTINUOUS
 90
60
 70
0
 10
-4.3194738359
 20
-10.50578313
 10
-4.3204224682
 20
-10.5047132782
 10
-4.321391693
 20
-10.5036702561
 10
-4.3223800343
 20
-10.5026550238
 10
-4.3233860165
 20
-10.5016685412
 10
-4.3244081638
 20
-10.5007117683
 10
-4.3254450004
 20
-10.4997856651
 10
-4.3264950506
 20
-10.4988911916
 10
-4.3275568385
 20
-10.4980293078
 10
-4.3286288885
 20
-10.4972009736
 10
-4.3297097248
 20
-10.4964071491
 10
-4.3307978715
 20
-10.4956487942
 10
-4.331891853
 20
-10.494926869
 10
-4.3329901934
 20
-10.4942423334
 10
-4.334091417
 20
-10.4935961475
 10
-4.3351940481
 20
-10.4929892711
 10
-4.3362966108
 20
-10.4924226643
 10
-4.3373976294
 20
-10.4918972871
 10
-4.3384956282
 20
-10.4914140995
 10
-4.3395891313
 20
-10.4909740614
 10
-4.3406766631
 20
-10.4905781329
 10
-4.3417567477
 20
-10.4902272739
 10
-4.3428279094
 20
-10.4899224445
 10
-4.3438886724
 20
-10.4896646045
 10
-4.3449375609
 20
-10.4894547141
 10
-4.3459730992
 20
-10.4892937331
 10
-4.3469938116
 20
-10.4891826217
 10
-4.3479982221
 20
-10.4891223397
 10
-4.3489848552
 20
-10.4891138472
 10
-4.349952235
 20
-10.4891581041
 10
-4.3508988858
 20
-10.4892560705
 10
-4.3518519785
 20
-10.4894139621
 10
-4.3527807918
 20
-10.4896286429
 10
-4.3536846593
 20
-10.4898987657
 10
-4.3545629146
 20
-10.4902229832
 10
-4.3554148912
 20
-10.4905999484
 10
-4.3562399226
 20
-10.491028314
 10
-4.3570373426
 20
-10.4915067327
 10
-4.3578064846
 20
-10.4920338576
 10
-4.3585466822
 20
-10.4926083413
 10
-4.3592572689
 20
-10.4932288367
 10
-4.3599375784
 20
-10.4938939967
 10
-4.3605869442
 20
-10.4946024739
 10
-4.3612046999
 20
-10.4953529213
 10
-4.361790179
 20
-10.4961439917
 10
-4.3623427151
 20
-10.4969743378
 10
-4.3628616417
 20
-10.4978426126
 10
-4.3633462925
 20
-10.4987474688
 10
-4.363796001
 20
-10.4996875592
 10
-4.3642101008
 20
-10.5006615367
 10
-4.3645879254
 20
-10.501668054
 10
-4.3649288084
 20
-10.5027057641
 10
-4.3652320834
 20
-10.5037733197
 10
-4.3654970839
 20
-10.5048693736
 10
-4.3657231436
 20
-10.5059925787
 10
-4.3659095959
 20
-10.5071415877
 10
-4.3660557744
 20
-10.5083150535
 10
-4.3661610128
 20
-10.509511629
 10
-4.3662246445
 20
-10.5107299669
 10
-4.3662460032
 20
-10.51196872
  0
LINE
  5
23D
100
AcDbEntity
  8
CURVE
100
AcDbLine
 62
250
  6
CONTINUOUS
 10
-2.4183801198
 20
-12.6976370425
 11
-4.3194738359
 21
-10.50578313
  0
LWPOLYLINE
  5
23E
100
AcDbEntity
  8
ASSI
100
AcDbPolyline
 62
250
  6
CONTINUOUS
 90
9
 70
0
 10
-9.783830511
 20
3.0958627555
 10
-9.7828988978
 20
3.0783812702
 10
-9.7770465106
 20
3.0486016393
 10
-9.7659291576
 20
3.0194391531
 10
-9.7496830714
 20
2.9911386379
 10
-9.7284634025
 20
2.9639508581
 10
-9.7024769376
 20
2.9381520866
 10
-9.6720094529
 20
2.9140352959
 10
-9.6373839554
 20
2.8918594869
  0
LINE
  5
23F
100
AcDbEntity
  8
ASSI
100
AcDbLine
 62
250
  6
CONTINUOUS
 10
-9.6373839554
 20
24.5706903992
 11
-9.6373839554
 21
4.0977490292
  0
LINE
  5
240
100
AcDbEntity
  8
ASSI
100
AcDbLine
 62
250
  6
CONTINUOUS
 10
-9.6373839554
 20
2.8918594869
 11
-9.6373839554
 21
-17.581081883
  0
LINE
  5
241
100
AcDbEntity
  8
CURVE
100
AcDbLine
 62
7
  6
CONTINUOUS
 10
-3.3469112341
 20
9.6948462075
 11
-3.19929276
 21
9.8424646815
  0
LINE
  5
242
100
AcDbEntity
  8
CURVE
100
AcDbLine
 62
7
  6
CONTINUOUS
 10
-2.7992083742
 20
10.2425490673
 11
-1.9667363794
 21
11.0750210621
  0
LINE
  5
243
100
AcDbEntity
  8
CURVE
100
AcDbLine
 62
7
  6
CONTINUOUS
 10
-1.6852575403
 20
11.3564999012
 11
-1.3806226581
 21
11.6611347834
  0
LINE
  5
244
100
AcDbEntity
  8
CURVE
100
AcDbLine
 62
7
  6
CONTINUOUS
 10
-0.7006097399
 20
12.3411477017
 11
-0.5538771555
 21
12.487880286
  0
LINE
  5
245
100
AcDbEntity
  8
CURVE
100
AcDbLine
 62
7
  6
CONTINUOUS
 10
-2.8614535105
 20
9.1846975831
 11
-2.7038081083
 21
9.3423429854
  0
LINE
  5
246
100
AcDbEntity
  8
CURVE
100
AcDbLine
 62
7
  6
CONTINUOUS
 10
-0.3739171602
 20
11.6722339334
 11
-0.2158804892
 21
11.8302706044
  0
LINE
  5
247
100
AcDbEntity
  8
CURVE
100
AcDbLine
 62
7
  6
CONTINUOUS
 10
-2.2959878685
 20
8.7545568772
 11
-2.1161813282
 21
8.9343634175
  0
LINE
  5
248
100
AcDbEntity
  8
CURVE
100
AcDbLine
 62
7
  6
CONTINUOUS
 10
-0.6454360651
 20
10.4051086806
 11
-0.5518738343
 21
10.4986709114
  0
LINE
  5
249
100
AcDbEntity
  8
CURVE
100
AcDbLine
 62
7
  6
CONTINUOUS
 10
-0.1406565777
 20
10.909888168
 11
0.0401395876
 21
11.0906843333
  0
LINE
  5
24A
100
AcDbEntity
  8
ASSI
100
AcDbLine
 62
7
  6
CONTINUOUS
 10
-9.5500876182
 20
3.5192073477
 11
-9.2524946842
 21
3.7064338123
  0
LINE
  5
24B
100
AcDbEntity
  8
ASSI
100
AcDbLine
 62
250
  6
CONTINUOUS
 10
-9.2900009223
 20
3.5006070587
 11
-9.1014572525
 21
3.6192266921
  0
LWPOLYLINE
  5
24C
100
AcDbEntity
  8
CURVE
100
AcDbPolyline
 62
250
  6
CONTINUOUS
 90
34
 70
0
 10
-0.7284919715
 20
8.8145085393
 10
-0.7648850126
 20
8.796360577
 10
-0.8020896771
 20
8.7796176303
 10
-0.8400829186
 20
8.7642900413
 10
-0.8788416907
 20
8.7503881521
 10
-0.9183429467
 20
8.7379223047
 10
-0.9585636403
 20
8.7269028413
 10
-0.9994807249
 20
8.7173401039
 10
-1.041071154
 20
8.7092444345
 10
-1.0833118812
 20
8.7026261753
 10
-1.1261798599
 20
8.6974956683
 10
-1.1696520437
 20
8.6938632556
 10
-1.213705386
 20
8.6917392792
 10
-1.2583168404
 20
8.6911340813
 10
-1.3034633604
 20
8.6920580039
 10
-1.3491218994
 20
8.6945213891
 10
-1.395269411
 20
8.698534579
 10
-1.4406390371
 20
8.7039360982
 10
-1.4864207161
 20
8.710803261
 10
-1.5325849683
 20
8.7191232455
 10
-1.579102314
 20
8.7288832295
 10
-1.6259432736
 20
8.7400703912
 10
-1.6730783673
 20
8.7526719085
 10
-1.7204781155
 20
8.7666749594
 10
-1.7681130383
 20
8.7820667219
 10
-1.8159536562
 20
8.798834374
 10
-1.8639704894
 20
8.8169650937
 10
-1.9121340583
 20
8.836446059
 10
-1.960414883
 20
8.8572644479
 10
-2.008783484
 20
8.8794074385
 10
-2.0572103815
 20
8.9028622086
 10
-2.1056660958
 20
8.9276159364
 10
-2.1541211473
 20
8.9536557997
 10
-2.2025460561
 20
8.9809689767
  0
LWPOLYLINE
  5
24D
100
AcDbEntity
  8
CURVE
100
AcDbPolyline
 62
250
  6
CONTINUOUS
 90
61
 70
0
 10
-2.3716079525
 20
-11.6304564786
 10
-2.3725613932
 20
-11.6293868815
 10
-2.3735353784
 20
-11.6283435759
 10
-2.3745284244
 20
-11.6273275646
 10
-2.3755390475
 20
-11.6263398504
 10
-2.376565764
 20
-11.625381436
 10
-2.3776070904
 20
-11.6244533244
 10
-2.3786615429
 20
-11.6235565182
 10
-2.3797276379
 20
-11.6226920202
 10
-2.3808038918
 20
-11.6218608332
 10
-2.3818888208
 20
-11.62106396
 10
-2.3829809413
 20
-11.6203024034
 10
-2.3840787697
 20
-11.6195771661
 10
-2.3851808224
 20
-11.6188892509
 10
-2.3862856155
 20
-11.6182396607
 10
-2.3873916655
 20
-11.6176293981
 10
-2.3884974888
 20
-11.617059466
 10
-2.3896016016
 20
-11.6165308672
 10
-2.3907025203
 20
-11.6160446044
 10
-2.3917987613
 20
-11.6156016804
 10
-2.3928888409
 20
-11.615203098
 10
-2.3939712754
 20
-11.61484986
 10
-2.3950445812
 20
-11.6145429691
 10
-2.3961072746
 20
-11.6142834282
 10
-2.3971578719
 20
-11.61407224
 10
-2.3981948896
 20
-11.6139104073
 10
-2.3992168439
 20
-11.6137989329
 10
-2.4002222511
 20
-11.6137388195
 10
-2.4012096277
 20
-11.61373107
 10
-2.40217749
 20
-11.6137766871
 10
-2.4031243543
 20
-11.6138766736
 10
-2.4040420796
 20
-11.6140302974
 10
-2.4049370695
 20
-11.6142372315
 10
-2.405808736
 20
-11.6144962363
 10
-2.4066564917
 20
-11.6148060719
 10
-2.4074797487
 20
-11.6151654986
 10
-2.4082779193
 20
-11.6155732768
 10
-2.409050416
 20
-11.6160281666
 10
-2.409796651
 20
-11.6165289284
 10
-2.4105160365
 20
-11.6170743224
 10
-2.411207985
 20
-11.6176631088
 10
-2.4118719087
 20
-11.618294048
 10
-2.4125072199
 20
-11.6189659002
 10
-2.4131133309
 20
-11.6196774257
 10
-2.4136896541
 20
-11.6204273847
 10
-2.4142356017
 20
-11.6212145375
 10
-2.4147505861
 20
-11.6220376444
 10
-2.4152340196
 20
-11.6228954656
 10
-2.4156853144
 20
-11.6237867615
 10
-2.4161038829
 20
-11.6247102922
 10
-2.4164891374
 20
-11.6256648181
 10
-2.4168404902
 20
-11.6266490994
 10
-2.4171573536
 20
-11.6276618963
 10
-2.41743914
 20
-11.6287019692
 10
-2.4176852615
 20
-11.6297680784
 10
-2.4178951306
 20
-11.630858984
 10
-2.4180681595
 20
-11.6319734463
 10
-2.4182037606
 20
-11.6331102257
 10
-2.4183013461
 20
-11.6342680824
 10
-2.4183603284
 20
-11.6354457766
 10
-2.4183801198
 20
-11.6366420686
  0
LINE
  5
24E
100
AcDbEntity
  8
CURVE
100
AcDbLine
 62
250
  6
CONTINUOUS
 10
-0.4558979341
 20
-13.839188115
 11
-2.3716079525
 21
-11.6304564786
  0
LINE
  5
24F
100
AcDbEntity
  8
CURVE
100
AcDbLine
 62
7
  6
CONTINUOUS
 10
-1.6120376232
 20
8.4429007746
 11
-1.3582800402
 21
8.6966583576
  0
LINE
  5
250
100
AcDbEntity
  8
CURVE
100
AcDbLine
 62
7
  6
CONTINUOUS
 10
-0.3897583072
 20
9.6651800906
 11
0.1777559038
 21
10.2326943016
  0
LINE
  5
251
100
AcDbEntity
  8
CURVE
100
AcDbLine
 62
7
  6
CONTINUOUS
 10
-0.1340805493
 20
8.9252515006
 11
0.7104746611
 21
9.769806711
  0
LWPOLYLINE
  5
252
100
AcDbEntity
  8
CURVE
100
AcDbPolyline
 62
250
  6
CONTINUOUS
 90
64
 70
0
 10
-4.589631823
 20
12.8249586965
 10
-4.5878903484
 20
12.7245879686
 10
-4.5829985763
 20
12.6223436582
 10
-4.5749773376
 20
12.518394772
 10
-4.5638474634
 20
12.4129103167
 10
-4.5496297847
 20
12.3060592988
 10
-4.5323451327
 20
12.198010725
 10
-4.5120143384
 20
12.0889336018
 10
-4.4886582329
 20
11.9789969359
 10
-4.4622976472
 20
11.868369734
 10
-4.4329534124
 20
11.7572210025
 10
-4.4006463596
 20
11.6457197483
 10
-4.3630667305
 20
11.526926064
 10
-4.3222391778
 20
11.4080869441
 10
-4.2782436965
 20
11.2893645431
 10
-4.2311602817
 20
11.1709210152
 10
-4.1810689286
 20
11.052918515
 10
-4.1280496324
 20
10.9355191969
 10
-4.0721823882
 20
10.8188852152
 10
-4.0135471911
 20
10.7031787244
 10
-3.9522240362
 20
10.5885618789
 10
-3.8882929187
 20
10.4751968331
 10
-3.8218420375
 20
10.3632491633
 10
-3.7529839767
 20
10.2528840525
 10
-3.6818394179
 20
10.1442701649
 10
-3.6085290428
 20
10.0375761647
 10
-3.533173533
 20
9.9329707162
 10
-3.4558935703
 20
9.8306224836
 10
-3.3768098363
 20
9.7307001312
 10
-3.2960430126
 20
9.6333723231
 10
-3.213713781
 20
9.5388077236
 10
-3.1299428229
 20
9.447174997
 10
-3.0573679363
 20
9.3713777908
 10
-2.9839017741
 20
9.2978988735
 10
-2.9096160837
 20
9.2267962863
 10
-2.8345826124
 20
9.1581280704
 10
-2.7588731074
 20
9.0919522672
 10
-2.682559316
 20
9.028326918
 10
-2.60341722
 20
8.9655312165
 10
-2.5238049525
 20
8.9055629704
 10
-2.4438171079
 20
8.8484832858
 10
-2.3635482807
 20
8.7943532688
 10
-2.2830930653
 20
8.7432340253
 10
-2.2025460561
 20
8.6951866613
 10
-2.1127308043
 20
8.645301893
 10
-2.0230532694
 20
8.5993878453
 10
-1.9336476855
 20
8.5575190678
 10
-1.8446482864
 20
8.5197701099
 10
-1.7561893064
 20
8.4862155213
 10
-1.6708690859
 20
8.4576923009
 10
-1.586273874
 20
8.4332339353
 10
-1.5024916138
 20
8.4128741988
 10
-1.4196102483
 20
8.3966468661
 10
-1.3377177208
 20
8.3845857115
 10
-1.2587968099
 20
8.376851026
 10
-1.1810180063
 20
8.3730923306
 10
-1.1044967313
 20
8.3732810573
 10
-1.0293484062
 20
8.3773886379
 10
-0.9556884524
 20
8.3853865046
 10
-0.8836322911
 20
8.3972460891
 10
-0.8132953438
 20
8.4129388237
 10
-0.7447930317
 20
8.4324361401
 10
-0.6782407762
 20
8.4557094704
 10
-0.6137539987
 20
8.4827302465
  0
LWPOLYLINE
  5
253
100
AcDbEntity
  8
CURVE
100
AcDbPolyline
 62
250
  6
CONTINUOUS
 90
60
 70
0
 10
-4.3662460032
 20
-13.0789464856
 10
-4.3662246445
 20
-13.0802099032
 10
-4.3661610128
 20
-13.0815017214
 10
-4.3660557744
 20
-13.0828198234
 10
-4.3659095959
 20
-13.0841620926
 10
-4.3657231436
 20
-13.0855264121
 10
-4.3654970839
 20
-13.0869106651
 10
-4.3652320834
 20
-13.088312735
 10
-4.3649288084
 20
-13.089730505
 10
-4.3645879254
 20
-13.0911618582
 10
-4.3642101008
 20
-13.0926046779
 10
-4.363796001
 20
-13.0940568474
 10
-4.3633462925
 20
-13.09551625
 10
-4.3628616417
 20
-13.0969807687
 10
-4.3623427151
 20
-13.098448287
 10
-4.361790179
 20
-13.099916688
 10
-4.3612046999
 20
-13.1013838549
 10
-4.3605869442
 20
-13.1028476711
 10
-4.3599375784
 20
-13.1043060197
 10
-4.3592572689
 20
-13.1057567839
 10
-4.3585466822
 20
-13.1071978471
 10
-4.3578064846
 20
-13.1086270925
 10
-4.3570373426
 20
-13.1100424032
 10
-4.3562399226
 20
-13.1114416626
 10
-4.3554148912
 20
-13.1128227538
 10
-4.3545629146
 20
-13.1141835602
 10
-4.3536846593
 20
-13.1155219649
 10
-4.3527807918
 20
-13.1168358512
 10
-4.3518519785
 20
-13.1181231024
 10
-4.3508988858
 20
-13.1193816016
 10
-4.349952235
 20
-13.1205727365
 10
-4.3489848552
 20
-13.1217340994
 10
-4.3479982221
 20
-13.122864946
 10
-4.3469938116
 20
-13.1239645322
 10
-4.3459730992
 20
-13.1250321138
 10
-4.3449375609
 20
-13.1260669465
 10
-4.3438886724
 20
-13.1270682863
 10
-4.3428279094
 20
-13.1280353888
 10
-4.3417567477
 20
-13.12896751
 10
-4.3406766631
 20
-13.1298639057
 10
-4.3395891313
 20
-13.1307238316
 10
-4.3384956282
 20
-13.1315465435
 10
-4.3373976294
 20
-13.1323312973
 10
-4.3362966108
 20
-13.1330773489
 10
-4.3351940481
 20
-13.1337839539
 10
-4.334091417
 20
-13.1344503682
 10
-4.3329901934
 20
-13.1350758477
 10
-4.331891853
 20
-13.1356596481
 10
-4.3307978715
 20
-13.1362010252
 10
-4.3297097248
 20
-13.136699235
 10
-4.3286288885
 20
-13.1371535331
 10
-4.3275568385
 20
-13.1375631753
 10
-4.3264950506
 20
-13.1379274176
 10
-4.3254450004
 20
-13.1382455157
 10
-4.3244081638
 20
-13.1385167255
 10
-4.3233860165
 20
-13.1387403026
 10
-4.3223800343
 20
-13.138915503
 10
-4.321391693
 20
-13.1390415825
 10
-4.3204224682
 20
-13.1391177969
 10
-4.3194738359
 20
-13.1391434019
  0
LINE
  5
254
100
AcDbEntity
  8
CURVE
100
AcDbLine
 62
250
  6
CONTINUOUS
 10
-4.3662460032
 20
-10.51196872
 11
-4.3662460032
 21
-13.0789464856
  0
LINE
  5
255
100
AcDbEntity
  8
CURVE
100
AcDbLine
 62
250
  6
CONTINUOUS
 10
0.1014703927
 20
8.4326221771
 11
0.7976935912
 21
9.6429389426
  0
LWPOLYLINE
  5
256
100
AcDbEntity
  8
CURVE
100
AcDbPolyline
 62
250
  6
CONTINUOUS
 90
61
 70
0
 10
-2.4183801198
 20
-14.2036198342
 10
-2.4183603284
 20
-14.2048389808
 10
-2.4183013461
 20
-14.2060847862
 10
-2.4182037606
 20
-14.2073553322
 10
-2.4180681595
 20
-14.2086487003
 10
-2.4178951306
 20
-14.2099629721
 10
-2.4176852615
 20
-14.2112962293
 10
-2.41743914
 20
-14.2126465534
 10
-2.4171573536
 20
-14.2140120261
 10
-2.4168404902
 20
-14.215390729
 10
-2.4164891374
 20
-14.2167807437
 10
-2.4161038829
 20
-14.2181801518
 10
-2.4156853144
 20
-14.2195870349
 10
-2.4152340196
 20
-14.2209994748
 10
-2.4147505861
 20
-14.2224155528
 10
-2.4142356017
 20
-14.2238333508
 10
-2.4136896541
 20
-14.2252509503
 10
-2.4131133309
 20
-14.2266664328
 10
-2.4125072199
 20
-14.2280778801
 10
-2.4118719087
 20
-14.2294833738
 10
-2.411207985
 20
-14.2308809954
 10
-2.4105160365
 20
-14.2322688266
 10
-2.409796651
 20
-14.233644949
 10
-2.409050416
 20
-14.2350074442
 10
-2.4082779193
 20
-14.2363543938
 10
-2.4074797487
 20
-14.2376838794
 10
-2.4066564917
 20
-14.2389939827
 10
-2.405808736
 20
-14.2402827853
 10
-2.4049370695
 20
-14.2415483687
 10
-2.4040420796
 20
-14.2427888147
 10
-2.4031243543
 20
-14.2440022047
 10
-2.40217749
 20
-14.2451956064
 10
-2.4012096277
 20
-14.2463588866
 10
-2.4002222511
 20
-14.2474913348
 10
-2.3992168439
 20
-14.2485922405
 10
-2.3981948896
 20
-14.2496608933
 10
-2.3971578719
 20
-14.2506965826
 10
-2.3961072746
 20
-14.2516985979
 10
-2.3950445812
 20
-14.2526662287
 10
-2.3939712754
 20
-14.2535987644
 10
-2.3928888409
 20
-14.2544954946
 10
-2.3917987613
 20
-14.2553557088
 10
-2.3907025203
 20
-14.2561786964
 10
-2.3896016016
 20
-14.256963747
 10
-2.3884974888
 20
-14.2577101499
 10
-2.3873916655
 20
-14.2584171948
 10
-2.3862856155
 20
-14.2590841711
 10
-2.3851808224
 20
-14.2597103683
 10
-2.3840787697
 20
-14.2602950759
 10
-2.3829809413
 20
-14.2608375833
 10
-2.3818888208
 20
-14.2613371801
 10
-2.3808038918
 20
-14.2617931557
 10
-2.3797276379
 20
-14.2622047997
 10
-2.3786615429
 20
-14.2625714015
 10
-2.3776070904
 20
-14.2628922507
 10
-2.376565764
 20
-14.2631666366
 10
-2.3755390475
 20
-14.2633938488
 10
-2.3745284244
 20
-14.2635731769
 10
-2.3735353784
 20
-14.2637039101
 10
-2.3725613932
 20
-14.2637853382
 10
-2.3716079525
 20
-14.2638167505
  0
LINE
  5
257
100
AcDbEntity
  8
CURVE
100
AcDbLine
 62
250
  6
CONTINUOUS
 10
-2.4183801198
 20
-11.6366420686
 11
-2.4183801198
 21
-12.6976370425
  0
LINE
  5
258
100
AcDbEntity
  8
CURVE
100
AcDbLine
 62
250
  6
CONTINUOUS
 10
-2.4183801198
 20
-13.1431874239
 11
-2.4183801198
 21
-14.2036198342
  0
LWPOLYLINE
  5
259
100
AcDbEntity
  8
CURVE
100
AcDbPolyline
 62
250
  6
CONTINUOUS
 90
60
 70
0
 10
0.7976935912
 20
9.6429389426
 10
0.7983544497
 20
9.6441610899
 10
0.798964351
 20
9.6454485689
 10
0.7995231621
 20
9.6467987871
 10
0.80003075
 20
9.6482091522
 10
0.8004869817
 20
9.6496770718
 10
0.8008917241
 20
9.6511999534
 10
0.8012448442
 20
9.6527752048
 10
0.8015462092
 20
9.6544002335
 10
0.8017956858
 20
9.6560724471
 10
0.8019931412
 20
9.6577892532
 10
0.8021384423
 20
9.6595480594
 10
0.8022314561
 20
9.6613462734
 10
0.8022720496
 20
9.6631813028
 10
0.8022600898
 20
9.6650505552
 10
0.8021954436
 20
9.6669514381
 10
0.8020779782
 20
9.6688813592
 10
0.8019075604
 20
9.6708377261
 10
0.8016840573
 20
9.6728179464
 10
0.8014073358
 20
9.6748194278
 10
0.801077263
 20
9.6768395778
 10
0.8006937057
 20
9.678875804
 10
0.8002565311
 20
9.6809255141
 10
0.7997656062
 20
9.6829861156
 10
0.7992207978
 20
9.6850550162
 10
0.798621973
 20
9.6871296236
 10
0.7979689988
 20
9.6892073452
 10
0.7972617422
 20
9.6912855887
 10
0.7965000701
 20
9.6933617617
 10
0.7956838496
 20
9.6954332718
 10
0.7948411796
 20
9.6974335557
 10
0.7939491084
 20
9.6994249367
 10
0.7930095704
 20
9.7014053234
 10
0.7920245
 20
9.7033726242
 10
0.7909958317
 20
9.7053247477
 10
0.7899254998
 20
9.7072596024
 10
0.7888154388
 20
9.7091750967
 10
0.787667583
 20
9.7110691391
 10
0.7864838669
 20
9.7129396382
 10
0.785266225
 20
9.7147845024
 10
0.7840165916
 20
9.7166016403
 10
0.7827369011
 20
9.7183889602
 10
0.7814290879
 20
9.7201443708
 10
0.7800950865
 20
9.7218657805
 10
0.7787368313
 20
9.7235510979
 10
0.7773562566
 20
9.7251982313
 10
0.775955297
 20
9.7268050894
 10
0.7745358868
 20
9.7283695805
 10
0.7730999604
 20
9.7298896133
 10
0.7716494522
 20
9.7313630962
 10
0.7701862967
 20
9.7327879376
 10
0.7687124283
 20
9.7341620462
 10
0.7672297813
 20
9.7354833303
 10
0.7657402902
 20
9.7367496985
 10
0.7642458895
 20
9.7379590593
 10
0.7627485135
 20
9.7391093211
 10
0.7612500966
 20
9.7401983926
 10
0.7597525732
 20
9.7412241821
 10
0.7582578778
 20
9.7421845981
 10
0.7567679448
 20
9.7430775492
  0
LWPOLYLINE
  5
25A
100
AcDbEntity
  8
ASSI
100
AcDbPolyline
 62
250
  6
CONTINUOUS
 90
16
 70
0
 10
5.2308302129
 20
-5.6928610314
 10
5.2681999901
 20
-5.7123657518
 10
5.3089962815
 20
-5.7296831128
 10
5.352847327
 20
-5.7445988735
 10
5.3993692618
 20
-5.7569260823
 10
5.4480804573
 20
-5.7664833872
 10
5.4983944675
 20
-5.7731161461
 10
5.5498336934
 20
-5.7767274183
 10
5.6018060858
 20
-5.7772421532
 10
5.6535129336
 20
-5.7746448983
 10
5.7042918586
 20
-5.768992875
 10
5.7537147035
 20
-5.7603579858
 10
5.8013437396
 20
-5.7488227216
 10
5.8466950802
 20
-5.7344987253
 10
5.8892532956
 20
-5.7175429568
 10
5.9285608914
 20
-5.6981347701
  0
LINE
  5
25B
100
AcDbEntity
  8
ASSI
100
AcDbLine
 62
250
  6
CONTINUOUS
 10
5.2308302129
 20
-5.6928610314
 11
-9.6373839554
 21
2.8918594869
  0
LWPOLYLINE
  5
25C
100
AcDbEntity
  8
CURVE
100
AcDbPolyline
 62
250
  6
CONTINUOUS
 90
37
 70
0
 10
-1.3806226581
 20
11.7186389373
 10
-1.3806430695
 20
11.7203281231
 10
-1.3807039258
 20
11.7220460584
 10
-1.3808046601
 20
11.723791125
 10
-1.3809447057
 20
11.7255617045
 10
-1.3811234958
 20
11.7273561787
 10
-1.3813404635
 20
11.7291729292
 10
-1.381595042
 20
11.7310103378
 10
-1.3818866646
 20
11.7328667861
 10
-1.3822147643
 20
11.7347406558
 10
-1.3825787745
 20
11.7366303287
 10
-1.3829781282
 20
11.7385341864
 10
-1.3834122588
 20
11.7404506107
 10
-1.3838805993
 20
11.7423779832
 10
-1.3843825829
 20
11.7443146856
 10
-1.3849176429
 20
11.7462590997
 10
-1.3854852124
 20
11.748209607
 10
-1.3860847247
 20
11.7501645894
 10
-1.3867156129
 20
11.7521224286
 10
-1.3873773101
 20
11.7540815061
 10
-1.3880692497
 20
11.7560402037
 10
-1.3887908647
 20
11.7579969032
 10
-1.3895415884
 20
11.7599499862
 10
-1.390320854
 20
11.7618978343
 10
-1.3911280946
 20
11.7638388294
 10
-1.3919627435
 20
11.7657713531
 10
-1.3928242338
 20
11.7676937871
 10
-1.3937119987
 20
11.7696045131
 10
-1.3946254713
 20
11.7715019128
 10
-1.395564085
 20
11.7733843678
 10
-1.3965272729
 20
11.77525026
 10
-1.3975144682
 20
11.7770979709
 10
-1.398525104
 20
11.7789258824
 10
-1.3995586135
 20
11.780732376
 10
-1.40061443
 20
11.7825158335
 10
-1.4016919866
 20
11.7842746366
 10
-1.4027907166
 20
11.7860071669
  0
LINE
  5
25D
100
AcDbEntity
  8
CURVE
100
AcDbLine
 62
250
  6
CONTINUOUS
 10
-2.2780636179
 20
12.9850197051
 11
-2.2780636179
 21
10.9766676071
  0
LINE
  5
25E
100
AcDbEntity
  8
CURVE
100
AcDbLine
 62
250
  6
CONTINUOUS
 10
-1.9667363794
 20
10.3755510154
 11
-1.9667363794
 21
11.7926487562
  0
LINE
  5
25F
100
AcDbEntity
  8
CURVE
100
AcDbLine
 62
250
  6
CONTINUOUS
 10
-1.3806226581
 20
11.039062093
 11
-1.3806226581
 21
11.7186389373
  0
LWPOLYLINE
  5
260
100
AcDbEntity
  8
ASSI
100
AcDbPolyline
 62
250
  6
CONTINUOUS
 90
9
 70
0
 10
-9.2900009223
 20
3.5006070587
 10
-9.3278669979
 20
3.519138794
 10
-9.3652508814
 20
3.5330371906
 10
-9.4017432252
 20
3.5421500634
 10
-9.4369444439
 20
3.5463776279
 10
-9.4704690897
 20
3.5456735928
 10
-9.5019500729
 20
3.5400456672
 10
-9.5310426818
 20
3.5295554761
 10
-9.5500876182
 20
3.5192073477
  0
LINE
  5
261
100
AcDbEntity
  8
ASSI
100
AcDbLine
 62
250
  6
CONTINUOUS
 10
5.578213246
 20
-5.0841134596
 11
-9.2900009223
 21
3.5006070587
  0
LINE
  5
262
100
AcDbEntity
  8
ASSI
100
AcDbLine
 62
7
  6
CONTINUOUS
 10
-9.5338426449
 20
3.8688805986
 11
5.3343715234
 21
-4.7158399197
  0
LINE
  5
263
100
AcDbEntity
  8
ASSI
100
AcDbLine
 62
250
  6
CONTINUOUS
 10
-9.6373839554
 20
4.0977490292
 11
5.2308302129
 21
-4.4869714891
  0
LWPOLYLINE
  5
264
100
AcDbEntity
  8
ASSI
100
AcDbPolyline
 62
250
  6
CONTINUOUS
 90
9
 70
0
 10
-9.6373839554
 20
4.0977490292
 10
-9.6711649457
 20
4.1193258702
 10
-9.7011575624
 20
4.1428811375
 10
-9.7269907533
 20
4.1682001816
 10
-9.7483407298
 20
4.1950613637
 10
-9.764893401
 20
4.2231865975
 10
-9.7763809364
 20
4.2522372764
 10
-9.7826354402
 20
4.2819376408
 10
-9.7838305648
 20
4.3018863259
  0
LWPOLYLINE
  5
265
100
AcDbEntity
  8
ASSI
100
AcDbPolyline
 62
250
  6
CONTINUOUS
 90
9
 70
0
 10
-9.5338426449
 20
3.8688805986
 10
-9.5484900609
 20
3.8783926304
 10
-9.5713050958
 20
3.8982590833
 10
-9.5910400404
 20
3.9224501224
 10
-9.6074834483
 20
3.9507065575
 10
-9.6204591399
 20
3.9827256404
 10
-9.6298280896
 20
4.0181643089
 10
-9.6354899157
 20
4.0566428622
 10
-9.6373839554
 20
4.0977490292
  0
LWPOLYLINE
  5
266
100
AcDbEntity
  8
CURVE
100
AcDbPolyline
 62
250
  6
CONTINUOUS
 90
64
 70
0
 10
0.1845397107
 20
10.0734749599
 10
0.1829531905
 20
10.1738717831
 10
0.1782074554
 20
10.2761543888
 10
0.1703232437
 20
10.3801530661
 10
0.1593212938
 20
10.4856981042
 10
0.1452223438
 20
10.5926197922
 10
0.1280471321
 20
10.7007484192
 10
0.1078163971
 20
10.8099142745
 10
0.0845508768
 20
10.9199476471
 10
0.0582713098
 20
11.0306788262
 10
0.0289984342
 20
11.1419381009
 10
-0.0032470116
 20
11.2535557603
 10
-0.0407684019
 20
11.3724684978
 10
-0.0815478793
 20
11.491431887
 10
-0.1255050611
 20
11.610283193
 10
-0.1725595647
 20
11.7288596807
 10
-0.2226310075
 20
11.8469986151
 10
-0.2756390067
 20
11.9645372612
 10
-0.3315031798
 20
12.0813128838
 10
-0.390143144
 20
12.197162748
 10
-0.4514785167
 20
12.3119241188
 10
-0.5154289152
 20
12.425434261
 10
-0.5819060551
 20
12.5375275124
 10
-0.650796768
 20
12.6480377435
 10
-0.7219800686
 20
12.7567958501
 10
-0.7953349717
 20
12.8636327281
 10
-0.8707404919
 20
12.9683792733
 10
-0.948075644
 20
13.0708663815
 10
-1.0272194427
 20
13.1709249487
 10
-1.1080509026
 20
13.2683858706
 10
-1.1904490386
 20
13.3630800431
 10
-1.2742928654
 20
13.4548383621
 10
-1.3469300095
 20
13.5307363772
 10
-1.420460861
 20
13.6043127557
 10
-1.4948135114
 20
13.6755091534
 10
-1.5699160526
 20
13.7442672258
 10
-1.6456965761
 20
13.8105286289
 10
-1.7220831737
 20
13.8742350182
 10
-1.8012976549
 20
13.9371058146
 10
-1.880983696
 20
13.9971441406
 10
-1.9610464269
 20
14.0542887344
 10
-2.0413909773
 20
14.1084783341
 10
-2.1219224771
 20
14.1596516779
 10
-2.2025460561
 20
14.207747504
 10
-2.2924779401
 20
14.2576962388
 10
-2.3822716918
 20
14.3036646207
 10
-2.4717926519
 20
14.3455783868
 10
-2.5609061616
 20
14.3833632741
 10
-2.6494775615
 20
14.4169450201
 10
-2.7349132284
 20
14.445488899
 10
-2.8196215606
 20
14.4699584746
 10
-2.9035144097
 20
14.4903193147
 10
-2.9865036272
 20
14.5065369866
 10
-3.0685010648
 20
14.5185770582
 10
-3.1475105536
 20
14.5262787001
 10
-3.2253740944
 20
14.5299931248
 10
-3.3019751459
 20
14.5297480999
 10
-3.3771971669
 20
14.5255713929
 10
-3.4509236163
 20
14.5174907713
 10
-3.523037953
 20
14.5055340028
 10
-3.5934236357
 20
14.4897288547
 10
-3.6619641234
 20
14.4701030948
 10
-3.7285428749
 20
14.4466844905
 10
-3.7930433489
 20
14.4195008094
  0
LINE
  5
267
100
AcDbEntity
  8
CURVE
100
AcDbLine
 62
250
  6
CONTINUOUS
 10
-0.4558979341
 20
-12.7590659783
 11
-0.4558979341
 21
-13.839188115
  0
LINE
  5
268
100
AcDbEntity
  8
CURVE
100
AcDbLine
 62
250
  6
CONTINUOUS
 10
-0.4558979341
 20
-14.267861588
 11
-0.4558979341
 21
-15.3479837248
  0
LINE
  5
269
100
AcDbEntity
  8
CURVE
100
AcDbLine
 62
250
  6
CONTINUOUS
 10
-0.102183419
 20
-15.5522140527
 11
-0.102183419
 21
-12.9632963062
  0
LINE
  5
26A
100
AcDbEntity
  8
ASSI
100
AcDbLine
 62
7
  6
CONTINUOUS
 10
7.9729433365
 20
-3.7179084613
 11
7.9791011589
 21
-3.7214639107
  0
LWPOLYLINE
  5
26B
100
AcDbEntity
  8
CURVE
100
AcDbPolyline
 62
250
  6
CONTINUOUS
 90
63
 70
0
 10
-4.4251984224
 20
14.4188328777
 10
-4.4259206897
 20
14.4208361001
 10
-4.4267015264
 20
14.4228467388
 10
-4.4275389769
 20
14.4248619331
 10
-4.4284310855
 20
14.4268788224
 10
-4.4293758966
 20
14.428894546
 10
-4.4303714543
 20
14.4309062432
 10
-4.4314158031
 20
14.4329110536
 10
-4.4325069872
 20
14.4349061163
 10
-4.4336430511
 20
14.4368885708
 10
-4.4348220389
 20
14.4388555564
 10
-4.4360419951
 20
14.4408042126
 10
-4.4373009639
 20
14.4427316786
 10
-4.4385969896
 20
14.4446350938
 10
-4.4399281167
 20
14.4465115976
 10
-4.4412923893
 20
14.4483583293
 10
-4.4426878519
 20
14.4501724283
 10
-4.4441125486
 20
14.451951034
 10
-4.445564524
 20
14.4536912857
 10
-4.4470418222
 20
14.4553903227
 10
-4.4485424876
 20
14.4570452846
 10
-4.4500645645
 20
14.4586533105
 10
-4.4516060973
 20
14.4602115399
 10
-4.4531651301
 20
14.4617171121
 10
-4.4547397075
 20
14.4631671664
 10
-4.4563278736
 20
14.4645588424
 10
-4.4579276729
 20
14.4658892792
 10
-4.4595371496
 20
14.4671556163
 10
-4.461154348
 20
14.468354993
 10
-4.4627773124
 20
14.4694845487
 10
-4.4644040873
 20
14.4705414228
 10
-4.4660327168
 20
14.4715227545
 10
-4.4676665288
 20
14.4724290673
 10
-4.4692983068
 20
14.4732571069
 10
-4.4709261187
 20
14.4740075121
 10
-4.4725480323
 20
14.4746809216
 10
-4.4741621153
 20
14.4752779744
 10
-4.4757664354
 20
14.475799309
 10
-4.4773590605
 20
14.4762455645
 10
-4.4789380582
 20
14.4766173795
 10
-4.4805014964
 20
14.4769153928
 10
-4.4820474428
 20
14.4771402433
 10
-4.4835739651
 20
14.4772925697
 10
-4.4850791312
 20
14.4773730108
 10
-4.4865610087
 20
14.4773822055
 10
-4.4880176655
 20
14.4773207925
 10
-4.4894471693
 20
14.4771894106
 10
-4.4908475879
 20
14.4769886986
 10
-4.492216989
 20
14.4767192953
 10
-4.4935534404
 20
14.4763818395
 10
-4.4948550098
 20
14.4759769701
 10
-4.496119765
 20
14.4755053257
 10
-4.4973457738
 20
14.4749675451
 10
-4.498531104
 20
14.4743642673
 10
-4.4996738232
 20
14.4736961309
 10
-4.5007719992
 20
14.4729637748
 10
-4.5018236999
 20
14.4721678378
 10
-4.5028269929
 20
14.4713089586
 10
-4.503779946
 20
14.4703877761
 10
-4.5046806271
 20
14.469404929
 10
-4.5055271038
 20
14.4683610561
 10
-4.5063174439
 20
14.4672567963
 10
-4.5070497151
 20
14.4660927883
  0
LINE
  5
26C
100
AcDbEntity
  8
CURVE
100
AcDbLine
 62
250
  6
CONTINUOUS
 10
-3.7930433489
 20
14.4195008094
 11
-3.6785489811
 21
14.0884257347
  0
LINE
  5
26D
100
AcDbEntity
  8
CURVE
100
AcDbLine
 62
250
  6
CONTINUOUS
 10
-3.7289752239
 20
12.4039724505
 11
-4.4251984224
 21
14.4188328777
  0
LWPOLYLINE
  5
26E
100
AcDbEntity
  8
CURVE
100
AcDbPolyline
 62
250
  6
CONTINUOUS
 90
65
 70
0
 10
0.019862705
 20
8.4797414332
 10
0.0205574292
 20
8.4777903858
 10
0.0213076568
 20
8.4758309345
 10
0.0221116006
 20
8.473865792
 10
0.0229674729
 20
8.4718976711
 10
0.0238734865
 20
8.4699292843
 10
0.0248278538
 20
8.4679633443
 10
0.0258287874
 20
8.4660025639
 10
0.0268744998
 20
8.4640496557
 10
0.0279632037
 20
8.4621073323
 10
0.0290931115
 20
8.4601783065
 10
0.0302624359
 20
8.4582652909
 10
0.0314693893
 20
8.4563709982
 10
0.0327121844
 20
8.4544981411
 10
0.0339890336
 20
8.4526494322
 10
0.0352981496
 20
8.4508275842
 10
0.0366377449
 20
8.4490353098
 10
0.0380060321
 20
8.4472753217
 10
0.0394012237
 20
8.4455503325
 10
0.0408215322
 20
8.4438630549
 10
0.0422651703
 20
8.4422162016
 10
0.0437303505
 20
8.4406124853
 10
0.0452152853
 20
8.4390546186
 10
0.0467181873
 20
8.4375453142
 10
0.048237269
 20
8.4360872848
 10
0.0497707431
 20
8.4346832431
 10
0.051316822
 20
8.4333359017
 10
0.0528737184
 20
8.4320479733
 10
0.0544396447
 20
8.4308221706
 10
0.0560128135
 20
8.4296612062
 10
0.0575914374
 20
8.4285677929
 10
0.059173729
 20
8.4275446433
 10
0.0607579008
 20
8.4265944701
 10
0.0623370763
 20
8.425722118
 10
0.0639145356
 20
8.4249243545
 10
0.0654884702
 20
8.424200564
 10
0.0670570716
 20
8.423550131
 10
0.0686185314
 20
8.42297244
 10
0.0701710411
 20
8.4224668754
 10
0.0717127925
 20
8.4220328218
 10
0.0732419769
 20
8.4216696636
 10
0.0747567859
 20
8.4213767854
 10
0.0762554112
 20
8.4211535716
 10
0.0777360443
 20
8.4209994067
 10
0.0791968767
 20
8.4209136752
 10
0.0806361
 20
8.4208957617
 10
0.0820519058
 20
8.4209450505
 10
0.0834424856
 20
8.4210609262
 10
0.084806031
 20
8.4212427733
 10
0.0861407336
 20
8.4214899762
 10
0.0874447849
 20
8.4218019195
 10
0.0887163764
 20
8.4221779876
 10
0.0899536998
 20
8.4226175651
 10
0.0911549466
 20
8.4231200364
 10
0.0923183084
 20
8.423684786
 10
0.0934419767
 20
8.4243111984
 10
0.094524143
 20
8.4249986581
 10
0.0955629991
 20
8.4257465496
 10
0.0965567363
 20
8.4265542573
 10
0.0975035463
 20
8.4274211659
 10
0.0984016207
 20
8.4283466596
 10
0.099249151
 20
8.4293301232
 10
0.1000443287
 20
8.4303709409
 10
0.1007853454
 20
8.4314684974
 10
0.1014703927
 20
8.4326221771
  0
LINE
  5
26F
100
AcDbEntity
  8
CURVE
100
AcDbLine
 62
250
  6
CONTINUOUS
 10
-0.6137539987
 20
8.4827302465
 11
-0.7284919715
 21
8.8145085393
  0
LINE
  5
270
100
AcDbEntity
  8
CURVE
100
AcDbLine
 62
250
  6
CONTINUOUS
 10
-0.6761168884
 20
10.4938986423
 11
0.019862705
 21
8.4797414332
  0
LWPOLYLINE
  5
271
100
AcDbEntity
  8
ASSI
100
AcDbPolyline
 62
250
  6
CONTINUOUS
 90
9
 70
0
 10
5.2308302129
 20
-4.4869714891
 10
5.2327424837
 20
-4.528269191
 10
5.2384569408
 20
-4.5669037512
 10
5.247909315
 20
-4.6024593093
 10
5.2609862964
 20
-4.6345359708
 10
5.2775488925
 20
-4.6628118048
 10
5.2974540492
 20
-4.6870232703
 10
5.3205537885
 20
-4.7069265558
 10
5.3342610327
 20
-4.7157760673
  0
LWPOLYLINE
  5
272
100
AcDbEntity
  8
ASSI
100
AcDbPolyline
 62
250
  6
CONTINUOUS
 90
16
 70
0
 10
5.2308302129
 20
15.9859698809
 10
5.2327030499
 20
16.0290147589
 10
5.2383017193
 20
16.073766309
 10
5.2475669067
 20
16.1197504169
 10
5.2604004535
 20
16.1664799101
 10
5.2766663964
 20
16.2134597192
 10
5.2961924078
 20
16.260192123
 10
5.3187716223
 20
16.3061820212
 10
5.3441648272
 20
16.35094218
 10
5.3721029977
 20
16.393998394
 10
5.4022901466
 20
16.4348945098
 10
5.4344064602
 20
16.4731972591
 10
5.4681116865
 20
16.5085008484
 10
5.5030487397
 20
16.5404312586
 10
5.5388474841
 20
16.5686502072
 10
5.5751286547
 20
16.5928587325
  0
LINE
  5
273
100
AcDbEntity
  8
CURVE
100
AcDbLine
 62
7
  6
CONTINUOUS
 10
-4.3662460032
 20
-10.6382754856
 11
-4.2796584935
 21
-10.5516879759
  0
LINE
  5
274
100
AcDbEntity
  8
CURVE
100
AcDbLine
 62
7
  6
CONTINUOUS
 10
-4.3662460032
 20
-11.6338818335
 11
-3.8172189161
 21
-11.0848547464
  0
LWPOLYLINE
  5
275
100
AcDbEntity
  8
CURVE
100
AcDbPolyline
 62
250
  6
CONTINUOUS
 90
65
 70
0
 10
-1.4829367741
 20
11.0430057472
 10
-1.4813077613
 20
11.0405457618
 10
-1.4796182004
 20
11.0381195629
 10
-1.4778712969
 20
11.0357298879
 10
-1.4760702564
 20
11.0333794741
 10
-1.4742182844
 20
11.0310710588
 10
-1.4723185867
 20
11.0288073795
 10
-1.4703743687
 20
11.0265911734
 10
-1.4683888361
 20
11.0244251779
 10
-1.4663651945
 20
11.0223121303
 10
-1.4643066494
 20
11.020254768
 10
-1.4622164064
 20
11.0182558285
 10
-1.4600976712
 20
11.0163180489
 10
-1.4579536493
 20
11.0144441666
 10
-1.4557875464
 20
11.0126369191
 10
-1.4536025679
 20
11.0108990437
 10
-1.4514019196
 20
11.0092332776
 10
-1.449188807
 20
11.0076423583
 10
-1.4469664356
 20
11.0061290232
 10
-1.4447380111
 20
11.0046960095
 10
-1.4425067391
 20
11.0033460546
 10
-1.4402758252
 20
11.0020818958
 10
-1.4380484749
 20
11.0009062706
 10
-1.4358278939
 20
10.9998219163
 10
-1.4336172877
 20
10.9988315702
 10
-1.431419862
 20
10.9979379696
 10
-1.4292388223
 20
10.997143852
 10
-1.4270773742
 20
10.9964519547
 10
-1.4249387233
 20
10.9958650149
 10
-1.4228260752
 20
10.9953857702
 10
-1.4207426355
 20
10.9950169577
 10
-1.4186916098
 20
10.994761315
 10
-1.4166762037
 20
10.9946215793
 10
-1.4146935171
 20
10.994599715
 10
-1.4127513567
 20
10.9946946247
 10
-1.4108511926
 20
10.9949037317
 10
-1.4089944949
 20
10.9952244595
 10
-1.4071827336
 20
10.9956542316
 10
-1.4054173787
 20
10.9961904713
 10
-1.4036999002
 20
10.9968306022
 10
-1.4020317683
 20
10.9975720477
 10
-1.4004144529
 20
10.9984122313
 10
-1.3988494241
 20
10.9993485764
 10
-1.3973381519
 20
11.0003785064
 10
-1.3958821064
 20
11.0014994448
 10
-1.3944827576
 20
11.0027088151
 10
-1.3931415756
 20
11.0040040407
 10
-1.3918600303
 20
11.005382545
 10
-1.3906395919
 20
11.0068417516
 10
-1.3894817303
 20
11.0083790838
 10
-1.3883879156
 20
11.0099919651
 10
-1.3873596179
 20
11.011677819
 10
-1.3863983072
 20
11.0134340689
 10
-1.3855054535
 20
11.0152581383
 10
-1.3846825269
 20
11.0171474506
 10
-1.3839309973
 20
11.0190994292
 10
-1.383252335
 20
11.0211114977
 10
-1.3826480098
 20
11.0231810794
 10
-1.3821194918
 20
11.0253055979
 10
-1.3816682511
 20
11.0274824765
 10
-1.3812957578
 20
11.0297091388
 10
-1.3810034817
 20
11.0319830081
 10
-1.3807928931
 20
11.0343015079
 10
-1.3806654619
 20
11.0366620617
 10
-1.3806226581
 20
11.039062093
  0
LINE
  5
276
100
AcDbEntity
  8
CURVE
100
AcDbLine
 62
250
  6
CONTINUOUS
 10
-1.9667363794
 20
11.7926487562
 11
-1.4829367741
 21
11.0430057472
  0
LWPOLYLINE
  5
277
100
AcDbEntity
  8
ASSI
100
AcDbPolyline
 62
250
  6
CONTINUOUS
 90
16
 70
0
 10
5.9285608914
 20
-5.6981347701
 10
5.9259932994
 20
-5.6544764752
 10
5.919650151
 20
-5.6089977751
 10
5.9096046145
 20
-5.5622026288
 10
5.8959797882
 20
-5.5146372769
 10
5.8789239167
 20
-5.4667992334
 10
5.8585887064
 20
-5.4191313381
 10
5.835131905
 20
-5.3720641222
 10
5.8088414764
 20
-5.3262283752
 10
5.7801364382
 20
-5.2823399942
 10
5.7493855046
 20
-5.2409032275
 10
5.716921185
 20
-5.2023110004
 10
5.6831806065
 20
-5.167023609
 10
5.6485711359
 20
-5.1353927069
 10
5.6134553903
 20
-5.1076779754
 10
5.578213246
 20
-5.0841134596
  0
LINE
  5
278
100
AcDbEntity
  8
ASSI
100
AcDbLine
 62
250
  6
CONTINUOUS
 10
5.2308302129
 20
-26.1658024014
 11
5.2308302129
 21
-5.6928610314
  0
LINE
  5
279
100
AcDbEntity
  8
ASSI
100
AcDbLine
 62
250
  6
CONTINUOUS
 10
5.2308302129
 20
-4.4869714891
 11
5.2308302129
 21
15.9859698809
  0
LINE
  5
27A
100
AcDbEntity
  8
ASSI
100
AcDbLine
 62
250
  6
CONTINUOUS
 10
5.9285608914
 20
-26.1710761401
 11
5.9285608914
 21
-5.6981347701
  0
LINE
  5
27B
100
AcDbEntity
  8
ASSI
100
AcDbLine
 62
250
  6
CONTINUOUS
 10
5.9285608914
 20
-4.4922452278
 11
5.9285608914
 21
15.9806961421
  0
LINE
  5
27C
100
AcDbEntity
  8
CURVE
100
AcDbLine
 62
7
  6
CONTINUOUS
 10
-4.3662460032
 20
-12.6294881814
 11
-3.3547793387
 21
-11.6180215169
  0
LINE
  5
27D
100
AcDbEntity
  8
CURVE
100
AcDbLine
 62
7
  6
CONTINUOUS
 10
-3.8812271178
 20
-13.1400756439
 11
-2.8923397612
 21
-12.1511882874
  0
LINE
  5
27E
100
AcDbEntity
  8
CURVE
100
AcDbLine
 62
7
  6
CONTINUOUS
 10
-2.4183801198
 20
-11.6772286459
 11
-2.3716079525
 21
-11.6304564786
  0
LWPOLYLINE
  5
27F
100
AcDbEntity
  8
ASSI
100
AcDbPolyline
 62
250
  6
CONTINUOUS
 90
16
 70
0
 10
5.578213246
 20
-5.0841134596
 10
5.5417046247
 20
-5.1081162126
 10
5.5056532791
 20
-5.1361969114
 10
5.4704454743
 20
-5.1680546908
 10
5.4364584376
 20
-5.2033482169
 10
5.4040563166
 20
-5.2416993438
 10
5.3735862774
 20
-5.2826971658
 10
5.3453747855
 20
-5.3259024198
 10
5.3197241075
 20
-5.3708521913
 10
5.2969090726
 20
-5.4170648747
 10
5.277174128
 20
-5.4640453332
 10
5.26073072
 20
-5.5112902036
 10
5.2477550284
 20
-5.5582932899
 10
5.2383860787
 20
-5.6045509867
 10
5.2327242527
 20
-5.6495676747
 10
5.2308302129
 20
-5.6928610314
  0
LWPOLYLINE
  5
280
100
AcDbEntity
  8
ASSI
100
AcDbPolyline
 62
250
  6
CONTINUOUS
 90
9
 70
0
 10
5.8179364952
 20
-4.7249349126
 10
5.835973282
 20
-4.7138625031
 10
5.8591475107
 20
-4.694168843
 10
5.8793131177
 20
-4.669971133
 10
5.8962492928
 20
-4.6415343343
 10
5.9097705876
 20
-4.6091698254
 10
5.919728946
 20
-4.5732319925
 10
5.9260153255
 20
-4.5341143493
 10
5.9285608914
 20
-4.4922452278
  0
LINE
  5
281
100
AcDbEntity
  8
ASSI
100
AcDbLine
 62
250
  6
CONTINUOUS
 10
7.9791011589
 20
-3.7214639107
 11
5.578213246
 21
-5.0841134596
  0
LINE
  5
282
100
AcDbEntity
  8
ASSI
100
AcDbLine
 62
250
  6
CONTINUOUS
 10
5.9285608914
 20
-4.4922452278
 11
8.3326141684
 21
-3.2222323798
  0
LINE
  5
283
100
AcDbEntity
  8
ASSI
100
AcDbLine
 62
7
  6
CONTINUOUS
 10
5.8179364952
 20
-4.7249349126
 11
8.2236319908
 21
-3.4540545137
  0
LWPOLYLINE
  5
284
100
AcDbEntity
  8
ASSI
100
AcDbPolyline
 62
250
  6
CONTINUOUS
 90
16
 70
0
 10
5.9285608914
 20
-4.4922452278
 10
5.8903243952
 20
-4.5111763231
 10
5.8487604542
 20
-4.527870305
 10
5.8042499177
 20
-4.5421183287
 10
5.7571841923
 20
-4.5537390491
 10
5.7080530954
 20
-4.562557926
 10
5.6574511002
 20
-4.5684287
 10
5.6058596429
 20
-4.5712615002
 10
5.553874605
 20
-4.5709899931
 10
5.5022980942
 20
-4.5676108981
 10
5.4517904406
 20
-4.5611918778
 10
5.4027756684
 20
-4.5518115913
 10
5.3556880861
 20
-4.5395596204
 10
5.311006182
 20
-4.5245553612
 10
5.2692373663
 20
-4.5069638174
 10
5.2308302129
 20
-4.4869714891
  0
LWPOLYLINE
  5
285
100
AcDbEntity
  8
CURVE
100
AcDbPolyline
 62
250
  6
CONTINUOUS
 90
51
 70
0
 10
-2.2025460561
 20
8.9809689767
 10
-2.2678239739
 20
9.0198323422
 10
-2.3331489413
 20
9.0610600762
 10
-2.3984471469
 20
9.1045972233
 10
-2.4636447796
 20
9.1503888282
 10
-2.5286680281
 20
9.1983799356
 10
-2.5934430811
 20
9.2485155901
 10
-2.6578961274
 20
9.3007408363
 10
-2.7219533556
 20
9.355000719
 10
-2.7855409546
 20
9.4112402828
 10
-2.8485851131
 20
9.4694045723
 10
-2.9110120198
 20
9.5294386323
 10
-2.9727478635
 20
9.5912875073
 10
-3.033718833
 20
9.654896242
 10
-3.0966634409
 20
9.7233205327
 10
-3.1586361998
 20
9.7935328604
 10
-3.2195847114
 20
9.8654521755
 10
-3.2794565777
 20
9.9389974283
 10
-3.3381994005
 20
10.014087569
 10
-3.3957607817
 20
10.090641548
 10
-3.4520883233
 20
10.1685783155
 10
-3.507129627
 20
10.2478168219
 10
-3.5608322948
 20
10.3282760175
 10
-3.6131439285
 20
10.4098748525
 10
-3.6640121301
 20
10.4925322773
 10
-3.7133845015
 20
10.5761672421
 10
-3.7612076758
 20
10.6606936079
 10
-3.8074388512
 20
10.7460305842
 10
-3.8520341007
 20
10.8320923818
 10
-3.8949494972
 20
10.9187932114
 10
-3.9361411136
 20
11.0060472839
 10
-3.9755650227
 20
11.09376881
 10
-4.0131772976
 20
11.1818720005
 10
-4.0489340111
 20
11.2702710663
 10
-4.0827912361
 20
11.358880218
 10
-4.1147050456
 20
11.4476136667
 10
-4.1446315124
 20
11.5363856229
 10
-4.1725267094
 20
11.6251102975
 10
-4.1972294632
 20
11.7096983887
 10
-4.2200294884
 20
11.794073851
 10
-4.2409158739
 20
11.8781453673
 10
-4.2598777087
 20
11.9618216205
 10
-4.2769040816
 20
12.0450112934
 10
-4.2919840815
 20
12.1276230689
 10
-4.3051067974
 20
12.2095656298
 10
-4.316261318
 20
12.2907476589
 10
-4.3254367323
 20
12.3710778392
 10
-4.3326221292
 20
12.4504648535
 10
-4.3378065976
 20
12.5288173846
 10
-4.3409792264
 20
12.6060441154
 10
-4.3421291044
 20
12.6820537288
  0
LWPOLYLINE
  5
286
100
AcDbEntity
  8
CURVE
100
AcDbPolyline
 62
250
  6
CONTINUOUS
 90
58
 70
0
 10
-2.8917592155
 20
10.3182284162
 10
-2.8707059777
 20
10.2995401378
 10
-2.8494819491
 20
10.2815710626
 10
-2.8281101007
 20
10.2643168631
 10
-2.8066134037
 20
10.2477732122
 10
-2.7850148288
 20
10.2319357825
 10
-2.7633373473
 20
10.2168002469
 10
-2.7416039299
 20
10.2023622779
 10
-2.7198375479
 20
10.1886175484
 10
-2.6948914861
 20
10.1737204367
 10
-2.669951468
 20
10.1597249922
 10
-2.6450366499
 20
10.14662897
 10
-2.6201661879
 20
10.1344301255
 10
-2.5953592384
 20
10.1231262139
 10
-2.5706349577
 20
10.1127149904
 10
-2.546012502
 20
10.1031942103
 10
-2.5215110277
 20
10.0945616287
 10
-2.497149691
 20
10.0868150009
 10
-2.4729476483
 20
10.0799520822
 10
-2.4494295864
 20
10.074089103
 10
-2.426104816
 20
10.0690769701
 10
-2.4029956277
 20
10.0649218631
 10
-2.3801243123
 20
10.0616299613
 10
-2.3575131605
 20
10.0592074439
 10
-2.335184463
 20
10.0576604904
 10
-2.3131605105
 20
10.05699528
 10
-2.2914635938
 20
10.057217992
 10
-2.2701160035
 20
10.0583348059
 10
-2.2509505573
 20
10.0601459966
 10
-2.2321129618
 20
10.06274576
 10
-2.2136213234
 20
10.0661722819
 10
-2.1954937489
 20
10.0704637477
 10
-2.1777483447
 20
10.0756583432
 10
-2.1604032173
 20
10.0817942538
 10
-2.1434764733
 20
10.0889096652
 10
-2.1269862194
 20
10.0970427629
 10
-2.1109505619
 20
10.1062317325
 10
-2.0996424121
 20
10.1135592185
 10
-2.0886086429
 20
10.1214565566
 10
-2.0778760492
 20
10.1299205688
 10
-2.0674714255
 20
10.138948077
 10
-2.0574215668
 20
10.148535903
 10
-2.0477532677
 20
10.1586808687
 10
-2.038493323
 20
10.1693797962
 10
-2.0296685276
 20
10.1806295071
 10
-2.021305676
 20
10.1924268235
 10
-2.0134315632
 20
10.2047685673
 10
-2.0060729839
 20
10.2176515602
 10
-1.9992567328
 20
10.2310726244
 10
-1.9930096047
 20
10.2450285815
 10
-1.9873583944
 20
10.2595162536
 10
-1.9823298966
 20
10.2745324625
 10
-1.977950906
 20
10.2900740301
 10
-1.9742482176
 20
10.3061377783
 10
-1.9712486259
 20
10.3227205291
 10
-1.9689789258
 20
10.3398191042
 10
-1.9674659121
 20
10.3574303257
 10
-1.9667363794
 20
10.3755510154
  0
LWPOLYLINE
  5
287
100
AcDbEntity
  8
CURVE
100
AcDbPolyline
 62
250
  6
CONTINUOUS
 90
81
 70
0
 10
-2.2780636179
 20
10.9766676071
 10
-2.302883465
 20
10.9992846963
 10
-2.3279959132
 20
11.0209633607
 10
-2.3533548887
 20
11.041693605
 10
-2.3789143177
 20
11.0614654339
 10
-2.4046281262
 20
11.080268852
 10
-2.4304502404
 20
11.0980938641
 10
-2.4563345864
 20
11.1149304749
 10
-2.4822350903
 20
11.130768689
 10
-2.5101116307
 20
11.1467072791
 10
-2.5379331962
 20
11.1614827578
 10
-2.5656795378
 20
11.1751025385
 10
-2.5933304066
 20
11.1875740351
 10
-2.622193466
 20
11.1994246207
 10
-2.6509056786
 20
11.2100355228
 10
-2.6794433798
 20
11.2194209112
 10
-2.7077829048
 20
11.2275949558
 10
-2.73440186
 20
11.2342236737
 10
-2.7607876273
 20
11.2397592411
 10
-2.7869057867
 20
11.2441811685
 10
-2.8127219185
 20
11.2474689666
 10
-2.8382016029
 20
11.2496021458
 10
-2.86331042
 20
11.2505602168
 10
-2.88801395
 20
11.2503226899
 10
-2.9122777732
 20
11.248869076
 10
-2.9360674697
 20
11.2461788853
 10
-2.9570062908
 20
11.2426885555
 10
-2.9774947005
 20
11.2381576986
 10
-2.997492799
 20
11.2325605234
 10
-3.0169606865
 20
11.2258712387
 10
-3.0358584633
 20
11.2180640533
 10
-3.0541462296
 20
11.209113176
 10
-3.0717840858
 20
11.1989928154
 10
-3.088732132
 20
11.1876771804
 10
-3.1049504686
 20
11.1751404798
 10
-3.1162314352
 20
11.1652678789
 10
-3.1270699539
 20
11.15472721
 10
-3.1374284935
 20
11.1435064175
 10
-3.1472695229
 20
11.131593446
 10
-3.1565555111
 20
11.1189762399
 10
-3.165248927
 20
11.1056427439
 10
-3.1733122396
 20
11.0915809024
 10
-3.1807079177
 20
11.0767786599
 10
-3.1873984303
 20
11.0612239609
 10
-3.1933462464
 20
11.04490475
 10
-3.1985138348
 20
11.0278089717
 10
-3.2025737874
 20
11.011278808
 10
-3.205915113
 20
10.9941118118
 10
-3.2085207855
 20
10.9763477542
 10
-3.2103737787
 20
10.958026406
 10
-3.2114570661
 20
10.9391875381
 10
-3.2117536216
 20
10.9198709217
 10
-3.211246419
 20
10.9001163276
 10
-3.2099184319
 20
10.8799635267
 10
-3.2077526342
 20
10.8594522901
 10
-3.2047319995
 20
10.8386223887
 10
-3.2008395016
 20
10.8175135934
 10
-3.1960620704
 20
10.7961478434
 10
-3.1904303325
 20
10.7745967815
 10
-3.1839805477
 20
10.7529146697
 10
-3.1767489757
 20
10.7311557702
 10
-3.1687718762
 20
10.7093743451
 10
-3.160085509
 20
10.6876246564
 10
-3.1507261338
 20
10.6659609663
 10
-3.1407300104
 20
10.6444375368
 10
-3.1301333985
 20
10.6231086302
 10
-3.1189725578
 20
10.6020285083
 10
-3.1072837481
 20
10.5812514334
 10
-3.0941238027
 20
10.5592321355
 10
-3.0804283746
 20
10.5376365889
 10
-3.0662340913
 20
10.5164728112
 10
-3.0515775804
 20
10.4957488198
 10
-3.0364954693
 20
10.4754726325
 10
-3.0210243855
 20
10.4556522666
 10
-3.0052009566
 20
10.4362957399
 10
-2.98906181
 20
10.4174110699
 10
-2.9726435732
 20
10.399006274
 10
-2.9559828737
 20
10.38108937
 10
-2.939116339
 20
10.3636683753
 10
-2.9155814601
 20
10.3404726564
 10
-2.8917592155
 20
10.3182284162
  0
LWPOLYLINE
  5
288
100
AcDbEntity
  8
CURVE
100
AcDbPolyline
 62
250
  6
CONTINUOUS
 90
65
 70
0
 10
-2.175993107
 20
12.9812167054
 10
-2.1776222517
 20
12.9836768799
 10
-2.1793121915
 20
12.9861036217
 10
-2.1810596953
 20
12.9884941568
 10
-2.1828615319
 20
12.9908457114
 10
-2.1847144702
 20
12.9931555115
 10
-2.1866152791
 20
12.995420783
 10
-2.1885607274
 20
12.9976387521
 10
-2.190547584
 20
12.9998066448
 10
-2.1925726177
 20
13.0019216872
 10
-2.1946325975
 20
13.0039811053
 10
-2.1967242922
 20
13.0059821251
 10
-2.1988444706
 20
13.0079219727
 10
-2.2009899016
 20
13.0097978741
 10
-2.2031573541
 20
13.0116070554
 10
-2.2053435969
 20
13.0133467427
 10
-2.2075453989
 20
13.0150141619
 10
-2.209759529
 20
13.0166065392
 10
-2.2119827561
 20
13.0181211005
 10
-2.2142118489
 20
13.019555072
 10
-2.2164435765
 20
13.0209056796
 10
-2.2186747075
 20
13.0221701495
 10
-2.220902011
 20
13.0233457076
 10
-2.2231222557
 20
13.02442958
 10
-2.2253322105
 20
13.0254189927
 10
-2.2275286443
 20
13.0263111719
 10
-2.229708326
 20
13.0271033435
 10
-2.2318680244
 20
13.0277927336
 10
-2.2340045083
 20
13.0283765683
 10
-2.2361145467
 20
13.0288520735
 10
-2.2381949085
 20
13.0292164754
 10
-2.2402423624
 20
13.029467
 10
-2.2422536773
 20
13.0296008733
 10
-2.2442279059
 20
13.0296161745
 10
-2.2461612551
 20
13.0295144259
 10
-2.2480522956
 20
13.0292982455
 10
-2.2498995982
 20
13.0289702517
 10
-2.2517017336
 20
13.0285330623
 10
-2.2534572726
 20
13.0279892957
 10
-2.2551647857
 20
13.0273415699
 10
-2.2568228439
 20
13.026592503
 10
-2.2584300177
 20
13.0257447131
 10
-2.2599848779
 20
13.0248008185
 10
-2.2614859954
 20
13.0237634372
 10
-2.2629319406
 20
13.0226351873
 10
-2.2643212845
 20
13.0214186869
 10
-2.2656525977
 20
13.0201165543
 10
-2.266924451
 20
13.0187314075
 10
-2.268135415
 20
13.0172658646
 10
-2.2692840606
 20
13.0157225438
 10
-2.2703689583
 20
13.0141040632
 10
-2.2713886791
 20
13.0124130409
 10
-2.2723417935
 20
13.010652095
 10
-2.2732268723
 20
13.0088238437
 10
-2.2740424862
 20
13.0069309051
 10
-2.2747872061
 20
13.0049758974
 10
-2.2754596025
 20
13.0029614385
 10
-2.2760582462
 20
13.0008901468
 10
-2.2765817079
 20
12.9987646402
 10
-2.2770285584
 20
12.996587537
 10
-2.2773973685
 20
12.9943614552
 10
-2.2776867087
 20
12.992089013
 10
-2.2778951498
 20
12.9897728285
 10
-2.2780212627
 20
12.9874155198
 10
-2.2780636179
 20
12.9850197051
  0
LINE
  5
289
100
AcDbEntity
  8
CURVE
100
AcDbLine
 62
250
  6
CONTINUOUS
 10
-1.4027907166
 20
11.7860071669
 11
-2.175993107
 21
12.9812167054
  0
LINE
  5
28A
100
AcDbEntity
  8
ASSI
100
AcDbLine
 62
7
  6
CONTINUOUS
 10
8.3326141684
 20
-22.013149557
 11
8.3326141684
 21
-4.333688685
  0
LINE
  5
28B
100
AcDbEntity
  8
ASSI
100
AcDbLine
 62
7
  6
CONTINUOUS
 10
8.3326141684
 20
-3.2222323798
 11
8.3326141684
 21
14.4572284922
  0
LINE
  5
28C
100
AcDbEntity
  8
CURVE
100
AcDbLine
 62
7
  6
CONTINUOUS
 10
-2.8877341362
 20
-13.1421890102
 11
-2.4299001838
 21
-12.6843550579
  0
LINE
  5
28D
100
AcDbEntity
  8
CURVE
100
AcDbLine
 62
7
  6
CONTINUOUS
 10
-2.4183801198
 20
-12.6728349938
 11
-1.9091712848
 21
-12.1636261588
  0
LINE
  5
28E
100
AcDbEntity
  8
CURVE
100
AcDbLine
 62
7
  6
CONTINUOUS
 10
-2.4183801198
 20
-13.6684413417
 11
-1.446734617
 21
-12.696795839
  0
LINE
  5
28F
100
AcDbEntity
  8
CURVE
100
AcDbLine
 62
7
  6
CONTINUOUS
 10
-2.0188939025
 20
-14.2645614723
 11
-0.9842979493
 21
-13.2299655192
  0
LINE
  5
290
100
AcDbEntity
  8
ASSI
100
AcDbLine
 62
250
  6
CONTINUOUS
 10
8.3326141684
 20
-4.333688685
 11
5.9285608914
 21
-5.6981347701
  0
LWPOLYLINE
  5
291
100
AcDbEntity
  8
CURVE
100
AcDbPolyline
 62
250
  6
CONTINUOUS
 90
60
 70
0
 10
-0.635191242
 20
10.5467773384
 10
-0.636681175
 20
10.5476049245
 10
-0.6381758704
 20
10.5483705452
 10
-0.6396733937
 20
10.5490740582
 10
-0.6411718106
 20
10.549715321
 10
-0.6426691867
 20
10.5502941915
 10
-0.6441635874
 20
10.5508105272
 10
-0.6456530785
 20
10.551264186
 10
-0.6471357254
 20
10.5516550254
 10
-0.6486095939
 20
10.5519829032
 10
-0.6500727494
 20
10.552247677
 10
-0.6515232576
 20
10.5524492046
 10
-0.652959184
 20
10.5525873437
 10
-0.6543785942
 20
10.5526619519
 10
-0.6557795538
 20
10.5526728869
 10
-0.6571601285
 20
10.5526200064
 10
-0.6585183837
 20
10.5525031682
 10
-0.6598523851
 20
10.5523222298
 10
-0.6611601982
 20
10.5520770491
 10
-0.6624398887
 20
10.5517674836
 10
-0.6636895222
 20
10.5513933911
 10
-0.6649071641
 20
10.5509546293
 10
-0.6660908802
 20
10.5504510559
 10
-0.6672387359
 20
10.5498825285
 10
-0.668348797
 20
10.5492489049
 10
-0.6694191289
 20
10.5485500427
 10
-0.6704477972
 20
10.5477857996
 10
-0.6714328676
 20
10.5469560333
 10
-0.6723724056
 20
10.5460606016
 10
-0.6732644768
 20
10.545099362
 10
-0.6741071468
 20
10.5440721724
 10
-0.6749233673
 20
10.5429432132
 10
-0.6756850394
 20
10.5417466
 10
-0.676392296
 20
10.5404850787
 10
-0.6770452702
 20
10.5391613953
 10
-0.677644095
 20
10.5377782959
 10
-0.6781889034
 20
10.5363385263
 10
-0.6786798283
 20
10.5348448326
 10
-0.6791170029
 20
10.5332999608
 10
-0.6795005601
 20
10.5317066568
 10
-0.679830633
 20
10.5300676667
 10
-0.6801073545
 20
10.5283857364
 10
-0.6803308576
 20
10.5266636118
 10
-0.6805012754
 20
10.5249040391
 10
-0.6806187408
 20
10.5231097642
 10
-0.6806833869
 20
10.521283533
 10
-0.6806953468
 20
10.5194280915
 10
-0.6806547533
 20
10.5175461858
 10
-0.6805617395
 20
10.5156405618
 10
-0.6804164384
 20
10.5137139654
 10
-0.680218983
 20
10.5117691428
 10
-0.6799695063
 20
10.5098088398
 10
-0.6796681414
 20
10.5078358025
 10
-0.6793150213
 20
10.5058527768
 10
-0.6789102788
 20
10.5038625088
 10
-0.6784540472
 20
10.5018677443
 10
-0.6779464593
 20
10.4998712295
 10
-0.6773876482
 20
10.4978757102
 10
-0.6767777469
 20
10.4958839325
 10
-0.6761168884
 20
10.4938986423
  0
LWPOLYLINE
  5
292
100
AcDbEntity
  8
CURVE
100
AcDbPolyline
 62
250
  6
CONTINUOUS
 90
61
 70
0
 10
-3.7701444753
 20
12.3517969726
 10
-3.7686546938
 20
12.3509687741
 10
-3.7671596684
 20
12.350200917
 10
-3.7656613538
 20
12.3494936355
 10
-3.7641617051
 20
12.3488471638
 10
-3.7626626771
 20
12.3482617361
 10
-3.7611662246
 20
12.3477375867
 10
-3.7596743026
 20
12.3472749499
 10
-3.7581888661
 20
12.3468740599
 10
-3.7567118698
 20
12.3465351509
 10
-3.7552452686
 20
12.3462584572
 10
-3.7537910176
 20
12.346044213
 10
-3.7523510715
 20
12.3458926526
 10
-3.7509273852
 20
12.3458040102
 10
-3.7495219137
 20
12.3457785201
 10
-3.7481366118
 20
12.3458164165
 10
-3.7467734345
 20
12.3459179336
 10
-3.7454343365
 20
12.3460833057
 10
-3.7441212729
 20
12.3463127671
 10
-3.7428361985
 20
12.3466065519
 10
-3.7415810683
 20
12.3469648945
 10
-3.740357837
 20
12.3473880291
 10
-3.7391684596
 20
12.3478761899
 10
-3.738014891
 20
12.3484296111
 10
-3.7368990861
 20
12.3490485271
 10
-3.7358229998
 20
12.349733172
 10
-3.7347885869
 20
12.3504837801
 10
-3.7337978024
 20
12.3513005857
 10
-3.7328526011
 20
12.3521838229
 10
-3.731954938
 20
12.3531337261
 10
-3.731106768
 20
12.3541505295
 10
-3.7303154054
 20
12.3552257561
 10
-3.7295746351
 20
12.356364635
 10
-3.7288843588
 20
12.3575646728
 10
-3.7282444786
 20
12.3588233758
 10
-3.7276548963
 20
12.3601382506
 10
-3.7271155139
 20
12.3615068037
 10
-3.7266262331
 20
12.3629265416
 10
-3.726186956
 20
12.3643949707
 10
-3.7257975844
 20
12.3659095976
 10
-3.7254580202
 20
12.3674679288
 10
-3.7251681654
 20
12.3690674707
 10
-3.7249279218
 20
12.3707057299
 10
-3.7247371913
 20
12.3723802129
 10
-3.7245958759
 20
12.3740884261
 10
-3.7245038774
 20
12.375827876
 10
-3.7244610977
 20
12.3775960692
 10
-3.7244674387
 20
12.3793905121
 10
-3.7245228024
 20
12.3812087112
 10
-3.7246270906
 20
12.383048173
 10
-3.7247802053
 20
12.3849064041
 10
-3.7249820483
 20
12.3867809109
 10
-3.7252325215
 20
12.3886691998
 10
-3.7255315269
 20
12.3905687775
 10
-3.7258789663
 20
12.3924771504
 10
-3.7262747416
 20
12.394391825
 10
-3.7267187548
 20
12.3963103077
 10
-3.7272109077
 20
12.3982301052
 10
-3.7277511023
 20
12.4001487238
 10
-3.7283392404
 20
12.4020636701
 10
-3.7289752239
 20
12.4039724505
  0
LINE
  5
293
100
AcDbEntity
  8
CURVE
100
AcDbLine
 62
250
  6
CONTINUOUS
 10
-5.1621036621
 20
13.1554967617
 11
-4.589631823
 21
12.8249586965
  0
LINE
  5
294
100
AcDbEntity
  8
CURVE
100
AcDbLine
 62
250
  6
CONTINUOUS
 10
-4.3421291044
 20
12.6820537288
 11
-3.7701444753
 21
12.3517969726
  0
LINE
  5
295
100
AcDbEntity
  8
CURVE
100
AcDbLine
 62
250
  6
CONTINUOUS
 10
0.7567679448
 20
9.7430775492
 11
0.1845397107
 21
10.0734749599
  0
LINE
  5
296
100
AcDbEntity
  8
CURVE
100
AcDbLine
 62
250
  6
CONTINUOUS
 10
-0.0629630079
 20
10.2163799277
 11
-0.635191242
 21
10.5467773384
  0
LINE
  5
297
100
AcDbEntity
  8
CURVE
100
AcDbLine
 62
7
  6
CONTINUOUS
 10
-1.0253852525
 20
-14.2666591703
 11
-0.5218612816
 21
-13.7631351993
  0
LINE
  5
298
100
AcDbEntity
  8
CURVE
100
AcDbLine
 62
7
  6
CONTINUOUS
 10
-0.4558979341
 20
-13.6971718519
 11
-0.102183419
 21
-13.3434573368
  0
LINE
  5
299
100
AcDbEntity
  8
CURVE
100
AcDbLine
 62
7
  6
CONTINUOUS
 10
-0.4558979341
 20
-14.6927781998
 11
-0.102183419
 21
-14.3390636847
  0
LINE
  5
29A
100
AcDbEntity
  8
CURVE
100
AcDbLine
 62
7
  6
CONTINUOUS
 10
-0.2400975489
 20
-15.4725841625
 11
-0.102183419
 21
-15.3346700326
  0
LINE
  5
29B
100
AcDbEntity
  8
ASSI
100
AcDbLine
 62
7
  6
CONTINUOUS
 10
8.3202516659
 20
14.5561138555
 11
7.6568172208
 21
16.9785647651
  0
LINE
  5
29C
100
AcDbEntity
  8
ASSI
100
AcDbLine
 62
7
  6
CONTINUOUS
 10
8.3202516659
 20
-22.1255822511
 11
7.6568172208
 21
-25.2750514915
  0
LINE
  5
29D
100
AcDbEntity
  8
ASSI
100
AcDbLine
 62
250
  6
CONTINUOUS
 10
5.2308302129
 20
15.9859698809
 11
-9.6373839554
 21
24.5706903992
  0
LWPOLYLINE
  5
29E
100
AcDbEntity
  8
ASSI
100
AcDbPolyline
 62
250
  6
CONTINUOUS
 90
9
 70
0
 10
-9.6373839554
 20
24.5706903992
 10
-9.6714214975
 20
24.592448854
 10
-9.7015687606
 20
24.6161828848
 10
-9.7274642765
 20
24.6416661599
 10
-9.7488092777
 20
24.6686844727
 10
-9.7652871008
 20
24.6969347154
 10
-9.776631576
 20
24.726014841
 10
-9.7827172828
 20
24.7555733809
 10
-9.7838305642
 20
24.7748125282
  0
LWPOLYLINE
  5
29F
100
AcDbEntity
  8
ASSI
100
AcDbPolyline
 62
250
  6
CONTINUOUS
 90
16
 70
0
 10
5.2308302129
 20
15.9859698809
 10
5.2682128906
 20
15.9664590803
 10
5.309020566
 20
15.9491385475
 10
5.3528804105
 20
15.9342220595
 10
5.3994073133
 20
15.9218960801
 10
5.4481193079
 20
15.9123411702
 10
5.4984306761
 20
15.9057111171
 10
5.5498624378
 20
15.9021023449
 10
5.6018239006
 20
15.9015891179
 10
5.6535216312
 20
15.9041867151
 10
5.7042952974
 20
15.9098385277
 10
5.7537149352
 20
15.9184729746
 10
5.8013422109
 20
15.9300077655
 10
5.8466929654
 20
15.9443314345
 10
5.889251775
 20
15.9612872801
 10
5.9285608914
 20
15.9806961421
  0
LINE
  5
2A0
100
AcDbEntity
  8
ASSI
100
AcDbLine
 62
250
  6
CONTINUOUS
 10
5.5751286547
 20
16.5928587325
 11
-9.2930855137
 21
25.1775792508
  0
LWPOLYLINE
  5
2A1
100
AcDbEntity
  8
ASSI
100
AcDbPolyline
 62
250
  6
CONTINUOUS
 90
16
 70
0
 10
5.5751286547
 20
16.5928587325
 10
5.610655035
 20
16.5690997633
 10
5.6460384018
 20
16.5411870659
 10
5.6808933449
 20
16.5093745914
 10
5.7148758989
 20
16.4739164306
 10
5.747554334
 20
16.4352010918
 10
5.7784345029
 20
16.3937863663
 10
5.8071373323
 20
16.3501917683
 10
5.8333926842
 20
16.3048395331
 10
5.8569206178
 20
16.2582101964
 10
5.8774640822
 20
16.2108036045
 10
5.8947875474
 20
16.1631522704
 10
5.9086923271
 20
16.115797878
 10
5.919024281
 20
16.0692674489
 10
5.9256715275
 20
16.0240676427
 10
5.9285608914
 20
15.9806961421
  0
LWPOLYLINE
  5
2A2
100
AcDbEntity
  8
ASSI
100
AcDbPolyline
 62
250
  6
CONTINUOUS
 90
9
 70
0
 10
-9.2930855137
 20
25.1775792508
 10
-9.3301462941
 20
25.1957705258
 10
-9.3669043919
 20
25.2096015189
 10
-9.4029596708
 20
25.2188570531
 10
-9.4379314997
 20
25.2233686085
 10
-9.4713954704
 20
25.2230076359
 10
-9.5029000301
 20
25.2177198682
 10
-9.5321022821
 20
25.2075076911
 10
-9.5532045149
 20
25.1960612119
  0
LINE
  5
2A3
100
AcDbEntity
  8
ASSI
100
AcDbLine
 62
7
  6
CONTINUOUS
 10
7.2068803699
 20
17.5350070755
 11
-7.7446109542
 21
26.1678107799
  0
LWPOLYLINE
  5
2A4
100
AcDbEntity
  8
ASSI
100
AcDbPolyline
 62
250
  6
CONTINUOUS
 90
9
 70
0
 10
5.8146183189
 20
-26.4055028581
 10
5.8330423253
 20
-26.3943711715
 10
5.8567469762
 20
-26.3745157027
 10
5.8773527261
 20
-26.3501606287
 10
5.8946981634
 20
-26.3215580979
 10
5.9086284304
 20
-26.2889804815
 10
5.9189919174
 20
-26.2527612206
 10
5.9256617319
 20
-26.2133153671
 10
5.9285608914
 20
-26.1710761401
  0
LINE
  5
2A5
100
AcDbEntity
  8
ASSI
100
AcDbLine
 62
250
  6
CONTINUOUS
 10
7.6568172208
 20
-25.2750514915
 11
5.9285608914
 21
-26.1710761401
  0
LINE
  5
2A6
100
AcDbEntity
  8
ASSI
100
AcDbLine
 62
7
  6
CONTINUOUS
 10
7.4766992431
 20
-25.5437872785
 11
5.814520271
 21
-26.405553733
  0
ARC
  5
2A7
100
AcDbEntity
  8
ASSI
100
AcDbCircle
 62
7
  6
CONTINUOUS
 10
-9.2838305648
 20
3.0959967836
 40
0.5
100
AcDbArc
 50
122.1754807991
 51
180.015358494
  0
ARC
  5
2A8
100
AcDbEntity
  8
ASSI
100
AcDbCircle
 62
7
  6
CONTINUOUS
 10
-9.2838305648
 20
-17.3769445864
 40
0.5
100
AcDbArc
 50
179.9900082978
 51
239.9984015652
  0
ARC
  5
2A9
100
AcDbEntity
  8
ASSI
100
AcDbCircle
 62
7
  6
CONTINUOUS
 10
5.5843836035
 20
-25.9616651047
 40
0.5
100
AcDbArc
 50
239.9984015652
 51
297.4174046156
  0
ARC
  5
2AA
100
AcDbEntity
  8
ASSI
100
AcDbCircle
 62
7
  6
CONTINUOUS
 10
5.5843836035
 20
-4.2828341925
 40
0.5
100
AcDbArc
 50
239.9837780751
 51
297.8465900872
  0
ARC
  5
2AB
100
AcDbEntity
  8
ASSI
100
AcDbCircle
 62
7
  6
CONTINUOUS
 10
-9.2838305648
 20
4.3018863259
 40
0.5
100
AcDbArc
 50
179.9841296142
 51
239.9984015652
  0
ARC
  5
2AC
100
AcDbEntity
  8
ASSI
100
AcDbCircle
 62
7
  6
CONTINUOUS
 10
-9.2838305648
 20
24.7748276958
 40
0.5
100
AcDbArc
 50
122.5989151677
 51
180.0017380816
  0
ELLIPSE
  5
2AD
100
AcDbEntity
  8
ASSI
100
AcDbEllipse
 62
7
  6
CONTINUOUS
 10
7.9789395824
 20
-4.1296679425
 30
0.0
 11
-0.2500883296
 21
0.432972707
 31
0.0
 40
0.5775954524
 41
-2.3562050126
 42
-0.7858655366
  0
ELLIPSE
  5
2AE
100
AcDbEntity
  8
ASSI
100
AcDbEllipse
 62
7
  6
CONTINUOUS
 10
7.6193899459
 20
-3.9291715288
 30
0.0
 11
0.499979581
 21
0.0076930498
 31
0.0
 40
0.5873737521
 41
7.0595459565
 42
7.4069329008
  0
ELLIPSE
  5
2AF
100
AcDbEntity
  8
ASSI
100
AcDbEllipse
 62
7
  6
CONTINUOUS
 10
7.9698026565
 20
-22.2119413304
 30
0.0
 11
0.2600728777
 21
0.4271418247
 31
0.0
 40
0.5922410672
 41
-1.033355665
 42
-0.7715562772
  0
ELLIPSE
  5
2B0
100
AcDbEntity
  8
ASSI
100
AcDbEllipse
 62
7
  6
CONTINUOUS
 10
7.3032088082
 20
-25.0705300782
 30
0.0
 11
-0.1121548712
 21
0.4957473682
 31
0.0
 40
0.7039445592
 41
-2.9595186474
 42
-2.1483506142
  0
ELLIPSE
  5
2B1
100
AcDbEntity
  8
ASSI
100
AcDbEllipse
 62
7
  6
CONTINUOUS
 10
-7.6527263492
 20
25.8178999321
 30
0.0
 11
-0.3297163127
 21
0.381589989
 31
0.0
 40
0.4128243551
 41
-0.8709070521
 42
-0.0596421506
  0
ELLIPSE
  5
2B2
100
AcDbEntity
  8
ASSI
100
AcDbEllipse
 62
7
  6
CONTINUOUS
 10
7.9789395824
 20
-3.0178385754
 30
0.0
 11
-0.2502024451
 21
0.4331706506
 31
0.0
 40
0.5770679437
 41
-3.1633994611
 42
-2.3566614272
  0
ELLIPSE
  5
2B3
100
AcDbEntity
  8
ASSI
100
AcDbEllipse
 62
7
  6
CONTINUOUS
 10
7.9698026565
 20
14.2584367188
 30
0.0
 11
0.2600728777
 21
0.4271418247
 31
0.0
 40
0.5922410672
 41
-0.7715562772
 42
-0.5097568894
  0
ELLIPSE
  5
2B4
100
AcDbEntity
  8
ASSI
100
AcDbEllipse
 62
7
  6
CONTINUOUS
 10
7.3032088082
 20
17.1825304141
 30
0.0
 11
-0.3313794069
 21
0.3842968449
 31
0.0
 40
0.4077379513
 41
-2.4333010859
 42
-0.8631899918
  0
ENDSEC
  0
SECTION
  2
OBJECTS
  0
DICTIONARY
  5
C
100
AcDbDictionary
280
0
281
1
  3
ACAD_GROUP
350
D
  3
ACAD_MLINESTYLE
350
17
  3
ACAD_LAYOUT
350
1A
  3
ACAD_PLOTSETTINGS
350
19
  3
ACAD_PLOTSTYLENAME
350
E
  0
DICTIONARY
  5
D
102
{ACAD_REACTORS
330
C
102
}
100
AcDbDictionary
280
0
281
1
  0
ACDBDICTIONARYWDFLT
  5
E
102
{ACAD_REACTORS
330
C
102
}
100
AcDbDictionary
281
1
  3
Normal
350
F
100
AcDbDictionaryWithDefault
340
F
  0
DICTIONARY
  5
17
102
{ACAD_REACTORS
330
C
102
}
100
AcDbDictionary
280
0
281
1
  3
Standard
350
18
  0
DICTIONARY
  5
19
102
{ACAD_REACTORS
330
C
102
}
100
AcDbDictionary
281
1
  0
DICTIONARY
  5
1A
102
{ACAD_REACTORS
330
C
102
}
100
AcDbDictionary
281
1
  3
Model
350
2B5
  3
Layout1
350
2B6
  0
ACDBPLACEHOLDER
  5
F
102
{ACAD_REACTORS
330
E
102
}
  0
MLINESTYLE
  5
18
102
{ACAD_REACTORS
330
17
102
}
100
AcDbMlineStyle
  2
STANDARD
 70
0
  3

 62
256
 51
90.0
 52
90.0
 71
2
 49
0.5
 62
256
  6
BYLAYER
 49
-0.5
 62
256
  6
BYLAYER
  0
LAYOUT
  5
2B5
102
{ACAD_REACTORS
330
1A
102
}
100
AcDbPlotSettings
  1

  2
none_device
  4

  6

 40
0.0
 41
0.0
 42
0.0
 43
0.0
 44
210.0
 45
297.0
 46
0.0
 47
0.0
 48
0.0
 49
0.0
140
0.0
141
0.0
142
1.0
143
1.0
 70
1024
 72
1
 73
0
 74
0
  7

 75
0
147
1.0
148
0.0
149
0.0
100
AcDbLayout
  1
Model
 70
0
 71
0
 10
0.0
 20
0.0
 11
210.0
 21
297.0
 12
0.0
 22
0.0
 32
0.0
 14
0.0
 24
0.0
 34
0.0
 15
0.0
 25
0.0
 35
0.0
146
0.0
 13
0.0
 23
0.0
 33
0.0
 16
1.0
 26
0.0
 36
0.0
 17
0.0
 27
1.0
 37
0.0
 76
0
330
213
345
0
346
0
  0
LAYOUT
  5
2B6
102
{ACAD_REACTORS
330
1A
102
}
100
AcDbPlotSettings
  1

  2
none_device
  4

  6

 40
0.0
 41
0.0
 42
0.0
 43
0.0
 44
210.0
 45
297.0
 46
0.0
 47
0.0
 48
0.0
 49
0.0
140
0.0
141
0.0
142
1.0
143
1.0
 70
0
 72
1
 73
0
 74
0
  7

 75
0
147
1.0
148
0.0
149
0.0
100
AcDbLayout
  1
Layout1
 70
0
 71
1
 10
0.0
 20
0.0
 11
210.0
 21
297.0
 12
0.0
 22
0.0
 32
0.0
 14
0.0
 24
0.0
 34
0.0
 15
0.0
 25
0.0
 35
0.0
146
0.0
 13
0.0
 23
0.0
 33
0.0
 16
1.0
 26
0.0
 36
0.0
 17
0.0
 27
1.0
 37
0.0
 76
0
330
214
345
0
346
0
  0
ENDSEC
  0
EOF
