  0
SECTION
  2
HEADER
  9
$ACADVER
  1
AC1024
  9
$DWGCODEPAGE
  3
ANSI_1252
  9
$EXTMAX
 10
210.0
 20
297.0
 30
0.0
  9
$EXTMIN
 10
0.0
 20
0.0
 30
0.0
  9
$LIMMIN
 10
0.0
 20
0.0
  9
$LIMMAX
 10
210.0
 20
297.0
  9
$VIEWCTR
 10
105.0
 20
148.5
  9
$VIEWSIZE
 40
297.0
  9
$CLAYER
  8
0
  9
$LTSCALE
 40
19.36
  9
$CELTYPE
  6
BYLAYER
  9
$DIMSCALE
 40
1.0
  9
$DIMASZ
 40
3.0
  9
$DIMEXO
 40
0.5
  9
$DIMDLI
 40
13.376
  9
$DIMEXE
 40
1.5
  9
$DIMCEN
 40
3.168
  9
$DIMLFAC
 40
1.0
  9
$DIMBLK
  1
_FILLED
  9
$DIMALT
 70
0
  9
$DIMALTF
 40
0.0393700787
  9
$DIMTXT
 40
3.0
  9
$DIMTOL
 70
1
  9
$DIMLIM
 70
0
  9
$DIMTFAC
 40
1.0
  9
$DIMTP
 40
0.01
  9
$DIMTM
 40
0.01
  9
$DIMGAP
 40
0.625
  9
$DIMDSEP
 70
44
  9
$AUNITS
 70
0
  9
$PDMODE
 70
3
  9
$PDSIZE
 40
3.0
  9
$HANDSEED
  5
279
  9
$TILEMODE
 70
1
  9
$MEASUREMENT
 70
1
  9
$INSUNITS
 70
4
  0
ENDSEC
  0
SECTION
  2
CLASSES
  0
CLASS
  1
ACDBDICTIONARYWDFLT
  2
AcDbDictionaryWithDefault
  3
AutoCAD 2000
 90
0
 91
1
280
0
281
0
  0
CLASS
  1
ACDBPLACEHOLDER
  2
AcDbPlaceHolder
  3
AutoCAD 2000
 90
0
 91
1
280
0
281
0
  0
CLASS
  1
LAYOUT
  2
AcDbLayout
  3
AutoCAD 2000
 90
0
 91
0
280
0
281
0
  0
ENDSEC
  0
SECTION
  2
TABLES
  0
TABLE
  2
VPORT
  5
8
100
AcDbSymbolTable
 70
2
  0
VPORT
  5
1F4
100
AcDbSymbolTableRecord
100
AcDbViewportTableRecord
  2
*ACTIVE
 70
0
 10
0.0
 20
0.0
 11
1.0
 21
1.0
 12
105.0
 22
148.5
 13
0.0
 23
0.0
 14
1.0
 24
1.0
 15
0.0
 25
0.0
 16
0.0
 26
0.0
 36
1.0
 17
0.0
 27
0.0
 37
0.0
 40
297.0
 41
0.7070707071
 42
50.0
 43
0.0
 44
0.0
 50
0.0
 51
0.0
 71
0
 72
100
 73
1
 74
1
 75
0
 76
0
 77
0
 78
0
  0
ENDTAB
  0
TABLE
  2
LTYPE
  5
5
100
AcDbSymbolTable
 70
6
  0
LTYPE
  5
14
100
AcDbSymbolTableRecord
100
AcDbLinetypeTableRecord
  2
BYBLOCK
 70
0
  3

 72
65
 73
0
 40
0.0
  0
LTYPE
  5
15
100
AcDbSymbolTableRecord
100
AcDbLinetypeTableRecord
  2
BYLAYER
 70
0
  3

 72
65
 73
0
 40
0.0
  0
LTYPE
  5
16
100
AcDbSymbolTableRecord
100
AcDbLinetypeTableRecord
  2
CONTINUOUS
 70
64
  3
Solid line
 72
65
 73
0
 40
0.0
  0
LTYPE
  5
1F5
100
AcDbSymbolTableRecord
100
AcDbLinetypeTableRecord
  2
CENTER
 70
64
  3
____ _ ____ _ ____ _ ____ _ ____ _ ____ _ ____
 72
65
 73
4
 40
0.6
 49
0.375
 74
0
 49
-0.075
 74
0
 49
0.075
 74
0
 49
-0.075
 74
0
  0
LTYPE
  5
1F6
100
AcDbSymbolTableRecord
100
AcDbLinetypeTableRecord
  2
HIDDEN
 70
64
  3
- - - - - - - - - - - - - - - - - - - -
 72
65
 73
2
 40
0.2
 49
0.1
 74
0
 49
-0.1
 74
0
  0
LTYPE
  5
1F7
100
AcDbSymbolTableRecord
100
AcDbLinetypeTableRecord
  2
PHANTOM
 70
64
  3
_____ _ _ _____ _ _ _____ _ _ _____
 72
65
 73
6
 40
0.8
 49
0.45
 74
0
 49
-0.05
 74
0
 49
0.1
 74
0
 49
-0.05
 74
0
 49
0.1
 74
0
 49
-0.05
 74
0
  0
LTYPE
  5
1F8
100
AcDbSymbolTableRecord
100
AcDbLinetypeTableRecord
  2
DOT
 70
64
  3
. . . . . . . . . . . . . . . . . . . .
 72
65
 73
2
 40
0.2
 49
0.1
 74
0
 49
-0.1
 74
0
  0
LTYPE
  5
1F9
100
AcDbSymbolTableRecord
100
AcDbLinetypeTableRecord
  2
DASHED
 70
64
  3
- - - - - - - - - - - - - - - - - - - -
 72
65
 73
2
 40
0.2
 49
0.1
 74
0
 49
-0.1
 74
0
  0
ENDTAB
  0
TABLE
  2
LAYER
  5
2
100
AcDbSymbolTable
 70
36
  0
LAYER
  5
10
100
AcDbSymbolTableRecord
100
AcDbLayerTableRecord
  2
0
 70
0
 62
7
  6
CONTINUOUS
370
-3
390
F
  0
LAYER
  5
1FA
100
AcDbSymbolTableRecord
100
AcDbLayerTableRecord
  2
DEFAULT_1
 70
0
 62
7
  6
CENTER
370
-3
390
F
  0
LAYER
  5
1FB
100
AcDbSymbolTableRecord
100
AcDbLayerTableRecord
  2
DEFAULT_2
 70
0
 62
7
  6
HIDDEN
370
-3
390
F
  0
LAYER
  5
1FC
100
AcDbSymbolTableRecord
100
AcDbLayerTableRecord
  2
DEFAULT_3
 70
0
 62
7
  6
PHANTOM
370
-3
390
F
  0
LAYER
  5
1FD
100
AcDbSymbolTableRecord
100
AcDbLayerTableRecord
  2
ASSI
 70
0
 62
7
  6
CONTINUOUS
370
-3
390
F
  0
LAYER
  5
1FE
100
AcDbSymbolTableRecord
100
AcDbLayerTableRecord
  2
COORDINATE
 70
0
 62
7
  6
CONTINUOUS
370
-3
390
F
  0
LAYER
  5
1FF
100
AcDbSymbolTableRecord
100
AcDbLayerTableRecord
  2
COPY_PUBLISH
 70
0
 62
7
  6
CONTINUOUS
370
-3
390
F
  0
LAYER
  5
200
100
AcDbSymbolTableRecord
100
AcDbLayerTableRecord
  2
COSMETICI
 70
0
 62
7
  6
CONTINUOUS
370
-3
390
F
  0
LAYER
  5
201
100
AcDbSymbolTableRecord
100
AcDbLayerTableRecord
  2
CURVE
 70
0
 62
7
  6
CONTINUOUS
370
-3
390
F
  0
LAYER
  5
202
100
AcDbSymbolTableRecord
100
AcDbLayerTableRecord
  2
DRAFT
 70
0
 62
7
  6
CONTINUOUS
370
-3
390
F
  0
LAYER
  5
203
100
AcDbSymbolTableRecord
100
AcDbLayerTableRecord
  2
IMPORT_IGES
 70
0
 62
7
  6
CONTINUOUS
370
-3
390
F
  0
LAYER
  5
204
100
AcDbSymbolTableRecord
100
AcDbLayerTableRecord
  2
INTF_1
 70
0
 62
7
  6
CONTINUOUS
370
-3
390
F
  0
LAYER
  5
205
100
AcDbSymbolTableRecord
100
AcDbLayerTableRecord
  2
INTF_2
 70
0
 62
7
  6
CONTINUOUS
370
-3
390
F
  0
LAYER
  5
206
100
AcDbSymbolTableRecord
100
AcDbLayerTableRecord
  2
INTF_4
 70
0
 62
7
  6
CONTINUOUS
370
-3
390
F
  0
LAYER
  5
207
100
AcDbSymbolTableRecord
100
AcDbLayerTableRecord
  2
NOTE
 70
0
 62
7
  6
CONTINUOUS
370
-3
390
F
  0
LAYER
  5
208
100
AcDbSymbolTableRecord
100
AcDbLayerTableRecord
  2
PIANI
 70
0
 62
7
  6
CONTINUOUS
370
-3
390
F
  0
LAYER
  5
209
100
AcDbSymbolTableRecord
100
AcDbLayerTableRecord
  2
PUNTI
 70
0
 62
7
  6
CONTINUOUS
370
-3
390
F
  0
LAYER
  5
20A
100
AcDbSymbolTableRecord
100
AcDbLayerTableRecord
  2
RACCORDO
 70
0
 62
7
  6
CONTINUOUS
370
-3
390
F
  0
LAYER
  5
20B
100
AcDbSymbolTableRecord
100
AcDbLayerTableRecord
  2
SIMBOLI
 70
0
 62
7
  6
CONTINUOUS
370
-3
390
F
  0
LAYER
  5
20C
100
AcDbSymbolTableRecord
100
AcDbLayerTableRecord
  2
SMUSSO
 70
0
 62
7
  6
CONTINUOUS
370
-3
390
F
  0
LAYER
  5
20D
100
AcDbSymbolTableRecord
100
AcDbLayerTableRecord
  2
SNAPLINE
 70
0
 62
7
  6
CONTINUOUS
370
-3
390
F
  0
LAYER
  5
20E
100
AcDbSymbolTableRecord
100
AcDbLayerTableRecord
  2
SUPERFICI
 70
0
 62
7
  6
CONTINUOUS
370
-3
390
F
  0
LAYER
  5
20F
100
AcDbSymbolTableRecord
100
AcDbLayerTableRecord
  2
TRASH
 70
0
 62
7
  6
CONTINUOUS
370
-3
390
F
  0
ENDTAB
  0
TABLE
  2
STYLE
  5
3
100
AcDbSymbolTable
 70
1
  0
STYLE
  5
11
100
AcDbSymbolTableRecord
100
AcDbTextStyleTableRecord
  2
STANDARD
 70
0
 40
0.0
 41
0.8
 50
0.0
 71
0
 42
0.2
  3
txt
  4

  0
STYLE
  5
210
100
AcDbSymbolTableRecord
100
AcDbTextStyleTableRecord
  2
TEXTSTYLE_1
 70
0
 40
0.0
 41
0.8
 50
0.0
 71
0
 42
0.2
  3
gdt
  4

  0
ENDTAB
  0
TABLE
  2
VIEW
  5
6
100
AcDbSymbolTable
 70
0
  0
ENDTAB
  0
TABLE
  2
UCS
  5
7
100
AcDbSymbolTable
 70
0
  0
ENDTAB
  0
TABLE
  2
APPID
  5
9
100
AcDbSymbolTable
 70
1
  0
APPID
  5
211
100
AcDbSymbolTableRecord
100
AcDbRegAppTableRecord
  2
ACAD
 70
0
  0
ENDTAB
  0
TABLE
  2
BLOCK_RECORD
  5
1
100
AcDbSymbolTable
 70
0
  0
BLOCK_RECORD
  5
212
100
AcDbSymbolTableRecord
100
AcDbBlockTableRecord
  2
*Model_Space
  0
BLOCK_RECORD
  5
213
100
AcDbSymbolTableRecord
100
AcDbBlockTableRecord
  2
*Paper_Space
  0
BLOCK_RECORD
  5
214
100
AcDbSymbolTableRecord
100
AcDbBlockTableRecord
  2
_FILLED
  0
ENDTAB
  0
TABLE
  2
DIMSTYLE
  5
A
100
AcDbSymbolTable
 70
1
100
AcDbDimStyleTable
 71
0
  0
DIMSTYLE
105
215
100
AcDbSymbolTableRecord
100
AcDbDimStyleTableRecord
  2
STANDARD
 70
0
  3

  4

 40
1.0
 41
3.0
 42
0.5
 43
0.38
 44
1.5
 45
0.0
 46
0.0
 47
0.01
 48
0.01
140
3.0
141
0.09
142
0.0
143
25.4
144
1.0
145
0.0
146
1.0
147
0.625
 71
1
 72
0
 73
0
 74
0
 75
0
 76
0
 77
1
 78
8
 79
2
170
0
171
1
172
0
173
0
174
0
175
0
176
0
177
0
178
0
270
2
179
2
271
2
272
2
273
2
274
2
275
0
280
0
281
0
282
0
283
1
284
8
285
0
286
0
287
3
288
0
340
11
278
44
341
214
342
214
343
214
344
214
  0
ENDTAB
  0
ENDSEC
  0
SECTION
  2
BLOCKS
  0
BLOCK
  5
20
100
AcDbEntity
  8
0
100
AcDbBlockBegin
  2
*Model_Space
 70
0
 10
0.0
 20
0.0
 30
0.0
  3
*Model_Space
  1

  0
ENDBLK
  5
21
100
AcDbEntity
  8
0
100
AcDbBlockEnd
  0
BLOCK
  5
1C
100
AcDbEntity
  8
0
100
AcDbBlockBegin
  2
*Paper_Space
 70
0
 10
0.0
 20
0.0
 30
0.0
  3
*Paper_Space
  1

  0
ENDBLK
  5
1D
100
AcDbEntity
  8
0
100
AcDbBlockEnd
  0
BLOCK
  5
216
100
AcDbEntity
  8
0
100
AcDbBlockBegin
  2
_FILLED
 70
64
 10
0.0
 20
0.0
  3
_FILLED
  1

  0
SOLID
  5
217
100
AcDbEntity
  8
0
  6
BYBLOCK
 62
0
100
AcDbTrace
 10
0.0
 20
0.0
 11
-1.0
 21
0.3166666667
 12
-1.0
 22
-0.3166666667
 13
-1.0
 23
-0.3166666667
  0
ENDBLK
  5
218
100
AcDbEntity
  8
0
  6
BYBLOCK
 62
0
100
AcDbBlockEnd
  0
ENDSEC
  0
SECTION
  2
ENTITIES
  0
LWPOLYLINE
  5
219
100
AcDbEntity
  8
ASSI
100
AcDbPolyline
 62
250
  6
CONTINUOUS
 90
16
 70
0
 10
-8.9316820665
 20
25.2918098104
 10
-8.9679632371
 20
25.2676012851
 10
-9.0037619815
 20
25.2393823365
 10
-9.0386990347
 20
25.2074519264
 10
-9.072404261
 20
25.1721483371
 10
-9.1045205746
 20
25.1338455878
 10
-9.1347077235
 20
25.0929494719
 10
-9.162645894
 20
25.049893258
 10
-9.1880390989
 20
25.0051330992
 10
-9.2106183133
 20
24.959143201
 10
-9.2301443248
 20
24.9124107972
 10
-9.2464102677
 20
24.865430988
 10
-9.2592438145
 20
24.8187014948
 10
-9.2685090019
 20
24.7727173869
 10
-9.2741076713
 20
24.7279658368
 10
-9.2759805083
 20
24.6849209588
  0
LINE
  5
21A
100
AcDbEntity
  8
ASSI
100
AcDbLine
 62
7
  6
CONTINUOUS
 10
-7.6110630584
 20
26.3211554028
 11
-9.1918010678
 21
25.3102917715
  0
LINE
  5
21B
100
AcDbEntity
  8
ASSI
100
AcDbLine
 62
250
  6
CONTINUOUS
 10
-7.3832075071
 20
26.2820413395
 11
-8.9316820665
 21
25.2918098104
  0
LWPOLYLINE
  5
21C
100
AcDbEntity
  8
ASSI
100
AcDbPolyline
 62
250
  6
CONTINUOUS
 90
16
 70
0
 10
5.5922336601
 20
-26.0515718417
 10
5.6299179814
 20
-26.0712246919
 10
5.6710238803
 20
-26.0886313438
 10
5.7151593639
 20
-26.1035830901
 10
5.7619534395
 20
-26.1159074263
 10
5.8108811428
 20
-26.1254215149
 10
5.8612461528
 20
-26.1319716727
 10
5.9124397474
 20
-26.1354854835
 10
5.9639868251
 20
-26.1359369661
 10
6.0153580062
 20
-26.1333199964
 10
6.066018167
 20
-26.1276575701
 10
6.1154145069
 20
-26.1190071466
 10
6.1630029128
 20
-26.107462367
 10
6.2082711465
 20
-26.0931480886
 10
6.2507424651
 20
-26.0762156827
 10
6.2899643385
 20
-26.0568455804
  0
LINE
  5
21D
100
AcDbEntity
  8
ASSI
100
AcDbLine
 62
7
  6
CONTINUOUS
 10
-9.1724391977
 20
-17.695719754
 11
5.6957749706
 21
-26.2804402723
  0
LINE
  5
21E
100
AcDbEntity
  8
ASSI
100
AcDbLine
 62
250
  6
CONTINUOUS
 10
-9.2759805083
 20
-17.4668513234
 11
5.5922336601
 21
-26.0515718417
  0
LWPOLYLINE
  5
21F
100
AcDbEntity
  8
ASSI
100
AcDbPolyline
 62
250
  6
CONTINUOUS
 90
9
 70
0
 10
-9.2759805083
 20
-17.4668513234
 10
-9.309772029
 20
-17.4452670338
 10
-9.3397701392
 20
-17.4217051935
 10
-9.3656045896
 20
-17.396381069
 10
-9.3869524368
 20
-17.3695170184
 10
-9.40350096
 20
-17.3413913232
 10
-9.4149838091
 20
-17.3123421698
 10
-9.4212339832
 20
-17.2826461152
 10
-9.4224271177
 20
-17.2627140267
  0
LWPOLYLINE
  5
220
100
AcDbEntity
  8
ASSI
100
AcDbPolyline
 62
250
  6
CONTINUOUS
 90
9
 70
0
 10
5.6957749706
 20
-26.2804402723
 10
5.6801750694
 20
-26.2702314469
 10
5.657595855
 20
-26.2503154596
 10
5.6380698435
 20
-26.2261312044
 10
5.6218039007
 20
-26.1979348983
 10
5.6089703539
 20
-26.1660252632
 10
5.5997051664
 20
-26.1307403616
 10
5.594106497
 20
-26.0924540146
 10
5.5922336601
 20
-26.0515718417
  0
LINE
  5
221
100
AcDbEntity
  8
ASSI
100
AcDbLine
 62
250
  6
CONTINUOUS
 10
5.9365321018
 20
16.7070892921
 11
7.5682838171
 21
17.6492376352
  0
LINE
  5
222
100
AcDbEntity
  8
CURVE
100
AcDbLine
 62
250
  6
CONTINUOUS
 10
-1.2063078801
 20
-14.0719972679
 11
-2.4774389681
 21
-13.3380621087
  0
LINE
  5
223
100
AcDbEntity
  8
CURVE
100
AcDbLine
 62
250
  6
CONTINUOUS
 10
-2.4774389681
 20
-11.7887619188
 11
-1.2063078801
 21
-12.522697078
  0
LWPOLYLINE
  5
224
100
AcDbEntity
  8
CURVE
100
AcDbPolyline
 62
250
  6
CONTINUOUS
 90
55
 70
0
 10
-2.4774389681
 20
-13.3380621087
 10
-2.478365987
 20
-13.3375048311
 10
-2.4792963741
 20
-13.3369021585
 10
-2.480229341
 20
-13.3362554566
 10
-2.4811640993
 20
-13.335566091
 10
-2.4820998605
 20
-13.3348354272
 10
-2.4830358362
 20
-13.3340648309
 10
-2.4839712381
 20
-13.3332556676
 10
-2.4849052775
 20
-13.332409303
 10
-2.4858371663
 20
-13.3315271027
 10
-2.4867661157
 20
-13.3306104322
 10
-2.4876913376
 20
-13.3296606573
 10
-2.4886120434
 20
-13.3286791434
 10
-2.4895274447
 20
-13.3276672561
 10
-2.490436753
 20
-13.3266263612
 10
-2.49133918
 20
-13.3255578241
 10
-2.4922339372
 20
-13.3244630106
 10
-2.4931202362
 20
-13.3233432861
 10
-2.4939972885
 20
-13.3222000163
 10
-2.4948643058
 20
-13.3210345667
 10
-2.4957204995
 20
-13.3198483031
 10
-2.4965650813
 20
-13.318642591
 10
-2.4973972627
 20
-13.317418796
 10
-2.4982162552
 20
-13.3161782836
 10
-2.4990212706
 20
-13.3149224196
 10
-2.4998115203
 20
-13.3136525695
 10
-2.5005862159
 20
-13.3123700988
 10
-2.5013445689
 20
-13.3110763733
 10
-2.502085791
 20
-13.3097727585
 10
-2.5028090937
 20
-13.30846062
 10
-2.5035136886
 20
-13.3071413234
 10
-2.5041987872
 20
-13.3058162344
 10
-2.5048636011
 20
-13.3044867184
 10
-2.5055073419
 20
-13.3031541412
 10
-2.5061292212
 20
-13.3018198683
 10
-2.5067284505
 20
-13.3004852653
 10
-2.5073042414
 20
-13.2991516978
 10
-2.5078558054
 20
-13.2978205315
 10
-2.5083823542
 20
-13.2964931319
 10
-2.5088830993
 20
-13.2951708646
 10
-2.5093572523
 20
-13.2938550953
 10
-2.5098040246
 20
-13.2925471895
 10
-2.510222628
 20
-13.2912485128
 10
-2.510612274
 20
-13.2899604309
 10
-2.5109721741
 20
-13.2886843093
 10
-2.51130154
 20
-13.2874215137
 10
-2.5115995831
 20
-13.2861734096
 10
-2.5118655151
 20
-13.2849413627
 10
-2.5120985475
 20
-13.2837267385
 10
-2.5122978918
 20
-13.2825309027
 10
-2.5124627598
 20
-13.2813552208
 10
-2.5125923629
 20
-13.2802010585
 10
-2.5126859127
 20
-13.2790697813
 10
-2.5127426207
 20
-13.2779627549
 10
-2.5127616986
 20
-13.2768813449
  0
LWPOLYLINE
  5
225
100
AcDbEntity
  8
CURVE
100
AcDbPolyline
 62
250
  6
CONTINUOUS
 90
55
 70
0
 10
-1.2063078801
 20
-12.522697078
 10
-1.2053808612
 20
-12.5232543556
 10
-1.2044504741
 20
-12.5238570282
 10
-1.2035175072
 20
-12.5245037301
 10
-1.2025827489
 20
-12.5251930957
 10
-1.2016469877
 20
-12.5259237595
 10
-1.200711012
 20
-12.5266943558
 10
-1.1997756101
 20
-12.5275035191
 10
-1.1988415706
 20
-12.5283498837
 10
-1.1979096819
 20
-12.529232084
 10
-1.1969807324
 20
-12.5301487545
 10
-1.1960555106
 20
-12.5310985294
 10
-1.1951348048
 20
-12.5320800433
 10
-1.1942194035
 20
-12.5330919306
 10
-1.1933100952
 20
-12.5341328255
 10
-1.1924076682
 20
-12.5352013626
 10
-1.191512911
 20
-12.5362961762
 10
-1.190626612
 20
-12.5374159007
 10
-1.1897495597
 20
-12.5385591705
 10
-1.1888825424
 20
-12.53972462
 10
-1.1880263487
 20
-12.5409108836
 10
-1.1871817669
 20
-12.5421165957
 10
-1.1863495855
 20
-12.5433403908
 10
-1.1855305929
 20
-12.5445809031
 10
-1.1847255776
 20
-12.5458367671
 10
-1.1839353279
 20
-12.5471066173
 10
-1.1831606323
 20
-12.5483890879
 10
-1.1824022793
 20
-12.5496828134
 10
-1.1816610572
 20
-12.5509864282
 10
-1.1809377545
 20
-12.5522985667
 10
-1.1802331596
 20
-12.5536178633
 10
-1.179548061
 20
-12.5549429524
 10
-1.1788832471
 20
-12.5562724683
 10
-1.1782395063
 20
-12.5576050455
 10
-1.177617627
 20
-12.5589393185
 10
-1.1770183977
 20
-12.5602739214
 10
-1.1764426068
 20
-12.5616074889
 10
-1.1758910427
 20
-12.5629386552
 10
-1.175364494
 20
-12.5642660548
 10
-1.1748637489
 20
-12.5655883221
 10
-1.1743895959
 20
-12.5669040914
 10
-1.1739428236
 20
-12.5682119972
 10
-1.1735242202
 20
-12.5695106739
 10
-1.1731345742
 20
-12.5707987558
 10
-1.1727746741
 20
-12.5720748774
 10
-1.1724453082
 20
-12.573337673
 10
-1.1721472651
 20
-12.5745857771
 10
-1.1718813331
 20
-12.575817824
 10
-1.1716483007
 20
-12.5770324482
 10
-1.1714489564
 20
-12.5782282841
 10
-1.1712840884
 20
-12.5794039659
 10
-1.1711544853
 20
-12.5805581283
 10
-1.1710609355
 20
-12.5816894054
 10
-1.1710042275
 20
-12.5827964318
 10
-1.1709851496
 20
-12.5838778418
  0
LWPOLYLINE
  5
226
100
AcDbEntity
  8
ASSI
100
AcDbPolyline
 62
250
  6
CONTINUOUS
 90
9
 70
0
 10
-9.2759805083
 20
-17.4668513234
 10
-9.2741076713
 20
-17.5077334963
 10
-9.2685090019
 20
-17.5460198433
 10
-9.2592438145
 20
-17.5813047449
 10
-9.2464102677
 20
-17.61321438
 10
-9.2301443248
 20
-17.6414106861
 10
-9.2106183133
 20
-17.6655949413
 10
-9.1880390989
 20
-17.6855109286
 10
-9.1724391977
 20
-17.695719754
  0
LINE
  5
227
100
AcDbEntity
  8
ASSI
100
AcDbLine
 62
7
  6
CONTINUOUS
 10
-9.4224271177
 20
24.8890582555
 11
-9.4224271177
 21
4.4161168855
  0
LINE
  5
228
100
AcDbEntity
  8
ASSI
100
AcDbLine
 62
7
  6
CONTINUOUS
 10
-9.4224271177
 20
3.2102273432
 11
-9.4224271177
 21
-17.2627140267
  0
LWPOLYLINE
  5
229
100
AcDbEntity
  8
ASSI
100
AcDbPolyline
 62
250
  6
CONTINUOUS
 90
16
 70
0
 10
-9.2759805083
 20
3.0060900466
 10
-9.2740682375
 20
3.0495959908
 10
-9.2683537804
 20
3.0948294629
 10
-9.2589014062
 20
3.1413003856
 10
-9.2458244248
 20
3.1884780176
 10
-9.2292618287
 20
3.2358799224
 10
-9.209356672
 20
3.2830773639
 10
-9.1862569327
 20
3.3296556493
 10
-9.1602398065
 20
3.375000522
 10
-9.131715922
 20
3.4184113609
 10
-9.1010470645
 20
3.4593990587
 10
-9.0685584725
 20
3.4975857183
 10
-9.0346818087
 20
3.5325246625
 10
-8.9998202726
 20
3.5638757566
 10
-8.9643329493
 20
3.5913888319
 10
-8.9285974751
 20
3.6148376184
  0
LINE
  5
22A
100
AcDbEntity
  8
CURVE
100
AcDbLine
 62
7
  6
CONTINUOUS
 10
-2.5127616986
 20
12.6849554249
 11
-2.4888574106
 21
12.7088597129
  0
LINE
  5
22B
100
AcDbEntity
  8
CURVE
100
AcDbLine
 62
7
  6
CONTINUOUS
 10
-2.5127616986
 20
11.689349077
 11
-1.8557308603
 21
12.3463799153
  0
LINE
  5
22C
100
AcDbEntity
  8
CURVE
100
AcDbLine
 62
7
  6
CONTINUOUS
 10
-2.2067504122
 20
10.9997540155
 11
-1.2245566125
 21
11.9819478152
  0
LINE
  5
22D
100
AcDbEntity
  8
ASSI
100
AcDbLine
 62
250
  6
CONTINUOUS
 10
6.2899643385
 20
16.0949267018
 11
8.0182206679
 21
17.0927953248
  0
LWPOLYLINE
  5
22E
100
AcDbEntity
  8
ASSI
100
AcDbPolyline
 62
250
  6
CONTINUOUS
 90
9
 70
0
 10
-9.4224270638
 20
3.2100933151
 10
-9.4214954507
 20
3.1926118298
 10
-9.4156430634
 20
3.1628321989
 10
-9.4045257104
 20
3.1336697127
 10
-9.3882796243
 20
3.1053691976
 10
-9.3670599553
 20
3.0781814177
 10
-9.3410734904
 20
3.0523826463
 10
-9.3106060058
 20
3.0282658555
 10
-9.2759805083
 20
3.0060900466
  0
LINE
  5
22F
100
AcDbEntity
  8
ASSI
100
AcDbLine
 62
250
  6
CONTINUOUS
 10
-9.2759805083
 20
24.6849209588
 11
-9.2759805083
 21
4.2119795888
  0
LINE
  5
230
100
AcDbEntity
  8
ASSI
100
AcDbLine
 62
250
  6
CONTINUOUS
 10
-9.2759805083
 20
3.0060900466
 11
-9.2759805083
 21
-17.4668513234
  0
LINE
  5
231
100
AcDbEntity
  8
CURVE
100
AcDbLine
 62
7
  6
CONTINUOUS
 10
-1.5755761645
 20
10.6353219153
 11
-1.1709851496
 21
11.0399129302
  0
LINE
  5
232
100
AcDbEntity
  8
ASSI
100
AcDbLine
 62
7
  6
CONTINUOUS
 10
-9.188684171
 20
3.6334379073
 11
-8.8910912371
 21
3.8206643719
  0
LINE
  5
233
100
AcDbEntity
  8
ASSI
100
AcDbLine
 62
250
  6
CONTINUOUS
 10
-8.9285974751
 20
3.6148376184
 11
-8.7400538053
 21
3.7334572517
  0
LINE
  5
234
100
AcDbEntity
  8
CURVE
100
AcDbLine
 62
250
  6
CONTINUOUS
 10
-2.5127616986
 20
-13.2768813449
 11
-2.5127616986
 21
-11.8091528789
  0
LINE
  5
235
100
AcDbEntity
  8
CURVE
100
AcDbLine
 62
250
  6
CONTINUOUS
 10
-2.5127616986
 20
11.2172269589
 11
-2.5127616986
 21
12.6849554249
  0
LWPOLYLINE
  5
236
100
AcDbEntity
  8
CURVE
100
AcDbPolyline
 62
250
  6
CONTINUOUS
 90
55
 70
0
 10
-2.5127616986
 20
12.6849554249
 10
-2.5127426207
 20
12.6860148043
 10
-2.5126859127
 20
12.6870563457
 10
-2.5125923629
 20
12.6880795939
 10
-2.5124627598
 20
12.6890840938
 10
-2.5122978918
 20
12.6900693903
 10
-2.5120985475
 20
12.6910350282
 10
-2.5118655151
 20
12.6919805524
 10
-2.5115995831
 20
12.6929055078
 10
-2.51130154
 20
12.6938094392
 10
-2.5109721741
 20
12.6946918914
 10
-2.510612274
 20
12.6955524093
 10
-2.510222628
 20
12.6963905378
 10
-2.5098040246
 20
12.6972058218
 10
-2.5093572523
 20
12.697997806
 10
-2.5088830993
 20
12.6987660354
 10
-2.5083823542
 20
12.6995100548
 10
-2.5078558054
 20
12.7002294091
 10
-2.5073042414
 20
12.7009236431
 10
-2.5067284505
 20
12.7015923017
 10
-2.5061292212
 20
12.7022349297
 10
-2.5055073419
 20
12.702851072
 10
-2.5048636011
 20
12.7034402735
 10
-2.5041987872
 20
12.704002079
 10
-2.5035136886
 20
12.7045360333
 10
-2.5028090937
 20
12.7050416814
 10
-2.502085791
 20
12.7055185681
 10
-2.5013445689
 20
12.7059662382
 10
-2.5005862159
 20
12.7063842366
 10
-2.4998115203
 20
12.7067721082
 10
-2.4990212706
 20
12.7071293978
 10
-2.4982162552
 20
12.7074556503
 10
-2.4973972627
 20
12.7077504105
 10
-2.4965650813
 20
12.7080132233
 10
-2.4957204995
 20
12.7082436336
 10
-2.4948643058
 20
12.7084411862
 10
-2.4939972885
 20
12.7086054259
 10
-2.4931202362
 20
12.7087358977
 10
-2.4922339372
 20
12.7088321463
 10
-2.49133918
 20
12.7088937167
 10
-2.490436753
 20
12.7089201537
 10
-2.4895274447
 20
12.7089110022
 10
-2.4886120434
 20
12.7088658069
 10
-2.4876913376
 20
12.7087841129
 10
-2.4867661157
 20
12.7086654648
 10
-2.4858371663
 20
12.7085094077
 10
-2.4849052775
 20
12.7083154863
 10
-2.4839712381
 20
12.7080832455
 10
-2.4830358362
 20
12.7078122302
 10
-2.4820998605
 20
12.7075019852
 10
-2.4811640993
 20
12.7071520553
 10
-2.480229341
 20
12.7067619855
 10
-2.4792963741
 20
12.7063313206
 10
-2.478365987
 20
12.7058596055
 10
-2.4774389681
 20
12.705346385
  0
LWPOLYLINE
  5
237
100
AcDbEntity
  8
CURVE
100
AcDbPolyline
 62
250
  6
CONTINUOUS
 90
55
 70
0
 10
-2.5127616986
 20
-11.8091528789
 10
-2.5127426207
 20
-11.8080934995
 10
-2.5126859127
 20
-11.8070519581
 10
-2.5125923629
 20
-11.8060287099
 10
-2.5124627598
 20
-11.80502421
 10
-2.5122978918
 20
-11.8040389135
 10
-2.5120985475
 20
-11.8030732756
 10
-2.5118655151
 20
-11.8021277514
 10
-2.5115995831
 20
-11.801202796
 10
-2.51130154
 20
-11.8002988646
 10
-2.5109721741
 20
-11.7994164124
 10
-2.510612274
 20
-11.7985558945
 10
-2.510222628
 20
-11.797717766
 10
-2.5098040246
 20
-11.796902482
 10
-2.5093572523
 20
-11.7961104978
 10
-2.5088830993
 20
-11.7953422684
 10
-2.5083823542
 20
-11.794598249
 10
-2.5078558054
 20
-11.7938788947
 10
-2.5073042414
 20
-11.7931846607
 10
-2.5067284505
 20
-11.7925160021
 10
-2.5061292212
 20
-11.7918733741
 10
-2.5055073419
 20
-11.7912572318
 10
-2.5048636011
 20
-11.7906680303
 10
-2.5041987872
 20
-11.7901062248
 10
-2.5035136886
 20
-11.7895722705
 10
-2.5028090937
 20
-11.7890666224
 10
-2.502085791
 20
-11.7885897357
 10
-2.5013445689
 20
-11.7881420656
 10
-2.5005862159
 20
-11.7877240672
 10
-2.4998115203
 20
-11.7873361956
 10
-2.4990212706
 20
-11.786978906
 10
-2.4982162552
 20
-11.7866526535
 10
-2.4973972627
 20
-11.7863578933
 10
-2.4965650813
 20
-11.7860950805
 10
-2.4957204995
 20
-11.7858646702
 10
-2.4948643058
 20
-11.7856671176
 10
-2.4939972885
 20
-11.7855028779
 10
-2.4931202362
 20
-11.7853724061
 10
-2.4922339372
 20
-11.7852761575
 10
-2.49133918
 20
-11.7852145871
 10
-2.490436753
 20
-11.7851881501
 10
-2.4895274447
 20
-11.7851973016
 10
-2.4886120434
 20
-11.7852424969
 10
-2.4876913376
 20
-11.7853241909
 10
-2.4867661157
 20
-11.785442839
 10
-2.4858371663
 20
-11.7855988961
 10
-2.4849052775
 20
-11.7857928175
 10
-2.4839712381
 20
-11.7860250583
 10
-2.4830358362
 20
-11.7862960736
 10
-2.4820998605
 20
-11.7866063186
 10
-2.4811640993
 20
-11.7869562485
 10
-2.480229341
 20
-11.7873463182
 10
-2.4792963741
 20
-11.7877769831
 10
-2.478365987
 20
-11.7882486983
 10
-2.4774389681
 20
-11.7887619188
  0
LWPOLYLINE
  5
238
100
AcDbEntity
  8
ASSI
100
AcDbPolyline
 62
250
  6
CONTINUOUS
 90
16
 70
0
 10
5.5922336601
 20
-5.5786304718
 10
5.6296034373
 20
-5.5981351922
 10
5.6703997286
 20
-5.6154525531
 10
5.7142507741
 20
-5.6303683138
 10
5.7607727089
 20
-5.6426955227
 10
5.8094839045
 20
-5.6522528276
 10
5.8597979147
 20
-5.6588855865
 10
5.9112371406
 20
-5.6624968587
 10
5.9632095329
 20
-5.6630115935
 10
6.0149163807
 20
-5.6604143386
 10
6.0656953057
 20
-5.6547623154
 10
6.1151181506
 20
-5.6461274262
 10
6.1627471868
 20
-5.634592162
 10
6.2080985273
 20
-5.6202681657
 10
6.2506567427
 20
-5.6033123971
 10
6.2899643385
 20
-5.5839042105
  0
LINE
  5
239
100
AcDbEntity
  8
ASSI
100
AcDbLine
 62
250
  6
CONTINUOUS
 10
5.5922336601
 20
-5.5786304718
 11
-9.2759805083
 21
3.0060900466
  0
LINE
  5
23A
100
AcDbEntity
  8
CURVE
100
AcDbLine
 62
250
  6
CONTINUOUS
 10
-1.1709851496
 20
11.9102304619
 11
-1.1709851496
 21
10.4425019959
  0
LINE
  5
23B
100
AcDbEntity
  8
CURVE
100
AcDbLine
 62
250
  6
CONTINUOUS
 10
-1.1709851496
 20
-12.5838778418
 11
-1.1709851496
 21
-14.0516063079
  0
LWPOLYLINE
  5
23C
100
AcDbEntity
  8
CURVE
100
AcDbPolyline
 62
250
  6
CONTINUOUS
 90
55
 70
0
 10
-1.1709851496
 20
10.4425019959
 10
-1.1710042275
 20
10.4414426166
 10
-1.1710609355
 20
10.4404010752
 10
-1.1711544853
 20
10.439377827
 10
-1.1712840884
 20
10.4383733271
 10
-1.1714489564
 20
10.4373880306
 10
-1.1716483007
 20
10.4364223926
 10
-1.1718813331
 20
10.4354768684
 10
-1.1721472651
 20
10.4345519131
 10
-1.1724453082
 20
10.4336479817
 10
-1.1727746741
 20
10.4327655295
 10
-1.1731345742
 20
10.4319050115
 10
-1.1735242202
 20
10.431066883
 10
-1.1739428236
 20
10.4302515991
 10
-1.1743895959
 20
10.4294596148
 10
-1.1748637489
 20
10.4286913854
 10
-1.175364494
 20
10.427947366
 10
-1.1758910427
 20
10.4272280118
 10
-1.1764426068
 20
10.4265337778
 10
-1.1770183977
 20
10.4258651192
 10
-1.177617627
 20
10.4252224912
 10
-1.1782395063
 20
10.4246063489
 10
-1.1788832471
 20
10.4240171474
 10
-1.179548061
 20
10.4234553419
 10
-1.1802331596
 20
10.4229213875
 10
-1.1809377545
 20
10.4224157395
 10
-1.1816610572
 20
10.4219388528
 10
-1.1824022793
 20
10.4214911827
 10
-1.1831606323
 20
10.4210731842
 10
-1.1839353279
 20
10.4206853127
 10
-1.1847255776
 20
10.420328023
 10
-1.1855305929
 20
10.4200017706
 10
-1.1863495855
 20
10.4197070103
 10
-1.1871817669
 20
10.4194441975
 10
-1.1880263487
 20
10.4192137873
 10
-1.1888825424
 20
10.4190162347
 10
-1.1897495597
 20
10.418851995
 10
-1.190626612
 20
10.4187215232
 10
-1.191512911
 20
10.4186252745
 10
-1.1924076682
 20
10.4185637041
 10
-1.1933100952
 20
10.4185372671
 10
-1.1942194035
 20
10.4185464187
 10
-1.1951348048
 20
10.4185916139
 10
-1.1960555106
 20
10.418673308
 10
-1.1969807324
 20
10.418791956
 10
-1.1979096819
 20
10.4189480132
 10
-1.1988415706
 20
10.4191419346
 10
-1.1997756101
 20
10.4193741754
 10
-1.200711012
 20
10.4196451907
 10
-1.2016469877
 20
10.4199554357
 10
-1.2025827489
 20
10.4203053655
 10
-1.2035175072
 20
10.4206954353
 10
-1.2044504741
 20
10.4211261002
 10
-1.2053808612
 20
10.4215978154
 10
-1.2063078801
 20
10.4221110359
  0
LWPOLYLINE
  5
23D
100
AcDbEntity
  8
CURVE
100
AcDbPolyline
 62
250
  6
CONTINUOUS
 90
55
 70
0
 10
-1.1709851496
 20
-14.0516063079
 10
-1.1710042275
 20
-14.0526656872
 10
-1.1710609355
 20
-14.0537072286
 10
-1.1711544853
 20
-14.0547304768
 10
-1.1712840884
 20
-14.0557349767
 10
-1.1714489564
 20
-14.0567202732
 10
-1.1716483007
 20
-14.0576859111
 10
-1.1718813331
 20
-14.0586314354
 10
-1.1721472651
 20
-14.0595563907
 10
-1.1724453082
 20
-14.0604603221
 10
-1.1727746741
 20
-14.0613427743
 10
-1.1731345742
 20
-14.0622032922
 10
-1.1735242202
 20
-14.0630414208
 10
-1.1739428236
 20
-14.0638567047
 10
-1.1743895959
 20
-14.064648689
 10
-1.1748637489
 20
-14.0654169184
 10
-1.175364494
 20
-14.0661609378
 10
-1.1758910427
 20
-14.066880292
 10
-1.1764426068
 20
-14.067574526
 10
-1.1770183977
 20
-14.0682431846
 10
-1.177617627
 20
-14.0688858126
 10
-1.1782395063
 20
-14.0695019549
 10
-1.1788832471
 20
-14.0700911564
 10
-1.179548061
 20
-14.0706529619
 10
-1.1802331596
 20
-14.0711869162
 10
-1.1809377545
 20
-14.0716925643
 10
-1.1816610572
 20
-14.072169451
 10
-1.1824022793
 20
-14.0726171211
 10
-1.1831606323
 20
-14.0730351195
 10
-1.1839353279
 20
-14.0734229911
 10
-1.1847255776
 20
-14.0737802807
 10
-1.1855305929
 20
-14.0741065332
 10
-1.1863495855
 20
-14.0744012934
 10
-1.1871817669
 20
-14.0746641063
 10
-1.1880263487
 20
-14.0748945165
 10
-1.1888825424
 20
-14.0750920691
 10
-1.1897495597
 20
-14.0752563088
 10
-1.190626612
 20
-14.0753867806
 10
-1.191512911
 20
-14.0754830293
 10
-1.1924076682
 20
-14.0755445996
 10
-1.1933100952
 20
-14.0755710366
 10
-1.1942194035
 20
-14.0755618851
 10
-1.1951348048
 20
-14.0755166898
 10
-1.1960555106
 20
-14.0754349958
 10
-1.1969807324
 20
-14.0753163478
 10
-1.1979096819
 20
-14.0751602906
 10
-1.1988415706
 20
-14.0749663692
 10
-1.1997756101
 20
-14.0747341284
 10
-1.200711012
 20
-14.0744631131
 10
-1.2016469877
 20
-14.0741528681
 10
-1.2025827489
 20
-14.0738029383
 10
-1.2035175072
 20
-14.0734128685
 10
-1.2044504741
 20
-14.0729822036
 10
-1.2053808612
 20
-14.0725104884
 10
-1.2063078801
 20
-14.0719972679
  0
LWPOLYLINE
  5
23E
100
AcDbEntity
  8
ASSI
100
AcDbPolyline
 62
250
  6
CONTINUOUS
 90
9
 70
0
 10
-8.9285974751
 20
3.6148376184
 10
-8.9664635507
 20
3.6333693536
 10
-9.0038474342
 20
3.6472677502
 10
-9.040339778
 20
3.656380623
 10
-9.0755409967
 20
3.6606081875
 10
-9.1090656425
 20
3.6599041524
 10
-9.1405466258
 20
3.6542762268
 10
-9.1696392346
 20
3.6437860357
 10
-9.188684171
 20
3.6334379073
  0
LINE
  5
23F
100
AcDbEntity
  8
ASSI
100
AcDbLine
 62
250
  6
CONTINUOUS
 10
5.9396166932
 20
-4.9698829
 11
-8.9285974751
 21
3.6148376184
  0
LINE
  5
240
100
AcDbEntity
  8
ASSI
100
AcDbLine
 62
7
  6
CONTINUOUS
 10
-9.1724391977
 20
3.9831111583
 11
5.6957749706
 21
-4.6016093601
  0
LINE
  5
241
100
AcDbEntity
  8
ASSI
100
AcDbLine
 62
250
  6
CONTINUOUS
 10
-9.2759805083
 20
4.2119795888
 11
5.5922336601
 21
-4.3727409295
  0
LWPOLYLINE
  5
242
100
AcDbEntity
  8
ASSI
100
AcDbPolyline
 62
250
  6
CONTINUOUS
 90
9
 70
0
 10
-9.2759805083
 20
4.2119795888
 10
-9.3097614986
 20
4.2335564298
 10
-9.3397541152
 20
4.2571116972
 10
-9.3655873062
 20
4.2824307413
 10
-9.3869372826
 20
4.3092919234
 10
-9.4034899538
 20
4.3374171572
 10
-9.4149774892
 20
4.3664678361
 10
-9.4212319931
 20
4.3961682004
 10
-9.4224271177
 20
4.4161168855
  0
LWPOLYLINE
  5
243
100
AcDbEntity
  8
ASSI
100
AcDbPolyline
 62
250
  6
CONTINUOUS
 90
9
 70
0
 10
-9.1724391977
 20
3.9831111583
 10
-9.1870866137
 20
3.99262319
 10
-9.2099016486
 20
4.0124896429
 10
-9.2296365932
 20
4.0366806821
 10
-9.2460800012
 20
4.0649371171
 10
-9.2590556928
 20
4.0969562001
 10
-9.2684246425
 20
4.1323948685
 10
-9.2740864685
 20
4.1708734218
 10
-9.2759805083
 20
4.2119795888
  0
LINE
  5
244
100
AcDbEntity
  8
ASSI
100
AcDbLine
 62
7
  6
CONTINUOUS
 10
8.3343467837
 20
-3.6036779017
 11
8.340504606
 21
-3.6072333511
  0
LWPOLYLINE
  5
245
100
AcDbEntity
  8
ASSI
100
AcDbPolyline
 62
250
  6
CONTINUOUS
 90
9
 70
0
 10
5.5922336601
 20
-4.3727409295
 10
5.5941459308
 20
-4.4140386314
 10
5.599860388
 20
-4.4526731916
 10
5.6093127621
 20
-4.4882287496
 10
5.6223897436
 20
-4.5203054112
 10
5.6389523397
 20
-4.5485812451
 10
5.6588574964
 20
-4.5727927106
 10
5.6819572356
 20
-4.5926959961
 10
5.6956644798
 20
-4.6015455076
  0
LWPOLYLINE
  5
246
100
AcDbEntity
  8
ASSI
100
AcDbPolyline
 62
250
  6
CONTINUOUS
 90
16
 70
0
 10
5.5922336601
 20
16.1002004405
 10
5.594106497
 20
16.1432453185
 10
5.5997051664
 20
16.1879968686
 10
5.6089703539
 20
16.2339809765
 10
5.6218039007
 20
16.2807104697
 10
5.6380698435
 20
16.3276902789
 10
5.657595855
 20
16.3744226827
 10
5.6801750694
 20
16.4204125808
 10
5.7055682743
 20
16.4651727396
 10
5.7335064448
 20
16.5082289536
 10
5.7636935938
 20
16.5491250695
 10
5.7958099074
 20
16.5874278188
 10
5.8295151336
 20
16.6227314081
 10
5.8644521869
 20
16.6546618182
 10
5.9002509313
 20
16.6828807668
 10
5.9365321018
 20
16.7070892921
  0
LWPOLYLINE
  5
247
100
AcDbEntity
  8
ASSI
100
AcDbPolyline
 62
250
  6
CONTINUOUS
 90
16
 70
0
 10
6.2899643385
 20
-5.5839042105
 10
6.2873967466
 20
-5.5402459155
 10
6.2810535982
 20
-5.4947672155
 10
6.2710080616
 20
-5.4479720692
 10
6.2573832353
 20
-5.4004067173
 10
6.2403273638
 20
-5.3525686738
 10
6.2199921535
 20
-5.3049007785
 10
6.1965353522
 20
-5.2578335625
 10
6.1702449236
 20
-5.2119978156
 10
6.1415398853
 20
-5.1681094346
 10
6.1107889517
 20
-5.1266726678
 10
6.0783246321
 20
-5.0880804408
 10
6.0445840536
 20
-5.0527930493
 10
6.0099745831
 20
-5.0211621473
 10
5.9748588374
 20
-4.9934474157
 10
5.9396166932
 20
-4.9698829
  0
LINE
  5
248
100
AcDbEntity
  8
ASSI
100
AcDbLine
 62
250
  6
CONTINUOUS
 10
5.5922336601
 20
-26.0515718417
 11
5.5922336601
 21
-5.5786304718
  0
LINE
  5
249
100
AcDbEntity
  8
ASSI
100
AcDbLine
 62
250
  6
CONTINUOUS
 10
5.5922336601
 20
-4.3727409295
 11
5.5922336601
 21
16.1002004405
  0
LINE
  5
24A
100
AcDbEntity
  8
ASSI
100
AcDbLine
 62
250
  6
CONTINUOUS
 10
6.2899643385
 20
-26.0568455804
 11
6.2899643385
 21
-5.5839042105
  0
LINE
  5
24B
100
AcDbEntity
  8
ASSI
100
AcDbLine
 62
250
  6
CONTINUOUS
 10
6.2899643385
 20
-4.3780146682
 11
6.2899643385
 21
16.0949267018
  0
LINE
  5
24C
100
AcDbEntity
  8
CURVE
100
AcDbLine
 62
7
  6
CONTINUOUS
 10
-2.5127616986
 20
-12.4065638131
 11
-2.1081706837
 21
-12.0019727982
  0
LWPOLYLINE
  5
24D
100
AcDbEntity
  8
ASSI
100
AcDbPolyline
 62
250
  6
CONTINUOUS
 90
16
 70
0
 10
5.9396166932
 20
-4.9698829
 10
5.9031080719
 20
-4.993885653
 10
5.8670567262
 20
-5.0219663518
 10
5.8318489215
 20
-5.0538241312
 10
5.7978618848
 20
-5.0891176572
 10
5.7654597637
 20
-5.1274687841
 10
5.7349897246
 20
-5.1684666062
 10
5.7067782327
 20
-5.2116718602
 10
5.6811275547
 20
-5.2566216317
 10
5.6583125197
 20
-5.3028343151
 10
5.6385775751
 20
-5.3498147735
 10
5.6221341672
 20
-5.3970596439
 10
5.6091584756
 20
-5.4440627303
 10
5.5997895259
 20
-5.490320427
 10
5.5941276999
 20
-5.5353371151
 10
5.5922336601
 20
-5.5786304718
  0
LWPOLYLINE
  5
24E
100
AcDbEntity
  8
ASSI
100
AcDbPolyline
 62
250
  6
CONTINUOUS
 90
9
 70
0
 10
6.1793399424
 20
-4.610704353
 10
6.1973767292
 20
-4.5996319435
 10
6.2205509578
 20
-4.5799382833
 10
6.2407165648
 20
-4.5557405734
 10
6.2576527399
 20
-4.5273037747
 10
6.2711740347
 20
-4.4949392657
 10
6.2811323931
 20
-4.4590014329
 10
6.2874187727
 20
-4.4198837897
 10
6.2899643385
 20
-4.3780146682
  0
LINE
  5
24F
100
AcDbEntity
  8
ASSI
100
AcDbLine
 62
250
  6
CONTINUOUS
 10
8.340504606
 20
-3.6072333511
 11
5.9396166932
 21
-4.9698829
  0
LINE
  5
250
100
AcDbEntity
  8
ASSI
100
AcDbLine
 62
250
  6
CONTINUOUS
 10
6.2899643385
 20
-4.3780146682
 11
8.6940176156
 21
-3.1080018201
  0
LINE
  5
251
100
AcDbEntity
  8
ASSI
100
AcDbLine
 62
7
  6
CONTINUOUS
 10
6.1793399424
 20
-4.610704353
 11
8.5850354379
 21
-3.339823954
  0
LWPOLYLINE
  5
252
100
AcDbEntity
  8
ASSI
100
AcDbPolyline
 62
250
  6
CONTINUOUS
 90
16
 70
0
 10
6.2899643385
 20
-4.3780146682
 10
6.2517278423
 20
-4.3969457635
 10
6.2101639013
 20
-4.4136397454
 10
6.1656533649
 20
-4.427887769
 10
6.1185876395
 20
-4.4395084895
 10
6.0694565426
 20
-4.4483273663
 10
6.0188545473
 20
-4.4541981404
 10
5.96726309
 20
-4.4570309406
 10
5.9152780522
 20
-4.4567594335
 10
5.8637015413
 20
-4.4533803385
 10
5.8131938878
 20
-4.4469613182
 10
5.7641791155
 20
-4.4375810316
 10
5.7170915333
 20
-4.4253290607
 10
5.6724096292
 20
-4.4103248016
 10
5.6306408134
 20
-4.3927332578
 10
5.5922336601
 20
-4.3727409295
  0
LINE
  5
253
100
AcDbEntity
  8
ASSI
100
AcDbLine
 62
7
  6
CONTINUOUS
 10
8.6940176156
 20
-21.8989189973
 11
8.6940176156
 21
-4.2194581254
  0
LINE
  5
254
100
AcDbEntity
  8
ASSI
100
AcDbLine
 62
7
  6
CONTINUOUS
 10
8.6940176156
 20
-3.1080018201
 11
8.6940176156
 21
14.5714590518
  0
LINE
  5
255
100
AcDbEntity
  8
CURVE
100
AcDbLine
 62
7
  6
CONTINUOUS
 10
-2.4591902357
 20
-13.3485986981
 11
-1.4769964359
 21
-12.3664048984
  0
LINE
  5
256
100
AcDbEntity
  8
CURVE
100
AcDbLine
 62
7
  6
CONTINUOUS
 10
-1.8280159879
 20
-13.7130307983
 11
-1.1709851496
 21
-13.0559999599
  0
LINE
  5
257
100
AcDbEntity
  8
CURVE
100
AcDbLine
 62
7
  6
CONTINUOUS
 10
-1.1948894376
 20
-14.0755105959
 11
-1.1709851496
 21
-14.0516063079
  0
LINE
  5
258
100
AcDbEntity
  8
ASSI
100
AcDbLine
 62
250
  6
CONTINUOUS
 10
8.6940176156
 20
-4.2194581254
 11
6.2899643385
 21
-5.5839042105
  0
LINE
  5
259
100
AcDbEntity
  8
CURVE
100
AcDbLine
 62
250
  6
CONTINUOUS
 10
-1.2063078801
 20
10.4221110359
 11
-2.4774389681
 21
11.1560461951
  0
LWPOLYLINE
  5
25A
100
AcDbEntity
  8
CURVE
100
AcDbPolyline
 62
250
  6
CONTINUOUS
 90
55
 70
0
 10
-2.4774389681
 20
11.1560461951
 10
-2.478365987
 20
11.1566034727
 10
-2.4792963741
 20
11.1572061453
 10
-2.480229341
 20
11.1578528472
 10
-2.4811640993
 20
11.1585422128
 10
-2.4820998605
 20
11.1592728766
 10
-2.4830358362
 20
11.1600434729
 10
-2.4839712381
 20
11.1608526362
 10
-2.4849052775
 20
11.1616990008
 10
-2.4858371663
 20
11.1625812011
 10
-2.4867661157
 20
11.1634978715
 10
-2.4876913376
 20
11.1644476465
 10
-2.4886120434
 20
11.1654291604
 10
-2.4895274447
 20
11.1664410476
 10
-2.490436753
 20
11.1674819426
 10
-2.49133918
 20
11.1685504797
 10
-2.4922339372
 20
11.1696452932
 10
-2.4931202362
 20
11.1707650177
 10
-2.4939972885
 20
11.1719082875
 10
-2.4948643058
 20
11.173073737
 10
-2.4957204995
 20
11.1742600007
 10
-2.4965650813
 20
11.1754657128
 10
-2.4973972627
 20
11.1766895078
 10
-2.4982162552
 20
11.1779300202
 10
-2.4990212706
 20
11.1791858842
 10
-2.4998115203
 20
11.1804557343
 10
-2.5005862159
 20
11.181738205
 10
-2.5013445689
 20
11.1830319305
 10
-2.502085791
 20
11.1843355453
 10
-2.5028090937
 20
11.1856476838
 10
-2.5035136886
 20
11.1869669804
 10
-2.5041987872
 20
11.1882920694
 10
-2.5048636011
 20
11.1896215854
 10
-2.5055073419
 20
11.1909541626
 10
-2.5061292212
 20
11.1922884355
 10
-2.5067284505
 20
11.1936230385
 10
-2.5073042414
 20
11.194956606
 10
-2.5078558054
 20
11.1962877723
 10
-2.5083823542
 20
11.1976151719
 10
-2.5088830993
 20
11.1989374392
 10
-2.5093572523
 20
11.2002532085
 10
-2.5098040246
 20
11.2015611143
 10
-2.510222628
 20
11.202859791
 10
-2.510612274
 20
11.2041478729
 10
-2.5109721741
 20
11.2054239945
 10
-2.51130154
 20
11.2066867901
 10
-2.5115995831
 20
11.2079348942
 10
-2.5118655151
 20
11.2091669411
 10
-2.5120985475
 20
11.2103815653
 10
-2.5122978918
 20
11.2115774011
 10
-2.5124627598
 20
11.212753083
 10
-2.5125923629
 20
11.2139072453
 10
-2.5126859127
 20
11.2150385225
 10
-2.5127426207
 20
11.2161455489
 10
-2.5127616986
 20
11.2172269589
  0
LINE
  5
25B
100
AcDbEntity
  8
CURVE
100
AcDbLine
 62
250
  6
CONTINUOUS
 10
-2.4774389681
 20
12.705346385
 11
-1.2063078801
 21
11.9714112258
  0
LWPOLYLINE
  5
25C
100
AcDbEntity
  8
CURVE
100
AcDbPolyline
 62
250
  6
CONTINUOUS
 90
55
 70
0
 10
-1.2063078801
 20
11.9714112258
 10
-1.2053808612
 20
11.9708539482
 10
-1.2044504741
 20
11.9702512756
 10
-1.2035175072
 20
11.9696045737
 10
-1.2025827489
 20
11.968915208
 10
-1.2016469877
 20
11.9681845443
 10
-1.200711012
 20
11.9674139479
 10
-1.1997756101
 20
11.9666047847
 10
-1.1988415706
 20
11.9657584201
 10
-1.1979096819
 20
11.9648762198
 10
-1.1969807324
 20
11.9639595493
 10
-1.1960555106
 20
11.9630097743
 10
-1.1951348048
 20
11.9620282604
 10
-1.1942194035
 20
11.9610163732
 10
-1.1933100952
 20
11.9599754783
 10
-1.1924076682
 20
11.9589069412
 10
-1.191512911
 20
11.9578121276
 10
-1.190626612
 20
11.9566924031
 10
-1.1897495597
 20
11.9555491333
 10
-1.1888825424
 20
11.9543836838
 10
-1.1880263487
 20
11.9531974202
 10
-1.1871817669
 20
11.9519917081
 10
-1.1863495855
 20
11.950767913
 10
-1.1855305929
 20
11.9495274007
 10
-1.1847255776
 20
11.9482715367
 10
-1.1839353279
 20
11.9470016865
 10
-1.1831606323
 20
11.9457192159
 10
-1.1824022793
 20
11.9444254904
 10
-1.1816610572
 20
11.9431218756
 10
-1.1809377545
 20
11.9418097371
 10
-1.1802331596
 20
11.9404904405
 10
-1.179548061
 20
11.9391653514
 10
-1.1788832471
 20
11.9378358355
 10
-1.1782395063
 20
11.9365032582
 10
-1.177617627
 20
11.9351689853
 10
-1.1770183977
 20
11.9338343823
 10
-1.1764426068
 20
11.9325008149
 10
-1.1758910427
 20
11.9311696486
 10
-1.175364494
 20
11.929842249
 10
-1.1748637489
 20
11.9285199817
 10
-1.1743895959
 20
11.9272042123
 10
-1.1739428236
 20
11.9258963065
 10
-1.1735242202
 20
11.9245976299
 10
-1.1731345742
 20
11.923309548
 10
-1.1727746741
 20
11.9220334264
 10
-1.1724453082
 20
11.9207706308
 10
-1.1721472651
 20
11.9195225267
 10
-1.1718813331
 20
11.9182904797
 10
-1.1716483007
 20
11.9170758556
 10
-1.1714489564
 20
11.9158800197
 10
-1.1712840884
 20
11.9147043379
 10
-1.1711544853
 20
11.9135501755
 10
-1.1710609355
 20
11.9124188984
 10
-1.1710042275
 20
11.911311872
 10
-1.1709851496
 20
11.9102304619
  0
LINE
  5
25D
100
AcDbEntity
  8
ASSI
100
AcDbLine
 62
7
  6
CONTINUOUS
 10
8.6816551131
 20
14.6703444151
 11
8.0182206679
 21
17.0927953248
  0
LINE
  5
25E
100
AcDbEntity
  8
ASSI
100
AcDbLine
 62
7
  6
CONTINUOUS
 10
8.6816551131
 20
-22.0113516915
 11
8.0182206679
 21
-25.1608209319
  0
LINE
  5
25F
100
AcDbEntity
  8
ASSI
100
AcDbLine
 62
250
  6
CONTINUOUS
 10
5.5922336601
 20
16.1002004405
 11
-9.2759805083
 21
24.6849209588
  0
LWPOLYLINE
  5
260
100
AcDbEntity
  8
ASSI
100
AcDbPolyline
 62
250
  6
CONTINUOUS
 90
9
 70
0
 10
-9.2759805083
 20
24.6849209588
 10
-9.3100180503
 20
24.7066794136
 10
-9.3401653134
 20
24.7304134445
 10
-9.3660608293
 20
24.7558967196
 10
-9.3874058305
 20
24.7829150323
 10
-9.4038836536
 20
24.811165275
 10
-9.4152281288
 20
24.8402454006
 10
-9.4213138356
 20
24.8698039405
 10
-9.422427117
 20
24.8890430878
  0
LWPOLYLINE
  5
261
100
AcDbEntity
  8
ASSI
100
AcDbPolyline
 62
250
  6
CONTINUOUS
 90
16
 70
0
 10
5.5922336601
 20
16.1002004405
 10
5.6296163378
 20
16.0806896399
 10
5.6704240132
 20
16.0633691071
 10
5.7142838577
 20
16.0484526192
 10
5.7608107605
 20
16.0361266398
 10
5.8095227551
 20
16.0265717299
 10
5.8598341232
 20
16.0199416767
 10
5.911265885
 20
16.0163329045
 10
5.9632273478
 20
16.0158196775
 10
6.0149250784
 20
16.0184172747
 10
6.0656987445
 20
16.0240690874
 10
6.1151183823
 20
16.0327035342
 10
6.162745658
 20
16.0442383251
 10
6.2080964126
 20
16.0585619942
 10
6.2506552221
 20
16.0755178397
 10
6.2899643385
 20
16.0949267018
  0
LINE
  5
262
100
AcDbEntity
  8
ASSI
100
AcDbLine
 62
250
  6
CONTINUOUS
 10
5.9365321018
 20
16.7070892921
 11
-8.9316820665
 21
25.2918098104
  0
LWPOLYLINE
  5
263
100
AcDbEntity
  8
ASSI
100
AcDbPolyline
 62
250
  6
CONTINUOUS
 90
16
 70
0
 10
5.9365321018
 20
16.7070892921
 10
5.9720584821
 20
16.6833303229
 10
6.0074418489
 20
16.6554176255
 10
6.042296792
 20
16.623605151
 10
6.0762793461
 20
16.5881469902
 10
6.1089577811
 20
16.5494316514
 10
6.1398379501
 20
16.508016926
 10
6.1685407794
 20
16.4644223279
 10
6.1947961313
 20
16.4190700927
 10
6.218324065
 20
16.372440756
 10
6.2388675294
 20
16.3250341641
 10
6.2561909945
 20
16.27738283
 10
6.2700957743
 20
16.2300284376
 10
6.2804277281
 20
16.1834980085
 10
6.2870749746
 20
16.1382982023
 10
6.2899643385
 20
16.0949267018
  0
LWPOLYLINE
  5
264
100
AcDbEntity
  8
ASSI
100
AcDbPolyline
 62
250
  6
CONTINUOUS
 90
9
 70
0
 10
-8.9316820665
 20
25.2918098104
 10
-8.9687428469
 20
25.3100010854
 10
-9.0055009448
 20
25.3238320785
 10
-9.0415562236
 20
25.3330876128
 10
-9.0765280526
 20
25.3375991681
 10
-9.1099920233
 20
25.3372381955
 10
-9.141496583
 20
25.3319504278
 10
-9.170698835
 20
25.3217382507
 10
-9.1918010678
 20
25.3102917715
  0
LINE
  5
265
100
AcDbEntity
  8
ASSI
100
AcDbLine
 62
7
  6
CONTINUOUS
 10
7.5682838171
 20
17.6492376352
 11
-7.3832075071
 21
26.2820413395
  0
LWPOLYLINE
  5
266
100
AcDbEntity
  8
ASSI
100
AcDbPolyline
 62
250
  6
CONTINUOUS
 90
9
 70
0
 10
6.1760217661
 20
-26.2912722985
 10
6.1944457725
 20
-26.2801406119
 10
6.2181504233
 20
-26.260285143
 10
6.2387561733
 20
-26.2359300691
 10
6.2561016106
 20
-26.2073275383
 10
6.2700318776
 20
-26.1747499219
 10
6.2803953645
 20
-26.138530661
 10
6.287065179
 20
-26.0990848075
 10
6.2899643385
 20
-26.0568455804
  0
LINE
  5
267
100
AcDbEntity
  8
ASSI
100
AcDbLine
 62
250
  6
CONTINUOUS
 10
8.0182206679
 20
-25.1608209319
 11
6.2899643385
 21
-26.0568455804
  0
LINE
  5
268
100
AcDbEntity
  8
ASSI
100
AcDbLine
 62
7
  6
CONTINUOUS
 10
7.8381026903
 20
-25.4295567189
 11
6.1759237181
 21
-26.2913231733
  0
ARC
  5
269
100
AcDbEntity
  8
ASSI
100
AcDbCircle
 62
7
  6
CONTINUOUS
 10
-8.9224271177
 20
3.2102273432
 40
0.5
100
AcDbArc
 50
122.1754807991
 51
180.015358494
  0
ARC
  5
26A
100
AcDbEntity
  8
ASSI
100
AcDbCircle
 62
7
  6
CONTINUOUS
 10
-8.9224271177
 20
-17.2627140267
 40
0.5
100
AcDbArc
 50
179.9900082978
 51
239.9984015652
  0
ARC
  5
26B
100
AcDbEntity
  8
ASSI
100
AcDbCircle
 62
7
  6
CONTINUOUS
 10
5.9457870507
 20
-25.8474345451
 40
0.5
100
AcDbArc
 50
239.9984015652
 51
297.4174046156
  0
ARC
  5
26C
100
AcDbEntity
  8
ASSI
100
AcDbCircle
 62
7
  6
CONTINUOUS
 10
5.9457870507
 20
-4.1686036328
 40
0.5
100
AcDbArc
 50
239.9837780751
 51
297.8465900872
  0
ARC
  5
26D
100
AcDbEntity
  8
ASSI
100
AcDbCircle
 62
7
  6
CONTINUOUS
 10
-8.9224271177
 20
4.4161168855
 40
0.5
100
AcDbArc
 50
179.9841296142
 51
239.9984015652
  0
ARC
  5
26E
100
AcDbEntity
  8
ASSI
100
AcDbCircle
 62
7
  6
CONTINUOUS
 10
-8.9224271177
 20
24.8890582555
 40
0.5
100
AcDbArc
 50
122.5989151677
 51
180.0017380816
  0
ELLIPSE
  5
26F
100
AcDbEntity
  8
ASSI
100
AcDbEllipse
 62
7
  6
CONTINUOUS
 10
8.3403430295
 20
-4.0154373829
 30
0.0
 11
-0.2500883296
 21
0.432972707
 31
0.0
 40
0.5775954524
 41
-2.3562050126
 42
-0.7858655366
  0
ELLIPSE
  5
270
100
AcDbEntity
  8
ASSI
100
AcDbEllipse
 62
7
  6
CONTINUOUS
 10
7.9807933931
 20
-3.8149409692
 30
0.0
 11
0.499979581
 21
0.0076930498
 31
0.0
 40
0.5873737521
 41
7.0595459565
 42
7.4069329008
  0
ELLIPSE
  5
271
100
AcDbEntity
  8
ASSI
100
AcDbEllipse
 62
7
  6
CONTINUOUS
 10
8.3312061036
 20
-22.0977107708
 30
0.0
 11
0.2600728777
 21
0.4271418247
 31
0.0
 40
0.5922410672
 41
-1.033355665
 42
-0.7715562772
  0
ELLIPSE
  5
272
100
AcDbEntity
  8
ASSI
100
AcDbEllipse
 62
7
  6
CONTINUOUS
 10
7.6646122553
 20
-24.9562995186
 30
0.0
 11
-0.1121548712
 21
0.4957473682
 31
0.0
 40
0.7039445592
 41
-2.9595186474
 42
-2.1483506142
  0
ELLIPSE
  5
273
100
AcDbEntity
  8
ASSI
100
AcDbEllipse
 62
7
  6
CONTINUOUS
 10
-7.2913229021
 20
25.9321304918
 30
0.0
 11
-0.3297163127
 21
0.381589989
 31
0.0
 40
0.4128243551
 41
-0.8709070521
 42
-0.0596421506
  0
ELLIPSE
  5
274
100
AcDbEntity
  8
ASSI
100
AcDbEllipse
 62
7
  6
CONTINUOUS
 10
8.3403430295
 20
-2.9036080158
 30
0.0
 11
-0.2502024451
 21
0.4331706506
 31
0.0
 40
0.5770679437
 41
-3.1633994611
 42
-2.3566614272
  0
ELLIPSE
  5
275
100
AcDbEntity
  8
ASSI
100
AcDbEllipse
 62
7
  6
CONTINUOUS
 10
8.3312061036
 20
14.3726672784
 30
0.0
 11
0.2600728777
 21
0.4271418247
 31
0.0
 40
0.5922410672
 41
-0.7715562772
 42
-0.5097568894
  0
ELLIPSE
  5
276
100
AcDbEntity
  8
ASSI
100
AcDbEllipse
 62
7
  6
CONTINUOUS
 10
7.6646122553
 20
17.2967609738
 30
0.0
 11
-0.3313794069
 21
0.3842968449
 31
0.0
 40
0.4077379513
 41
-2.4333010859
 42
-0.8631899918
  0
ENDSEC
  0
SECTION
  2
OBJECTS
  0
DICTIONARY
  5
C
100
AcDbDictionary
280
0
281
1
  3
ACAD_GROUP
350
D
  3
ACAD_MLINESTYLE
350
17
  3
ACAD_LAYOUT
350
1A
  3
ACAD_PLOTSETTINGS
350
19
  3
ACAD_PLOTSTYLENAME
350
E
  0
DICTIONARY
  5
D
102
{ACAD_REACTORS
330
C
102
}
100
AcDbDictionary
280
0
281
1
  0
ACDBDICTIONARYWDFLT
  5
E
102
{ACAD_REACTORS
330
C
102
}
100
AcDbDictionary
281
1
  3
Normal
350
F
100
AcDbDictionaryWithDefault
340
F
  0
DICTIONARY
  5
17
102
{ACAD_REACTORS
330
C
102
}
100
AcDbDictionary
280
0
281
1
  3
Standard
350
18
  0
DICTIONARY
  5
19
102
{ACAD_REACTORS
330
C
102
}
100
AcDbDictionary
281
1
  0
DICTIONARY
  5
1A
102
{ACAD_REACTORS
330
C
102
}
100
AcDbDictionary
281
1
  3
Model
350
277
  3
Layout1
350
278
  0
ACDBPLACEHOLDER
  5
F
102
{ACAD_REACTORS
330
E
102
}
  0
MLINESTYLE
  5
18
102
{ACAD_REACTORS
330
17
102
}
100
AcDbMlineStyle
  2
STANDARD
 70
0
  3

 62
256
 51
90.0
 52
90.0
 71
2
 49
0.5
 62
256
  6
BYLAYER
 49
-0.5
 62
256
  6
BYLAYER
  0
LAYOUT
  5
277
102
{ACAD_REACTORS
330
1A
102
}
100
AcDbPlotSettings
  1

  2
none_device
  4

  6

 40
0.0
 41
0.0
 42
0.0
 43
0.0
 44
210.0
 45
297.0
 46
0.0
 47
0.0
 48
0.0
 49
0.0
140
0.0
141
0.0
142
1.0
143
1.0
 70
1024
 72
1
 73
0
 74
0
  7

 75
0
147
1.0
148
0.0
149
0.0
100
AcDbLayout
  1
Model
 70
0
 71
0
 10
0.0
 20
0.0
 11
210.0
 21
297.0
 12
0.0
 22
0.0
 32
0.0
 14
0.0
 24
0.0
 34
0.0
 15
0.0
 25
0.0
 35
0.0
146
0.0
 13
0.0
 23
0.0
 33
0.0
 16
1.0
 26
0.0
 36
0.0
 17
0.0
 27
1.0
 37
0.0
 76
0
330
212
345
0
346
0
  0
LAYOUT
  5
278
102
{ACAD_REACTORS
330
1A
102
}
100
AcDbPlotSettings
  1

  2
none_device
  4

  6

 40
0.0
 41
0.0
 42
0.0
 43
0.0
 44
210.0
 45
297.0
 46
0.0
 47
0.0
 48
0.0
 49
0.0
140
0.0
141
0.0
142
1.0
143
1.0
 70
0
 72
1
 73
0
 74
0
  7

 75
0
147
1.0
148
0.0
149
0.0
100
AcDbLayout
  1
Layout1
 70
0
 71
1
 10
0.0
 20
0.0
 11
210.0
 21
297.0
 12
0.0
 22
0.0
 32
0.0
 14
0.0
 24
0.0
 34
0.0
 15
0.0
 25
0.0
 35
0.0
146
0.0
 13
0.0
 23
0.0
 33
0.0
 16
1.0
 26
0.0
 36
0.0
 17
0.0
 27
1.0
 37
0.0
 76
0
330
213
345
0
346
0
  0
ENDSEC
  0
EOF
