  0
SECTION
  2
HEADER
  9
$ACADVER
  1
AC1024
  9
$DWGCODEPAGE
  3
ANSI_1252
  9
$EXTMAX
 10
210.0
 20
297.0
 30
0.0
  9
$EXTMIN
 10
0.0
 20
0.0
 30
0.0
  9
$LIMMIN
 10
0.0
 20
0.0
  9
$LIMMAX
 10
210.0
 20
297.0
  9
$VIEWCTR
 10
105.0
 20
148.5
  9
$VIEWSIZE
 40
297.0
  9
$CLAYER
  8
0
  9
$LTSCALE
 40
19.36
  9
$CELTYPE
  6
BYLAYER
  9
$DIMSCALE
 40
1.0
  9
$DIMASZ
 40
3.0
  9
$DIMEXO
 40
0.5
  9
$DIMDLI
 40
13.376
  9
$DIMEXE
 40
1.5
  9
$DIMCEN
 40
3.168
  9
$DIMLFAC
 40
1.0
  9
$DIMBLK
  1
_FILLED
  9
$DIMALT
 70
0
  9
$DIMALTF
 40
0.0393700787
  9
$DIMTXT
 40
3.0
  9
$DIMTOL
 70
1
  9
$DIMLIM
 70
0
  9
$DIMTFAC
 40
1.0
  9
$DIMTP
 40
0.01
  9
$DIMTM
 40
0.01
  9
$DIMGAP
 40
0.625
  9
$DIMDSEP
 70
44
  9
$AUNITS
 70
0
  9
$PDMODE
 70
3
  9
$PDSIZE
 40
3.0
  9
$HANDSEED
  5
2BB
  9
$TILEMODE
 70
1
  9
$MEASUREMENT
 70
1
  9
$INSUNITS
 70
4
  0
ENDSEC
  0
SECTION
  2
CLASSES
  0
CLASS
  1
ACDBDICTIONARYWDFLT
  2
AcDbDictionaryWithDefault
  3
AutoCAD 2000
 90
0
 91
1
280
0
281
0
  0
CLASS
  1
ACDBPLACEHOLDER
  2
AcDbPlaceHolder
  3
AutoCAD 2000
 90
0
 91
1
280
0
281
0
  0
CLASS
  1
LAYOUT
  2
AcDbLayout
  3
AutoCAD 2000
 90
0
 91
0
280
0
281
0
  0
ENDSEC
  0
SECTION
  2
TABLES
  0
TABLE
  2
VPORT
  5
8
100
AcDbSymbolTable
 70
2
  0
VPORT
  5
1F4
100
AcDbSymbolTableRecord
100
AcDbViewportTableRecord
  2
*ACTIVE
 70
0
 10
0.0
 20
0.0
 11
1.0
 21
1.0
 12
105.0
 22
148.5
 13
0.0
 23
0.0
 14
1.0
 24
1.0
 15
0.0
 25
0.0
 16
0.0
 26
0.0
 36
1.0
 17
0.0
 27
0.0
 37
0.0
 40
297.0
 41
0.7070707071
 42
50.0
 43
0.0
 44
0.0
 50
0.0
 51
0.0
 71
0
 72
100
 73
1
 74
1
 75
0
 76
0
 77
0
 78
0
  0
ENDTAB
  0
TABLE
  2
LTYPE
  5
5
100
AcDbSymbolTable
 70
6
  0
LTYPE
  5
14
100
AcDbSymbolTableRecord
100
AcDbLinetypeTableRecord
  2
BYBLOCK
 70
0
  3

 72
65
 73
0
 40
0.0
  0
LTYPE
  5
15
100
AcDbSymbolTableRecord
100
AcDbLinetypeTableRecord
  2
BYLAYER
 70
0
  3

 72
65
 73
0
 40
0.0
  0
LTYPE
  5
16
100
AcDbSymbolTableRecord
100
AcDbLinetypeTableRecord
  2
CONTINUOUS
 70
64
  3
Solid line
 72
65
 73
0
 40
0.0
  0
LTYPE
  5
1F5
100
AcDbSymbolTableRecord
100
AcDbLinetypeTableRecord
  2
CENTER
 70
64
  3
____ _ ____ _ ____ _ ____ _ ____ _ ____ _ ____
 72
65
 73
4
 40
0.6
 49
0.375
 74
0
 49
-0.075
 74
0
 49
0.075
 74
0
 49
-0.075
 74
0
  0
LTYPE
  5
1F6
100
AcDbSymbolTableRecord
100
AcDbLinetypeTableRecord
  2
HIDDEN
 70
64
  3
- - - - - - - - - - - - - - - - - - - -
 72
65
 73
2
 40
0.2
 49
0.1
 74
0
 49
-0.1
 74
0
  0
LTYPE
  5
1F7
100
AcDbSymbolTableRecord
100
AcDbLinetypeTableRecord
  2
PHANTOM
 70
64
  3
_____ _ _ _____ _ _ _____ _ _ _____
 72
65
 73
6
 40
0.8
 49
0.45
 74
0
 49
-0.05
 74
0
 49
0.1
 74
0
 49
-0.05
 74
0
 49
0.1
 74
0
 49
-0.05
 74
0
  0
LTYPE
  5
1F8
100
AcDbSymbolTableRecord
100
AcDbLinetypeTableRecord
  2
DOT
 70
64
  3
. . . . . . . . . . . . . . . . . . . .
 72
65
 73
2
 40
0.2
 49
0.1
 74
0
 49
-0.1
 74
0
  0
LTYPE
  5
1F9
100
AcDbSymbolTableRecord
100
AcDbLinetypeTableRecord
  2
DASHED
 70
64
  3
- - - - - - - - - - - - - - - - - - - -
 72
65
 73
2
 40
0.2
 49
0.1
 74
0
 49
-0.1
 74
0
  0
ENDTAB
  0
TABLE
  2
LAYER
  5
2
100
AcDbSymbolTable
 70
36
  0
LAYER
  5
10
100
AcDbSymbolTableRecord
100
AcDbLayerTableRecord
  2
0
 70
0
 62
7
  6
CONTINUOUS
370
-3
390
F
  0
LAYER
  5
1FA
100
AcDbSymbolTableRecord
100
AcDbLayerTableRecord
  2
DEFAULT_1
 70
0
 62
7
  6
CENTER
370
-3
390
F
  0
LAYER
  5
1FB
100
AcDbSymbolTableRecord
100
AcDbLayerTableRecord
  2
DEFAULT_2
 70
0
 62
7
  6
HIDDEN
370
-3
390
F
  0
LAYER
  5
1FC
100
AcDbSymbolTableRecord
100
AcDbLayerTableRecord
  2
DEFAULT_3
 70
0
 62
7
  6
PHANTOM
370
-3
390
F
  0
LAYER
  5
1FD
100
AcDbSymbolTableRecord
100
AcDbLayerTableRecord
  2
ASSI
 70
0
 62
7
  6
CONTINUOUS
370
-3
390
F
  0
LAYER
  5
1FE
100
AcDbSymbolTableRecord
100
AcDbLayerTableRecord
  2
COORDINATE
 70
0
 62
7
  6
CONTINUOUS
370
-3
390
F
  0
LAYER
  5
1FF
100
AcDbSymbolTableRecord
100
AcDbLayerTableRecord
  2
COPY_PUBLISH
 70
0
 62
7
  6
CONTINUOUS
370
-3
390
F
  0
LAYER
  5
200
100
AcDbSymbolTableRecord
100
AcDbLayerTableRecord
  2
COSMETICI
 70
0
 62
7
  6
CONTINUOUS
370
-3
390
F
  0
LAYER
  5
201
100
AcDbSymbolTableRecord
100
AcDbLayerTableRecord
  2
CURVE
 70
0
 62
7
  6
CONTINUOUS
370
-3
390
F
  0
LAYER
  5
202
100
AcDbSymbolTableRecord
100
AcDbLayerTableRecord
  2
DRAFT
 70
0
 62
7
  6
CONTINUOUS
370
-3
390
F
  0
LAYER
  5
203
100
AcDbSymbolTableRecord
100
AcDbLayerTableRecord
  2
IMPORT_IGES
 70
0
 62
7
  6
CONTINUOUS
370
-3
390
F
  0
LAYER
  5
204
100
AcDbSymbolTableRecord
100
AcDbLayerTableRecord
  2
INTF_1
 70
0
 62
7
  6
CONTINUOUS
370
-3
390
F
  0
LAYER
  5
205
100
AcDbSymbolTableRecord
100
AcDbLayerTableRecord
  2
INTF_2
 70
0
 62
7
  6
CONTINUOUS
370
-3
390
F
  0
LAYER
  5
206
100
AcDbSymbolTableRecord
100
AcDbLayerTableRecord
  2
INTF_4
 70
0
 62
7
  6
CONTINUOUS
370
-3
390
F
  0
LAYER
  5
207
100
AcDbSymbolTableRecord
100
AcDbLayerTableRecord
  2
NOTE
 70
0
 62
7
  6
CONTINUOUS
370
-3
390
F
  0
LAYER
  5
208
100
AcDbSymbolTableRecord
100
AcDbLayerTableRecord
  2
PIANI
 70
0
 62
7
  6
CONTINUOUS
370
-3
390
F
  0
LAYER
  5
209
100
AcDbSymbolTableRecord
100
AcDbLayerTableRecord
  2
PUNTI
 70
0
 62
7
  6
CONTINUOUS
370
-3
390
F
  0
LAYER
  5
20A
100
AcDbSymbolTableRecord
100
AcDbLayerTableRecord
  2
RACCORDO
 70
0
 62
7
  6
CONTINUOUS
370
-3
390
F
  0
LAYER
  5
20B
100
AcDbSymbolTableRecord
100
AcDbLayerTableRecord
  2
SIMBOLI
 70
0
 62
7
  6
CONTINUOUS
370
-3
390
F
  0
LAYER
  5
20C
100
AcDbSymbolTableRecord
100
AcDbLayerTableRecord
  2
SMUSSO
 70
0
 62
7
  6
CONTINUOUS
370
-3
390
F
  0
LAYER
  5
20D
100
AcDbSymbolTableRecord
100
AcDbLayerTableRecord
  2
SNAPLINE
 70
0
 62
7
  6
CONTINUOUS
370
-3
390
F
  0
LAYER
  5
20E
100
AcDbSymbolTableRecord
100
AcDbLayerTableRecord
  2
SUPERFICI
 70
0
 62
7
  6
CONTINUOUS
370
-3
390
F
  0
LAYER
  5
20F
100
AcDbSymbolTableRecord
100
AcDbLayerTableRecord
  2
TRASH
 70
0
 62
7
  6
CONTINUOUS
370
-3
390
F
  0
ENDTAB
  0
TABLE
  2
STYLE
  5
3
100
AcDbSymbolTable
 70
1
  0
STYLE
  5
11
100
AcDbSymbolTableRecord
100
AcDbTextStyleTableRecord
  2
STANDARD
 70
0
 40
0.0
 41
0.8
 50
0.0
 71
0
 42
0.2
  3
txt
  4

  0
STYLE
  5
210
100
AcDbSymbolTableRecord
100
AcDbTextStyleTableRecord
  2
TEXTSTYLE_1
 70
0
 40
0.0
 41
0.8
 50
0.0
 71
0
 42
0.2
  3
gdt
  4

  0
ENDTAB
  0
TABLE
  2
VIEW
  5
6
100
AcDbSymbolTable
 70
0
  0
ENDTAB
  0
TABLE
  2
UCS
  5
7
100
AcDbSymbolTable
 70
0
  0
ENDTAB
  0
TABLE
  2
APPID
  5
9
100
AcDbSymbolTable
 70
1
  0
APPID
  5
211
100
AcDbSymbolTableRecord
100
AcDbRegAppTableRecord
  2
ACAD
 70
0
  0
ENDTAB
  0
TABLE
  2
BLOCK_RECORD
  5
1
100
AcDbSymbolTable
 70
0
  0
BLOCK_RECORD
  5
212
100
AcDbSymbolTableRecord
100
AcDbBlockTableRecord
  2
*Model_Space
  0
BLOCK_RECORD
  5
213
100
AcDbSymbolTableRecord
100
AcDbBlockTableRecord
  2
*Paper_Space
  0
BLOCK_RECORD
  5
214
100
AcDbSymbolTableRecord
100
AcDbBlockTableRecord
  2
_FILLED
  0
ENDTAB
  0
TABLE
  2
DIMSTYLE
  5
A
100
AcDbSymbolTable
 70
1
100
AcDbDimStyleTable
 71
0
  0
DIMSTYLE
105
215
100
AcDbSymbolTableRecord
100
AcDbDimStyleTableRecord
  2
STANDARD
 70
0
  3

  4

 40
1.0
 41
3.0
 42
0.5
 43
0.38
 44
1.5
 45
0.0
 46
0.0
 47
0.01
 48
0.01
140
3.0
141
0.09
142
0.0
143
25.4
144
1.0
145
0.0
146
1.0
147
0.625
 71
1
 72
0
 73
0
 74
0
 75
0
 76
0
 77
1
 78
8
 79
2
170
0
171
1
172
0
173
0
174
0
175
0
176
0
177
0
178
0
270
2
179
2
271
2
272
2
273
2
274
2
275
0
280
0
281
0
282
0
283
1
284
8
285
0
286
0
287
3
288
0
340
11
278
44
341
214
342
214
343
214
344
214
  0
ENDTAB
  0
ENDSEC
  0
SECTION
  2
BLOCKS
  0
BLOCK
  5
20
100
AcDbEntity
  8
0
100
AcDbBlockBegin
  2
*Model_Space
 70
0
 10
0.0
 20
0.0
 30
0.0
  3
*Model_Space
  1

  0
ENDBLK
  5
21
100
AcDbEntity
  8
0
100
AcDbBlockEnd
  0
BLOCK
  5
1C
100
AcDbEntity
  8
0
100
AcDbBlockBegin
  2
*Paper_Space
 70
0
 10
0.0
 20
0.0
 30
0.0
  3
*Paper_Space
  1

  0
ENDBLK
  5
1D
100
AcDbEntity
  8
0
100
AcDbBlockEnd
  0
BLOCK
  5
216
100
AcDbEntity
  8
0
100
AcDbBlockBegin
  2
_FILLED
 70
64
 10
0.0
 20
0.0
  3
_FILLED
  1

  0
SOLID
  5
217
100
AcDbEntity
  8
0
  6
BYBLOCK
 62
0
100
AcDbTrace
 10
0.0
 20
0.0
 11
-1.0
 21
0.3166666667
 12
-1.0
 22
-0.3166666667
 13
-1.0
 23
-0.3166666667
  0
ENDBLK
  5
218
100
AcDbEntity
  8
0
  6
BYBLOCK
 62
0
100
AcDbBlockEnd
  0
ENDSEC
  0
SECTION
  2
ENTITIES
  0
LWPOLYLINE
  5
219
100
AcDbEntity
  8
ASSI
100
AcDbPolyline
 62
250
  6
CONTINUOUS
 90
16
 70
0
 10
-16.5660756845
 20
29.8414700441
 10
-16.602356855
 20
29.8172615188
 10
-16.6381555994
 20
29.7890425702
 10
-16.6730926527
 20
29.7571121601
 10
-16.7067978789
 20
29.7218085708
 10
-16.7389141926
 20
29.6835058214
 10
-16.7691013415
 20
29.6426097056
 10
-16.797039512
 20
29.5995534916
 10
-16.8224327169
 20
29.5547933328
 10
-16.8450119313
 20
29.5088034347
 10
-16.8645379428
 20
29.4620710309
 10
-16.8808038856
 20
29.4150912217
 10
-16.8936374324
 20
29.3683617285
 10
-16.9029026199
 20
29.3223776206
 10
-16.9085012893
 20
29.2776260705
 10
-16.9103741262
 20
29.2345811925
  0
LINE
  5
21A
100
AcDbEntity
  8
ASSI
100
AcDbLine
 62
7
  6
CONTINUOUS
 10
-15.2454566763
 20
30.8708156365
 11
-16.8261946857
 21
29.8599520052
  0
LINE
  5
21B
100
AcDbEntity
  8
ASSI
100
AcDbLine
 62
250
  6
CONTINUOUS
 10
-15.017601125
 20
30.8317015732
 11
-16.5660756845
 21
29.8414700441
  0
LINE
  5
21C
100
AcDbEntity
  8
CURVE
100
AcDbLine
 62
7
  6
CONTINUOUS
 10
-11.4695351326
 20
19.2769165751
 11
-11.2582647352
 21
19.4881869725
  0
LINE
  5
21D
100
AcDbEntity
  8
CURVE
100
AcDbLine
 62
7
  6
CONTINUOUS
 10
-12.2437544931
 20
17.5070908667
 11
-11.9850104496
 21
17.7658349102
  0
LINE
  5
21E
100
AcDbEntity
  8
CURVE
100
AcDbLine
 62
7
  6
CONTINUOUS
 10
-11.1051553766
 20
18.6456899832
 11
-10.8938849792
 21
18.8569603806
  0
LINE
  5
21F
100
AcDbEntity
  8
CURVE
100
AcDbLine
 62
250
  6
CONTINUOUS
 10
-11.3512950227
 20
19.6493462858
 11
-11.6012339353
 21
19.5050625822
  0
LINE
  5
220
100
AcDbEntity
  8
CURVE
100
AcDbLine
 62
7
  6
CONTINUOUS
 10
-11.6125802453
 20
17.1426587666
 11
-11.3538362019
 21
17.4014028101
  0
LINE
  5
221
100
AcDbEntity
  8
CURVE
100
AcDbLine
 62
7
  6
CONTINUOUS
 10
-10.7407756206
 20
18.0144633913
 11
-10.5295052232
 21
18.2257337887
  0
LINE
  5
222
100
AcDbEntity
  8
CURVE
100
AcDbLine
 62
7
  6
CONTINUOUS
 10
-9.6530027252
 20
19.1022362867
 11
-9.4129869777
 21
19.3422520342
  0
LINE
  5
223
100
AcDbEntity
  8
CURVE
100
AcDbLine
 62
7
  6
CONTINUOUS
 10
-10.9814059976
 20
16.7782266664
 11
-10.8903943374
 21
16.8692383266
  0
LINE
  5
224
100
AcDbEntity
  8
CURVE
100
AcDbLine
 62
7
  6
CONTINUOUS
 10
-9.6530027252
 20
18.1066299388
 11
-9.299531359
 21
18.460101305
  0
LINE
  5
225
100
AcDbEntity
  8
CURVE
100
AcDbLine
 62
7
  6
CONTINUOUS
 10
-11.5967618078
 20
15.1672645083
 11
-11.5723499622
 21
15.1916763538
  0
LINE
  5
226
100
AcDbEntity
  8
CURVE
100
AcDbLine
 62
7
  6
CONTINUOUS
 10
-10.180696681
 20
16.5833296351
 11
-9.7413472653
 21
17.0226790508
  0
LINE
  5
227
100
AcDbEntity
  8
CURVE
100
AcDbLine
 62
250
  6
CONTINUOUS
 10
-7.6012390615
 20
17.4841109731
 11
-8.6012379567
 21
16.9065548734
  0
LINE
  5
228
100
AcDbEntity
  8
CURVE
100
AcDbLine
 62
250
  6
CONTINUOUS
 10
-10.6012350401
 20
17.7727328241
 11
-10.3512961274
 21
17.9170165278
  0
LINE
  5
229
100
AcDbEntity
  8
CURVE
100
AcDbLine
 62
250
  6
CONTINUOUS
 10
-10.6012350401
 20
15.7520048138
 11
-11.6012339353
 21
15.1750104457
  0
LWPOLYLINE
  5
22A
100
AcDbEntity
  8
ASSI
100
AcDbPolyline
 62
250
  6
CONTINUOUS
 90
16
 70
0
 10
13.8677426188
 20
-30.6880899579
 10
13.9054199442
 20
-30.7077395162
 10
13.946519537
 20
-30.7251444081
 10
13.9906499655
 20
-30.740095696
 10
14.0374411235
 20
-30.7524206857
 10
14.0863680159
 20
-30.7619360576
 10
14.1367332081
 20
-30.768487619
 10
14.1879277218
 20
-30.7720027896
 10
14.2394767297
 20
-30.7724554828
 10
14.2908503197
 20
-30.7698394628
 10
14.3415132022
 20
-30.7641776777
 10
14.3909125662
 20
-30.7555275323
 10
14.438503989
 20
-30.7439826784
 10
14.4837750738
 20
-30.7296679967
 10
14.5262490509
 20
-30.7127348533
 10
14.5654732972
 20
-30.6933636966
  0
LINE
  5
22B
100
AcDbEntity
  8
ASSI
100
AcDbLine
 62
7
  6
CONTINUOUS
 10
-16.8068328157
 20
-13.1460595203
 11
13.9712839293
 21
-30.9169583885
  0
LINE
  5
22C
100
AcDbEntity
  8
ASSI
100
AcDbLine
 62
250
  6
CONTINUOUS
 10
-16.9103741262
 20
-12.9171910897
 11
13.8677426188
 21
-30.6880899579
  0
LWPOLYLINE
  5
22D
100
AcDbEntity
  8
ASSI
100
AcDbPolyline
 62
250
  6
CONTINUOUS
 90
9
 70
0
 10
-16.9103741262
 20
-12.9171910897
 10
-16.9443989055
 20
-12.8954416768
 10
-16.9745392249
 20
-12.8717159018
 10
-17.0004327799
 20
-12.8462393913
 10
-17.0217799911
 20
-12.8192254277
 10
-17.0382626146
 20
-12.7909769694
 10
-17.049612777
 20
-12.7618968278
 10
-17.0557042
 20
-12.7323361922
 10
-17.0568207357
 20
-12.7130537931
  0
LWPOLYLINE
  5
22E
100
AcDbEntity
  8
ASSI
100
AcDbPolyline
 62
250
  6
CONTINUOUS
 90
9
 70
0
 10
-17.0568206818
 20
7.7597535488
 10
-17.0558473728
 20
7.7418825704
 10
-17.049979112
 20
7.7122931394
 10
-17.0388541186
 20
7.6831931805
 10
-17.0225860139
 20
7.6549003299
 10
-17.001351284
 20
7.6277268881
 10
-16.9753797045
 20
7.6019656241
 10
-16.9449458496
 20
7.5778878521
 10
-16.9103741262
 20
7.5557502802
  0
LWPOLYLINE
  5
22F
100
AcDbEntity
  8
ASSI
100
AcDbPolyline
 62
250
  6
CONTINUOUS
 90
9
 70
0
 10
-16.9103741262
 20
-12.9171910897
 10
-16.9085012893
 20
-12.9580732626
 10
-16.9029026199
 20
-12.9963596096
 10
-16.8936374324
 20
-13.0316445112
 10
-16.8808038856
 20
-13.0635541463
 10
-16.8645379428
 20
-13.0917504524
 10
-16.8450119313
 20
-13.1159347076
 10
-16.8224327169
 20
-13.1358506949
 10
-16.8068328157
 20
-13.1460595203
  0
LINE
  5
230
100
AcDbEntity
  8
ASSI
100
AcDbLine
 62
7
  6
CONTINUOUS
 10
-17.0568207357
 20
29.4387184891
 11
-17.0568207357
 21
8.9657771192
  0
LINE
  5
231
100
AcDbEntity
  8
ASSI
100
AcDbLine
 62
7
  6
CONTINUOUS
 10
-17.0568207357
 20
7.7598875769
 11
-17.0568207357
 21
-12.7130537931
  0
LINE
  5
232
100
AcDbEntity
  8
ASSI
100
AcDbLine
 62
250
  6
CONTINUOUS
 10
-16.9103741262
 20
29.2345811925
 11
-16.9103741262
 21
8.7616398225
  0
LINE
  5
233
100
AcDbEntity
  8
ASSI
100
AcDbLine
 62
250
  6
CONTINUOUS
 10
-16.9103741262
 20
7.5557502802
 11
-16.9103741262
 21
-12.9171910897
  0
LWPOLYLINE
  5
234
100
AcDbEntity
  8
ASSI
100
AcDbPolyline
 62
250
  6
CONTINUOUS
 90
16
 70
0
 10
-16.9103741262
 20
7.5557502802
 10
-16.9084681273
 20
7.5991832001
 10
-16.9027707071
 20
7.6443486691
 10
-16.8933433335
 20
7.6907597032
 10
-16.8802858934
 20
7.7379216321
 10
-16.8637401569
 20
7.7853202855
 10
-16.8438923813
 20
7.832427498
 10
-16.8209656268
 20
7.8787255958
 10
-16.795205701
 20
7.9237283528
 10
-16.7668828326
 20
7.9669674353
 10
-16.7362560023
 20
8.0080357201
 10
-16.7036950699
 20
8.046426366
 10
-16.6696912162
 20
8.0815905468
 10
-16.6346731074
 20
8.1131515182
 10
-16.5989789358
 20
8.1408684607
 10
-16.5629910931
 20
8.164497852
  0
LINE
  5
235
100
AcDbEntity
  8
CURVE
100
AcDbLine
 62
7
  6
CONTINUOUS
 10
-10.5830327122
 20
15.1853872559
 11
-10.3871761051
 21
15.381243863
  0
LINE
  5
236
100
AcDbEntity
  8
CURVE
100
AcDbLine
 62
7
  6
CONTINUOUS
 10
-9.9639363433
 20
15.8044836249
 11
-9.1366366924
 21
16.6317832757
  0
LINE
  5
237
100
AcDbEntity
  8
CURVE
100
AcDbLine
 62
7
  6
CONTINUOUS
 10
-9.4762670421
 20
15.2965465782
 11
-8.8021755609
 21
15.9706380594
  0
LINE
  5
238
100
AcDbEntity
  8
CURVE
100
AcDbLine
 62
7
  6
CONTINUOUS
 10
-8.2278898035
 20
16.5449238168
 11
-7.4868427942
 21
17.2859708261
  0
LINE
  5
239
100
AcDbEntity
  8
CURVE
100
AcDbLine
 62
7
  6
CONTINUOUS
 10
-9.6530027252
 20
14.1242045472
 11
-9.3627595968
 21
14.4144476756
  0
LINE
  5
23A
100
AcDbEntity
  8
CURVE
100
AcDbLine
 62
250
  6
CONTINUOUS
 10
-8.3512990441
 20
16.4736479784
 11
-7.3513001488
 21
17.0512040781
  0
LINE
  5
23B
100
AcDbEntity
  8
CURVE
100
AcDbLine
 62
250
  6
CONTINUOUS
 10
-8.3512990441
 20
14.452919968
 11
-8.6012379567
 21
14.3086362644
  0
LINE
  5
23C
100
AcDbEntity
  8
CURVE
100
AcDbLine
 62
250
  6
CONTINUOUS
 10
-11.3512950227
 20
14.7421043671
 11
-10.3512961274
 21
15.3190979188
  0
LWPOLYLINE
  5
23D
100
AcDbEntity
  8
ASSI
100
AcDbPolyline
 62
250
  6
CONTINUOUS
 90
9
 70
0
 10
13.9712839293
 20
-30.9169583885
 10
13.9556840281
 20
-30.9067495631
 10
13.9331048137
 20
-30.8868335758
 10
13.9135788022
 20
-30.8626493206
 10
13.8973128594
 20
-30.8344530145
 10
13.8844793126
 20
-30.8025433794
 10
13.8752141252
 20
-30.7672584778
 10
13.8696154558
 20
-30.7289721308
 10
13.8677426188
 20
-30.6880899579
  0
LINE
  5
23E
100
AcDbEntity
  8
CURVE
100
AcDbLine
 62
7
  6
CONTINUOUS
 10
-9.6530027252
 20
13.1285981993
 11
-9.299531359
 21
13.4820695655
  0
LINE
  5
23F
100
AcDbEntity
  8
CURVE
100
AcDbLine
 62
7
  6
CONTINUOUS
 10
-8.5542818302
 20
14.2273190943
 11
-8.3430193982
 21
14.4385815262
  0
LINE
  5
240
100
AcDbEntity
  8
CURVE
100
AcDbLine
 62
7
  6
CONTINUOUS
 10
-7.8255347589
 20
14.9560661655
 11
-7.5667907154
 21
15.214810209
  0
LINE
  5
241
100
AcDbEntity
  8
CURVE
100
AcDbLine
 62
7
  6
CONTINUOUS
 10
-8.189827038
 20
13.5961675385
 11
-7.978564715
 21
13.8074298615
  0
LINE
  5
242
100
AcDbEntity
  8
CURVE
100
AcDbLine
 62
7
  6
CONTINUOUS
 10
-7.1943605112
 20
14.5916340654
 11
-6.9356164677
 21
14.8503781088
  0
LINE
  5
243
100
AcDbEntity
  8
CURVE
100
AcDbLine
 62
7
  6
CONTINUOUS
 10
-7.8253722459
 20
12.9650159827
 11
-7.6141100318
 21
13.1762781968
  0
LINE
  5
244
100
AcDbEntity
  8
ASSI
100
AcDbLine
 62
7
  6
CONTINUOUS
 10
-16.823077789
 20
8.183098141
 11
-16.5254848551
 21
8.3703246056
  0
LINE
  5
245
100
AcDbEntity
  8
ASSI
100
AcDbLine
 62
250
  6
CONTINUOUS
 10
-16.5629910931
 20
8.164497852
 11
-16.3744474233
 21
8.2831174854
  0
LINE
  5
246
100
AcDbEntity
  8
CURVE
100
AcDbLine
 62
250
  6
CONTINUOUS
 10
-7.6012390615
 20
12.5768690544
 11
-7.3513001488
 21
12.7211519415
  0
LINE
  5
247
100
AcDbEntity
  8
CURVE
100
AcDbLine
 62
250
  6
CONTINUOUS
 10
-12.3047648775
 20
17.9504571094
 11
-12.3047648775
 21
17.5423174981
  0
LINE
  5
248
100
AcDbEntity
  8
CURVE
100
AcDbLine
 62
250
  6
CONTINUOUS
 10
-9.6528803957
 20
-10.2606564033
 11
-9.2994097366
 21
-10.4647459318
  0
LINE
  5
249
100
AcDbEntity
  8
CURVE
100
AcDbLine
 62
250
  6
CONTINUOUS
 10
-9.2994097366
 20
-9.5668947966
 11
-9.6528803957
 21
-9.3628052681
  0
LINE
  5
24A
100
AcDbEntity
  8
CURVE
100
AcDbLine
 62
250
  6
CONTINUOUS
 10
-11.0515390231
 20
-6.6560221175
 11
-10.3782149755
 21
-7.4937173679
  0
LINE
  5
24B
100
AcDbEntity
  8
CURVE
100
AcDbLine
 62
250
  6
CONTINUOUS
 10
-8.7510547918
 20
-9.5178412417
 11
-8.0777307441
 21
-10.3555364921
  0
LINE
  5
24C
100
AcDbEntity
  8
CURVE
100
AcDbLine
 62
250
  6
CONTINUOUS
 10
-10.2014792924
 20
-7.2424723816
 11
-10.8746817176
 21
-6.4048473544
  0
LINE
  5
24D
100
AcDbEntity
  8
CURVE
100
AcDbLine
 62
250
  6
CONTINUOUS
 10
-7.9008734387
 20
-10.1043617291
 11
-8.5741974863
 21
-9.2666664787
  0
LINE
  5
24E
100
AcDbEntity
  8
CURVE
100
AcDbLine
 62
250
  6
CONTINUOUS
 10
-11.0515390231
 20
-8.2852069078
 11
-10.8746817176
 21
-8.740612054
  0
LINE
  5
24F
100
AcDbEntity
  8
CURVE
100
AcDbLine
 62
250
  6
CONTINUOUS
 10
-10.2014792924
 20
-8.6803843131
 11
-10.3782149755
 21
-8.2250493901
  0
LWPOLYLINE
  5
250
100
AcDbEntity
  8
CURVE
100
AcDbPolyline
 62
250
  6
CONTINUOUS
 90
17
 70
0
 10
-9.9359493823
 20
-8.1150228553
 10
-9.9271948036
 20
-8.223173027
 10
-9.9012645265
 20
-8.3373133604
 10
-9.8591462273
 20
-8.4530962856
 10
-9.8013115421
 20
-8.5680780245
 10
-9.7319863125
 20
-8.6738571376
 10
-9.6529208153
 20
-8.7684599946
 10
-9.5671266309
 20
-8.8482832021
 10
-9.4762670421
 20
-8.9112160232
 10
-9.3869809409
 20
-8.9526601078
 10
-9.3010957197
 20
-8.9723084179
 10
-9.2218827196
 20
-8.9694125553
 10
-9.1512225421
 20
-8.9434312656
 10
-9.0942781565
 20
-8.8962629391
 10
-9.0518836089
 20
-8.8294469886
 10
-9.0256536944
 20
-8.745528413
 10
-9.0165847018
 20
-8.6458524531
  0
LWPOLYLINE
  5
251
100
AcDbEntity
  8
CURVE
100
AcDbPolyline
 62
250
  6
CONTINUOUS
 90
17
 70
0
 10
-9.0165847018
 20
-8.6458524995
 10
-9.0253392806
 20
-8.5377023279
 10
-9.0512695576
 20
-8.4235619945
 10
-9.0933878569
 20
-8.3077790693
 10
-9.1512225421
 20
-8.1927973304
 10
-9.2205477717
 20
-8.0870182173
 10
-9.2996132688
 20
-7.9924153603
 10
-9.3854074533
 20
-7.9125921528
 10
-9.4762670421
 20
-7.8496593317
 10
-9.5655531432
 20
-7.808215247
 10
-9.6514383645
 20
-7.788566937
 10
-9.7306513645
 20
-7.7914627995
 10
-9.8013115421
 20
-7.8174440893
 10
-9.8582559276
 20
-7.8646124158
 10
-9.9006504752
 20
-7.9314283662
 10
-9.9268803897
 20
-8.0153469419
 10
-9.9359493823
 20
-8.1150229017
  0
LINE
  5
252
100
AcDbEntity
  8
CURVE
100
AcDbLine
 62
250
  6
CONTINUOUS
 10
-10.8903943374
 20
16.7256776744
 11
-10.8903943374
 21
17.1338172858
  0
LINE
  5
253
100
AcDbEntity
  8
CURVE
100
AcDbLine
 62
250
  6
CONTINUOUS
 10
-9.6530027252
 20
19.4808341187
 11
-9.6530027252
 21
17.8482748567
  0
LINE
  5
254
100
AcDbEntity
  8
CURVE
100
AcDbLine
 62
250
  6
CONTINUOUS
 10
-9.6530027252
 20
14.5820304203
 11
-9.6530027252
 21
12.9494711583
  0
LINE
  5
255
100
AcDbEntity
  8
CURVE
100
AcDbLine
 62
250
  6
CONTINUOUS
 10
-9.6528803957
 20
-6.2957085463
 11
-9.6528803957
 21
-7.1935596814
  0
LINE
  5
256
100
AcDbEntity
  8
CURVE
100
AcDbLine
 62
250
  6
CONTINUOUS
 10
-9.6528803957
 20
-9.3628052681
 11
-9.6528803957
 21
-10.2606564033
  0
LINE
  5
257
100
AcDbEntity
  8
CURVE
100
AcDbLine
 62
250
  6
CONTINUOUS
 10
-9.299531359
 20
12.7453812215
 11
-9.299531359
 21
14.3779404835
  0
LINE
  5
258
100
AcDbEntity
  8
CURVE
100
AcDbLine
 62
250
  6
CONTINUOUS
 10
-9.299531359
 20
17.6441849199
 11
-9.299531359
 21
19.2767441819
  0
LINE
  5
259
100
AcDbEntity
  8
CURVE
100
AcDbLine
 62
250
  6
CONTINUOUS
 10
-9.2994097366
 20
-10.4647459318
 11
-9.2994097366
 21
-9.5668947966
  0
LINE
  5
25A
100
AcDbEntity
  8
CURVE
100
AcDbLine
 62
250
  6
CONTINUOUS
 10
-9.2994097366
 20
-7.39764921
 11
-9.2994097366
 21
-6.4997980748
  0
LINE
  5
25B
100
AcDbEntity
  8
CURVE
100
AcDbLine
 62
250
  6
CONTINUOUS
 10
-9.6528803957
 20
-7.1935596814
 11
-9.2994097366
 21
-7.39764921
  0
LINE
  5
25C
100
AcDbEntity
  8
CURVE
100
AcDbLine
 62
250
  6
CONTINUOUS
 10
-9.2994097366
 20
-6.4997980748
 11
-9.6528803957
 21
-6.2957085463
  0
LINE
  5
25D
100
AcDbEntity
  8
CURVE
100
AcDbLine
 62
250
  6
CONTINUOUS
 10
-8.7510547918
 20
-8.0799293102
 11
-8.5741974863
 21
-8.5353344565
  0
LINE
  5
25E
100
AcDbEntity
  8
CURVE
100
AcDbLine
 62
250
  6
CONTINUOUS
 10
-7.9008734387
 20
-8.4751769388
 11
-8.0777307441
 21
-8.0197717925
  0
LINE
  5
25F
100
AcDbEntity
  8
CURVE
100
AcDbLine
 62
250
  6
CONTINUOUS
 10
-8.0621397467
 20
15.5008185315
 11
-8.0621397467
 21
15.0926789201
  0
LINE
  5
260
100
AcDbEntity
  8
CURVE
100
AcDbLine
 62
250
  6
CONTINUOUS
 10
-10.8746817176
 20
-8.740612054
 11
-10.2014792924
 21
-8.6803843131
  0
LINE
  5
261
100
AcDbEntity
  8
CURVE
100
AcDbLine
 62
250
  6
CONTINUOUS
 10
-8.5741974863
 20
-8.5353344565
 11
-7.9008734387
 21
-8.4751769388
  0
LINE
  5
262
100
AcDbEntity
  8
CURVE
100
AcDbLine
 62
250
  6
CONTINUOUS
 10
-8.0777307441
 20
-8.0197717925
 11
-8.7510547918
 21
-8.0799293102
  0
LINE
  5
263
100
AcDbEntity
  8
CURVE
100
AcDbLine
 62
250
  6
CONTINUOUS
 10
-10.3782149755
 20
-8.2250493901
 11
-11.0515390231
 21
-8.2852069078
  0
LINE
  5
264
100
AcDbEntity
  8
CURVE
100
AcDbLine
 62
250
  6
CONTINUOUS
 10
-6.6477692066
 20
14.2760390965
 11
-6.6477692066
 21
14.6841787079
  0
LINE
  5
265
100
AcDbEntity
  8
CURVE
100
AcDbLine
 62
250
  6
CONTINUOUS
 10
-10.8746817176
 20
-6.4048473544
 11
-11.0515390231
 21
-6.6560221175
  0
LINE
  5
266
100
AcDbEntity
  8
CURVE
100
AcDbLine
 62
250
  6
CONTINUOUS
 10
-10.3782149755
 20
-7.4937173679
 11
-10.2014792924
 21
-7.2424723816
  0
LINE
  5
267
100
AcDbEntity
  8
CURVE
100
AcDbLine
 62
7
  6
CONTINUOUS
 10
-11.0326633256
 20
-6.6795057317
 11
-10.8226922704
 21
-6.4695346765
  0
LINE
  5
268
100
AcDbEntity
  8
CURVE
100
AcDbLine
 62
7
  6
CONTINUOUS
 10
-10.5890120123
 20
-7.2314607663
 11
-10.3790647689
 21
-7.0215135229
  0
LINE
  5
269
100
AcDbEntity
  8
ASSI
100
AcDbLine
 62
250
  6
CONTINUOUS
 10
14.2120410606
 20
12.0705711759
 11
15.8437927758
 21
13.012719519
  0
LINE
  5
26A
100
AcDbEntity
  8
ASSI
100
AcDbLine
 62
250
  6
CONTINUOUS
 10
14.5654732972
 20
11.4584085856
 11
16.2937296267
 21
12.4562772086
  0
LWPOLYLINE
  5
26B
100
AcDbEntity
  8
ASSI
100
AcDbPolyline
 62
250
  6
CONTINUOUS
 90
16
 70
0
 10
13.8677426188
 20
-10.215148588
 10
13.905400538
 20
-10.2347890139
 10
13.9464829569
 20
-10.2521891438
 10
13.9906000579
 20
-10.2671393421
 10
14.0373844041
 20
-10.279466364
 10
14.0863107708
 20
-10.2889854224
 10
14.1366780731
 20
-10.2955407845
 10
14.1878765836
 20
-10.2990594432
 10
14.2394321633
 20
-10.299515048
 10
14.2908127688
 20
-10.2969011377
 10
14.3414822159
 20
-10.2912407388
 10
14.3908881962
 20
-10.2825912361
 10
14.4384862265
 20
-10.2710462545
 10
14.4837637402
 20
-10.2567306627
 10
14.5262437076
 20
-10.2397958577
 10
14.5654732972
 20
-10.2204223267
  0
LINE
  5
26C
100
AcDbEntity
  8
CURVE
100
AcDbLine
 62
250
  6
CONTINUOUS
 10
-11.6012339353
 20
15.1750104457
 11
-11.3512950227
 21
14.7421043671
  0
LINE
  5
26D
100
AcDbEntity
  8
CURVE
100
AcDbLine
 62
250
  6
CONTINUOUS
 10
-8.5741974863
 20
-9.2666664787
 11
-8.7510547918
 21
-9.5178412417
  0
LINE
  5
26E
100
AcDbEntity
  8
CURVE
100
AcDbLine
 62
250
  6
CONTINUOUS
 10
-8.0777307441
 20
-10.3555364921
 11
-7.9008734387
 21
-10.1043617291
  0
LINE
  5
26F
100
AcDbEntity
  8
CURVE
100
AcDbLine
 62
7
  6
CONTINUOUS
 10
-10.9384232855
 20
-8.5764783874
 11
-10.6074775412
 21
-8.2455326431
  0
LINE
  5
270
100
AcDbEntity
  8
CURVE
100
AcDbLine
 62
7
  6
CONTINUOUS
 10
-9.5911480578
 20
-7.2292031597
 11
-9.2994097366
 21
-6.9374648385
  0
LINE
  5
271
100
AcDbEntity
  8
CURVE
100
AcDbLine
 62
7
  6
CONTINUOUS
 10
-9.8468525345
 20
-8.4805139844
 11
-9.3290017726
 21
-7.9626632224
  0
LINE
  5
272
100
AcDbEntity
  8
CURVE
100
AcDbLine
 62
7
  6
CONTINUOUS
 10
-9.3373417614
 20
-8.9666095592
 11
-9.0165847018
 21
-8.6458524995
  0
LINE
  5
273
100
AcDbEntity
  8
CURVE
100
AcDbLine
 62
7
  6
CONTINUOUS
 10
-8.6670283787
 20
-8.2962961764
 11
-8.4211900506
 21
-8.0504578483
  0
LWPOLYLINE
  5
274
100
AcDbEntity
  8
ASSI
100
AcDbPolyline
 62
250
  6
CONTINUOUS
 90
9
 70
0
 10
-16.5629910931
 20
8.164497852
 10
-16.6008571687
 20
8.1830295873
 10
-16.6382410522
 20
8.1969279839
 10
-16.674733396
 20
8.2060408567
 10
-16.7099346147
 20
8.2102684212
 10
-16.7434592605
 20
8.2095643861
 10
-16.7749402437
 20
8.2039364605
 10
-16.8040328526
 20
8.1934462694
 10
-16.823077789
 20
8.183098141
  0
LINE
  5
275
100
AcDbEntity
  8
ASSI
100
AcDbLine
 62
250
  6
CONTINUOUS
 10
13.8677426188
 20
-10.215148588
 11
-16.9103741262
 21
7.5557502802
  0
LINE
  5
276
100
AcDbEntity
  8
ASSI
100
AcDbLine
 62
250
  6
CONTINUOUS
 10
14.2151256519
 20
-9.6064010162
 11
-16.5629910931
 21
8.164497852
  0
LINE
  5
277
100
AcDbEntity
  8
ASSI
100
AcDbLine
 62
7
  6
CONTINUOUS
 10
-16.8068328157
 20
8.5327713919
 11
13.9712839293
 21
-9.2381274763
  0
LINE
  5
278
100
AcDbEntity
  8
ASSI
100
AcDbLine
 62
250
  6
CONTINUOUS
 10
-16.9103741262
 20
8.7616398225
 11
13.8677426188
 21
-9.0092590457
  0
LWPOLYLINE
  5
279
100
AcDbEntity
  8
ASSI
100
AcDbPolyline
 62
250
  6
CONTINUOUS
 90
9
 70
0
 10
-16.9103741262
 20
8.7616398225
 10
-16.9443901503
 20
8.7833830331
 10
-16.9745261177
 20
8.8071035069
 10
-17.0004189525
 20
8.8325761681
 10
-17.0217686052
 20
8.8595888632
 10
-17.0382550358
 20
8.8878383342
 10
-17.0496085245
 20
8.9169197832
 10
-17.0557026275
 20
8.9464811616
 10
-17.0568207357
 20
8.9657771192
  0
LWPOLYLINE
  5
27A
100
AcDbEntity
  8
ASSI
100
AcDbPolyline
 62
250
  6
CONTINUOUS
 90
9
 70
0
 10
-16.8068328157
 20
8.5327713919
 10
-16.8214802317
 20
8.5422834237
 10
-16.8442952666
 20
8.5621498766
 10
-16.8640302112
 20
8.5863409157
 10
-16.8804736191
 20
8.6145973508
 10
-16.8934493107
 20
8.6466164337
 10
-16.9028182605
 20
8.6820551022
 10
-16.9084800865
 20
8.7205336555
 10
-16.9103741262
 20
8.7616398225
  0
LINE
  5
27B
100
AcDbEntity
  8
CURVE
100
AcDbLine
 62
250
  6
CONTINUOUS
 10
-10.3512961274
 20
15.3190979188
 11
-10.6012350401
 21
15.7520048138
  0
LINE
  5
27C
100
AcDbEntity
  8
CURVE
100
AcDbLine
 62
250
  6
CONTINUOUS
 10
-8.6012379567
 20
14.3086362644
 11
-7.6012390615
 21
12.5768690544
  0
LINE
  5
27D
100
AcDbEntity
  8
CURVE
100
AcDbLine
 62
250
  6
CONTINUOUS
 10
-7.3513001488
 20
12.7211519415
 11
-8.3512990441
 21
14.452919968
  0
LINE
  5
27E
100
AcDbEntity
  8
CURVE
100
AcDbLine
 62
250
  6
CONTINUOUS
 10
-11.6012339353
 20
19.5050625822
 11
-10.6012350401
 21
17.7727328241
  0
LINE
  5
27F
100
AcDbEntity
  8
CURVE
100
AcDbLine
 62
250
  6
CONTINUOUS
 10
-10.3512961274
 20
17.9170165278
 11
-11.3512950227
 21
19.6493462858
  0
LINE
  5
280
100
AcDbEntity
  8
CURVE
100
AcDbLine
 62
7
  6
CONTINUOUS
 10
-9.6420408661
 20
-10.2669150118
 11
-9.2994097366
 21
-9.9242838823
  0
LINE
  5
281
100
AcDbEntity
  8
CURVE
100
AcDbLine
 62
7
  6
CONTINUOUS
 10
-8.3706409019
 20
-9.9911213954
 11
-8.1606670562
 21
-9.7811475498
  0
LINE
  5
282
100
AcDbEntity
  8
ASSI
100
AcDbLine
 62
7
  6
CONTINUOUS
 10
16.6098557424
 20
-8.2401960179
 11
16.6160135648
 21
-8.2437514673
  0
LINE
  5
283
100
AcDbEntity
  8
CURVE
100
AcDbLine
 62
250
  6
CONTINUOUS
 10
-8.6012379567
 20
16.9065548734
 11
-8.3512990441
 21
16.4736479784
  0
LINE
  5
284
100
AcDbEntity
  8
CURVE
100
AcDbLine
 62
250
  6
CONTINUOUS
 10
-7.3513001488
 20
17.0512040781
 11
-7.6012390615
 21
17.4841109731
  0
LINE
  5
285
100
AcDbEntity
  8
CURVE
100
AcDbLine
 62
250
  6
CONTINUOUS
 10
-9.6530027252
 20
12.9494711583
 11
-9.299531359
 21
12.7453812215
  0
LWPOLYLINE
  5
286
100
AcDbEntity
  8
CURVE
100
AcDbPolyline
 62
250
  6
CONTINUOUS
 90
81
 70
0
 10
-9.4762670421
 20
15.2965465782
 10
-9.4475881839
 20
15.2806543465
 10
-9.4189574149
 20
15.2661155911
 10
-9.3904227921
 20
15.2529575633
 10
-9.3620323728
 20
15.2412075145
 10
-9.333834214
 20
15.2308926959
 10
-9.306692952
 20
15.2222771963
 10
-9.2798150138
 20
15.2150511875
 10
-9.2532373229
 20
15.2092263748
 10
-9.2269968028
 20
15.2048144632
 10
-9.201130377
 20
15.201827158
 10
-9.176293088
 20
15.2002940369
 10
-9.1518831236
 20
15.2001215582
 10
-9.1279366631
 20
15.2013034976
 10
-9.1044898856
 20
15.2038336305
 10
-9.0815789705
 20
15.2077057326
 10
-9.0592400969
 20
15.2129135793
 10
-9.0375094441
 20
15.2194509463
 10
-9.0164231914
 20
15.2273116092
 10
-8.9960175179
 20
15.2364893434
 10
-8.9763286029
 20
15.2469779246
 10
-8.9573874492
 20
15.2587695323
 10
-8.9392230536
 20
15.2718380239
 10
-8.921858987
 20
15.2861552287
 10
-8.9053188204
 20
15.301692976
 10
-8.8896261247
 20
15.318423095
 10
-8.8748044708
 20
15.336317415
 10
-8.8608774297
 20
15.3553477651
 10
-8.8478685723
 20
15.3754859746
 10
-8.8358014694
 20
15.3967038727
 10
-8.8246996921
 20
15.4189732887
 10
-8.8143392635
 20
15.4428717372
 10
-8.8050270344
 20
15.4678083646
 10
-8.7967712431
 20
15.4937451586
 10
-8.7895801278
 20
15.5206441071
 10
-8.7834619268
 20
15.5484671981
 10
-8.7782859878
 20
15.5780695003
 10
-8.7742593092
 20
15.6085579485
 10
-8.7713825691
 20
15.6398772919
 10
-8.7696564456
 20
15.6719722796
 10
-8.7690816169
 20
15.7047876609
 10
-8.7696579366
 20
15.7382491935
 10
-8.7713845353
 20
15.7723192251
 10
-8.7742610052
 20
15.8069418542
 10
-8.7782869383
 20
15.8420611797
 10
-8.7834619268
 20
15.8776213002
 10
-8.789580147
 20
15.9124958121
 10
-8.7967714623
 20
15.9476851206
 10
-8.805027444
 20
15.9831416209
 10
-8.8143396636
 20
16.0188177077
 10
-8.8246996921
 20
16.0546657762
 10
-8.8358027958
 20
16.0897477557
 10
-8.8478710218
 20
16.1248926877
 10
-8.8608807649
 20
16.1600452094
 10
-8.8748084199
 20
16.1951499581
 10
-8.8896303814
 20
16.230151571
 10
-8.9053230442
 20
16.2649946853
 10
-8.921862803
 20
16.2996239381
 10
-8.9392260526
 20
16.3339839668
 10
-8.9573891877
 20
16.3680194084
 10
-8.9763286029
 20
16.4016749003
 10
-8.99601861
 20
16.4348963361
 10
-9.0164251189
 20
16.4676345207
 10
-9.0375119555
 20
16.4998415155
 10
-9.0592429461
 20
16.5314693825
 10
-9.0815819165
 20
16.5624701834
 10
-9.1044926928
 20
16.5927959798
 10
-9.127939101
 20
16.6223988335
 10
-9.1518849671
 20
16.6512308062
 10
-9.1762941171
 20
16.6792439596
 10
-9.201130377
 20
16.7063903556
 10
-9.2269969645
 20
16.7332728474
 10
-9.2532375187
 20
16.7591629494
 10
-9.2798151636
 20
16.7840295445
 10
-9.3066930232
 20
16.8078415156
 10
-9.3338342214
 20
16.8305677457
 10
-9.3620627629
 20
16.8528379073
 10
-9.3904839793
 20
16.8738919404
 10
-9.4190496451
 20
16.8937017784
 10
-9.4477115347
 20
16.9122393544
 10
-9.4764214225
 20
16.9294766019
  0
LINE
  5
287
100
AcDbEntity
  8
CURVE
100
AcDbLine
 62
250
  6
CONTINUOUS
 10
-9.299531359
 20
14.3779404835
 11
-9.6530027252
 21
14.5820304203
  0
LINE
  5
288
100
AcDbEntity
  8
CURVE
100
AcDbLine
 62
250
  6
CONTINUOUS
 10
-12.3047648775
 20
17.5423174981
 11
-10.8903943374
 21
16.7256776744
  0
LINE
  5
289
100
AcDbEntity
  8
CURVE
100
AcDbLine
 62
250
  6
CONTINUOUS
 10
-8.0621397467
 20
15.0926789201
 11
-6.6477692066
 21
14.2760390965
  0
LINE
  5
28A
100
AcDbEntity
  8
CURVE
100
AcDbLine
 62
250
  6
CONTINUOUS
 10
-6.6477692066
 20
14.6841787079
 11
-8.0621397467
 21
15.5008185315
  0
LINE
  5
28B
100
AcDbEntity
  8
CURVE
100
AcDbLine
 62
250
  6
CONTINUOUS
 10
-10.8903943374
 20
17.1338172858
 11
-12.3047648775
 21
17.9504571094
  0
LWPOLYLINE
  5
28C
100
AcDbEntity
  8
CURVE
100
AcDbPolyline
 62
250
  6
CONTINUOUS
 90
81
 70
0
 10
-9.4764214225
 20
16.9294766019
 10
-9.5051112171
 20
16.9453750851
 10
-9.5337528634
 20
16.9599201812
 10
-9.5622984387
 20
16.9730850502
 10
-9.5907000206
 20
16.9848428519
 10
-9.6189096866
 20
16.9951667464
 10
-9.6460705711
 20
17.0037948881
 10
-9.6729683096
 20
17.0110336368
 10
-9.6995658392
 20
17.0168705696
 10
-9.7258260969
 20
17.0212932635
 10
-9.7517120197
 20
17.0242892957
 10
-9.776547338
 20
17.0258276352
 10
-9.8009554563
 20
17.0260048277
 10
-9.8249000275
 20
17.0248269436
 10
-9.8483447043
 20
17.0223000531
 10
-9.8712531395
 20
17.0184302266
 10
-9.8935889858
 20
17.0132235344
 10
-9.9153158959
 20
17.0066860468
 10
-9.9363975226
 20
16.9988238341
 10
-9.9567975187
 20
16.9896429666
 10
-9.9764795369
 20
16.9791495147
 10
-9.9954047593
 20
16.9673563711
 10
-10.0135525966
 20
16.9542857554
 10
-10.0308996134
 20
16.9399660584
 10
-10.047422374
 20
16.9244256715
 10
-10.0630974427
 20
16.9076929855
 10
-10.0779013841
 20
16.8897963916
 10
-10.0918107623
 20
16.8707642809
 10
-10.104802142
 20
16.8506250444
 10
-10.1168520874
 20
16.8294070732
 10
-10.1279371629
 20
16.8071387584
 10
-10.1382811225
 20
16.7832427595
 10
-10.1475776666
 20
16.7583100854
 10
-10.1558187278
 20
16.7323787937
 10
-10.1629962388
 20
16.7054869422
 10
-10.1691021322
 20
16.6776725886
 10
-10.1742669335
 20
16.6480813368
 10
-10.1782845499
 20
16.6176058573
 10
-10.1811547992
 20
16.5863015111
 10
-10.182877499
 20
16.5542236596
 10
-10.1834524672
 20
16.5214276637
 10
-10.1828789863
 20
16.4879500601
 10
-10.1811567605
 20
16.4538646366
 10
-10.1782862416
 20
16.4192270972
 10
-10.1742678815
 20
16.3840931458
 10
-10.1691021322
 20
16.3485184866
 10
-10.162996258
 20
16.3136394758
 10
-10.1558189466
 20
16.2784454547
 10
-10.1475780755
 20
16.2429837175
 10
-10.1382815218
 20
16.2073015582
 10
-10.1279371629
 20
16.1714462709
 10
-10.1168534118
 20
16.1363696976
 10
-10.1048045885
 20
16.1012289974
 10
-10.0918140943
 20
16.0660796512
 10
-10.07790533
 20
16.03097714
 10
-10.063101697
 20
15.9959769447
 10
-10.0474265961
 20
15.9611345462
 10
-10.0309034286
 20
15.9265054255
 10
-10.0135555955
 20
15.8921450634
 10
-9.9954064979
 20
15.858108941
 10
-9.9764795369
 20
15.824452539
 10
-9.9567986111
 20
15.7912273767
 10
-9.9363994506
 20
15.7584855961
 10
-9.915318408
 20
15.7262753058
 10
-9.8935918356
 20
15.6946446139
 10
-9.8712560861
 20
15.6636416289
 10
-9.848347512
 20
15.6333144591
 10
-9.8249024658
 20
15.6037112128
 10
-9.8009573
 20
15.5748799983
 10
-9.7765483671
 20
15.5468689239
 10
-9.7517120197
 20
15.5197260981
 10
-9.7258262589
 20
15.4928296117
 10
-9.6995660354
 20
15.4669277369
 10
-9.6729684599
 20
15.442050666
 10
-9.6460706426
 20
15.4182285914
 10
-9.618909694
 20
15.3954917053
 10
-9.5906694857
 20
15.3732156483
 10
-9.5622370519
 20
15.352154247
 10
-9.5336604572
 20
15.3323363615
 10
-9.5049877658
 20
15.3137908519
 10
-9.4762670421
 20
15.2965465782
  0
LINE
  5
28D
100
AcDbEntity
  8
CURVE
100
AcDbLine
 62
250
  6
CONTINUOUS
 10
-9.6530027252
 20
17.8482748567
 11
-9.299531359
 21
17.6441849199
  0
LWPOLYLINE
  5
28E
100
AcDbEntity
  8
ASSI
100
AcDbPolyline
 62
250
  6
CONTINUOUS
 90
16
 70
0
 10
14.5654732972
 20
-10.2204223267
 10
14.5629139285
 20
-10.1768463424
 10
14.556590599
 20
-10.131443323
 10
14.5465730173
 20
-10.0847135369
 10
14.5329697659
 20
-10.0371661731
 10
14.51593177
 20
-9.9893307302
 10
14.4956546306
 20
-9.9417512745
 10
14.4723706723
 20
-9.8949617838
 10
14.4463348701
 20
-9.8494649235
 10
14.4178265351
 20
-9.8057451736
 10
14.3871138243
 20
-9.7642251782
 10
14.3545746582
 20
-9.7254264467
 10
14.320705359
 20
-9.6899111755
 10
14.2859385825
 20
-9.6580677893
 10
14.2506169787
 20
-9.6301471737
 10
14.2151256519
 20
-9.6064010162
  0
LWPOLYLINE
  5
28F
100
AcDbEntity
  8
ASSI
100
AcDbPolyline
 62
250
  6
CONTINUOUS
 90
9
 70
0
 10
13.8677426188
 20
-9.0092590457
 10
13.8696486177
 20
-9.0504909657
 10
13.8753460379
 20
-9.0890771968
 10
13.8847734115
 20
-9.1246017362
 10
13.8978308516
 20
-9.1566852604
 10
13.9143765881
 20
-9.1849773121
 10
13.9342243638
 20
-9.2091648108
 10
13.9571511182
 20
-9.2289876672
 10
13.9711734386
 20
-9.2380636239
  0
LINE
  5
290
100
AcDbEntity
  8
ASSI
100
AcDbLine
 62
250
  6
CONTINUOUS
 10
13.8677426188
 20
-30.6880899579
 11
13.8677426188
 21
-10.215148588
  0
LINE
  5
291
100
AcDbEntity
  8
ASSI
100
AcDbLine
 62
250
  6
CONTINUOUS
 10
13.8677426188
 20
-9.0092590457
 11
13.8677426188
 21
11.4636823243
  0
LWPOLYLINE
  5
292
100
AcDbEntity
  8
ASSI
100
AcDbPolyline
 62
250
  6
CONTINUOUS
 90
16
 70
0
 10
13.8677426188
 20
11.4636823243
 10
13.8696154558
 20
11.5067272023
 10
13.8752141252
 20
11.5514787524
 10
13.8844793126
 20
11.5974628603
 10
13.8973128594
 20
11.6441923535
 10
13.9135788022
 20
11.6911721627
 10
13.9331048137
 20
11.7379045665
 10
13.9556840281
 20
11.7838944646
 10
13.9810772331
 20
11.8286546234
 10
14.0090154036
 20
11.8717108374
 10
14.0392025525
 20
11.9126069533
 10
14.0713188661
 20
11.9509097026
 10
14.1050240923
 20
11.9862132919
 10
14.1399611456
 20
12.018143702
 10
14.17575989
 20
12.0463626506
 10
14.2120410606
 20
12.0705711759
  0
LINE
  5
293
100
AcDbEntity
  8
CURVE
100
AcDbLine
 62
250
  6
CONTINUOUS
 10
-9.299531359
 20
19.2767441819
 11
-9.6530027252
 21
19.4808341187
  0
LINE
  5
294
100
AcDbEntity
  8
ASSI
100
AcDbLine
 62
250
  6
CONTINUOUS
 10
14.5654732972
 20
-30.6933636966
 11
14.5654732972
 21
-10.2204223267
  0
LINE
  5
295
100
AcDbEntity
  8
ASSI
100
AcDbLine
 62
250
  6
CONTINUOUS
 10
14.5654732972
 20
-9.0145327844
 11
14.5654732972
 21
11.4584085856
  0
LWPOLYLINE
  5
296
100
AcDbEntity
  8
ASSI
100
AcDbPolyline
 62
250
  6
CONTINUOUS
 90
16
 70
0
 10
14.2151256519
 20
-9.6064010162
 10
14.1786170306
 20
-9.6304037692
 10
14.142565685
 20
-9.658484468
 10
14.1073578802
 20
-9.6903422474
 10
14.0733708435
 20
-9.7256357734
 10
14.0409687224
 20
-9.7639869003
 10
14.0104986833
 20
-9.8049847224
 10
13.9822871914
 20
-9.8481899764
 10
13.9566365134
 20
-9.8931397479
 10
13.9338214784
 20
-9.9393524313
 10
13.9140865339
 20
-9.9863328897
 10
13.8976431259
 20
-10.0335777601
 10
13.8846674343
 20
-10.0805808465
 10
13.8752984846
 20
-10.1268385432
 10
13.8696366586
 20
-10.1718552313
 10
13.8677426188
 20
-10.215148588
  0
LWPOLYLINE
  5
297
100
AcDbEntity
  8
ASSI
100
AcDbPolyline
 62
250
  6
CONTINUOUS
 90
9
 70
0
 10
14.4548489011
 20
-9.2472224692
 10
14.4728856879
 20
-9.2361500597
 10
14.4960599165
 20
-9.2164563995
 10
14.5162255235
 20
-9.1922586896
 10
14.5331616987
 20
-9.1638218909
 10
14.5466829935
 20
-9.1314573819
 10
14.5566413519
 20
-9.0955195491
 10
14.5629277314
 20
-9.0564019059
 10
14.5654732972
 20
-9.0145327844
  0
LINE
  5
298
100
AcDbEntity
  8
ASSI
100
AcDbLine
 62
250
  6
CONTINUOUS
 10
16.6160135648
 20
-8.2437514673
 11
14.2151256519
 21
-9.6064010162
  0
LINE
  5
299
100
AcDbEntity
  8
ASSI
100
AcDbLine
 62
250
  6
CONTINUOUS
 10
16.9695265743
 20
-8.8559762416
 11
14.5654732972
 21
-10.2204223267
  0
LINE
  5
29A
100
AcDbEntity
  8
ASSI
100
AcDbLine
 62
250
  6
CONTINUOUS
 10
14.5654732972
 20
-9.0145327844
 11
16.9695265743
 21
-7.7445199363
  0
LINE
  5
29B
100
AcDbEntity
  8
ASSI
100
AcDbLine
 62
7
  6
CONTINUOUS
 10
14.4548489011
 20
-9.2472224692
 11
16.8605443967
 21
-7.9763420702
  0
LWPOLYLINE
  5
29C
100
AcDbEntity
  8
ASSI
100
AcDbPolyline
 62
250
  6
CONTINUOUS
 90
16
 70
0
 10
14.5654732972
 20
-9.0145327844
 10
14.5269502699
 20
-9.0335917686
 10
14.48510364
 20
-9.0503622985
 10
14.4403315482
 20
-9.0646401913
 10
14.3930069884
 20
-9.0762574811
 10
14.3436640047
 20
-9.0850362357
 10
14.2930143762
 20
-9.0908302417
 10
14.2416726385
 20
-9.0935756476
 10
14.1901124325
 20
-9.093253475
 10
14.1388653363
 20
-9.0898652148
 10
14.0884659762
 20
-9.083441783
 10
14.0394644786
 20
-9.0740487833
 10
13.9924017291
 20
-9.0617881164
 10
13.9477847855
 20
-9.0467924519
 10
13.9060835478
 20
-9.0292203255
 10
13.8677426188
 20
-9.0092590457
  0
LWPOLYLINE
  5
29D
100
AcDbEntity
  8
ASSI
100
AcDbPolyline
 62
250
  6
CONTINUOUS
 90
16
 70
0
 10
13.8677426188
 20
11.4636823243
 10
13.9054112801
 20
11.4440368432
 10
13.9465028804
 20
11.4266342005
 10
13.9906266482
 20
11.4116835864
 10
14.0374131913
 20
11.3993579742
 10
14.0863378041
 20
11.3898411139
 10
14.1367028418
 20
11.3832876724
 10
14.1879000661
 20
11.3797705611
 10
14.2394540248
 20
11.3793163227
 10
14.290832302
 20
11.3819313582
 10
14.3414985008
 20
11.387592502
 10
14.3909007425
 20
11.3962422882
 10
14.4384951353
 20
11.4077871384
 10
14.4837693578
 20
11.42210225
 10
14.5262463253
 20
11.4390362178
 10
14.5654732972
 20
11.4584085856
  0
LWPOLYLINE
  5
29E
100
AcDbEntity
  8
ASSI
100
AcDbPolyline
 62
250
  6
CONTINUOUS
 90
9
 70
0
 10
-16.9103741262
 20
29.2345811925
 10
-16.9444059668
 20
29.2563356079
 10
-16.9745501819
 20
29.2800659978
 10
-17.0004449037
 20
29.3055463541
 10
-17.0217910368
 20
29.3325629823
 10
-17.0382710826
 20
29.3608127567
 10
-17.0496179887
 20
29.3898929875
 10
-17.0557060505
 20
29.4194520581
 10
-17.056820735
 20
29.4387033221
  0
LINE
  5
29F
100
AcDbEntity
  8
ASSI
100
AcDbLine
 62
7
  6
CONTINUOUS
 10
16.9695265743
 20
-26.5354371135
 11
16.9695265743
 21
-8.8559762416
  0
LINE
  5
2A0
100
AcDbEntity
  8
ASSI
100
AcDbLine
 62
7
  6
CONTINUOUS
 10
16.9695265743
 20
-7.7445199363
 11
16.9695265743
 21
9.9349409356
  0
LINE
  5
2A1
100
AcDbEntity
  8
ASSI
100
AcDbLine
 62
250
  6
CONTINUOUS
 10
13.8677426188
 20
11.4636823243
 11
-16.9103741262
 21
29.2345811925
  0
LINE
  5
2A2
100
AcDbEntity
  8
ASSI
100
AcDbLine
 62
250
  6
CONTINUOUS
 10
14.2120410606
 20
12.0705711759
 11
-16.5660756845
 21
29.8414700441
  0
LWPOLYLINE
  5
2A3
100
AcDbEntity
  8
ASSI
100
AcDbPolyline
 62
250
  6
CONTINUOUS
 90
16
 70
0
 10
14.2120410606
 20
12.0705711759
 10
14.2475614756
 20
12.0468165521
 10
14.2829404194
 20
12.0189083401
 10
14.3177925723
 20
11.9870999085
 10
14.3517742421
 20
11.9516445172
 10
14.3844533046
 20
11.912930473
 10
14.4153346839
 20
11.8715162526
 10
14.4440390554
 20
11.8279215007
 10
14.4702963185
 20
11.7825681823
 10
14.4938261815
 20
11.7359372382
 10
14.5143714726
 20
11.6885286376
 10
14.5316966122
 20
11.6408748781
 10
14.5456027738
 20
11.5935179105
 10
14.5559357595
 20
11.5469849023
 10
14.5625836695
 20
11.5017825369
 10
14.5654732972
 20
11.4584085856
  0
LINE
  5
2A4
100
AcDbEntity
  8
ASSI
100
AcDbLine
 62
7
  6
CONTINUOUS
 10
16.9571640718
 20
10.0338262989
 11
16.2937296267
 21
12.4562772086
  0
LWPOLYLINE
  5
2A5
100
AcDbEntity
  8
ASSI
100
AcDbPolyline
 62
250
  6
CONTINUOUS
 90
9
 70
0
 10
-16.5660756845
 20
29.8414700441
 10
-16.6033956112
 20
29.8597737065
 10
-16.6403655763
 20
29.8736414319
 10
-16.6765805508
 20
29.8828696096
 10
-16.7116805605
 20
29.8873045181
 10
-16.7452160062
 20
29.8868247683
 10
-16.7766769917
 20
29.8814082044
 10
-16.8056777005
 20
29.871131874
 10
-16.8261946857
 20
29.8599520052
  0
LINE
  5
2A6
100
AcDbEntity
  8
ASSI
100
AcDbLine
 62
7
  6
CONTINUOUS
 10
15.8437927758
 20
13.012719519
 11
-15.017601125
 21
30.8317015732
  0
LINE
  5
2A7
100
AcDbEntity
  8
ASSI
100
AcDbLine
 62
7
  6
CONTINUOUS
 10
16.9571640718
 20
-26.6478698077
 11
16.2937296267
 21
-29.7973390481
  0
LWPOLYLINE
  5
2A8
100
AcDbEntity
  8
ASSI
100
AcDbPolyline
 62
250
  6
CONTINUOUS
 90
9
 70
0
 10
14.4515307248
 20
-30.9277904147
 10
14.4702852782
 20
-30.9164282631
 10
14.4938184052
 20
-30.896644302
 10
14.5143659209
 20
-30.8723073847
 10
14.5316928042
 20
-30.8436846514
 10
14.5456004558
 20
-30.8110990678
 10
14.5559346486
 20
-30.7749139523
 10
14.5625833496
 20
-30.7355242325
 10
14.5654732972
 20
-30.6933636966
  0
LINE
  5
2A9
100
AcDbEntity
  8
ASSI
100
AcDbLine
 62
250
  6
CONTINUOUS
 10
16.2937296267
 20
-29.7973390481
 11
14.5654732972
 21
-30.6933636966
  0
LINE
  5
2AA
100
AcDbEntity
  8
ASSI
100
AcDbLine
 62
7
  6
CONTINUOUS
 10
16.113611649
 20
-30.0660748351
 11
14.4514326768
 21
-30.9278412895
  0
ARC
  5
2AB
100
AcDbEntity
  8
ASSI
100
AcDbCircle
 62
7
  6
CONTINUOUS
 10
-16.5568207357
 20
7.7598875769
 40
0.5
100
AcDbArc
 50
122.1754807991
 51
180.015358494
  0
ARC
  5
2AC
100
AcDbEntity
  8
ASSI
100
AcDbCircle
 62
7
  6
CONTINUOUS
 10
-16.5568207357
 20
-12.7130537931
 40
0.5
100
AcDbArc
 50
179.9900082978
 51
239.9984015652
  0
ARC
  5
2AD
100
AcDbEntity
  8
ASSI
100
AcDbCircle
 62
7
  6
CONTINUOUS
 10
14.2212960094
 20
-30.4839526613
 40
0.5
100
AcDbArc
 50
239.9984015652
 51
297.4174046156
  0
ARC
  5
2AE
100
AcDbEntity
  8
ASSI
100
AcDbCircle
 62
7
  6
CONTINUOUS
 10
14.2212960094
 20
-8.805121749
 40
0.5
100
AcDbArc
 50
239.9837780751
 51
297.8465900872
  0
ARC
  5
2AF
100
AcDbEntity
  8
ASSI
100
AcDbCircle
 62
7
  6
CONTINUOUS
 10
-16.5568207357
 20
8.9657771192
 40
0.5
100
AcDbArc
 50
179.9841296142
 51
239.9984015652
  0
ARC
  5
2B0
100
AcDbEntity
  8
ASSI
100
AcDbCircle
 62
7
  6
CONTINUOUS
 10
-16.5568207357
 20
29.4387184891
 40
0.5
100
AcDbArc
 50
122.5989154231
 51
180.0017380149
  0
ELLIPSE
  5
2B1
100
AcDbEntity
  8
ASSI
100
AcDbEllipse
 62
7
  6
CONTINUOUS
 10
16.6158519883
 20
-8.6519554991
 30
0.0
 11
-0.2500883296
 21
0.432972707
 31
0.0
 40
0.5775954524
 41
-2.3562050126
 42
-0.7858655366
  0
ELLIPSE
  5
2B2
100
AcDbEntity
  8
ASSI
100
AcDbEllipse
 62
7
  6
CONTINUOUS
 10
16.2563023518
 20
-8.4514590854
 30
0.0
 11
0.499979581
 21
0.0076930498
 31
0.0
 40
0.5873737521
 41
7.0595459565
 42
7.4069329008
  0
ELLIPSE
  5
2B3
100
AcDbEntity
  8
ASSI
100
AcDbEllipse
 62
7
  6
CONTINUOUS
 10
16.6067150624
 20
-26.734228887
 30
0.0
 11
0.2600728777
 21
0.4271418247
 31
0.0
 40
0.5922410672
 41
-1.033355665
 42
-0.7715562772
  0
ELLIPSE
  5
2B4
100
AcDbEntity
  8
ASSI
100
AcDbEllipse
 62
7
  6
CONTINUOUS
 10
15.9401212141
 20
-29.5928176348
 30
0.0
 11
-0.1121548712
 21
0.4957473682
 31
0.0
 40
0.7039445592
 41
-2.9595186474
 42
-2.1483506142
  0
ELLIPSE
  5
2B5
100
AcDbEntity
  8
ASSI
100
AcDbEllipse
 62
7
  6
CONTINUOUS
 10
16.6158519883
 20
-7.540126132
 30
0.0
 11
-0.2502024451
 21
0.4331706506
 31
0.0
 40
0.5770679437
 41
-3.1633994611
 42
-2.3566614272
  0
ELLIPSE
  5
2B6
100
AcDbEntity
  8
ASSI
100
AcDbEllipse
 62
7
  6
CONTINUOUS
 10
-14.92571652
 20
30.4817907254
 30
0.0
 11
-0.3297163127
 21
0.381589989
 31
0.0
 40
0.4128243551
 41
-0.8709070521
 42
-0.0596421506
  0
ELLIPSE
  5
2B7
100
AcDbEntity
  8
ASSI
100
AcDbEllipse
 62
7
  6
CONTINUOUS
 10
16.6067150624
 20
9.7361491622
 30
0.0
 11
0.2600728777
 21
0.4271418247
 31
0.0
 40
0.5922410672
 41
-0.7715562772
 42
-0.5097568894
  0
ELLIPSE
  5
2B8
100
AcDbEntity
  8
ASSI
100
AcDbEllipse
 62
7
  6
CONTINUOUS
 10
15.9401212141
 20
12.6602428576
 30
0.0
 11
-0.3313794069
 21
0.3842968449
 31
0.0
 40
0.4077379513
 41
-2.4333010859
 42
-0.8631899918
  0
ENDSEC
  0
SECTION
  2
OBJECTS
  0
DICTIONARY
  5
C
100
AcDbDictionary
280
0
281
1
  3
ACAD_GROUP
350
D
  3
ACAD_MLINESTYLE
350
17
  3
ACAD_LAYOUT
350
1A
  3
ACAD_PLOTSETTINGS
350
19
  3
ACAD_PLOTSTYLENAME
350
E
  0
DICTIONARY
  5
D
102
{ACAD_REACTORS
330
C
102
}
100
AcDbDictionary
280
0
281
1
  0
ACDBDICTIONARYWDFLT
  5
E
102
{ACAD_REACTORS
330
C
102
}
100
AcDbDictionary
281
1
  3
Normal
350
F
100
AcDbDictionaryWithDefault
340
F
  0
DICTIONARY
  5
17
102
{ACAD_REACTORS
330
C
102
}
100
AcDbDictionary
280
0
281
1
  3
Standard
350
18
  0
DICTIONARY
  5
19
102
{ACAD_REACTORS
330
C
102
}
100
AcDbDictionary
281
1
  0
DICTIONARY
  5
1A
102
{ACAD_REACTORS
330
C
102
}
100
AcDbDictionary
281
1
  3
Model
350
2B9
  3
Layout1
350
2BA
  0
ACDBPLACEHOLDER
  5
F
102
{ACAD_REACTORS
330
E
102
}
  0
MLINESTYLE
  5
18
102
{ACAD_REACTORS
330
17
102
}
100
AcDbMlineStyle
  2
STANDARD
 70
0
  3

 62
256
 51
90.0
 52
90.0
 71
2
 49
0.5
 62
256
  6
BYLAYER
 49
-0.5
 62
256
  6
BYLAYER
  0
LAYOUT
  5
2B9
102
{ACAD_REACTORS
330
1A
102
}
100
AcDbPlotSettings
  1

  2
none_device
  4

  6

 40
0.0
 41
0.0
 42
0.0
 43
0.0
 44
210.0
 45
297.0
 46
0.0
 47
0.0
 48
0.0
 49
0.0
140
0.0
141
0.0
142
1.0
143
1.0
 70
1024
 72
1
 73
0
 74
0
  7

 75
0
147
1.0
148
0.0
149
0.0
100
AcDbLayout
  1
Model
 70
0
 71
0
 10
0.0
 20
0.0
 11
210.0
 21
297.0
 12
0.0
 22
0.0
 32
0.0
 14
0.0
 24
0.0
 34
0.0
 15
0.0
 25
0.0
 35
0.0
146
0.0
 13
0.0
 23
0.0
 33
0.0
 16
1.0
 26
0.0
 36
0.0
 17
0.0
 27
1.0
 37
0.0
 76
0
330
212
345
0
346
0
  0
LAYOUT
  5
2BA
102
{ACAD_REACTORS
330
1A
102
}
100
AcDbPlotSettings
  1

  2
none_device
  4

  6

 40
0.0
 41
0.0
 42
0.0
 43
0.0
 44
210.0
 45
297.0
 46
0.0
 47
0.0
 48
0.0
 49
0.0
140
0.0
141
0.0
142
1.0
143
1.0
 70
0
 72
1
 73
0
 74
0
  7

 75
0
147
1.0
148
0.0
149
0.0
100
AcDbLayout
  1
Layout1
 70
0
 71
1
 10
0.0
 20
0.0
 11
210.0
 21
297.0
 12
0.0
 22
0.0
 32
0.0
 14
0.0
 24
0.0
 34
0.0
 15
0.0
 25
0.0
 35
0.0
146
0.0
 13
0.0
 23
0.0
 33
0.0
 16
1.0
 26
0.0
 36
0.0
 17
0.0
 27
1.0
 37
0.0
 76
0
330
213
345
0
346
0
  0
ENDSEC
  0
EOF
