  0
SECTION
  2
HEADER
  9
$ACADVER
  1
AC1024
  9
$DWGCODEPAGE
  3
ANSI_1252
  9
$EXTMAX
 10
297.0
 20
210.0
 30
0.0
  9
$EXTMIN
 10
0.0
 20
0.0
 30
0.0
  9
$LIMMIN
 10
0.0
 20
0.0
  9
$LIMMAX
 10
297.0
 20
210.0
  9
$VIEWCTR
 10
148.5
 20
105.0
  9
$VIEWSIZE
 40
210.0
  9
$CLAYER
  8
0
  9
$LTSCALE
 40
16.335
  9
$CELTYPE
  6
BYLAYER
  9
$DIMSCALE
 40
1.0
  9
$DIMASZ
 40
3.0
  9
$DIMEXO
 40
0.5
  9
$DIMDLI
 40
11.286
  9
$DIMEXE
 40
1.5
  9
$DIMCEN
 40
2.673
  9
$DIMLFAC
 40
1.0
  9
$DIMBLK
  1
_FILLED
  9
$DIMALT
 70
0
  9
$DIMALTF
 40
0.0393700787
  9
$DIMTXT
 40
3.0
  9
$DIMTOL
 70
1
  9
$DIMLIM
 70
0
  9
$DIMTFAC
 40
1.0
  9
$DIMTP
 40
0.01
  9
$DIMTM
 40
0.01
  9
$DIMGAP
 40
0.625
  9
$DIMDSEP
 70
44
  9
$AUNITS
 70
0
  9
$PDMODE
 70
3
  9
$PDSIZE
 40
3.0
  9
$HANDSEED
  5
2EE
  9
$TILEMODE
 70
1
  9
$MEASUREMENT
 70
1
  9
$INSUNITS
 70
4
  0
ENDSEC
  0
SECTION
  2
CLASSES
  0
CLASS
  1
ACDBDICTIONARYWDFLT
  2
AcDbDictionaryWithDefault
  3
AutoCAD 2000
 90
0
 91
1
280
0
281
0
  0
CLASS
  1
ACDBPLACEHOLDER
  2
AcDbPlaceHolder
  3
AutoCAD 2000
 90
0
 91
1
280
0
281
0
  0
CLASS
  1
LAYOUT
  2
AcDbLayout
  3
AutoCAD 2000
 90
0
 91
0
280
0
281
0
  0
ENDSEC
  0
SECTION
  2
TABLES
  0
TABLE
  2
VPORT
  5
8
100
AcDbSymbolTable
 70
2
  0
VPORT
  5
1F4
100
AcDbSymbolTableRecord
100
AcDbViewportTableRecord
  2
*ACTIVE
 70
0
 10
0.0
 20
0.0
 11
1.0
 21
1.0
 12
148.5
 22
105.0
 13
0.0
 23
0.0
 14
1.0
 24
1.0
 15
0.0
 25
0.0
 16
0.0
 26
0.0
 36
1.0
 17
0.0
 27
0.0
 37
0.0
 40
210.0
 41
1.4142857143
 42
50.0
 43
0.0
 44
0.0
 50
0.0
 51
0.0
 71
0
 72
100
 73
1
 74
1
 75
0
 76
0
 77
0
 78
0
  0
ENDTAB
  0
TABLE
  2
LTYPE
  5
5
100
AcDbSymbolTable
 70
6
  0
LTYPE
  5
14
100
AcDbSymbolTableRecord
100
AcDbLinetypeTableRecord
  2
BYBLOCK
 70
0
  3

 72
65
 73
0
 40
0.0
  0
LTYPE
  5
15
100
AcDbSymbolTableRecord
100
AcDbLinetypeTableRecord
  2
BYLAYER
 70
0
  3

 72
65
 73
0
 40
0.0
  0
LTYPE
  5
16
100
AcDbSymbolTableRecord
100
AcDbLinetypeTableRecord
  2
CONTINUOUS
 70
64
  3
Solid line
 72
65
 73
0
 40
0.0
  0
LTYPE
  5
1F5
100
AcDbSymbolTableRecord
100
AcDbLinetypeTableRecord
  2
CENTER
 70
64
  3
____ _ ____ _ ____ _ ____ _ ____ _ ____ _ ____
 72
65
 73
4
 40
0.6
 49
0.375
 74
0
 49
-0.075
 74
0
 49
0.075
 74
0
 49
-0.075
 74
0
  0
LTYPE
  5
1F6
100
AcDbSymbolTableRecord
100
AcDbLinetypeTableRecord
  2
HIDDEN
 70
64
  3
- - - - - - - - - - - - - - - - - - - -
 72
65
 73
2
 40
0.2
 49
0.1
 74
0
 49
-0.1
 74
0
  0
LTYPE
  5
1F7
100
AcDbSymbolTableRecord
100
AcDbLinetypeTableRecord
  2
PHANTOM
 70
64
  3
_____ _ _ _____ _ _ _____ _ _ _____
 72
65
 73
6
 40
0.8
 49
0.45
 74
0
 49
-0.05
 74
0
 49
0.1
 74
0
 49
-0.05
 74
0
 49
0.1
 74
0
 49
-0.05
 74
0
  0
LTYPE
  5
1F8
100
AcDbSymbolTableRecord
100
AcDbLinetypeTableRecord
  2
DOT
 70
64
  3
. . . . . . . . . . . . . . . . . . . .
 72
65
 73
2
 40
0.2
 49
0.1
 74
0
 49
-0.1
 74
0
  0
LTYPE
  5
1F9
100
AcDbSymbolTableRecord
100
AcDbLinetypeTableRecord
  2
DASHED
 70
64
  3
- - - - - - - - - - - - - - - - - - - -
 72
65
 73
2
 40
0.2
 49
0.1
 74
0
 49
-0.1
 74
0
  0
ENDTAB
  0
TABLE
  2
LAYER
  5
2
100
AcDbSymbolTable
 70
36
  0
LAYER
  5
10
100
AcDbSymbolTableRecord
100
AcDbLayerTableRecord
  2
0
 70
0
 62
7
  6
CONTINUOUS
370
-3
390
F
  0
LAYER
  5
1FA
100
AcDbSymbolTableRecord
100
AcDbLayerTableRecord
  2
DEFAULT_1
 70
0
 62
7
  6
CENTER
370
-3
390
F
  0
LAYER
  5
1FB
100
AcDbSymbolTableRecord
100
AcDbLayerTableRecord
  2
DEFAULT_2
 70
0
 62
7
  6
HIDDEN
370
-3
390
F
  0
LAYER
  5
1FC
100
AcDbSymbolTableRecord
100
AcDbLayerTableRecord
  2
DEFAULT_3
 70
0
 62
7
  6
PHANTOM
370
-3
390
F
  0
LAYER
  5
1FD
100
AcDbSymbolTableRecord
100
AcDbLayerTableRecord
  2
ASSI
 70
0
 62
7
  6
CONTINUOUS
370
-3
390
F
  0
LAYER
  5
1FE
100
AcDbSymbolTableRecord
100
AcDbLayerTableRecord
  2
COORDINATE
 70
0
 62
7
  6
CONTINUOUS
370
-3
390
F
  0
LAYER
  5
1FF
100
AcDbSymbolTableRecord
100
AcDbLayerTableRecord
  2
COPY_PUBLISH
 70
0
 62
7
  6
CONTINUOUS
370
-3
390
F
  0
LAYER
  5
200
100
AcDbSymbolTableRecord
100
AcDbLayerTableRecord
  2
COSMETICI
 70
0
 62
7
  6
CONTINUOUS
370
-3
390
F
  0
LAYER
  5
201
100
AcDbSymbolTableRecord
100
AcDbLayerTableRecord
  2
CURVE
 70
0
 62
7
  6
CONTINUOUS
370
-3
390
F
  0
LAYER
  5
202
100
AcDbSymbolTableRecord
100
AcDbLayerTableRecord
  2
DRAFT
 70
0
 62
7
  6
CONTINUOUS
370
-3
390
F
  0
LAYER
  5
203
100
AcDbSymbolTableRecord
100
AcDbLayerTableRecord
  2
IMPORT_IGES
 70
0
 62
7
  6
CONTINUOUS
370
-3
390
F
  0
LAYER
  5
204
100
AcDbSymbolTableRecord
100
AcDbLayerTableRecord
  2
INTF_2
 70
0
 62
7
  6
CONTINUOUS
370
-3
390
F
  0
LAYER
  5
205
100
AcDbSymbolTableRecord
100
AcDbLayerTableRecord
  2
INTF_3
 70
0
 62
7
  6
CONTINUOUS
370
-3
390
F
  0
LAYER
  5
206
100
AcDbSymbolTableRecord
100
AcDbLayerTableRecord
  2
INTF_4
 70
0
 62
7
  6
CONTINUOUS
370
-3
390
F
  0
LAYER
  5
207
100
AcDbSymbolTableRecord
100
AcDbLayerTableRecord
  2
INTF_5
 70
0
 62
7
  6
CONTINUOUS
370
-3
390
F
  0
LAYER
  5
208
100
AcDbSymbolTableRecord
100
AcDbLayerTableRecord
  2
INTF_6
 70
0
 62
7
  6
CONTINUOUS
370
-3
390
F
  0
LAYER
  5
209
100
AcDbSymbolTableRecord
100
AcDbLayerTableRecord
  2
INTF_7
 70
0
 62
7
  6
CONTINUOUS
370
-3
390
F
  0
LAYER
  5
20A
100
AcDbSymbolTableRecord
100
AcDbLayerTableRecord
  2
INTF_9
 70
0
 62
7
  6
CONTINUOUS
370
-3
390
F
  0
LAYER
  5
20B
100
AcDbSymbolTableRecord
100
AcDbLayerTableRecord
  2
INTF_BLANK
 70
0
 62
7
  6
CONTINUOUS
370
-3
390
F
  0
LAYER
  5
20C
100
AcDbSymbolTableRecord
100
AcDbLayerTableRecord
  2
INTF_RED
 70
0
 62
7
  6
CONTINUOUS
370
-3
390
F
  0
LAYER
  5
20D
100
AcDbSymbolTableRecord
100
AcDbLayerTableRecord
  2
NOTE
 70
0
 62
7
  6
CONTINUOUS
370
-3
390
F
  0
LAYER
  5
20E
100
AcDbSymbolTableRecord
100
AcDbLayerTableRecord
  2
PIANI
 70
0
 62
7
  6
CONTINUOUS
370
-3
390
F
  0
LAYER
  5
20F
100
AcDbSymbolTableRecord
100
AcDbLayerTableRecord
  2
PUNTI
 70
0
 62
7
  6
CONTINUOUS
370
-3
390
F
  0
LAYER
  5
210
100
AcDbSymbolTableRecord
100
AcDbLayerTableRecord
  2
RACCORDO
 70
0
 62
7
  6
CONTINUOUS
370
-3
390
F
  0
LAYER
  5
211
100
AcDbSymbolTableRecord
100
AcDbLayerTableRecord
  2
RGB____0____0____0__
 70
0
 62
7
  6
CONTINUOUS
370
-3
390
F
  0
LAYER
  5
212
100
AcDbSymbolTableRecord
100
AcDbLayerTableRecord
  2
SIMBOLI
 70
0
 62
7
  6
CONTINUOUS
370
-3
390
F
  0
LAYER
  5
213
100
AcDbSymbolTableRecord
100
AcDbLayerTableRecord
  2
SMUSSO
 70
0
 62
7
  6
CONTINUOUS
370
-3
390
F
  0
LAYER
  5
214
100
AcDbSymbolTableRecord
100
AcDbLayerTableRecord
  2
SNAPLINE
 70
0
 62
7
  6
CONTINUOUS
370
-3
390
F
  0
LAYER
  5
215
100
AcDbSymbolTableRecord
100
AcDbLayerTableRecord
  2
SUPERFICI
 70
0
 62
7
  6
CONTINUOUS
370
-3
390
F
  0
LAYER
  5
216
100
AcDbSymbolTableRecord
100
AcDbLayerTableRecord
  2
TRASH
 70
0
 62
7
  6
CONTINUOUS
370
-3
390
F
  0
ENDTAB
  0
TABLE
  2
STYLE
  5
3
100
AcDbSymbolTable
 70
1
  0
STYLE
  5
11
100
AcDbSymbolTableRecord
100
AcDbTextStyleTableRecord
  2
STANDARD
 70
0
 40
0.0
 41
0.8
 50
0.0
 71
0
 42
0.2
  3
txt
  4

  0
STYLE
  5
217
100
AcDbSymbolTableRecord
100
AcDbTextStyleTableRecord
  2
TEXTSTYLE_1
 70
0
 40
0.0
 41
0.8
 50
0.0
 71
0
 42
0.2
  3
gdt
  4

  0
ENDTAB
  0
TABLE
  2
VIEW
  5
6
100
AcDbSymbolTable
 70
0
  0
ENDTAB
  0
TABLE
  2
UCS
  5
7
100
AcDbSymbolTable
 70
0
  0
ENDTAB
  0
TABLE
  2
APPID
  5
9
100
AcDbSymbolTable
 70
1
  0
APPID
  5
218
100
AcDbSymbolTableRecord
100
AcDbRegAppTableRecord
  2
ACAD
 70
0
  0
ENDTAB
  0
TABLE
  2
BLOCK_RECORD
  5
1
100
AcDbSymbolTable
 70
0
  0
BLOCK_RECORD
  5
219
100
AcDbSymbolTableRecord
100
AcDbBlockTableRecord
  2
*Model_Space
  0
BLOCK_RECORD
  5
21A
100
AcDbSymbolTableRecord
100
AcDbBlockTableRecord
  2
*Paper_Space
  0
BLOCK_RECORD
  5
21B
100
AcDbSymbolTableRecord
100
AcDbBlockTableRecord
  2
_FILLED
  0
ENDTAB
  0
TABLE
  2
DIMSTYLE
  5
A
100
AcDbSymbolTable
 70
1
100
AcDbDimStyleTable
 71
0
  0
DIMSTYLE
105
21C
100
AcDbSymbolTableRecord
100
AcDbDimStyleTableRecord
  2
STANDARD
 70
0
  3

  4

 40
1.0
 41
3.0
 42
0.5
 43
0.38
 44
1.5
 45
0.0
 46
0.0
 47
0.01
 48
0.01
140
3.0
141
0.09
142
0.0
143
25.4
144
1.0
145
0.0
146
1.0
147
0.625
 71
1
 72
0
 73
0
 74
0
 75
0
 76
0
 77
1
 78
8
 79
2
170
0
171
1
172
0
173
0
174
0
175
0
176
0
177
0
178
0
270
2
179
2
271
2
272
2
273
2
274
2
275
0
280
0
281
0
282
0
283
1
284
8
285
0
286
0
287
3
288
0
340
11
278
44
341
21B
342
21B
343
21B
344
21B
  0
ENDTAB
  0
ENDSEC
  0
SECTION
  2
BLOCKS
  0
BLOCK
  5
20
100
AcDbEntity
  8
0
100
AcDbBlockBegin
  2
*Model_Space
 70
0
 10
0.0
 20
0.0
 30
0.0
  3
*Model_Space
  1

  0
ENDBLK
  5
21
100
AcDbEntity
  8
0
100
AcDbBlockEnd
  0
BLOCK
  5
1C
100
AcDbEntity
  8
0
100
AcDbBlockBegin
  2
*Paper_Space
 70
0
 10
0.0
 20
0.0
 30
0.0
  3
*Paper_Space
  1

  0
ENDBLK
  5
1D
100
AcDbEntity
  8
0
100
AcDbBlockEnd
  0
BLOCK
  5
21D
100
AcDbEntity
  8
0
100
AcDbBlockBegin
  2
_FILLED
 70
64
 10
0.0
 20
0.0
  3
_FILLED
  1

  0
SOLID
  5
21E
100
AcDbEntity
  8
0
  6
BYBLOCK
 62
0
100
AcDbTrace
 10
0.0
 20
0.0
 11
-1.0
 21
0.3166666667
 12
-1.0
 22
-0.3166666667
 13
-1.0
 23
-0.3166666667
  0
ENDBLK
  5
21F
100
AcDbEntity
  8
0
  6
BYBLOCK
 62
0
100
AcDbBlockEnd
  0
ENDSEC
  0
SECTION
  2
ENTITIES
  0
LINE
  5
220
100
AcDbEntity
  8
COPY_PUBLISH
100
AcDbLine
 62
7
  6
CONTINUOUS
 10
-9.3515170199
 20
25.0878506424
 11
-8.7879075893
 21
25.4482723393
  0
LWPOLYLINE
  5
221
100
AcDbEntity
  8
COPY_PUBLISH
100
AcDbPolyline
 62
250
  6
CONTINUOUS
 90
9
 70
0
 10
-9.3515170199
 20
25.0878506424
 10
-9.3310150726
 20
25.0990236254
 10
-9.3020176473
 20
25.109302083
 10
-9.2705583671
 20
25.1147215879
 10
-9.2370231316
 20
25.1152043262
 10
-9.2019213288
 20
25.1107717861
 10
-9.1657023214
 20
25.1015446201
 10
-9.1287261726
 20
25.0876759083
 10
-9.0913980187
 20
25.0693686813
  0
LINE
  5
222
100
AcDbEntity
  8
RACCORDO
100
AcDbLine
 62
7
  6
CONTINUOUS
 10
-8.2335890689
 20
25.6422352556
 11
-8.6250358839
 21
25.4662884874
  0
LINE
  5
223
100
AcDbEntity
  8
RACCORDO
100
AcDbLine
 62
250
  6
CONTINUOUS
 10
-8.0228920848
 20
25.6131325367
 11
-8.4897450234
 21
25.4032923678
  0
LINE
  5
224
100
AcDbEntity
  8
0
100
AcDbLine
 62
250
  6
CONTINUOUS
 10
-9.0913980187
 20
25.0693686813
 11
-8.5315129884
 21
25.4274086673
  0
LINE
  5
225
100
AcDbEntity
  8
COPY_PUBLISH
100
AcDbLine
 62
7
  6
CONTINUOUS
 10
-9.3321551499
 20
-17.9181608831
 11
5.5360590184
 21
-26.5028814014
  0
LINE
  5
226
100
AcDbEntity
  8
COPY_PUBLISH
100
AcDbLine
 62
250
  6
CONTINUOUS
 10
-9.4356964604
 20
-17.6892924525
 11
5.4325177079
 21
-26.2740129708
  0
LWPOLYLINE
  5
227
100
AcDbEntity
  8
COPY_PUBLISH
100
AcDbPolyline
 62
250
  6
CONTINUOUS
 90
9
 70
0
 10
-9.3321551499
 20
-17.9181608831
 10
-9.3477550522
 20
-17.9079520568
 10
-9.3703342664
 20
-17.8880360694
 10
-9.3898602777
 20
-17.8638518141
 10
-9.4061262204
 20
-17.8356555079
 10
-9.418959767
 20
-17.8037458728
 10
-9.4282249543
 20
-17.7684609714
 10
-9.4338236235
 20
-17.7301746248
 10
-9.4356964604
 20
-17.6892924525
  0
LWPOLYLINE
  5
228
100
AcDbEntity
  8
RACCORDO
100
AcDbPolyline
 62
250
  6
CONTINUOUS
 90
8
 70
0
 10
8.2867970935
 20
-12.435236738
 10
8.3178082864
 20
-12.4275670697
 10
8.3477731327
 20
-12.4234880192
 10
8.3763640344
 20
-12.4229897357
 10
8.4034338821
 20
-12.4259785446
 10
8.4289694485
 20
-12.4324079934
 10
8.4527781298
 20
-12.4422913538
 10
8.4604847802
 20
-12.4464627611
  0
LINE
  5
229
100
AcDbEntity
  8
DRAFT
100
AcDbLine
 62
7
  6
CONTINUOUS
 10
8.6323597915
 20
-15.4415131534
 11
8.0746822556
 21
-15.367586814
  0
LINE
  5
22A
100
AcDbEntity
  8
0
100
AcDbLine
 62
250
  6
CONTINUOUS
 10
6.366811867
 20
16.8253026157
 11
5.7768161497
 21
16.484648163
  0
LINE
  5
22B
100
AcDbEntity
  8
RACCORDO
100
AcDbLine
 62
250
  6
CONTINUOUS
 10
6.848140457
 20
17.0267847249
 11
6.4029611898
 21
16.80210139
  0
LINE
  5
22C
100
AcDbEntity
  8
RACCORDO
100
AcDbLine
 62
250
  6
CONTINUOUS
 10
7.1657213758
 20
16.4754438463
 11
6.7185134404
 21
16.2497366364
  0
LWPOLYLINE
  5
22D
100
AcDbEntity
  8
COPY_PUBLISH
100
AcDbPolyline
 62
250
  6
CONTINUOUS
 90
16
 70
0
 10
6.1302483864
 20
15.8724855727
 10
6.09102414
 20
15.853114416
 10
6.048550163
 20
15.8361812727
 10
6.0032790783
 20
15.821866591
 10
5.9556876555
 20
15.8103217371
 10
5.9062882916
 20
15.8016715916
 10
5.8556254091
 20
15.7960098066
 10
5.8042518192
 20
15.7933937865
 10
5.7527028114
 20
15.7938464797
 10
5.7015082977
 20
15.7973616503
 10
5.6511431056
 20
15.8039132116
 10
5.6022162132
 20
15.8134285835
 10
5.5554250552
 20
15.8257535732
 10
5.5112946266
 20
15.840704861
 10
5.4701950335
 20
15.8581097531
 10
5.4325177079
 20
15.8777593114
  0
LINE
  5
22E
100
AcDbEntity
  8
DRAFT
100
AcDbLine
 62
7
  6
CONTINUOUS
 10
8.6323597915
 20
-13.0375071303
 11
8.0746822556
 21
-12.9388763227
  0
LINE
  5
22F
100
AcDbEntity
  8
RACCORDO
100
AcDbLine
 62
7
  6
CONTINUOUS
 10
7.1657213758
 20
-17.4251653916
 11
7.084732762
 21
-17.378403581
  0
LWPOLYLINE
  5
230
100
AcDbEntity
  8
COPY_PUBLISH
100
AcDbPolyline
 62
250
  6
CONTINUOUS
 90
9
 70
0
 10
-9.5821430698
 20
-17.4851551559
 10
-9.5810283847
 20
-17.5044215866
 10
-9.574940323
 20
-17.5339806572
 10
-9.5635934169
 20
-17.5630608879
 10
-9.5471133712
 20
-17.5913106624
 10
-9.5257672382
 20
-17.6183272906
 10
-9.4998725164
 20
-17.643807647
 10
-9.4697283012
 20
-17.6675380369
 10
-9.4356964604
 20
-17.6892924525
  0
LINE
  5
231
100
AcDbEntity
  8
COPY_PUBLISH
100
AcDbLine
 62
7
  6
CONTINUOUS
 10
-9.5821430698
 20
-17.4851551559
 11
-9.5821430698
 21
24.6666171264
  0
LINE
  5
232
100
AcDbEntity
  8
COPY_PUBLISH
100
AcDbLine
 62
250
  6
CONTINUOUS
 10
-9.4356964604
 20
-17.6892924525
 11
-9.4356964604
 21
24.4624798297
  0
LWPOLYLINE
  5
233
100
AcDbEntity
  8
COPY_PUBLISH
100
AcDbPolyline
 62
250
  6
CONTINUOUS
 90
16
 70
0
 10
-9.4356964604
 20
24.4624798297
 10
-9.4338236235
 20
24.5055247071
 10
-9.4282249543
 20
24.5502762566
 10
-9.418959767
 20
24.596260364
 10
-9.4061262204
 20
24.642989857
 10
-9.3898602777
 20
24.6899696662
 10
-9.3703342664
 20
24.7367020699
 10
-9.3477550522
 20
24.7826919679
 10
-9.3223618476
 20
24.8274521265
 10
-9.2944236774
 20
24.8705083404
 10
-9.2642365285
 20
24.9114044564
 10
-9.2321202148
 20
24.9497072061
 10
-9.1984149884
 20
24.9850107958
 10
-9.1634779348
 20
25.0169412064
 10
-9.1276791899
 20
25.0451601556
 10
-9.0913980187
 20
25.0693686813
  0
LWPOLYLINE
  5
234
100
AcDbEntity
  8
COPY_PUBLISH
100
AcDbPolyline
 62
250
  6
CONTINUOUS
 90
16
 70
0
 10
5.7768161497
 20
16.484648163
 10
5.7405349785
 20
16.4604396372
 10
5.7047362336
 20
16.4322206881
 10
5.66979918
 20
16.4002902775
 10
5.6360939535
 20
16.3649866878
 10
5.6039776398
 20
16.3266839381
 10
5.573790491
 20
16.2857878221
 10
5.5458523207
 20
16.2427316081
 10
5.5204591161
 20
16.1979714496
 10
5.4978799019
 20
16.1519815516
 10
5.4783538906
 20
16.1052491479
 10
5.4620879479
 20
16.0582693387
 10
5.4492544013
 20
16.0115398457
 10
5.4399892141
 20
15.9655557383
 10
5.4343905448
 20
15.9208041887
 10
5.4325177079
 20
15.8777593114
  0
LINE
  5
235
100
AcDbEntity
  8
0
100
AcDbLine
 62
250
  6
CONTINUOUS
 10
6.7202441037
 20
16.2131400254
 11
6.1302483864
 21
15.8724855727
  0
LINE
  5
236
100
AcDbEntity
  8
RACCORDO
100
AcDbLine
 62
7
  6
CONTINUOUS
 10
7.8158247424
 20
13.2197099928
 11
7.1657213758
 21
13.0075016306
  0
LINE
  5
237
100
AcDbEntity
  8
RACCORDO
100
AcDbLine
 62
250
  6
CONTINUOUS
 10
7.9457537542
 20
13.1970079783
 11
7.1657213758
 21
12.942387864
  0
LWPOLYLINE
  5
238
100
AcDbEntity
  8
COPY_PUBLISH
100
AcDbPolyline
 62
250
  6
CONTINUOUS
 90
9
 70
0
 10
-9.5821430695
 20
24.6666057195
 10
-9.5810265336
 20
24.6473347226
 10
-9.5749351097
 20
24.6177740865
 10
-9.5635849463
 20
24.588693945
 10
-9.547102322
 20
24.560445487
 10
-9.5257551105
 20
24.5334315242
 10
-9.4998615558
 20
24.5079550148
 10
-9.4697212376
 20
24.4842292411
 10
-9.4356964604
 20
24.4624798297
  0
LINE
  5
239
100
AcDbEntity
  8
RACCORDO
100
AcDbLine
 62
7
  6
CONTINUOUS
 10
7.2795249851
 20
12.6255666144
 11
8.2583934296
 21
13.016493748
  0
LWPOLYLINE
  5
23A
100
AcDbEntity
  8
RACCORDO
100
AcDbPolyline
 62
7
  6
CONTINUOUS
 90
9
 70
0
 10
8.4604653459
 20
-12.4464674698
 10
8.4328342394
 20
-12.432597108
 10
8.397838421
 20
-12.4202246249
 10
8.3611805996
 20
-12.4125285954
 10
8.3233684178
 20
-12.4095185269
 10
8.2848186634
 20
-12.4111583577
 10
8.2457089241
 20
-12.4173984665
 10
8.2063395028
 20
-12.4282071678
 10
8.1995118466
 20
-12.4305468317
  0
LINE
  5
23B
100
AcDbEntity
  8
RACCORDO
100
AcDbLine
 62
7
  6
CONTINUOUS
 10
7.1657213758
 20
8.8411441739
 11
8.1995493845
 21
9.2059287712
  0
LINE
  5
23C
100
AcDbEntity
  8
RACCORDO
100
AcDbLine
 62
250
  6
CONTINUOUS
 10
8.2867970935
 20
9.201225597
 11
7.1657213758
 21
8.8056294955
  0
LWPOLYLINE
  5
23D
100
AcDbEntity
  8
RACCORDO
100
AcDbPolyline
 62
250
  6
CONTINUOUS
 90
7
 70
0
 10
8.1995493845
 20
9.2059287712
 10
8.2017257452
 20
9.2066222212
 10
8.2114552756
 20
9.2080790621
 10
8.2218277392
 20
9.2071069685
 10
8.2326676892
 20
9.2037223231
 10
8.2437917988
 20
9.1979823102
 10
8.2550119096
 20
9.1899839581
  0
LINE
  5
23E
100
AcDbEntity
  8
RACCORDO
100
AcDbLine
 62
250
  6
CONTINUOUS
 10
8.950557843
 20
-12.8480778817
 11
8.2550119096
 21
-12.4464783769
  0
LINE
  5
23F
100
AcDbEntity
  8
RACCORDO
100
AcDbLine
 62
7
  6
CONTINUOUS
 10
8.950557843
 20
-12.7294247126
 11
8.4606268768
 21
-12.446544713
  0
LWPOLYLINE
  5
240
100
AcDbEntity
  8
0
100
AcDbPolyline
 62
7
  6
CONTINUOUS
 90
13
 70
0
 10
-4.9360825182
 20
-0.5720281474
 10
-4.9353848142
 20
-0.5833984535
 10
-4.9335854799
 20
-0.5948667206
 10
-4.9306845154
 20
-0.6064329489
 10
-4.9265958288
 20
-0.6182920748
 10
-4.9214055119
 20
-0.6302491618
 10
-4.9153718401
 20
-0.6417194003
 10
-4.9084551296
 20
-0.652679882
 10
-4.9006950641
 20
-0.6631535151
 10
-4.8924689698
 20
-0.6726242154
 10
-4.8839026221
 20
-0.6809199546
 10
-4.8748702455
 20
-0.688212761
 10
-4.8653718401
 20
-0.6945026344
  0
LWPOLYLINE
  5
241
100
AcDbEntity
  8
DRAFT
100
AcDbPolyline
 62
7
  6
CONTINUOUS
 90
4
 70
0
 10
-4.9360825182
 20
-0.5720281474
 10
-4.9353849256
 20
-0.5833980792
 10
-4.9335856581
 20
-0.5948661219
 10
-4.9306847159
 20
-0.6064322753
  0
LWPOLYLINE
  5
242
100
AcDbEntity
  8
DRAFT
100
AcDbPolyline
 62
7
  6
CONTINUOUS
 90
4
 70
0
 10
-5.0067931963
 20
0.6661063957
 10
-5.0060956037
 20
0.6547364639
 10
-5.0042963362
 20
0.6432684213
 10
-5.001395394
 20
0.6317022679
  0
LWPOLYLINE
  5
243
100
AcDbEntity
  8
0
100
AcDbPolyline
 62
7
  6
CONTINUOUS
 90
13
 70
0
 10
-5.0067931963
 20
0.6661063957
 10
-5.0060954923
 20
0.6547360897
 10
-5.0042961581
 20
0.6432678225
 10
-5.0013951935
 20
0.6317015942
 10
-4.9973065069
 20
0.6198424683
 10
-4.99211619
 20
0.6078853813
 10
-4.9860825182
 20
0.5964151428
 10
-4.9791658077
 20
0.5854546612
 10
-4.9714057422
 20
0.574981028
 10
-4.9631796479
 20
0.5655103277
 10
-4.9546133002
 20
0.5572145885
 10
-4.9455809236
 20
0.5499217822
 10
-4.9360825182
 20
0.5436319087
  0
LWPOLYLINE
  5
244
100
AcDbEntity
  8
0
100
AcDbPolyline
 62
7
  6
CONTINUOUS
 90
4
 70
0
 10
-3.8754223464
 20
-0.8578519267
 10
-3.8761200504
 20
-0.8464816207
 10
-3.8779193846
 20
-0.8350133535
 10
-3.8808202643
 20
-0.8234474636
  0
LWPOLYLINE
  5
245
100
AcDbEntity
  8
DRAFT
100
AcDbPolyline
 62
7
  6
CONTINUOUS
 90
13
 70
0
 10
-3.8754223464
 20
-0.8578519267
 10
-3.876119939
 20
-0.8464819949
 10
-3.8779192065
 20
-0.8350139523
 10
-3.8808201487
 20
-0.8234477989
 10
-3.884908862
 20
-0.8115885422
 10
-3.8900992501
 20
-0.7996311747
 10
-3.8961330245
 20
-0.7881606738
 10
-3.9030499109
 20
-0.7771999721
 10
-3.9108101837
 20
-0.766726137
 10
-3.9190363779
 20
-0.7572553483
 10
-3.927602672
 20
-0.7489596658
 10
-3.9366348875
 20
-0.7416670296
 10
-3.9461330245
 20
-0.7353774397
  0
LINE
  5
246
100
AcDbEntity
  8
0
100
AcDbLine
 62
7
  6
CONTINUOUS
 10
-5.0067931963
 20
0.9926945064
 11
-5.0067931963
 21
0.6661063957
  0
LINE
  5
247
100
AcDbEntity
  8
DRAFT
100
AcDbLine
 62
7
  6
CONTINUOUS
 10
-5.0067931963
 20
0.9926945064
 11
-5.0067931963
 21
0.6661063957
  0
LINE
  5
248
100
AcDbEntity
  8
0
100
AcDbLine
 62
7
  6
CONTINUOUS
 10
-4.9360825182
 20
-0.2454400367
 11
-4.9360825182
 21
-0.5720281474
  0
LINE
  5
249
100
AcDbEntity
  8
DRAFT
100
AcDbLine
 62
7
  6
CONTINUOUS
 10
-4.9360825182
 20
-0.2454400367
 11
-4.9360825182
 21
-0.5720281474
  0
LINE
  5
24A
100
AcDbEntity
  8
0
100
AcDbLine
 62
7
  6
CONTINUOUS
 10
-3.8754223464
 20
-1.1844400374
 11
-3.8754223464
 21
-0.8578519267
  0
LINE
  5
24B
100
AcDbEntity
  8
DRAFT
100
AcDbLine
 62
7
  6
CONTINUOUS
 10
-3.8754223464
 20
-1.1844400374
 11
-3.8754223464
 21
-0.8578519267
  0
LINE
  5
24C
100
AcDbEntity
  8
DRAFT
100
AcDbLine
 62
7
  6
CONTINUOUS
 10
-3.876119939
 20
-1.1950044068
 11
-3.8754223464
 21
-1.1844400374
  0
LWPOLYLINE
  5
24D
100
AcDbEntity
  8
DRAFT
100
AcDbPolyline
 62
7
  6
CONTINUOUS
 90
4
 70
0
 10
-5.001395394
 20
1.0208653874
 10
-5.0042963362
 20
1.0126491694
 10
-5.0060956037
 20
1.0032588758
 10
-5.0067931963
 20
0.9926945064
  0
LWPOLYLINE
  5
24E
100
AcDbEntity
  8
DRAFT
100
AcDbPolyline
 62
7
  6
CONTINUOUS
 90
4
 70
0
 10
-4.9306847159
 20
-0.2172691557
 10
-4.9335856581
 20
-0.2254853737
 10
-4.9353849256
 20
-0.2348756674
 10
-4.9360825182
 20
-0.2454400367
  0
LWPOLYLINE
  5
24F
100
AcDbEntity
  8
DRAFT
100
AcDbPolyline
 62
7
  6
CONTINUOUS
 90
4
 70
0
 10
-4.9867126419
 20
1.0380965451
 10
-4.9921162927
 20
1.033966738
 10
-4.9973066807
 20
1.0280031006
 10
-5.0013952784
 20
1.0208655892
  0
LWPOLYLINE
  5
250
100
AcDbEntity
  8
0
100
AcDbPolyline
 62
7
  6
CONTINUOUS
 90
7
 70
0
 10
-4.9867126412
 20
1.0380965455
 10
-4.99211619
 20
1.0339668819
 10
-4.9973065069
 20
1.0280034427
 10
-5.0013951935
 20
1.0208658296
 10
-5.0042961581
 20
1.0126495625
 10
-5.0060954923
 20
1.0032591214
 10
-5.0067931963
 20
0.9926945064
  0
LINE
  5
251
100
AcDbEntity
  8
DRAFT
100
AcDbLine
 62
7
  6
CONTINUOUS
 10
8.950557843
 20
8.7634235444
 11
8.6323597915
 21
8.5989552047
  0
LINE
  5
252
100
AcDbEntity
  8
DRAFT
100
AcDbLine
 62
7
  6
CONTINUOUS
 10
8.0746822556
 20
8.6975860123
 11
7.166046301
 21
8.2929187435
  0
LWPOLYLINE
  5
253
100
AcDbEntity
  8
DRAFT
100
AcDbPolyline
 62
7
  6
CONTINUOUS
 90
3
 70
0
 10
0.8464847928
 20
-3.9236570417
 10
0.8652585191
 20
-3.9189507697
 10
0.8831935284
 20
-3.9123108662
  0
LWPOLYLINE
  5
254
100
AcDbEntity
  8
DRAFT
100
AcDbPolyline
 62
7
  6
CONTINUOUS
 90
4
 70
0
 10
0.7853600782
 20
-3.9260893742
 10
0.8063997011
 20
-3.9272191522
 10
0.8268616055
 20
-3.9264049127
 10
0.8464847928
 20
-3.9236570417
  0
LWPOLYLINE
  5
255
100
AcDbEntity
  8
DRAFT
100
AcDbPolyline
 62
7
  6
CONTINUOUS
 90
3
 70
0
 10
0.7415328764
 20
-3.9179479609
 10
0.7637353365
 20
-3.9229906762
 10
0.7853600782
 20
-3.9260893742
  0
LINE
  5
256
100
AcDbEntity
  8
DRAFT
100
AcDbLine
 62
7
  6
CONTINUOUS
 10
0.719035898
 20
-3.9110255496
 11
0.7415328764
 21
-3.9179479609
  0
LWPOLYLINE
  5
257
100
AcDbEntity
  8
DRAFT
100
AcDbPolyline
 62
7
  6
CONTINUOUS
 90
4
 70
0
 10
-4.8924684867
 20
-0.6726247258
 10
-4.8839021926
 20
-0.6809204084
 10
-4.8748699771
 20
-0.6882130446
 10
-4.8653718401
 20
-0.6945026344
  0
LWPOLYLINE
  5
258
100
AcDbEntity
  8
DRAFT
100
AcDbPolyline
 62
7
  6
CONTINUOUS
 90
4
 70
0
 10
-4.9153718401
 20
-0.6417194003
 10
-4.9084549537
 20
-0.652680102
 10
-4.9006946809
 20
-0.6631539371
 10
-4.8924687192
 20
-0.6726244581
  0
LWPOLYLINE
  5
259
100
AcDbEntity
  8
DRAFT
100
AcDbPolyline
 62
7
  6
CONTINUOUS
 90
4
 70
0
 10
-4.9860825182
 20
0.5964151428
 10
-4.9791656318
 20
0.5854544411
 10
-4.971405359
 20
0.5749806061
 10
-4.9631793973
 20
0.565510085
  0
LWPOLYLINE
  5
25A
100
AcDbEntity
  8
DRAFT
100
AcDbPolyline
 62
7
  6
CONTINUOUS
 90
4
 70
0
 10
-4.9306846003
 20
-0.6064326105
 10
-4.9265960026
 20
-0.618291532
 10
-4.9214056145
 20
-0.6302488995
 10
-4.9153718401
 20
-0.6417194003
  0
LWPOLYLINE
  5
25B
100
AcDbEntity
  8
DRAFT
100
AcDbPolyline
 62
7
  6
CONTINUOUS
 90
4
 70
0
 10
-5.0013952784
 20
0.6317019326
 10
-4.9973066807
 20
0.6198430112
 10
-4.9921162927
 20
0.6078856437
 10
-4.9860825182
 20
0.5964151428
  0
LWPOLYLINE
  5
25C
100
AcDbEntity
  8
0
100
AcDbPolyline
 62
7
  6
CONTINUOUS
 90
7
 70
0
 10
-3.8808203492
 20
-0.8234471252
 10
-3.8849090358
 20
-0.8115879993
 10
-3.8900993527
 20
-0.7996309123
 10
-3.8961330245
 20
-0.7881606738
 10
-3.903049735
 20
-0.7772001922
 10
-3.9108098005
 20
-0.766726559
 10
-3.9190358948
 20
-0.7572558587
  0
LWPOLYLINE
  5
25D
100
AcDbEntity
  8
DRAFT
100
AcDbPolyline
 62
7
  6
CONTINUOUS
 90
22
 70
0
 10
-1.7208176097
 20
-2.1287813425
 10
-1.7185531333
 20
-2.1566363976
 10
-1.7148080135
 20
-2.1850062883
 10
-1.7095536143
 20
-2.2140165487
 10
-1.7028185716
 20
-2.2435416447
 10
-1.6946887934
 20
-2.2732049732
 10
-1.6851464132
 20
-2.3030083051
 10
-1.6742092974
 20
-2.3329498695
 10
-1.6620169527
 20
-2.3626477515
 10
-1.6485532999
 20
-2.3920988294
 10
-1.6338344182
 20
-2.4213062249
 10
-1.6180480521
 20
-2.4498973874
 10
-1.6011805273
 20
-2.477864423
 10
-1.5832455181
 20
-2.5052152256
 10
-1.5644717917
 20
-2.5316009262
 10
-1.5448486044
 20
-2.557009162
 10
-1.5243867
 20
-2.5814522958
 10
-1.5033470772
 20
-2.6046185469
 10
-1.4817223355
 20
-2.6264915586
 10
-1.4595198754
 20
-2.6470876877
 10
-1.437022897
 20
-2.6661442232
 10
-1.4143258003
 20
-2.6835735949
  0
LWPOLYLINE
  5
25E
100
AcDbEntity
  8
0
100
AcDbPolyline
 62
7
  6
CONTINUOUS
 90
16
 70
0
 10
-1.7216014427
 20
-2.1014411228
 10
-1.719478552
 20
-2.1461376609
 10
-1.7137016026
 20
-2.1915553617
 10
-1.7042705945
 20
-2.2376942253
 10
-1.6910022926
 20
-2.2850676925
 10
-1.6740799319
 20
-2.3331623224
 10
-1.6540532181
 20
-2.380437792
 10
-1.6308245229
 20
-2.42686713
 10
-1.6044914745
 20
-2.4724773078
 10
-1.575896663
 20
-2.5158089163
 10
-1.544967911
 20
-2.5567909024
 10
-1.5117773959
 20
-2.5954943192
 10
-1.4773842402
 20
-2.6306729181
 10
-1.4421414847
 20
-2.6619112827
 10
-1.4056960887
 20
-2.6896248292
 10
-1.3680480521
 20
-2.7138135578
  0
LINE
  5
25F
100
AcDbEntity
  8
DRAFT
100
AcDbLine
 62
7
  6
CONTINUOUS
 10
-1.7216014427
 20
-2.1014411228
 11
-1.7208176097
 21
-2.1287813425
  0
LINE
  5
260
100
AcDbEntity
  8
0
100
AcDbLine
 62
7
  6
CONTINUOUS
 10
-1.7216014427
 20
-1.3123691774
 11
-1.7216014427
 21
-2.1014411228
  0
LINE
  5
261
100
AcDbEntity
  8
DRAFT
100
AcDbLine
 62
7
  6
CONTINUOUS
 10
-1.7216014427
 20
-1.3123691774
 11
-1.7216014427
 21
-2.1014411228
  0
LWPOLYLINE
  5
262
100
AcDbEntity
  8
DRAFT
100
AcDbPolyline
 62
7
  6
CONTINUOUS
 90
3
 70
0
 10
-1.7199594749
 20
0.2748322388
 10
-1.7214252241
 20
0.2489723546
 10
-1.7213615733
 20
0.2219375579
  0
LWPOLYLINE
  5
263
100
AcDbEntity
  8
DRAFT
100
AcDbPolyline
 62
7
  6
CONTINUOUS
 90
3
 70
0
 10
-1.712412691
 20
0.3231271965
 10
-1.7169643255
 20
0.2995172106
 10
-1.7199594749
 20
0.2748322388
  0
LINE
  5
264
100
AcDbEntity
  8
DRAFT
100
AcDbLine
 62
7
  6
CONTINUOUS
 10
-1.7063316564
 20
0.3455622699
 11
-1.712412691
 21
0.3231271965
  0
LWPOLYLINE
  5
265
100
AcDbEntity
  8
0
100
AcDbPolyline
 62
7
  6
CONTINUOUS
 90
4
 70
0
 10
-3.8808202643
 20
-1.2126111202
 10
-3.8779193846
 20
-1.2043950935
 10
-3.8761200504
 20
-1.1950046524
 10
-3.8754223464
 20
-1.1844400374
  0
LWPOLYLINE
  5
266
100
AcDbEntity
  8
DRAFT
100
AcDbPolyline
 62
7
  6
CONTINUOUS
 90
3
 70
0
 10
-1.689805716
 20
0.3859885483
 10
-1.698802477
 20
0.3665226516
 10
-1.7063316564
 20
0.3455622699
  0
LINE
  5
267
100
AcDbEntity
  8
RACCORDO
100
AcDbLine
 62
7
  6
CONTINUOUS
 10
7.2795249851
 20
9.4072720475
 11
8.2583934296
 21
10.2075092452
  0
LWPOLYLINE
  5
268
100
AcDbEntity
  8
DRAFT
100
AcDbPolyline
 62
7
  6
CONTINUOUS
 90
4
 70
0
 10
-4.9160019638
 20
-0.2000379981
 10
-4.9214056145
 20
-0.2041678051
 10
-4.9265960026
 20
-0.2101314426
 10
-4.9306846003
 20
-0.2172689539
  0
LWPOLYLINE
  5
269
100
AcDbEntity
  8
0
100
AcDbPolyline
 62
7
  6
CONTINUOUS
 90
7
 70
0
 10
-4.9160019631
 20
-0.2000379977
 10
-4.9214055119
 20
-0.2041676613
 10
-4.9265958288
 20
-0.2101311004
 10
-4.9306845154
 20
-0.2172687136
 10
-4.9335854799
 20
-0.2254849807
 10
-4.9353848142
 20
-0.2348754217
 10
-4.9360825182
 20
-0.2454400367
  0
LINE
  5
26A
100
AcDbEntity
  8
DRAFT
100
AcDbLine
 62
7
  6
CONTINUOUS
 10
6.7202441037
 20
8.0226023865
 11
7.1657213758
 21
8.2936483274
  0
LWPOLYLINE
  5
26B
100
AcDbEntity
  8
DRAFT
100
AcDbPolyline
 62
7
  6
CONTINUOUS
 90
3
 70
0
 10
0.6733471864
 20
-3.8915845207
 10
0.6963388014
 20
-3.9022448831
 10
0.719035898
 20
-3.9110255496
  0
LWPOLYLINE
  5
26C
100
AcDbEntity
  8
DRAFT
100
AcDbPolyline
 62
7
  6
CONTINUOUS
 90
4
 70
0
 10
-3.9461330245
 20
-1.2252596058
 10
-3.9366348875
 20
-1.2299382264
 10
-3.927602672
 20
-1.2330757663
 10
-3.9190363779
 20
-1.2346722254
  0
LWPOLYLINE
  5
26D
100
AcDbEntity
  8
0
100
AcDbPolyline
 62
7
  6
CONTINUOUS
 90
7
 70
0
 10
-3.9461330245
 20
-1.2252596058
 10
-3.9366346191
 20
-1.2299382528
 10
-3.9276022425
 20
-1.2330758085
 10
-3.9190358948
 20
-1.234672273
 10
-3.9108098005
 20
-1.2347008602
 10
-3.903049735
 20
-1.2331883561
 10
-3.8967661941
 20
-1.2305714888
  0
LWPOLYLINE
  5
26E
100
AcDbEntity
  8
DRAFT
100
AcDbPolyline
 62
7
  6
CONTINUOUS
 90
7
 70
0
 10
-4.8653718401
 20
-0.2046204684
 10
-4.8748699771
 20
-0.1999418477
 10
-4.8839021926
 20
-0.1968043078
 10
-4.8924684867
 20
-0.1952078487
 10
-4.9006946809
 20
-0.1951792345
 10
-4.9084549537
 20
-0.1966917011
 10
-4.9160019638
 20
-0.2000379981
  0
LWPOLYLINE
  5
26F
100
AcDbEntity
  8
0
100
AcDbPolyline
 62
7
  6
CONTINUOUS
 90
4
 70
0
 10
-4.8653718401
 20
-0.2046204684
 10
-4.8748702455
 20
-0.1999418213
 10
-4.8839026221
 20
-0.1968042656
 10
-4.8924687192
 20
-0.1952078479
  0
LWPOLYLINE
  5
270
100
AcDbEntity
  8
0
100
AcDbPolyline
 62
7
  6
CONTINUOUS
 90
9
 70
0
 10
0.6500610532
 20
-3.8790444624
 10
0.6877090898
 20
-3.8983307428
 10
0.7241544858
 20
-3.912703426
 10
0.7593972412
 20
-3.922162512
 10
0.7937903969
 20
-3.9267002672
 10
0.826980912
 20
-3.9263244252
 10
0.857909664
 20
-3.9210581868
 10
0.8865044755
 20
-3.9107471498
 10
0.8969941633
 20
-3.9055495481
  0
LINE
  5
271
100
AcDbEntity
  8
DRAFT
100
AcDbLine
 62
7
  6
CONTINUOUS
 10
0.6500610532
 20
-3.8790444624
 11
0.6733471864
 21
-3.8915845207
  0
LINE
  5
272
100
AcDbEntity
  8
0
100
AcDbLine
 62
7
  6
CONTINUOUS
 10
-4.8653718401
 20
-0.6945026344
 11
-3.9461330245
 21
-1.2252596058
  0
LINE
  5
273
100
AcDbEntity
  8
DRAFT
100
AcDbLine
 62
7
  6
CONTINUOUS
 10
-4.8653718401
 20
-0.6945026344
 11
-3.9461330245
 21
-1.2252596058
  0
LINE
  5
274
100
AcDbEntity
  8
0
100
AcDbLine
 62
7
  6
CONTINUOUS
 10
-1.3680480521
 20
-2.7138135578
 11
0.6500610532
 21
-3.8790444624
  0
LINE
  5
275
100
AcDbEntity
  8
DRAFT
100
AcDbLine
 62
7
  6
CONTINUOUS
 10
-1.3680480521
 20
-2.7138135578
 11
0.6500610532
 21
-3.8790444624
  0
LINE
  5
276
100
AcDbEntity
  8
0
100
AcDbLine
 62
7
  6
CONTINUOUS
 10
0.5793503751
 20
-3.348334837
 11
-1.297337374
 21
-2.2647588511
  0
LINE
  5
277
100
AcDbEntity
  8
DRAFT
100
AcDbLine
 62
7
  6
CONTINUOUS
 10
0.5793503751
 20
-3.348334837
 11
-1.297337374
 21
-2.2647588511
  0
LINE
  5
278
100
AcDbEntity
  8
0
100
AcDbLine
 62
7
  6
CONTINUOUS
 10
-3.9461330245
 20
-0.7353774397
 11
-4.8653718401
 21
-0.2046204684
  0
LINE
  5
279
100
AcDbEntity
  8
DRAFT
100
AcDbLine
 62
7
  6
CONTINUOUS
 10
-3.9461330245
 20
-0.7353774397
 11
-4.8653718401
 21
-0.2046204684
  0
LINE
  5
27A
100
AcDbEntity
  8
0
100
AcDbLine
 62
7
  6
CONTINUOUS
 10
-4.9360825182
 20
0.5436319087
 11
-1.7216014427
 21
-1.3123691774
  0
LINE
  5
27B
100
AcDbEntity
  8
DRAFT
100
AcDbLine
 62
7
  6
CONTINUOUS
 10
-4.9360825182
 20
0.5436319087
 11
-1.7216014427
 21
-1.3123691774
  0
LWPOLYLINE
  5
27C
100
AcDbEntity
  8
DRAFT
100
AcDbPolyline
 62
7
  6
CONTINUOUS
 90
3
 70
0
 10
-1.4143258003
 20
-2.6835735949
 10
-1.3913341854
 20
-2.6994633731
 10
-1.3680480521
 20
-2.7138135578
  0
LWPOLYLINE
  5
27D
100
AcDbEntity
  8
0
100
AcDbPolyline
 62
7
  6
CONTINUOUS
 90
4
 70
0
 10
-3.9190361454
 20
-0.757255616
 10
-3.9276022425
 20
-0.7489601195
 10
-3.9366346191
 20
-0.7416673132
 10
-3.9461330245
 20
-0.7353774397
  0
LWPOLYLINE
  5
27E
100
AcDbEntity
  8
DRAFT
100
AcDbPolyline
 62
7
  6
CONTINUOUS
 90
4
 70
0
 10
-4.9631791648
 20
0.5655098173
 10
-4.9546128707
 20
0.5572141348
 10
-4.9455806552
 20
0.5499214986
 10
-4.9360825182
 20
0.5436319087
  0
LWPOLYLINE
  5
27F
100
AcDbEntity
  8
DRAFT
100
AcDbPolyline
 62
7
  6
CONTINUOUS
 90
10
 70
0
 10
-1.7200066755
 20
0.2108825602
 10
-1.7176889077
 20
0.1998245283
 10
-1.7144082699
 20
0.1887634623
 10
-1.7100859948
 20
0.1775344961
 10
-1.7048008496
 20
0.1663024957
 10
-1.6987891364
 20
0.1555620596
 10
-1.6920200955
 20
0.1453339985
 10
-1.6845244866
 20
0.1355975017
 10
-1.6766308909
 20
0.1267847356
 10
-1.6684488356
 20
0.1190397556
  0
LWPOLYLINE
  5
280
100
AcDbEntity
  8
0
100
AcDbPolyline
 62
7
  6
CONTINUOUS
 90
10
 70
0
 10
-1.7213615733
 20
0.2219375579
 10
-1.7191922114
 20
0.2068473534
 10
-1.7154365676
 20
0.1920374166
 10
-1.7100946416
 20
0.1775077475
 10
-1.7029383001
 20
0.1628840634
 10
-1.6941956766
 20
0.1485406471
 10
-1.6845511712
 20
0.1356003465
 10
-1.6742329175
 20
0.1244374445
 10
-1.663012782
 20
0.1146776582
 10
-1.6508907646
 20
0.1063209877
  0
LINE
  5
281
100
AcDbEntity
  8
DRAFT
100
AcDbLine
 62
7
  6
CONTINUOUS
 10
-1.7213615733
 20
0.2219375579
 11
-1.7200066755
 21
0.2108825602
  0
LWPOLYLINE
  5
282
100
AcDbEntity
  8
0
100
AcDbPolyline
 62
7
  6
CONTINUOUS
 90
16
 70
0
 10
-1.297337374
 20
-1.3123928503
 10
-1.2986111085
 20
-1.2855749274
 10
-1.3020772781
 20
-1.2583243069
 10
-1.307735883
 20
-1.2306409888
 10
-1.3156968641
 20
-1.2022169085
 10
-1.3258502805
 20
-1.1733601305
 10
-1.3378663088
 20
-1.1449948488
 10
-1.3518035259
 20
-1.117137246
 10
-1.367603355
 20
-1.0897711393
 10
-1.3847602419
 20
-1.0637721742
 10
-1.4033174931
 20
-1.0391829826
 10
-1.4232318021
 20
-1.0159609324
 10
-1.4438676955
 20
-0.9948537731
 10
-1.4650133488
 20
-0.9761107544
 10
-1.4868805864
 20
-0.9594826264
 10
-1.5094694084
 20
-0.9449693893
  0
LWPOLYLINE
  5
283
100
AcDbEntity
  8
DRAFT
100
AcDbPolyline
 62
7
  6
CONTINUOUS
 90
25
 70
0
 10
-1.297337374
 20
-1.3123928503
 10
-1.2978076738
 20
-1.2959887185
 10
-1.2991663597
 20
-1.2792756854
 10
-1.3014134316
 20
-1.262253751
 10
-1.3045660711
 20
-1.2448475947
 10
-1.3086070967
 20
-1.2271325372
 10
-1.3134849636
 20
-1.2093345401
 10
-1.3192103917
 20
-1.1914525409
 10
-1.3257726612
 20
-1.1734876023
 10
-1.333088068
 20
-1.1556688731
 10
-1.3411662597
 20
-1.1379982263
 10
-1.3499975887
 20
-1.120473789
 10
-1.3594694084
 20
-1.1033190916
 10
-1.3695899233
 20
-1.0865388702
 10
-1.3803509288
 20
-1.0701283886
 10
-1.3916151646
 20
-1.0542969682
 10
-1.403389077
 20
-1.0390520268
 10
-1.4156662197
 20
-1.0243861465
 10
-1.4282899934
 20
-1.0104863958
 10
-1.4412648384
 20
-0.9973625888
 10
-1.4545863144
 20
-0.9850049114
 10
-1.4680845015
 20
-0.9735709901
 10
-1.4817027595
 20
-0.963113367
 10
-1.4954977284
 20
-0.9535795001
 10
-1.5094694084
 20
-0.9449693893
  0
LINE
  5
284
100
AcDbEntity
  8
0
100
AcDbLine
 62
7
  6
CONTINUOUS
 10
-1.297337374
 20
-2.2647588511
 11
-1.297337374
 21
-1.3123928503
  0
LINE
  5
285
100
AcDbEntity
  8
DRAFT
100
AcDbLine
 62
7
  6
CONTINUOUS
 10
-1.297337374
 20
-2.2647588511
 11
-1.297337374
 21
-1.3123928503
  0
LWPOLYLINE
  5
286
100
AcDbEntity
  8
DRAFT
100
AcDbPolyline
 62
7
  6
CONTINUOUS
 90
4
 70
0
 10
-1.6545276977
 20
0.4347938684
 10
-1.6676073253
 20
0.4202558666
 10
-1.6793608102
 20
0.4039797534
 10
-1.689805716
 20
0.3859885483
  0
LWPOLYLINE
  5
287
100
AcDbEntity
  8
DRAFT
100
AcDbPolyline
 62
7
  6
CONTINUOUS
 90
6
 70
0
 10
-3.8967661948
 20
-1.2305714892
 10
-3.8900992501
 20
-1.225712269
 10
-3.884908862
 20
-1.2197486316
 10
-3.8808201487
 20
-1.2126109184
 10
-3.8779192065
 20
-1.2043947004
 10
-3.876119939
 20
-1.1950044068
  0
LWPOLYLINE
  5
288
100
AcDbEntity
  8
0
100
AcDbPolyline
 62
7
  6
CONTINUOUS
 90
4
 70
0
 10
-3.8967661941
 20
-1.2305714888
 10
-3.8900993527
 20
-1.2257124129
 10
-3.8849090358
 20
-1.2197489737
 10
-3.8808203492
 20
-1.2126113606
  0
LWPOLYLINE
  5
289
100
AcDbEntity
  8
DRAFT
100
AcDbPolyline
 62
7
  6
CONTINUOUS
 90
3
 70
0
 10
-1.6231266952
 20
0.4594787097
 10
-1.6401394911
 20
0.4476167785
 10
-1.6545276977
 20
0.4347938684
  0
LWPOLYLINE
  5
28A
100
AcDbEntity
  8
0
100
AcDbPolyline
 62
7
  6
CONTINUOUS
 90
9
 70
0
 10
-1.6231488774
 20
0.4594652613
 10
-1.6371890051
 20
0.4498082097
 10
-1.6598800684
 20
0.4292373173
 10
-1.6792268213
 20
0.404050395
 10
-1.6953359365
 20
0.3743959467
 10
-1.7076588278
 20
0.3412589419
 10
-1.7160126334
 20
0.3049677037
 10
-1.7205802152
 20
0.2651939091
 10
-1.7213615733
 20
0.2219375579
  0
LINE
  5
28B
100
AcDbEntity
  8
DRAFT
100
AcDbLine
 62
7
  6
CONTINUOUS
 10
8.950557843
 20
6.3979279759
 11
8.6323597915
 21
6.1949491816
  0
LINE
  5
28C
100
AcDbEntity
  8
DRAFT
100
AcDbLine
 62
7
  6
CONTINUOUS
 10
6.7202441037
 20
3.9402510026
 11
7.1657213758
 21
4.2112969434
  0
LINE
  5
28D
100
AcDbEntity
  8
RACCORDO
100
AcDbLine
 62
250
  6
CONTINUOUS
 10
6.9433114057
 20
4.503007728
 11
6.7202441037
 21
4.3742114635
  0
LINE
  5
28E
100
AcDbEntity
  8
RACCORDO
100
AcDbLine
 62
250
  6
CONTINUOUS
 10
7.084732762
 20
4.258058754
 11
6.7202441037
 21
4.0476075708
  0
LINE
  5
28F
100
AcDbEntity
  8
DRAFT
100
AcDbLine
 62
7
  6
CONTINUOUS
 10
8.0746822556
 20
6.268875521
 11
6.9433114057
 21
5.6370347005
  0
LWPOLYLINE
  5
290
100
AcDbEntity
  8
DRAFT
100
AcDbPolyline
 62
7
  6
CONTINUOUS
 90
4
 70
0
 10
-3.9190361454
 20
-1.2346722263
 10
-3.9108101837
 20
-1.2347008396
 10
-3.9030499109
 20
-1.2331883731
 10
-3.8967661948
 20
-1.2305714892
  0
LWPOLYLINE
  5
291
100
AcDbEntity
  8
0
100
AcDbPolyline
 62
7
  6
CONTINUOUS
 90
4
 70
0
 10
-4.8924689698
 20
-0.1952078012
 10
-4.9006950641
 20
-0.1951792139
 10
-4.9084551296
 20
-0.196691718
 10
-4.9160019631
 20
-0.2000379977
  0
LWPOLYLINE
  5
292
100
AcDbEntity
  8
DRAFT
100
AcDbPolyline
 62
7
  6
CONTINUOUS
 90
7
 70
0
 10
-4.9360825182
 20
1.0335140748
 10
-4.9455806552
 20
1.0381926954
 10
-4.9546128707
 20
1.0413302353
 10
-4.9631791648
 20
1.0429266945
 10
-4.971405359
 20
1.0429553086
 10
-4.9791656318
 20
1.0414428421
 10
-4.9867126419
 20
1.0380965451
  0
LWPOLYLINE
  5
293
100
AcDbEntity
  8
0
100
AcDbPolyline
 62
7
  6
CONTINUOUS
 90
4
 70
0
 10
-4.9360825182
 20
1.0335140748
 10
-4.9455809236
 20
1.0381927218
 10
-4.9546133002
 20
1.0413302776
 10
-4.9631793973
 20
1.0429266953
  0
LWPOLYLINE
  5
294
100
AcDbEntity
  8
0
100
AcDbPolyline
 62
7
  6
CONTINUOUS
 90
9
 70
0
 10
-1.3751191199
 20
0.4369760623
 10
-1.4129168676
 20
0.4562723442
 10
-1.449451746
 20
0.4705189065
 10
-1.4847237553
 20
0.4797157491
 10
-1.5191016173
 20
0.4838486267
 10
-1.5522166101
 20
0.4829317847
 10
-1.5829625681
 20
0.4770079591
 10
-1.611260304
 20
0.4659115762
 10
-1.6231488774
 20
0.4594652613
  0
LWPOLYLINE
  5
295
100
AcDbEntity
  8
DRAFT
100
AcDbPolyline
 62
7
  6
CONTINUOUS
 90
13
 70
0
 10
-1.3751191199
 20
0.4369760623
 10
-1.3984870473
 20
0.4495374265
 10
-1.4215454874
 20
0.4601662351
 10
-1.4442944403
 20
0.4688624881
 10
-1.4668329144
 20
0.4756477999
 10
-1.4890619012
 20
0.480500556
 10
-1.5106843751
 20
0.4833559136
 10
-1.5316921957
 20
0.4841870639
 10
-1.5520935034
 20
0.4830208157
 10
-1.5716156943
 20
0.4798727524
 10
-1.5902469689
 20
0.4747162744
 10
-1.6079991267
 20
0.4675779815
 10
-1.6231266952
 20
0.4594787097
  0
LINE
  5
296
100
AcDbEntity
  8
0
100
AcDbLine
 62
7
  6
CONTINUOUS
 10
-1.5094694084
 20
-0.9449693893
 11
-4.9360825182
 21
1.0335140748
  0
LINE
  5
297
100
AcDbEntity
  8
DRAFT
100
AcDbLine
 62
7
  6
CONTINUOUS
 10
-1.5094694084
 20
-0.9449693893
 11
-4.9360825182
 21
1.0335140748
  0
LINE
  5
298
100
AcDbEntity
  8
0
100
AcDbLine
 62
7
  6
CONTINUOUS
 10
-1.6508907646
 20
0.1063209877
 11
0.5793503751
 21
-1.1813922949
  0
LINE
  5
299
100
AcDbEntity
  8
DRAFT
100
AcDbLine
 62
7
  6
CONTINUOUS
 10
-1.6508907646
 20
0.1063209877
 11
0.5793503751
 21
-1.1813922949
  0
LINE
  5
29A
100
AcDbEntity
  8
0
100
AcDbLine
 62
7
  6
CONTINUOUS
 10
0.6500610532
 20
-0.7323375882
 11
-1.3751191199
 21
0.4369760623
  0
LINE
  5
29B
100
AcDbEntity
  8
DRAFT
100
AcDbLine
 62
7
  6
CONTINUOUS
 10
0.6500610532
 20
-0.7323375882
 11
-1.3751191199
 21
0.4369760623
  0
LWPOLYLINE
  5
29C
100
AcDbEntity
  8
DRAFT
100
AcDbPolyline
 62
7
  6
CONTINUOUS
 90
3
 70
0
 10
-1.6684488356
 20
0.1190397556
 10
-1.6598687935
 20
0.1122185063
 10
-1.6508907646
 20
0.1063209877
  0
LWPOLYLINE
  5
29D
100
AcDbEntity
  8
0
100
AcDbPolyline
 62
7
  6
CONTINUOUS
 90
16
 70
0
 10
1.0036144438
 20
-1.3447100232
 10
1.001491553
 20
-1.3000134851
 10
0.9957146036
 20
-1.2545957843
 10
0.9862835955
 20
-1.2084569207
 10
0.9730152936
 20
-1.1610834535
 10
0.956092933
 20
-1.1129888236
 10
0.9360662192
 20
-1.065713354
 10
0.912837524
 20
-1.019284016
 10
0.8865044755
 20
-0.9736738382
 10
0.857909664
 20
-0.9303422297
 10
0.826980912
 20
-0.8893602436
 10
0.7937903969
 20
-0.8506568268
 10
0.7593972412
 20
-0.8154782279
 10
0.7241544858
 20
-0.7842398633
 10
0.6877090898
 20
-0.7565263168
 10
0.6500610532
 20
-0.7323375882
  0
LWPOLYLINE
  5
29E
100
AcDbEntity
  8
DRAFT
100
AcDbPolyline
 62
7
  6
CONTINUOUS
 90
25
 70
0
 10
1.0036144438
 20
-1.3447100232
 10
1.0028306108
 20
-1.3173698035
 10
1.0005661344
 20
-1.2895147484
 10
0.9968210145
 20
-1.2611448577
 10
0.9915666153
 20
-1.2321345973
 10
0.9848315727
 20
-1.2026095013
 10
0.9767017944
 20
-1.1729461728
 10
0.9671594142
 20
-1.1431428409
 10
0.9562222985
 20
-1.1132012765
 10
0.9440299538
 20
-1.0835033945
 10
0.930566301
 20
-1.0540523166
 10
0.9158474193
 20
-1.0248449211
 10
0.9000610532
 20
-0.9962537586
 10
0.8831935284
 20
-0.968286723
 10
0.8652585191
 20
-0.9409359204
 10
0.8464847928
 20
-0.9145502198
 10
0.8268616055
 20
-0.889141984
 10
0.8063997011
 20
-0.8646988502
 10
0.7853600782
 20
-0.8415325991
 10
0.7637353365
 20
-0.8196595874
 10
0.7415328764
 20
-0.7990634583
 10
0.719035898
 20
-0.7800069228
 10
0.6963388014
 20
-0.7625775511
 10
0.6733471864
 20
-0.7466877729
 10
0.6500610532
 20
-0.7323375882
  0
LINE
  5
29F
100
AcDbEntity
  8
0
100
AcDbLine
 62
7
  6
CONTINUOUS
 10
0.5793503751
 20
-1.1813922949
 11
0.5793503751
 21
-3.348334837
  0
LINE
  5
2A0
100
AcDbEntity
  8
DRAFT
100
AcDbLine
 62
7
  6
CONTINUOUS
 10
0.5793503751
 20
-1.1813922949
 11
0.5793503751
 21
-3.348334837
  0
LINE
  5
2A1
100
AcDbEntity
  8
0
100
AcDbLine
 62
7
  6
CONTINUOUS
 10
1.0036144438
 20
-3.6749466207
 11
1.0036144438
 21
-1.3447100232
  0
LINE
  5
2A2
100
AcDbEntity
  8
DRAFT
100
AcDbLine
 62
7
  6
CONTINUOUS
 10
1.0036144438
 20
-3.6749466207
 11
1.0036144438
 21
-1.3447100232
  0
LWPOLYLINE
  5
2A3
100
AcDbEntity
  8
0
100
AcDbPolyline
 62
7
  6
CONTINUOUS
 90
4
 70
0
 10
-4.9631796479
 20
1.042926742
 10
-4.9714057422
 20
1.0429553292
 10
-4.9791658077
 20
1.0414428251
 10
-4.9867126412
 20
1.0380965455
  0
LWPOLYLINE
  5
2A4
100
AcDbEntity
  8
0
100
AcDbPolyline
 62
7
  6
CONTINUOUS
 90
9
 70
0
 10
0.8969941633
 20
-3.9055495481
 10
0.912837524
 20
-3.8955457163
 10
0.9360662192
 20
-3.8759402933
 10
0.956092933
 20
-3.8517911708
 10
0.9730152936
 20
-3.8232380587
 10
0.9862835955
 20
-3.791186494
 10
0.9957146036
 20
-3.7559383222
 10
1.001491553
 20
-3.7171916978
 10
1.0036144438
 20
-3.6749466207
  0
LWPOLYLINE
  5
2A5
100
AcDbEntity
  8
DRAFT
100
AcDbPolyline
 62
7
  6
CONTINUOUS
 90
14
 70
0
 10
0.8969522891
 20
-3.9055725483
 10
0.9000610532
 20
-3.9038220254
 10
0.9158474193
 20
-3.8934605629
 10
0.930566301
 20
-3.8812501631
 10
0.9440299538
 20
-3.8673465739
 10
0.9562222985
 20
-3.8517281059
 10
0.9671594142
 20
-3.8344164486
 10
0.9767017944
 20
-3.8156324182
 10
0.9848315727
 20
-3.7953571538
 10
0.9915666153
 20
-3.7736095163
 10
0.9968210145
 20
-3.7506669044
 10
1.0005661344
 20
-3.7266217842
 10
1.0028306108
 20
-3.7013816897
 10
1.0036144438
 20
-3.6749466207
  0
LINE
  5
2A6
100
AcDbEntity
  8
DRAFT
100
AcDbLine
 62
7
  6
CONTINUOUS
 10
0.8831935284
 20
-3.9123108662
 11
0.8969522891
 21
-3.9055725483
  0
LWPOLYLINE
  5
2A7
100
AcDbEntity
  8
RACCORDO
100
AcDbPolyline
 62
7
  6
CONTINUOUS
 90
13
 70
0
 10
6.9433114057
 20
-17.133454607
 10
6.9446896216
 20
-17.1561374064
 10
6.9482779748
 20
-17.1790392532
 10
6.9540764655
 20
-17.2021601472
 10
6.9622579507
 20
-17.2258986043
 10
6.9726495734
 20
-17.2498561086
 10
6.984732762
 20
-17.2728371128
 10
6.9985933584
 20
-17.2947920623
 10
7.0141455207
 20
-17.3157705117
 10
7.030613152
 20
-17.3347255766
 10
7.0477375531
 20
-17.3513082958
 10
7.0657774231
 20
-17.3658676306
 10
7.084732762
 20
-17.378403581
  0
LWPOLYLINE
  5
2A8
100
AcDbEntity
  8
COPY_PUBLISH
100
AcDbPolyline
 62
250
  6
CONTINUOUS
 90
9
 70
0
 10
5.4325177079
 20
-26.2740129708
 10
5.4343905448
 20
-26.3148951431
 10
5.4399892141
 20
-26.3531814897
 10
5.4492544013
 20
-26.3884663911
 10
5.4620879479
 20
-26.4203760262
 10
5.4783538906
 20
-26.4485723324
 10
5.4978799019
 20
-26.4727565877
 10
5.5204591161
 20
-26.4926725752
 10
5.5360590184
 20
-26.5028814014
  0
LINE
  5
2A9
100
AcDbEntity
  8
COPY_PUBLISH
100
AcDbLine
 62
250
  6
CONTINUOUS
 10
5.4325177079
 20
15.8777593114
 11
5.4325177079
 21
-26.2740129708
  0
LWPOLYLINE
  5
2AA
100
AcDbEntity
  8
COPY_PUBLISH
100
AcDbPolyline
 62
250
  6
CONTINUOUS
 90
16
 70
0
 10
6.1302483864
 20
15.8724855727
 10
6.1273584387
 20
15.9158624947
 10
6.1207097378
 20
15.9610678903
 10
6.110375545
 20
16.0076038759
 10
6.0964678936
 20
16.0549634487
 10
6.0791410103
 20
16.102619559
 10
6.0585934948
 20
16.1500308146
 10
6.0350603679
 20
16.1966655647
 10
6.0087991882
 20
16.2420226919
 10
5.9800917156
 20
16.2856190029
 10
5.9492088091
 20
16.3270321491
 10
5.9165296775
 20
16.3657433662
 10
5.8825498609
 20
16.4011942835
 10
5.84770168
 20
16.4329970801
 10
5.8123287117
 20
16.4608992561
 10
5.7768161449
 20
16.4846481602
  0
LWPOLYLINE
  5
2AB
100
AcDbEntity
  8
RACCORDO
100
AcDbPolyline
 62
7
  6
CONTINUOUS
 90
13
 70
0
 10
6.9433114057
 20
4.503007728
 10
6.9446896216
 20
4.4803249286
 10
6.9482779748
 20
4.4574230819
 10
6.9540764655
 20
4.4343021879
 10
6.9622579507
 20
4.4105637308
 10
6.9726495734
 20
4.3866062264
 10
6.984732762
 20
4.3636252222
 10
6.9985933584
 20
4.3416702727
 10
7.0141455207
 20
4.3206918233
 10
7.030613152
 20
4.3017367584
 10
7.0477375531
 20
4.2851540392
 10
7.0657774231
 20
4.2705947044
 10
7.084732762
 20
4.258058754
  0
LINE
  5
2AC
100
AcDbEntity
  8
COPY_PUBLISH
100
AcDbLine
 62
250
  6
CONTINUOUS
 10
6.1302483864
 20
15.8724855727
 11
6.1302483864
 21
-26.2792867095
  0
LINE
  5
2AD
100
AcDbEntity
  8
0
100
AcDbLine
 62
7
  6
CONTINUOUS
 10
6.7202441037
 20
-25.9733999633
 11
6.7202441037
 21
16.2131400254
  0
LINE
  5
2AE
100
AcDbEntity
  8
RACCORDO
100
AcDbLine
 62
7
  6
CONTINUOUS
 10
6.9433114057
 20
-17.133454607
 11
6.9433114057
 21
-13.4781370047
  0
LINE
  5
2AF
100
AcDbEntity
  8
RACCORDO
100
AcDbLine
 62
7
  6
CONTINUOUS
 10
6.9433114057
 20
4.503007728
 11
6.9433114057
 21
8.1583253303
  0
LINE
  5
2B0
100
AcDbEntity
  8
RACCORDO
100
AcDbLine
 62
7
  6
CONTINUOUS
 10
7.1657213758
 20
-25.6069609106
 11
7.1657213758
 21
-17.4251653916
  0
LINE
  5
2B1
100
AcDbEntity
  8
DRAFT
100
AcDbLine
 62
7
  6
CONTINUOUS
 10
7.1657213758
 20
-13.3428140076
 11
7.1657213758
 21
4.2112969434
  0
LINE
  5
2B2
100
AcDbEntity
  8
RACCORDO
100
AcDbLine
 62
7
  6
CONTINUOUS
 10
7.1657213758
 20
8.2936483274
 11
7.1657213758
 21
9.1772161917
  0
LINE
  5
2B3
100
AcDbEntity
  8
RACCORDO
100
AcDbLine
 62
7
  6
CONTINUOUS
 10
7.1657213758
 20
12.7171372622
 11
7.1657213758
 21
16.4754438463
  0
LWPOLYLINE
  5
2B4
100
AcDbEntity
  8
RACCORDO
100
AcDbPolyline
 62
250
  6
CONTINUOUS
 90
8
 70
0
 10
8.2867970935
 20
9.201225597
 10
8.3178082864
 20
9.2088952653
 10
8.3477731327
 20
9.2129743158
 10
8.3763640344
 20
9.2134725993
 10
8.4034338821
 20
9.2104837904
 10
8.4289694485
 20
9.2040543416
 10
8.4527781298
 20
9.1941709812
 10
8.4604847802
 20
9.1899995739
  0
LINE
  5
2B5
100
AcDbEntity
  8
DRAFT
100
AcDbLine
 62
7
  6
CONTINUOUS
 10
8.6323597915
 20
6.1949491816
 11
8.0746822556
 21
6.268875521
  0
LINE
  5
2B6
100
AcDbEntity
  8
RACCORDO
100
AcDbLine
 62
7
  6
CONTINUOUS
 10
7.1657213758
 20
4.2112969434
 11
7.084732762
 21
4.258058754
  0
LINE
  5
2B7
100
AcDbEntity
  8
DRAFT
100
AcDbLine
 62
7
  6
CONTINUOUS
 10
8.0746822556
 20
8.6975860123
 11
8.0746822556
 21
6.268875521
  0
LINE
  5
2B8
100
AcDbEntity
  8
DRAFT
100
AcDbLine
 62
7
  6
CONTINUOUS
 10
8.0746822556
 20
-15.367586814
 11
8.0746822556
 21
-12.9388763227
  0
LINE
  5
2B9
100
AcDbEntity
  8
RACCORDO
100
AcDbLine
 62
7
  6
CONTINUOUS
 10
8.5429024528
 20
12.7875671286
 11
8.5429024528
 21
10.7826488845
  0
LINE
  5
2BA
100
AcDbEntity
  8
DRAFT
100
AcDbLine
 62
7
  6
CONTINUOUS
 10
8.6323597915
 20
8.5989552047
 11
8.6323597915
 21
6.1949491816
  0
LINE
  5
2BB
100
AcDbEntity
  8
DRAFT
100
AcDbLine
 62
7
  6
CONTINUOUS
 10
8.6323597915
 20
-15.4415131534
 11
8.6323597915
 21
-13.0375071303
  0
LINE
  5
2BC
100
AcDbEntity
  8
RACCORDO
100
AcDbLine
 62
7
  6
CONTINUOUS
 10
8.950557843
 20
8.9069922052
 11
8.950557843
 21
8.7634235444
  0
LINE
  5
2BD
100
AcDbEntity
  8
DRAFT
100
AcDbLine
 62
7
  6
CONTINUOUS
 10
8.950557843
 20
8.7634235444
 11
8.950557843
 21
6.3979279759
  0
LINE
  5
2BE
100
AcDbEntity
  8
RACCORDO
100
AcDbLine
 62
7
  6
CONTINUOUS
 10
8.950557843
 20
-12.7294701298
 11
8.950557843
 21
-12.8730387906
  0
LINE
  5
2BF
100
AcDbEntity
  8
DRAFT
100
AcDbLine
 62
7
  6
CONTINUOUS
 10
8.950557843
 20
-15.2385343591
 11
8.950557843
 21
-12.8730387906
  0
LWPOLYLINE
  5
2C0
100
AcDbEntity
  8
COPY_PUBLISH
100
AcDbPolyline
 62
250
  6
CONTINUOUS
 90
9
 70
0
 10
6.1302483864
 20
-26.2792867095
 10
6.1273587586
 20
-26.3214445105
 10
6.1207108486
 20
-26.3608320217
 10
6.1103778628
 20
-26.3970155046
 10
6.0964717011
 20
-26.4296002021
 10
6.0791465614
 20
-26.4582226352
 10
6.0586012701
 20
-26.4825595324
 10
6.035071407
 20
-26.5023435586
 10
6.0163214256
 20
-26.5137053194
  0
LINE
  5
2C1
100
AcDbEntity
  8
DRAFT
100
AcDbLine
 62
7
  6
CONTINUOUS
 10
8.6323597915
 20
8.5989552047
 11
8.0746822556
 21
8.6975860123
  0
LWPOLYLINE
  5
2C2
100
AcDbEntity
  8
RACCORDO
100
AcDbPolyline
 62
7
  6
CONTINUOUS
 90
9
 70
0
 10
8.4604653459
 20
9.1899948652
 10
8.4328342394
 20
9.2038652271
 10
8.397838421
 20
9.2162377101
 10
8.3611805996
 20
9.2239337396
 10
8.3233684178
 20
9.2269438081
 10
8.2848186634
 20
9.2253039773
 10
8.2457089241
 20
9.2190638686
 10
8.2063395028
 20
9.2082551672
 10
8.1995118466
 20
9.2059155033
  0
LINE
  5
2C3
100
AcDbEntity
  8
RACCORDO
100
AcDbLine
 62
250
  6
CONTINUOUS
 10
8.950557843
 20
8.7883844534
 11
8.2550119096
 21
9.1899839581
  0
LINE
  5
2C4
100
AcDbEntity
  8
RACCORDO
100
AcDbLine
 62
7
  6
CONTINUOUS
 10
8.950557843
 20
8.9070376224
 11
8.4606268768
 21
9.189917622
  0
LINE
  5
2C5
100
AcDbEntity
  8
DRAFT
100
AcDbLine
 62
7
  6
CONTINUOUS
 10
6.7202441037
 20
-13.6138599485
 11
7.1657213758
 21
-13.3428140076
  0
LINE
  5
2C6
100
AcDbEntity
  8
DRAFT
100
AcDbLine
 62
7
  6
CONTINUOUS
 10
8.0746822556
 20
-12.9388763227
 11
7.166046301
 21
-13.3435435915
  0
LINE
  5
2C7
100
AcDbEntity
  8
RACCORDO
100
AcDbLine
 62
7
  6
CONTINUOUS
 10
7.1657213758
 20
-12.7953181612
 11
8.1995493845
 21
-12.4305335639
  0
LINE
  5
2C8
100
AcDbEntity
  8
RACCORDO
100
AcDbLine
 62
250
  6
CONTINUOUS
 10
8.2867970935
 20
-12.435236738
 11
7.1657213758
 21
-12.8308328395
  0
LWPOLYLINE
  5
2C9
100
AcDbEntity
  8
RACCORDO
100
AcDbPolyline
 62
250
  6
CONTINUOUS
 90
7
 70
0
 10
8.1995493845
 20
-12.4305335639
 10
8.2017257452
 20
-12.4298401138
 10
8.2114552756
 20
-12.428383273
 10
8.2218277392
 20
-12.4293553665
 10
8.2326676892
 20
-12.4327400119
 10
8.2437917988
 20
-12.4384800248
 10
8.2550119096
 20
-12.4464783769
  0
LWPOLYLINE
  5
2CA
100
AcDbEntity
  8
RACCORDO
100
AcDbPolyline
 62
250
  6
CONTINUOUS
 90
9
 70
0
 10
8.1269326551
 20
13.1962604635
 10
8.1085265484
 20
13.2039118869
 10
8.0889309241
 20
13.2095882595
 10
8.0685104203
 20
13.2131883712
 10
8.0473395203
 20
13.2147338456
 10
8.0245439873
 20
13.2141738183
 10
7.9998139178
 20
13.2112006826
 10
7.9735213564
 20
13.2055583861
 10
7.9457537542
 20
13.1970079783
  0
LINE
  5
2CB
100
AcDbEntity
  8
RACCORDO
100
AcDbLine
 62
250
  6
CONTINUOUS
 10
7.1681494812
 20
12.6898734345
 11
7.2795249851
 21
12.6255666144
  0
LINE
  5
2CC
100
AcDbEntity
  8
DRAFT
100
AcDbLine
 62
7
  6
CONTINUOUS
 10
8.950557843
 20
-12.8730387906
 11
8.6323597915
 21
-13.0375071303
  0
LWPOLYLINE
  5
2CD
100
AcDbEntity
  8
RACCORDO
100
AcDbPolyline
 62
7
  6
CONTINUOUS
 90
10
 70
0
 10
8.1387597612
 20
13.1899980041
 10
8.1136781495
 20
13.2032787318
 10
8.0797382939
 20
13.2176282932
 10
8.0442024478
 20
13.2286934882
 10
8.0074175544
 20
13.2362925321
 10
7.9697380922
 20
13.2403081078
 10
7.9314742517
 20
13.2406760512
 10
7.892972979
 20
13.237372161
 10
7.8545727527
 20
13.2304393077
 10
7.8158984289
 20
13.2197340199
  0
LWPOLYLINE
  5
2CE
100
AcDbEntity
  8
RACCORDO
100
AcDbPolyline
 62
250
  6
CONTINUOUS
 90
6
 70
0
 10
7.9457537542
 20
13.1970079783
 10
7.9193467376
 20
13.2111846129
 10
7.8927633285
 20
13.2206819681
 10
7.8664531356
 20
13.2253394137
 10
7.840861147
 20
13.2250781777
 10
7.8158984289
 20
13.2197340199
  0
LINE
  5
2CF
100
AcDbEntity
  8
RACCORDO
100
AcDbLine
 62
250
  6
CONTINUOUS
 10
7.9457537542
 20
13.1970079783
 11
8.2583934296
 21
13.016493748
  0
LINE
  5
2D0
100
AcDbEntity
  8
RACCORDO
100
AcDbLine
 62
7
  6
CONTINUOUS
 10
8.1383263888
 20
13.1902492529
 11
8.4420724669
 21
13.0148700743
  0
LINE
  5
2D1
100
AcDbEntity
  8
COPY_PUBLISH
100
AcDbLine
 62
250
  6
CONTINUOUS
 10
5.4325177079
 20
15.8777593114
 11
-9.4356964604
 21
24.4624798297
  0
LINE
  5
2D2
100
AcDbEntity
  8
COPY_PUBLISH
100
AcDbLine
 62
250
  6
CONTINUOUS
 10
5.7768161497
 20
16.484648163
 11
-9.0913980187
 21
25.0693686813
  0
LINE
  5
2D3
100
AcDbEntity
  8
DRAFT
100
AcDbLine
 62
7
  6
CONTINUOUS
 10
8.950557843
 20
-15.2385343591
 11
8.6323597915
 21
-15.4415131534
  0
LINE
  5
2D4
100
AcDbEntity
  8
DRAFT
100
AcDbLine
 62
7
  6
CONTINUOUS
 10
6.7202441037
 20
-17.6962113324
 11
7.1657213758
 21
-17.4251653916
  0
LINE
  5
2D5
100
AcDbEntity
  8
RACCORDO
100
AcDbLine
 62
250
  6
CONTINUOUS
 10
6.9433114057
 20
-17.133454607
 11
6.7202441037
 21
-17.2622508715
  0
LINE
  5
2D6
100
AcDbEntity
  8
RACCORDO
100
AcDbLine
 62
250
  6
CONTINUOUS
 10
7.084732762
 20
-17.378403581
 11
6.7202441037
 21
-17.5888547642
  0
LINE
  5
2D7
100
AcDbEntity
  8
DRAFT
100
AcDbLine
 62
7
  6
CONTINUOUS
 10
8.0746822556
 20
-15.367586814
 11
6.9433114057
 21
-15.9994276345
  0
LINE
  5
2D8
100
AcDbEntity
  8
0
100
AcDbLine
 62
7
  6
CONTINUOUS
 10
6.366811867
 20
16.8253026157
 11
-8.5315129884
 21
25.4274086673
  0
LINE
  5
2D9
100
AcDbEntity
  8
RACCORDO
100
AcDbLine
 62
7
  6
CONTINUOUS
 10
6.848140457
 20
17.0267847249
 11
-8.0228920848
 21
25.6131325367
  0
LINE
  5
2DA
100
AcDbEntity
  8
RACCORDO
100
AcDbLine
 62
250
  6
CONTINUOUS
 10
7.1657213758
 20
-25.6069609106
 11
6.7202441037
 21
-25.9242190533
  0
LINE
  5
2DB
100
AcDbEntity
  8
RACCORDO
100
AcDbLine
 62
7
  6
CONTINUOUS
 10
7.0844029225
 20
-25.8060106268
 11
6.7068767627
 21
-26.0748756302
  0
LINE
  5
2DC
100
AcDbEntity
  8
0
100
AcDbLine
 62
250
  6
CONTINUOUS
 10
6.1302483864
 20
-26.2792867095
 11
6.7202441037
 21
-25.9733999633
  0
LINE
  5
2DD
100
AcDbEntity
  8
COPY_PUBLISH
100
AcDbLine
 62
7
  6
CONTINUOUS
 10
6.0162077659
 20
-26.5137643024
 11
6.6101282163
 21
-26.2058427553
  0
LWPOLYLINE
  5
2DE
100
AcDbEntity
  8
COPY_PUBLISH
100
AcDbPolyline
 62
250
  6
CONTINUOUS
 90
16
 70
0
 10
6.1302483864
 20
-26.2792867095
 10
6.0910214135
 20
-26.2986590778
 10
6.048544445
 20
-26.3155930458
 10
6.0032702215
 20
-26.3299081575
 10
5.9556758278
 20
-26.3414530077
 10
5.9062735853
 20
-26.3501027937
 10
5.8556073856
 20
-26.3557639373
 10
5.8042291072
 20
-26.3583789726
 10
5.7526751471
 20
-26.3579247337
 10
5.7014779222
 20
-26.3544076218
 10
5.6511128844
 20
-26.3478541798
 10
5.6021882722
 20
-26.3383373191
 10
5.5554017304
 20
-26.3260117067
 10
5.5112779645
 20
-26.3110610927
 10
5.4701863666
 20
-26.2936584507
 10
5.4325177079
 20
-26.2740129708
  0
ARC
  5
2DF
100
AcDbEntity
  8
COPY_PUBLISH
100
AcDbCircle
 62
7
  6
CONTINUOUS
 10
5.7860710985
 20
-26.0698756742
 40
0.5
100
AcDbArc
 50
239.9984015654
 51
297.4194204711
  0
ARC
  5
2E0
100
AcDbEntity
  8
COPY_PUBLISH
100
AcDbCircle
 62
7
  6
CONTINUOUS
 10
-9.0821430698
 20
-17.4851551559
 40
0.5
100
AcDbArc
 50
179.9840060021
 51
239.998401565
  0
ARC
  5
2E1
100
AcDbEntity
  8
COPY_PUBLISH
100
AcDbCircle
 62
7
  6
CONTINUOUS
 10
-9.0821430698
 20
24.6666171264
 40
0.5
100
AcDbArc
 50
122.5992954234
 51
180.0013071251
  0
ELLIPSE
  5
2E2
100
AcDbEntity
  8
RACCORDO
100
AcDbEllipse
 62
7
  6
CONTINUOUS
 10
-8.0221658762
 20
25.2438981557
 30
0.0
 11
-0.2245667503
 21
0.3916366537
 31
0.0
 40
0.576009292
 41
-0.7808516838
 42
-0.0566951759
  0
ELLIPSE
  5
2E3
100
AcDbEntity
  8
RACCORDO
100
AcDbEllipse
 62
7
  6
CONTINUOUS
 10
6.8474142484
 20
-25.4223329235
 30
0.0
 11
-0.2245667503
 21
0.3916366537
 31
0.0
 40
0.576009292
 41
-3.0848974781
 42
-2.3539294839
  0
ELLIPSE
  5
2E4
100
AcDbEntity
  8
RACCORDO
100
AcDbEllipse
 62
7
  6
CONTINUOUS
 10
6.8474142484
 20
16.6583889514
 30
0.0
 11
-0.224044438
 21
0.3907502414
 31
0.0
 40
0.5786435377
 41
-2.35161679
 42
-0.7831019366
  0
ELLIPSE
  5
2E5
100
AcDbEntity
  8
RACCORDO
100
AcDbEllipse
 62
7
  6
CONTINUOUS
 10
6.3665695176
 20
16.4170674668
 30
0.0
 11
-0.2500121049
 21
0.4330057129
 31
0.0
 40
0.5777274115
 41
-2.3559002616
 42
-0.7857891675
  0
ELLIPSE
  5
2E6
100
AcDbEntity
  8
RACCORDO
100
AcDbEllipse
 62
7
  6
CONTINUOUS
 10
-8.5312706391
 20
25.0188936595
 30
0.0
 11
-0.2501834304
 21
0.4333025529
 31
0.0
 40
0.5769361983
 41
5.4980815048
 42
6.3093462599
  0
ELLIPSE
  5
2E7
100
AcDbEntity
  8
RACCORDO
100
AcDbEllipse
 62
7
  6
CONTINUOUS
 10
6.3665695176
 20
-25.768912858
 30
0.0
 11
-0.2501834304
 21
0.4333025529
 31
0.0
 40
0.5769361983
 41
3.1154316834
 42
3.9265999453
  0
ELLIPSE
  5
2E8
100
AcDbEntity
  8
RACCORDO
100
AcDbEllipse
 62
7
  6
CONTINUOUS
 10
7.3034394835
 20
9.2610093197
 30
0.0
 11
0.0961689949
 21
0.1753992367
 31
0.0
 40
0.5620258809
 41
0.9475571809
 42
2.3438205825
  0
ELLIPSE
  5
2E9
100
AcDbEntity
  8
RACCORDO
100
AcDbEllipse
 62
7
  6
CONTINUOUS
 10
8.1986071835
 20
10.5731660646
 30
0.0
 11
0.2404224873
 21
0.4384980918
 31
0.0
 40
0.5620258809
 41
-2.1940354727
 42
-0.7977720711
  0
ELLIPSE
  5
2EA
100
AcDbEntity
  8
RACCORDO
100
AcDbEllipse
 62
7
  6
CONTINUOUS
 10
7.3034394835
 20
12.8009303901
 30
0.0
 11
0.0961689949
 21
0.1753992367
 31
0.0
 40
0.5620258809
 41
2.3438205825
 42
3.7400839841
  0
ELLIPSE
  5
2EB
100
AcDbEntity
  8
RACCORDO
100
AcDbEllipse
 62
7
  6
CONTINUOUS
 10
8.1986071835
 20
12.5780843087
 30
0.0
 11
0.2404224873
 21
0.4384980918
 31
0.0
 40
0.5620258809
 41
5.4854132361
 42
6.8816766377
  0
ENDSEC
  0
SECTION
  2
OBJECTS
  0
DICTIONARY
  5
C
100
AcDbDictionary
280
0
281
1
  3
ACAD_GROUP
350
D
  3
ACAD_MLINESTYLE
350
17
  3
ACAD_LAYOUT
350
1A
  3
ACAD_PLOTSETTINGS
350
19
  3
ACAD_PLOTSTYLENAME
350
E
  0
DICTIONARY
  5
D
102
{ACAD_REACTORS
330
C
102
}
100
AcDbDictionary
280
0
281
1
  0
ACDBDICTIONARYWDFLT
  5
E
102
{ACAD_REACTORS
330
C
102
}
100
AcDbDictionary
281
1
  3
Normal
350
F
100
AcDbDictionaryWithDefault
340
F
  0
DICTIONARY
  5
17
102
{ACAD_REACTORS
330
C
102
}
100
AcDbDictionary
280
0
281
1
  3
Standard
350
18
  0
DICTIONARY
  5
19
102
{ACAD_REACTORS
330
C
102
}
100
AcDbDictionary
281
1
  0
DICTIONARY
  5
1A
102
{ACAD_REACTORS
330
C
102
}
100
AcDbDictionary
281
1
  3
Model
350
2EC
  3
Layout1
350
2ED
  0
ACDBPLACEHOLDER
  5
F
102
{ACAD_REACTORS
330
E
102
}
  0
MLINESTYLE
  5
18
102
{ACAD_REACTORS
330
17
102
}
100
AcDbMlineStyle
  2
STANDARD
 70
0
  3

 62
256
 51
90.0
 52
90.0
 71
2
 49
0.5
 62
256
  6
BYLAYER
 49
-0.5
 62
256
  6
BYLAYER
  0
LAYOUT
  5
2EC
102
{ACAD_REACTORS
330
1A
102
}
100
AcDbPlotSettings
  1

  2
none_device
  4
ISO_A4_(297.00_x_210.00_MM)
  6

 40
0.0
 41
0.0
 42
0.0
 43
0.0
 44
297.0
 45
210.0
 46
0.0
 47
0.0
 48
0.0
 49
0.0
140
0.0
141
0.0
142
1.0
143
1.0
 70
1024
 72
1
 73
0
 74
0
  7

 75
0
147
1.0
148
0.0
149
0.0
100
AcDbLayout
  1
Model
 70
0
 71
0
 10
0.0
 20
0.0
 11
297.0
 21
210.0
 12
0.0
 22
0.0
 32
0.0
 14
0.0
 24
0.0
 34
0.0
 15
0.0
 25
0.0
 35
0.0
146
0.0
 13
0.0
 23
0.0
 33
0.0
 16
1.0
 26
0.0
 36
0.0
 17
0.0
 27
1.0
 37
0.0
 76
0
330
219
345
0
346
0
  0
LAYOUT
  5
2ED
102
{ACAD_REACTORS
330
1A
102
}
100
AcDbPlotSettings
  1

  2
none_device
  4
ISO_A4_(297.00_x_210.00_MM)
  6

 40
0.0
 41
0.0
 42
0.0
 43
0.0
 44
297.0
 45
210.0
 46
0.0
 47
0.0
 48
0.0
 49
0.0
140
0.0
141
0.0
142
1.0
143
1.0
 70
0
 72
1
 73
0
 74
0
  7

 75
0
147
1.0
148
0.0
149
0.0
100
AcDbLayout
  1
Layout1
 70
0
 71
1
 10
0.0
 20
0.0
 11
297.0
 21
210.0
 12
0.0
 22
0.0
 32
0.0
 14
0.0
 24
0.0
 34
0.0
 15
0.0
 25
0.0
 35
0.0
146
0.0
 13
0.0
 23
0.0
 33
0.0
 16
1.0
 26
0.0
 36
0.0
 17
0.0
 27
1.0
 37
0.0
 76
0
330
21A
345
0
346
0
  0
ENDSEC
  0
EOF
