  0
SECTION
  2
HEADER
  9
$ACADVER
  1
AC1024
  9
$DWGCODEPAGE
  3
ANSI_1252
  9
$EXTMAX
 10
297.0
 20
210.0
 30
0.0
  9
$EXTMIN
 10
0.0
 20
0.0
 30
0.0
  9
$LIMMIN
 10
0.0
 20
0.0
  9
$LIMMAX
 10
297.0
 20
210.0
  9
$VIEWCTR
 10
148.5
 20
105.0
  9
$VIEWSIZE
 40
210.0
  9
$CLAYER
  8
0
  9
$LTSCALE
 40
16.335
  9
$CELTYPE
  6
BYLAYER
  9
$DIMSCALE
 40
1.0
  9
$DIMASZ
 40
3.0
  9
$DIMEXO
 40
0.5
  9
$DIMDLI
 40
11.286
  9
$DIMEXE
 40
1.5
  9
$DIMCEN
 40
2.673
  9
$DIMLFAC
 40
1.0
  9
$DIMBLK
  1
_FILLED
  9
$DIMALT
 70
0
  9
$DIMALTF
 40
0.0393700787
  9
$DIMTXT
 40
3.0
  9
$DIMTOL
 70
1
  9
$DIMLIM
 70
0
  9
$DIMTFAC
 40
1.0
  9
$DIMTP
 40
0.01
  9
$DIMTM
 40
0.01
  9
$DIMGAP
 40
0.625
  9
$DIMDSEP
 70
44
  9
$AUNITS
 70
0
  9
$PDMODE
 70
3
  9
$PDSIZE
 40
3.0
  9
$HANDSEED
  5
317
  9
$TILEMODE
 70
1
  9
$MEASUREMENT
 70
1
  9
$INSUNITS
 70
4
  0
ENDSEC
  0
SECTION
  2
CLASSES
  0
CLASS
  1
ACDBDICTIONARYWDFLT
  2
AcDbDictionaryWithDefault
  3
AutoCAD 2000
 90
0
 91
1
280
0
281
0
  0
CLASS
  1
ACDBPLACEHOLDER
  2
AcDbPlaceHolder
  3
AutoCAD 2000
 90
0
 91
1
280
0
281
0
  0
CLASS
  1
LAYOUT
  2
AcDbLayout
  3
AutoCAD 2000
 90
0
 91
0
280
0
281
0
  0
ENDSEC
  0
SECTION
  2
TABLES
  0
TABLE
  2
VPORT
  5
8
100
AcDbSymbolTable
 70
2
  0
VPORT
  5
1F4
100
AcDbSymbolTableRecord
100
AcDbViewportTableRecord
  2
*ACTIVE
 70
0
 10
0.0
 20
0.0
 11
1.0
 21
1.0
 12
148.5
 22
105.0
 13
0.0
 23
0.0
 14
1.0
 24
1.0
 15
0.0
 25
0.0
 16
0.0
 26
0.0
 36
1.0
 17
0.0
 27
0.0
 37
0.0
 40
210.0
 41
1.4142857143
 42
50.0
 43
0.0
 44
0.0
 50
0.0
 51
0.0
 71
0
 72
100
 73
1
 74
1
 75
0
 76
0
 77
0
 78
0
  0
ENDTAB
  0
TABLE
  2
LTYPE
  5
5
100
AcDbSymbolTable
 70
6
  0
LTYPE
  5
14
100
AcDbSymbolTableRecord
100
AcDbLinetypeTableRecord
  2
BYBLOCK
 70
0
  3

 72
65
 73
0
 40
0.0
  0
LTYPE
  5
15
100
AcDbSymbolTableRecord
100
AcDbLinetypeTableRecord
  2
BYLAYER
 70
0
  3

 72
65
 73
0
 40
0.0
  0
LTYPE
  5
16
100
AcDbSymbolTableRecord
100
AcDbLinetypeTableRecord
  2
CONTINUOUS
 70
64
  3
Solid line
 72
65
 73
0
 40
0.0
  0
LTYPE
  5
1F5
100
AcDbSymbolTableRecord
100
AcDbLinetypeTableRecord
  2
CENTER
 70
64
  3
____ _ ____ _ ____ _ ____ _ ____ _ ____ _ ____
 72
65
 73
4
 40
0.6
 49
0.375
 74
0
 49
-0.075
 74
0
 49
0.075
 74
0
 49
-0.075
 74
0
  0
LTYPE
  5
1F6
100
AcDbSymbolTableRecord
100
AcDbLinetypeTableRecord
  2
HIDDEN
 70
64
  3
- - - - - - - - - - - - - - - - - - - -
 72
65
 73
2
 40
0.2
 49
0.1
 74
0
 49
-0.1
 74
0
  0
LTYPE
  5
1F7
100
AcDbSymbolTableRecord
100
AcDbLinetypeTableRecord
  2
PHANTOM
 70
64
  3
_____ _ _ _____ _ _ _____ _ _ _____
 72
65
 73
6
 40
0.8
 49
0.45
 74
0
 49
-0.05
 74
0
 49
0.1
 74
0
 49
-0.05
 74
0
 49
0.1
 74
0
 49
-0.05
 74
0
  0
LTYPE
  5
1F8
100
AcDbSymbolTableRecord
100
AcDbLinetypeTableRecord
  2
DOT
 70
64
  3
. . . . . . . . . . . . . . . . . . . .
 72
65
 73
2
 40
0.2
 49
0.1
 74
0
 49
-0.1
 74
0
  0
LTYPE
  5
1F9
100
AcDbSymbolTableRecord
100
AcDbLinetypeTableRecord
  2
DASHED
 70
64
  3
- - - - - - - - - - - - - - - - - - - -
 72
65
 73
2
 40
0.2
 49
0.1
 74
0
 49
-0.1
 74
0
  0
ENDTAB
  0
TABLE
  2
LAYER
  5
2
100
AcDbSymbolTable
 70
36
  0
LAYER
  5
10
100
AcDbSymbolTableRecord
100
AcDbLayerTableRecord
  2
0
 70
0
 62
7
  6
CONTINUOUS
370
-3
390
F
  0
LAYER
  5
1FA
100
AcDbSymbolTableRecord
100
AcDbLayerTableRecord
  2
DEFAULT_1
 70
0
 62
7
  6
CENTER
370
-3
390
F
  0
LAYER
  5
1FB
100
AcDbSymbolTableRecord
100
AcDbLayerTableRecord
  2
DEFAULT_2
 70
0
 62
7
  6
HIDDEN
370
-3
390
F
  0
LAYER
  5
1FC
100
AcDbSymbolTableRecord
100
AcDbLayerTableRecord
  2
DEFAULT_3
 70
0
 62
7
  6
PHANTOM
370
-3
390
F
  0
LAYER
  5
1FD
100
AcDbSymbolTableRecord
100
AcDbLayerTableRecord
  2
ASSI
 70
0
 62
7
  6
CONTINUOUS
370
-3
390
F
  0
LAYER
  5
1FE
100
AcDbSymbolTableRecord
100
AcDbLayerTableRecord
  2
COORDINATE
 70
0
 62
7
  6
CONTINUOUS
370
-3
390
F
  0
LAYER
  5
1FF
100
AcDbSymbolTableRecord
100
AcDbLayerTableRecord
  2
COPY_PUBLISH
 70
0
 62
7
  6
CONTINUOUS
370
-3
390
F
  0
LAYER
  5
200
100
AcDbSymbolTableRecord
100
AcDbLayerTableRecord
  2
COSMETICI
 70
0
 62
7
  6
CONTINUOUS
370
-3
390
F
  0
LAYER
  5
201
100
AcDbSymbolTableRecord
100
AcDbLayerTableRecord
  2
CURVE
 70
0
 62
7
  6
CONTINUOUS
370
-3
390
F
  0
LAYER
  5
202
100
AcDbSymbolTableRecord
100
AcDbLayerTableRecord
  2
DRAFT
 70
0
 62
7
  6
CONTINUOUS
370
-3
390
F
  0
LAYER
  5
203
100
AcDbSymbolTableRecord
100
AcDbLayerTableRecord
  2
IMPORT_IGES
 70
0
 62
7
  6
CONTINUOUS
370
-3
390
F
  0
LAYER
  5
204
100
AcDbSymbolTableRecord
100
AcDbLayerTableRecord
  2
INTF_2
 70
0
 62
7
  6
CONTINUOUS
370
-3
390
F
  0
LAYER
  5
205
100
AcDbSymbolTableRecord
100
AcDbLayerTableRecord
  2
INTF_3
 70
0
 62
7
  6
CONTINUOUS
370
-3
390
F
  0
LAYER
  5
206
100
AcDbSymbolTableRecord
100
AcDbLayerTableRecord
  2
INTF_4
 70
0
 62
7
  6
CONTINUOUS
370
-3
390
F
  0
LAYER
  5
207
100
AcDbSymbolTableRecord
100
AcDbLayerTableRecord
  2
INTF_5
 70
0
 62
7
  6
CONTINUOUS
370
-3
390
F
  0
LAYER
  5
208
100
AcDbSymbolTableRecord
100
AcDbLayerTableRecord
  2
INTF_6
 70
0
 62
7
  6
CONTINUOUS
370
-3
390
F
  0
LAYER
  5
209
100
AcDbSymbolTableRecord
100
AcDbLayerTableRecord
  2
INTF_7
 70
0
 62
7
  6
CONTINUOUS
370
-3
390
F
  0
LAYER
  5
20A
100
AcDbSymbolTableRecord
100
AcDbLayerTableRecord
  2
INTF_9
 70
0
 62
7
  6
CONTINUOUS
370
-3
390
F
  0
LAYER
  5
20B
100
AcDbSymbolTableRecord
100
AcDbLayerTableRecord
  2
INTF_BLANK
 70
0
 62
7
  6
CONTINUOUS
370
-3
390
F
  0
LAYER
  5
20C
100
AcDbSymbolTableRecord
100
AcDbLayerTableRecord
  2
INTF_RED
 70
0
 62
7
  6
CONTINUOUS
370
-3
390
F
  0
LAYER
  5
20D
100
AcDbSymbolTableRecord
100
AcDbLayerTableRecord
  2
NOTE
 70
0
 62
7
  6
CONTINUOUS
370
-3
390
F
  0
LAYER
  5
20E
100
AcDbSymbolTableRecord
100
AcDbLayerTableRecord
  2
PIANI
 70
0
 62
7
  6
CONTINUOUS
370
-3
390
F
  0
LAYER
  5
20F
100
AcDbSymbolTableRecord
100
AcDbLayerTableRecord
  2
PUNTI
 70
0
 62
7
  6
CONTINUOUS
370
-3
390
F
  0
LAYER
  5
210
100
AcDbSymbolTableRecord
100
AcDbLayerTableRecord
  2
RACCORDO
 70
0
 62
7
  6
CONTINUOUS
370
-3
390
F
  0
LAYER
  5
211
100
AcDbSymbolTableRecord
100
AcDbLayerTableRecord
  2
RGB____0____0____0__
 70
0
 62
7
  6
CONTINUOUS
370
-3
390
F
  0
LAYER
  5
212
100
AcDbSymbolTableRecord
100
AcDbLayerTableRecord
  2
SIMBOLI
 70
0
 62
7
  6
CONTINUOUS
370
-3
390
F
  0
LAYER
  5
213
100
AcDbSymbolTableRecord
100
AcDbLayerTableRecord
  2
SMUSSO
 70
0
 62
7
  6
CONTINUOUS
370
-3
390
F
  0
LAYER
  5
214
100
AcDbSymbolTableRecord
100
AcDbLayerTableRecord
  2
SNAPLINE
 70
0
 62
7
  6
CONTINUOUS
370
-3
390
F
  0
LAYER
  5
215
100
AcDbSymbolTableRecord
100
AcDbLayerTableRecord
  2
SUPERFICI
 70
0
 62
7
  6
CONTINUOUS
370
-3
390
F
  0
LAYER
  5
216
100
AcDbSymbolTableRecord
100
AcDbLayerTableRecord
  2
TRASH
 70
0
 62
7
  6
CONTINUOUS
370
-3
390
F
  0
ENDTAB
  0
TABLE
  2
STYLE
  5
3
100
AcDbSymbolTable
 70
1
  0
STYLE
  5
11
100
AcDbSymbolTableRecord
100
AcDbTextStyleTableRecord
  2
STANDARD
 70
0
 40
0.0
 41
0.8
 50
0.0
 71
0
 42
0.2
  3
txt
  4

  0
STYLE
  5
217
100
AcDbSymbolTableRecord
100
AcDbTextStyleTableRecord
  2
TEXTSTYLE_1
 70
0
 40
0.0
 41
0.8
 50
0.0
 71
0
 42
0.2
  3
gdt
  4

  0
ENDTAB
  0
TABLE
  2
VIEW
  5
6
100
AcDbSymbolTable
 70
0
  0
ENDTAB
  0
TABLE
  2
UCS
  5
7
100
AcDbSymbolTable
 70
0
  0
ENDTAB
  0
TABLE
  2
APPID
  5
9
100
AcDbSymbolTable
 70
1
  0
APPID
  5
218
100
AcDbSymbolTableRecord
100
AcDbRegAppTableRecord
  2
ACAD
 70
0
  0
ENDTAB
  0
TABLE
  2
BLOCK_RECORD
  5
1
100
AcDbSymbolTable
 70
0
  0
BLOCK_RECORD
  5
219
100
AcDbSymbolTableRecord
100
AcDbBlockTableRecord
  2
*Model_Space
  0
BLOCK_RECORD
  5
21A
100
AcDbSymbolTableRecord
100
AcDbBlockTableRecord
  2
*Paper_Space
  0
BLOCK_RECORD
  5
21B
100
AcDbSymbolTableRecord
100
AcDbBlockTableRecord
  2
_FILLED
  0
ENDTAB
  0
TABLE
  2
DIMSTYLE
  5
A
100
AcDbSymbolTable
 70
1
100
AcDbDimStyleTable
 71
0
  0
DIMSTYLE
105
21C
100
AcDbSymbolTableRecord
100
AcDbDimStyleTableRecord
  2
STANDARD
 70
0
  3

  4

 40
1.0
 41
3.0
 42
0.5
 43
0.38
 44
1.5
 45
0.0
 46
0.0
 47
0.01
 48
0.01
140
3.0
141
0.09
142
0.0
143
25.4
144
1.0
145
0.0
146
1.0
147
0.625
 71
1
 72
0
 73
0
 74
0
 75
0
 76
0
 77
1
 78
8
 79
2
170
0
171
1
172
0
173
0
174
0
175
0
176
0
177
0
178
0
270
2
179
2
271
2
272
2
273
2
274
2
275
0
280
0
281
0
282
0
283
1
284
8
285
0
286
0
287
3
288
0
340
11
278
44
341
21B
342
21B
343
21B
344
21B
  0
ENDTAB
  0
ENDSEC
  0
SECTION
  2
BLOCKS
  0
BLOCK
  5
20
100
AcDbEntity
  8
0
100
AcDbBlockBegin
  2
*Model_Space
 70
0
 10
0.0
 20
0.0
 30
0.0
  3
*Model_Space
  1

  0
ENDBLK
  5
21
100
AcDbEntity
  8
0
100
AcDbBlockEnd
  0
BLOCK
  5
1C
100
AcDbEntity
  8
0
100
AcDbBlockBegin
  2
*Paper_Space
 70
0
 10
0.0
 20
0.0
 30
0.0
  3
*Paper_Space
  1

  0
ENDBLK
  5
1D
100
AcDbEntity
  8
0
100
AcDbBlockEnd
  0
BLOCK
  5
21D
100
AcDbEntity
  8
0
100
AcDbBlockBegin
  2
_FILLED
 70
64
 10
0.0
 20
0.0
  3
_FILLED
  1

  0
SOLID
  5
21E
100
AcDbEntity
  8
0
  6
BYBLOCK
 62
0
100
AcDbTrace
 10
0.0
 20
0.0
 11
-1.0
 21
0.3166666667
 12
-1.0
 22
-0.3166666667
 13
-1.0
 23
-0.3166666667
  0
ENDBLK
  5
21F
100
AcDbEntity
  8
0
  6
BYBLOCK
 62
0
100
AcDbBlockEnd
  0
ENDSEC
  0
SECTION
  2
ENTITIES
  0
LINE
  5
220
100
AcDbEntity
  8
COPY_PUBLISH
100
AcDbLine
 62
7
  6
CONTINUOUS
 10
-9.3515170199
 20
25.0878506424
 11
-8.7879075893
 21
25.4482723393
  0
LWPOLYLINE
  5
221
100
AcDbEntity
  8
COPY_PUBLISH
100
AcDbPolyline
 62
250
  6
CONTINUOUS
 90
9
 70
0
 10
-9.3515170199
 20
25.0878506424
 10
-9.3310150726
 20
25.0990236254
 10
-9.3020176473
 20
25.109302083
 10
-9.2705583671
 20
25.1147215879
 10
-9.2370231316
 20
25.1152043262
 10
-9.2019213288
 20
25.1107717861
 10
-9.1657023214
 20
25.1015446201
 10
-9.1287261726
 20
25.0876759083
 10
-9.0913980187
 20
25.0693686813
  0
LINE
  5
222
100
AcDbEntity
  8
RACCORDO
100
AcDbLine
 62
7
  6
CONTINUOUS
 10
-8.2335890689
 20
25.6422352556
 11
-8.6250358839
 21
25.4662884874
  0
LINE
  5
223
100
AcDbEntity
  8
RACCORDO
100
AcDbLine
 62
250
  6
CONTINUOUS
 10
-8.0228920848
 20
25.6131325367
 11
-8.4897450234
 21
25.4032923678
  0
LINE
  5
224
100
AcDbEntity
  8
0
100
AcDbLine
 62
250
  6
CONTINUOUS
 10
-9.0913980187
 20
25.0693686813
 11
-8.5315129884
 21
25.4274086673
  0
LINE
  5
225
100
AcDbEntity
  8
COPY_PUBLISH
100
AcDbLine
 62
7
  6
CONTINUOUS
 10
-9.3321551499
 20
-17.9181608831
 11
5.5360590184
 21
-26.5028814014
  0
LINE
  5
226
100
AcDbEntity
  8
COPY_PUBLISH
100
AcDbLine
 62
250
  6
CONTINUOUS
 10
-9.4356964604
 20
-17.6892924525
 11
5.4325177079
 21
-26.2740129708
  0
LWPOLYLINE
  5
227
100
AcDbEntity
  8
COPY_PUBLISH
100
AcDbPolyline
 62
250
  6
CONTINUOUS
 90
9
 70
0
 10
-9.3321551499
 20
-17.9181608831
 10
-9.3477550522
 20
-17.9079520568
 10
-9.3703342664
 20
-17.8880360694
 10
-9.3898602777
 20
-17.8638518141
 10
-9.4061262204
 20
-17.8356555079
 10
-9.418959767
 20
-17.8037458728
 10
-9.4282249543
 20
-17.7684609714
 10
-9.4338236235
 20
-17.7301746248
 10
-9.4356964604
 20
-17.6892924525
  0
LWPOLYLINE
  5
228
100
AcDbEntity
  8
RACCORDO
100
AcDbPolyline
 62
250
  6
CONTINUOUS
 90
8
 70
0
 10
8.2867970935
 20
-12.435236738
 10
8.3178082864
 20
-12.4275670697
 10
8.3477731327
 20
-12.4234880192
 10
8.3763640344
 20
-12.4229897357
 10
8.4034338821
 20
-12.4259785446
 10
8.4289694485
 20
-12.4324079934
 10
8.4527781298
 20
-12.4422913538
 10
8.4604847802
 20
-12.4464627611
  0
LINE
  5
229
100
AcDbEntity
  8
DRAFT
100
AcDbLine
 62
7
  6
CONTINUOUS
 10
8.6323597915
 20
-15.4415131534
 11
8.0746822556
 21
-15.367586814
  0
LINE
  5
22A
100
AcDbEntity
  8
0
100
AcDbLine
 62
250
  6
CONTINUOUS
 10
6.366811867
 20
16.8253026157
 11
5.7768161497
 21
16.484648163
  0
LINE
  5
22B
100
AcDbEntity
  8
RACCORDO
100
AcDbLine
 62
250
  6
CONTINUOUS
 10
6.848140457
 20
17.0267847249
 11
6.4029611898
 21
16.80210139
  0
LINE
  5
22C
100
AcDbEntity
  8
RACCORDO
100
AcDbLine
 62
250
  6
CONTINUOUS
 10
7.1657213758
 20
16.4754438463
 11
6.7185134404
 21
16.2497366364
  0
LWPOLYLINE
  5
22D
100
AcDbEntity
  8
COPY_PUBLISH
100
AcDbPolyline
 62
250
  6
CONTINUOUS
 90
16
 70
0
 10
6.1302483864
 20
15.8724855727
 10
6.09102414
 20
15.853114416
 10
6.048550163
 20
15.8361812727
 10
6.0032790783
 20
15.821866591
 10
5.9556876555
 20
15.8103217371
 10
5.9062882916
 20
15.8016715916
 10
5.8556254091
 20
15.7960098066
 10
5.8042518192
 20
15.7933937865
 10
5.7527028114
 20
15.7938464797
 10
5.7015082977
 20
15.7973616503
 10
5.6511431056
 20
15.8039132116
 10
5.6022162132
 20
15.8134285835
 10
5.5554250552
 20
15.8257535732
 10
5.5112946266
 20
15.840704861
 10
5.4701950335
 20
15.8581097531
 10
5.4325177079
 20
15.8777593114
  0
LINE
  5
22E
100
AcDbEntity
  8
DRAFT
100
AcDbLine
 62
7
  6
CONTINUOUS
 10
8.6323597915
 20
-13.0375071303
 11
8.0746822556
 21
-12.9388763227
  0
LINE
  5
22F
100
AcDbEntity
  8
RACCORDO
100
AcDbLine
 62
7
  6
CONTINUOUS
 10
7.1657213758
 20
-17.4251653916
 11
7.084732762
 21
-17.378403581
  0
LWPOLYLINE
  5
230
100
AcDbEntity
  8
COPY_PUBLISH
100
AcDbPolyline
 62
250
  6
CONTINUOUS
 90
9
 70
0
 10
-9.5821430698
 20
-17.4851551559
 10
-9.5810283847
 20
-17.5044215866
 10
-9.574940323
 20
-17.5339806572
 10
-9.5635934169
 20
-17.5630608879
 10
-9.5471133712
 20
-17.5913106624
 10
-9.5257672382
 20
-17.6183272906
 10
-9.4998725164
 20
-17.643807647
 10
-9.4697283012
 20
-17.6675380369
 10
-9.4356964604
 20
-17.6892924525
  0
LINE
  5
231
100
AcDbEntity
  8
COPY_PUBLISH
100
AcDbLine
 62
7
  6
CONTINUOUS
 10
-9.5821430698
 20
-17.4851551559
 11
-9.5821430698
 21
24.6666171264
  0
LINE
  5
232
100
AcDbEntity
  8
COPY_PUBLISH
100
AcDbLine
 62
250
  6
CONTINUOUS
 10
-9.4356964604
 20
-17.6892924525
 11
-9.4356964604
 21
24.4624798297
  0
LWPOLYLINE
  5
233
100
AcDbEntity
  8
COPY_PUBLISH
100
AcDbPolyline
 62
250
  6
CONTINUOUS
 90
16
 70
0
 10
-9.4356964604
 20
24.4624798297
 10
-9.4338236235
 20
24.5055247071
 10
-9.4282249543
 20
24.5502762566
 10
-9.418959767
 20
24.596260364
 10
-9.4061262204
 20
24.642989857
 10
-9.3898602777
 20
24.6899696662
 10
-9.3703342664
 20
24.7367020699
 10
-9.3477550522
 20
24.7826919679
 10
-9.3223618476
 20
24.8274521265
 10
-9.2944236774
 20
24.8705083404
 10
-9.2642365285
 20
24.9114044564
 10
-9.2321202148
 20
24.9497072061
 10
-9.1984149884
 20
24.9850107958
 10
-9.1634779348
 20
25.0169412064
 10
-9.1276791899
 20
25.0451601556
 10
-9.0913980187
 20
25.0693686813
  0
LWPOLYLINE
  5
234
100
AcDbEntity
  8
COPY_PUBLISH
100
AcDbPolyline
 62
250
  6
CONTINUOUS
 90
16
 70
0
 10
5.7768161497
 20
16.484648163
 10
5.7405349785
 20
16.4604396372
 10
5.7047362336
 20
16.4322206881
 10
5.66979918
 20
16.4002902775
 10
5.6360939535
 20
16.3649866878
 10
5.6039776398
 20
16.3266839381
 10
5.573790491
 20
16.2857878221
 10
5.5458523207
 20
16.2427316081
 10
5.5204591161
 20
16.1979714496
 10
5.4978799019
 20
16.1519815516
 10
5.4783538906
 20
16.1052491479
 10
5.4620879479
 20
16.0582693387
 10
5.4492544013
 20
16.0115398457
 10
5.4399892141
 20
15.9655557383
 10
5.4343905448
 20
15.9208041887
 10
5.4325177079
 20
15.8777593114
  0
LINE
  5
235
100
AcDbEntity
  8
0
100
AcDbLine
 62
250
  6
CONTINUOUS
 10
6.7202441037
 20
16.2131400254
 11
6.1302483864
 21
15.8724855727
  0
LINE
  5
236
100
AcDbEntity
  8
RACCORDO
100
AcDbLine
 62
7
  6
CONTINUOUS
 10
7.8158247424
 20
13.2197099928
 11
7.1657213758
 21
13.0075016306
  0
LINE
  5
237
100
AcDbEntity
  8
RACCORDO
100
AcDbLine
 62
250
  6
CONTINUOUS
 10
7.9457537542
 20
13.1970079783
 11
7.1657213758
 21
12.942387864
  0
LWPOLYLINE
  5
238
100
AcDbEntity
  8
COPY_PUBLISH
100
AcDbPolyline
 62
250
  6
CONTINUOUS
 90
9
 70
0
 10
-9.5821430695
 20
24.6666057195
 10
-9.5810265336
 20
24.6473347226
 10
-9.5749351097
 20
24.6177740865
 10
-9.5635849463
 20
24.588693945
 10
-9.547102322
 20
24.560445487
 10
-9.5257551105
 20
24.5334315242
 10
-9.4998615558
 20
24.5079550148
 10
-9.4697212376
 20
24.4842292411
 10
-9.4356964604
 20
24.4624798297
  0
LINE
  5
239
100
AcDbEntity
  8
RACCORDO
100
AcDbLine
 62
7
  6
CONTINUOUS
 10
7.2795249851
 20
12.6255666144
 11
8.2583934296
 21
13.016493748
  0
LWPOLYLINE
  5
23A
100
AcDbEntity
  8
RACCORDO
100
AcDbPolyline
 62
7
  6
CONTINUOUS
 90
9
 70
0
 10
8.4604653459
 20
-12.4464674698
 10
8.4328342394
 20
-12.432597108
 10
8.397838421
 20
-12.4202246249
 10
8.3611805996
 20
-12.4125285954
 10
8.3233684178
 20
-12.4095185269
 10
8.2848186634
 20
-12.4111583577
 10
8.2457089241
 20
-12.4173984665
 10
8.2063395028
 20
-12.4282071678
 10
8.1995118466
 20
-12.4305468317
  0
LINE
  5
23B
100
AcDbEntity
  8
RACCORDO
100
AcDbLine
 62
7
  6
CONTINUOUS
 10
7.1657213758
 20
8.8411441739
 11
8.1995493845
 21
9.2059287712
  0
LINE
  5
23C
100
AcDbEntity
  8
RACCORDO
100
AcDbLine
 62
250
  6
CONTINUOUS
 10
8.2867970935
 20
9.201225597
 11
7.1657213758
 21
8.8056294955
  0
LWPOLYLINE
  5
23D
100
AcDbEntity
  8
RACCORDO
100
AcDbPolyline
 62
250
  6
CONTINUOUS
 90
7
 70
0
 10
8.1995493845
 20
9.2059287712
 10
8.2017257452
 20
9.2066222212
 10
8.2114552756
 20
9.2080790621
 10
8.2218277392
 20
9.2071069685
 10
8.2326676892
 20
9.2037223231
 10
8.2437917988
 20
9.1979823102
 10
8.2550119096
 20
9.1899839581
  0
LINE
  5
23E
100
AcDbEntity
  8
RACCORDO
100
AcDbLine
 62
250
  6
CONTINUOUS
 10
8.950557843
 20
-12.8480778817
 11
8.2550119096
 21
-12.4464783769
  0
LINE
  5
23F
100
AcDbEntity
  8
RACCORDO
100
AcDbLine
 62
7
  6
CONTINUOUS
 10
8.950557843
 20
-12.7294247126
 11
8.4606268768
 21
-12.446544713
  0
LWPOLYLINE
  5
240
100
AcDbEntity
  8
DRAFT
100
AcDbPolyline
 62
7
  6
CONTINUOUS
 90
22
 70
0
 10
-4.540269804
 20
-0.9369646994
 10
-4.5448881467
 20
-0.9535719325
 10
-4.5481073835
 20
-0.9712307956
 10
-4.5499302172
 20
-0.9900765447
 10
-4.5503539451
 20
-1.0099739239
 10
-4.5493704585
 20
-1.0305171655
 10
-4.5469513761
 20
-1.0517139374
 10
-4.5431250794
 20
-1.0735565716
 10
-4.5379686044
 20
-1.0956162967
 10
-4.5314552141
 20
-1.1178997268
 10
-4.5236116456
 20
-1.1404002476
 10
-4.514595145
 20
-1.1626692455
 10
-4.504382413
 20
-1.1847012148
 10
-4.492996749
 20
-1.2065016613
 10
-4.4806652971
 20
-1.2276384878
 10
-4.4673701608
 20
-1.248097425
 10
-4.4531292367
 20
-1.2678927423
 10
-4.4382233581
 20
-1.2866351507
 10
-4.422639388
 20
-1.3043043651
 10
-4.4063904635
 20
-1.3209206706
 10
-4.3897968291
 20
-1.3361556338
 10
-4.3729652329
 20
-1.3498997769
  0
LWPOLYLINE
  5
241
100
AcDbEntity
  8
0
100
AcDbPolyline
 62
7
  6
CONTINUOUS
 90
13
 70
0
 10
-4.2051975693
 20
-0.1941268033
 10
-4.2087247461
 20
-0.2053829391
 10
-4.2104054193
 20
-0.2174952058
 10
-4.2102395887
 20
-0.2304636033
 10
-4.2081259923
 20
-0.244673349
 10
-4.2041658922
 20
-0.2597392256
 10
-4.1986630747
 20
-0.2745055803
 10
-4.1914961075
 20
-0.2889488251
 10
-4.1827864228
 20
-0.3030925482
 10
-4.1732021036
 20
-0.315851861
 10
-4.162965844
 20
-0.3268651342
 10
-4.1518549498
 20
-0.3364939972
 10
-4.1398694211
 20
-0.34473845
  0
LWPOLYLINE
  5
242
100
AcDbEntity
  8
COPY_PUBLISH
100
AcDbPolyline
 62
7
  6
CONTINUOUS
 90
13
 70
0
 10
-4.2051975693
 20
-0.1941268033
 10
-4.2087247461
 20
-0.2053829391
 10
-4.2104054193
 20
-0.2174952058
 10
-4.2102395887
 20
-0.2304636033
 10
-4.2081259923
 20
-0.244673349
 10
-4.2041658922
 20
-0.2597392256
 10
-4.1986630747
 20
-0.2745055803
 10
-4.1914961075
 20
-0.2889488251
 10
-4.1827864228
 20
-0.3030925482
 10
-4.1732021036
 20
-0.315851861
 10
-4.162965844
 20
-0.3268651342
 10
-4.1518549498
 20
-0.3364939972
 10
-4.1398694211
 20
-0.34473845
  0
LWPOLYLINE
  5
243
100
AcDbEntity
  8
0
100
AcDbPolyline
 62
7
  6
CONTINUOUS
 90
19
 70
0
 10
-4.5342523554
 20
-0.9214090962
 10
-4.5419798119
 20
-0.9426560386
 10
-4.5472107358
 20
-0.9655370816
 10
-4.549945127
 20
-0.9900522254
 10
-4.5501561503
 20
-1.0165316074
 10
-4.547870641
 20
-1.0446450901
 10
-4.5431691052
 20
-1.0734022609
 10
-4.5359661994
 20
-1.1028221525
 10
-4.5263472671
 20
-1.1328857321
 10
-4.514648845
 20
-1.1625454885
 10
-4.500798515
 20
-1.1917872633
 10
-4.4848686951
 20
-1.220625215
 10
-4.4674131763
 20
-1.2480543072
 10
-4.4483750759
 20
-1.2740279984
 10
-4.4278112765
 20
-1.2985928302
 10
-4.4064462164
 20
-1.320883391
 10
-4.3845213751
 20
-1.3406112103
 10
-4.3617952732
 20
-1.3580647587
 10
-4.3382679107
 20
-1.3732440361
  0
LWPOLYLINE
  5
244
100
AcDbEntity
  8
COPY_PUBLISH
100
AcDbPolyline
 62
7
  6
CONTINUOUS
 90
19
 70
0
 10
-4.5342523554
 20
-0.9214090962
 10
-4.5419798119
 20
-0.9426560386
 10
-4.5472107358
 20
-0.9655370816
 10
-4.549945127
 20
-0.9900522254
 10
-4.5501561503
 20
-1.0165316074
 10
-4.547870641
 20
-1.0446450901
 10
-4.5431691052
 20
-1.0734022609
 10
-4.5359661994
 20
-1.1028221525
 10
-4.5263472671
 20
-1.1328857321
 10
-4.514648845
 20
-1.1625454885
 10
-4.500798515
 20
-1.1917872633
 10
-4.4848686951
 20
-1.220625215
 10
-4.4674131763
 20
-1.2480543072
 10
-4.4483750759
 20
-1.2740279984
 10
-4.4278112765
 20
-1.2985928302
 10
-4.4064462164
 20
-1.320883391
 10
-4.3845213751
 20
-1.3406112103
 10
-4.3617952732
 20
-1.3580647587
 10
-4.3382679107
 20
-1.3732440361
  0
LINE
  5
245
100
AcDbEntity
  8
DRAFT
100
AcDbLine
 62
7
  6
CONTINUOUS
 10
-4.5342523555
 20
-0.9214090965
 11
-4.540269804
 21
-0.9369646994
  0
LWPOLYLINE
  5
246
100
AcDbEntity
  8
DRAFT
100
AcDbPolyline
 62
7
  6
CONTINUOUS
 90
7
 70
0
 10
-4.2051975693
 20
-0.1941268035
 10
-4.2072033467
 20
-0.1993119507
 10
-4.2087427779
 20
-0.2048475773
 10
-4.209815863
 20
-0.2107336831
 10
-4.2104234972
 20
-0.2170153369
 10
-4.2105647853
 20
-0.22364747
 10
-4.2102399715
 20
-0.2304336655
  0
LINE
  5
247
100
AcDbEntity
  8
0
100
AcDbLine
 62
7
  6
CONTINUOUS
 10
-3.1430095662
 20
2.1535385677
 11
-4.2051975693
 21
-0.1941268033
  0
LINE
  5
248
100
AcDbEntity
  8
DRAFT
100
AcDbLine
 62
7
  6
CONTINUOUS
 10
-3.1430095661
 20
2.153538568
 11
-4.2051975693
 21
-0.1941268035
  0
LINE
  5
249
100
AcDbEntity
  8
COPY_PUBLISH
100
AcDbLine
 62
7
  6
CONTINUOUS
 10
-3.1430095662
 20
2.1535385677
 11
-4.2051975693
 21
-0.1941268033
  0
LINE
  5
24A
100
AcDbEntity
  8
0
100
AcDbLine
 62
7
  6
CONTINUOUS
 10
-4.4980907883
 20
-0.8414842067
 11
-4.5342523554
 21
-0.9214090962
  0
LINE
  5
24B
100
AcDbEntity
  8
DRAFT
100
AcDbLine
 62
7
  6
CONTINUOUS
 10
-4.4980907882
 20
-0.8414842065
 11
-4.5342523555
 21
-0.9214090965
  0
LINE
  5
24C
100
AcDbEntity
  8
COPY_PUBLISH
100
AcDbLine
 62
7
  6
CONTINUOUS
 10
-4.4980907883
 20
-0.8414842067
 11
-4.5342523554
 21
-0.9214090962
  0
LWPOLYLINE
  5
24D
100
AcDbEntity
  8
DRAFT
100
AcDbPolyline
 62
7
  6
CONTINUOUS
 90
4
 70
0
 10
-3.1109872446
 20
2.1967268178
 10
-3.1232141512
 20
2.184738505
 10
-3.1338928568
 20
2.170337913
 10
-3.1430095661
 20
2.153538568
  0
LWPOLYLINE
  5
24E
100
AcDbEntity
  8
0
100
AcDbPolyline
 62
7
  6
CONTINUOUS
 90
5
 70
0
 10
-3.0988176511
 20
2.205392513
 10
-3.1110050558
 20
2.1967141347
 10
-3.123242246
 20
2.1847152079
 10
-3.1339104161
 20
2.1703233522
 10
-3.1430095662
 20
2.1535385677
  0
LWPOLYLINE
  5
24F
100
AcDbEntity
  8
COPY_PUBLISH
100
AcDbPolyline
 62
7
  6
CONTINUOUS
 90
5
 70
0
 10
-3.0988176511
 20
2.205392513
 10
-3.1110050558
 20
2.1967141347
 10
-3.123242246
 20
2.1847152079
 10
-3.1339104161
 20
2.1703233522
 10
-3.1430095662
 20
2.1535385677
  0
LINE
  5
250
100
AcDbEntity
  8
DRAFT
100
AcDbLine
 62
7
  6
CONTINUOUS
 10
-3.098817313
 20
2.2053927177
 11
-3.1109872446
 21
2.1967268178
  0
LINE
  5
251
100
AcDbEntity
  8
DRAFT
100
AcDbLine
 62
7
  6
CONTINUOUS
 10
8.950557843
 20
8.7634235444
 11
8.6323597915
 21
8.5989552047
  0
LINE
  5
252
100
AcDbEntity
  8
DRAFT
100
AcDbLine
 62
7
  6
CONTINUOUS
 10
8.0746822556
 20
8.6975860123
 11
7.166046301
 21
8.2929187435
  0
LWPOLYLINE
  5
253
100
AcDbEntity
  8
DRAFT
100
AcDbPolyline
 62
7
  6
CONTINUOUS
 90
3
 70
0
 10
0.4351303192
 20
-4.1003955857
 10
0.450052082
 20
-4.098851534
 10
0.4632412512
 20
-4.0957338728
  0
LWPOLYLINE
  5
254
100
AcDbEntity
  8
DRAFT
100
AcDbPolyline
 62
7
  6
CONTINUOUS
 90
4
 70
0
 10
-1.6532218495
 20
-4.0603817233
 10
-1.6449956553
 20
-4.0604103375
 10
-1.6372353825
 20
-4.0588978709
 10
-1.6309516664
 20
-4.0562809871
  0
LINE
  5
255
100
AcDbEntity
  8
DRAFT
100
AcDbLine
 62
7
  6
CONTINUOUS
 10
0.4195281084
 20
-4.1000767363
 11
0.4351303192
 21
-4.1003955857
  0
LINE
  5
256
100
AcDbEntity
  8
DRAFT
100
AcDbLine
 62
7
  6
CONTINUOUS
 10
0.4032589264
 20
-4.0979323851
 11
0.4195281084
 21
-4.1000767363
  0
LWPOLYLINE
  5
257
100
AcDbEntity
  8
DRAFT
100
AcDbPolyline
 62
7
  6
CONTINUOUS
 90
3
 70
0
 10
0.3698034887
 20
-4.0883131999
 10
0.3866479251
 20
-4.0940063389
 10
0.402334739
 20
-4.0977139514
  0
LINE
  5
258
100
AcDbEntity
  8
DRAFT
100
AcDbLine
 62
7
  6
CONTINUOUS
 10
0.352617233
 20
-4.0808383658
 11
0.3698034887
 21
-4.0883131999
  0
LWPOLYLINE
  5
259
100
AcDbEntity
  8
DRAFT
100
AcDbPolyline
 62
7
  6
CONTINUOUS
 90
4
 70
0
 10
-1.6803184961
 20
-4.0509691037
 10
-1.6708203591
 20
-4.0556477243
 10
-1.6617881436
 20
-4.0587852642
 10
-1.6532406446
 20
-4.0603782206
  0
LWPOLYLINE
  5
25A
100
AcDbEntity
  8
DRAFT
100
AcDbPolyline
 62
7
  6
CONTINUOUS
 90
7
 70
0
 10
-2.5288466335
 20
-3.0711574256
 10
-2.5383447705
 20
-3.066478805
 10
-2.5473769861
 20
-3.0633412651
 10
-2.5559432801
 20
-3.0617448059
 10
-2.5641694744
 20
-3.0617161917
 10
-2.5719297472
 20
-3.0632286583
 10
-2.5794767573
 20
-3.0665749553
  0
LWPOLYLINE
  5
25B
100
AcDbEntity
  8
0
100
AcDbPolyline
 62
7
  6
CONTINUOUS
 90
7
 70
0
 10
-1.6803184961
 20
-4.0509691037
 10
-1.6708404339
 20
-4.0556457425
 10
-1.6618202632
 20
-4.0587820933
 10
-1.6532579841
 20
-4.0603781561
 10
-1.6450243147
 20
-4.060408788
 10
-1.6372485369
 20
-4.0588991318
 10
-1.6309517182
 20
-4.0562810155
  0
LWPOLYLINE
  5
25C
100
AcDbEntity
  8
COPY_PUBLISH
100
AcDbPolyline
 62
7
  6
CONTINUOUS
 90
7
 70
0
 10
-1.6803184961
 20
-4.0509691037
 10
-1.6708404339
 20
-4.0556457425
 10
-1.6618202632
 20
-4.0587820933
 10
-1.6532579841
 20
-4.0603781561
 10
-1.6450243147
 20
-4.060408788
 10
-1.6372485369
 20
-4.0588991318
 10
-1.6309517182
 20
-4.0562810155
  0
LWPOLYLINE
  5
25D
100
AcDbEntity
  8
0
100
AcDbPolyline
 62
7
  6
CONTINUOUS
 90
4
 70
0
 10
-2.5288466335
 20
-3.0711574256
 10
-2.5383246958
 20
-3.0664807868
 10
-2.5473448664
 20
-3.063344436
 10
-2.5559071456
 20
-3.0617483732
  0
LWPOLYLINE
  5
25E
100
AcDbEntity
  8
COPY_PUBLISH
100
AcDbPolyline
 62
7
  6
CONTINUOUS
 90
4
 70
0
 10
-2.5288466335
 20
-3.0711574256
 10
-2.5383246958
 20
-3.0664807868
 10
-2.5473448664
 20
-3.063344436
 10
-2.5559071456
 20
-3.0617483732
  0
LINE
  5
25F
100
AcDbEntity
  8
0
100
AcDbLine
 62
7
  6
CONTINUOUS
 10
-2.5288466335
 20
-3.5610395917
 11
-1.6803184961
 21
-4.0509691037
  0
LINE
  5
260
100
AcDbEntity
  8
DRAFT
100
AcDbLine
 62
7
  6
CONTINUOUS
 10
-2.5288466335
 20
-3.5610395917
 11
-1.6803184961
 21
-4.0509691037
  0
LINE
  5
261
100
AcDbEntity
  8
COPY_PUBLISH
100
AcDbLine
 62
7
  6
CONTINUOUS
 10
-2.5288466335
 20
-3.5610395917
 11
-1.6803184961
 21
-4.0509691037
  0
LINE
  5
262
100
AcDbEntity
  8
0
100
AcDbLine
 62
7
  6
CONTINUOUS
 10
-1.6803184961
 20
-3.5610869376
 11
-2.5288466335
 21
-3.0711574256
  0
LINE
  5
263
100
AcDbEntity
  8
DRAFT
100
AcDbLine
 62
7
  6
CONTINUOUS
 10
-1.6803184961
 20
-3.5610869376
 11
-2.5288466335
 21
-3.0711574256
  0
LINE
  5
264
100
AcDbEntity
  8
COPY_PUBLISH
100
AcDbLine
 62
7
  6
CONTINUOUS
 10
-1.6803184961
 20
-3.5610869376
 11
-2.5288466335
 21
-3.0711574256
  0
LWPOLYLINE
  5
265
100
AcDbEntity
  8
DRAFT
100
AcDbPolyline
 62
7
  6
CONTINUOUS
 90
3
 70
0
 10
-4.3729652329
 20
-1.3498997769
 10
-4.3557889267
 20
-1.3622625776
 10
-4.3382679107
 20
-1.3732440361
  0
LWPOLYLINE
  5
266
100
AcDbEntity
  8
DRAFT
100
AcDbPolyline
 62
7
  6
CONTINUOUS
 90
4
 70
0
 10
-2.5559244851
 20
-3.5391798844
 10
-2.5473769861
 20
-3.5474573656
 10
-2.5383447705
 20
-3.5547500018
 10
-2.5288466335
 20
-3.5610395917
  0
LWPOLYLINE
  5
267
100
AcDbEntity
  8
0
100
AcDbPolyline
 62
7
  6
CONTINUOUS
 90
4
 70
0
 10
-1.6532579841
 20
-3.5829266862
 10
-1.6618202632
 20
-3.5746352436
 10
-1.6708404339
 20
-3.5673553274
 10
-1.6803184961
 20
-3.5610869376
  0
LWPOLYLINE
  5
268
100
AcDbEntity
  8
COPY_PUBLISH
100
AcDbPolyline
 62
7
  6
CONTINUOUS
 90
4
 70
0
 10
-1.6532579841
 20
-3.5829266862
 10
-1.6618202632
 20
-3.5746352436
 10
-1.6708404339
 20
-3.5673553274
 10
-1.6803184961
 20
-3.5610869376
  0
LWPOLYLINE
  5
269
100
AcDbEntity
  8
DRAFT
100
AcDbPolyline
 62
7
  6
CONTINUOUS
 90
7
 70
0
 10
-4.1986463533
 20
-0.2745441174
 10
-4.1952422168
 20
-0.2818881967
 10
-4.1914470583
 20
-0.2891552049
 10
-4.1873365723
 20
-0.2962010666
 10
-4.1829047724
 20
-0.3030210401
 10
-4.1781576451
 20
-0.3096198671
 10
-4.1732134146
 20
-0.315836803
  0
LWPOLYLINE
  5
26A
100
AcDbEntity
  8
DRAFT
100
AcDbPolyline
 62
7
  6
CONTINUOUS
 90
7
 70
0
 10
-2.5941595093
 20
-3.4729692325
 10
-2.5900707961
 20
-3.4848284892
 10
-2.584880408
 20
-3.4967858567
 10
-2.5788466335
 20
-3.5082563576
 10
-2.5719297472
 20
-3.5192170593
 10
-2.5641694744
 20
-3.5296908943
 10
-2.5559432801
 20
-3.5391616831
  0
LWPOLYLINE
  5
26B
100
AcDbEntity
  8
DRAFT
100
AcDbPolyline
 62
7
  6
CONTINUOUS
 90
7
 70
0
 10
-4.2102370417
 20
-0.2304948763
 10
-4.2094308228
 20
-0.2375600988
 10
-4.2081555722
 20
-0.2448405945
 10
-4.2064369354
 20
-0.2521935277
 10
-4.2042660062
 20
-0.259621123
 10
-4.2016516908
 20
-0.2671211557
 10
-4.1986760193
 20
-0.2744708445
  0
LWPOLYLINE
  5
26C
100
AcDbEntity
  8
DRAFT
100
AcDbPolyline
 62
7
  6
CONTINUOUS
 90
4
 70
0
 10
-2.5995573117
 20
-3.4385651047
 10
-2.598859719
 20
-3.4499350365
 10
-2.5970604516
 20
-3.4614030791
 10
-2.5941658742
 20
-3.4729438555
  0
LWPOLYLINE
  5
26D
100
AcDbEntity
  8
DRAFT
100
AcDbPolyline
 62
7
  6
CONTINUOUS
 90
13
 70
0
 10
-1.609607818
 20
-3.6835614246
 10
-1.6103054106
 20
-3.6721914928
 10
-1.6121046781
 20
-3.6607234502
 10
-1.6150056203
 20
-3.6491572968
 10
-1.6190943336
 20
-3.6372980401
 10
-1.6242847216
 20
-3.6253406726
 10
-1.6303184961
 20
-3.6138701717
 10
-1.6372353825
 20
-3.60290947
 10
-1.6449956553
 20
-3.5924356349
 10
-1.6532218495
 20
-3.5829648462
 10
-1.6617881436
 20
-3.5746691637
 10
-1.6708203591
 20
-3.5673765275
 10
-1.6803184961
 20
-3.5610869376
  0
LWPOLYLINE
  5
26E
100
AcDbEntity
  8
0
100
AcDbPolyline
 62
7
  6
CONTINUOUS
 90
13
 70
0
 10
-2.5995573117
 20
-3.4385651047
 10
-2.598868041
 20
-3.4499070519
 10
-2.5970737668
 20
-3.4613583037
 10
-2.5941744889
 20
-3.4729188602
 10
-2.5900837852
 20
-3.4847878974
 10
-2.5848880778
 20
-3.4967662393
 10
-2.5788466335
 20
-3.5082563576
 10
-2.5719165927
 20
-3.5192335106
 10
-2.5641408149
 20
-3.52972244
 10
-2.5559071456
 20
-3.5391998431
 10
-2.5473448664
 20
-3.5474912856
 10
-2.5383246958
 20
-3.5547712018
 10
-2.5288466335
 20
-3.5610395917
  0
LWPOLYLINE
  5
26F
100
AcDbEntity
  8
COPY_PUBLISH
100
AcDbPolyline
 62
7
  6
CONTINUOUS
 90
13
 70
0
 10
-2.5995573117
 20
-3.4385651047
 10
-2.598868041
 20
-3.4499070519
 10
-2.5970737668
 20
-3.4613583037
 10
-2.5941744889
 20
-3.4729188602
 10
-2.5900837852
 20
-3.4847878974
 10
-2.5848880778
 20
-3.4967662393
 10
-2.5788466335
 20
-3.5082563576
 10
-2.5719165927
 20
-3.5192335106
 10
-2.5641408149
 20
-3.52972244
 10
-2.5559071456
 20
-3.5391998431
 10
-2.5473448664
 20
-3.5474912856
 10
-2.5383246958
 20
-3.5547712018
 10
-2.5288466335
 20
-3.5610395917
  0
LWPOLYLINE
  5
270
100
AcDbEntity
  8
0
100
AcDbPolyline
 62
7
  6
CONTINUOUS
 90
4
 70
0
 10
-1.609607818
 20
-3.6835614246
 10
-1.6102970886
 20
-3.6722194774
 10
-1.6120913629
 20
-3.6607682256
 10
-1.6149906407
 20
-3.6492076691
  0
LWPOLYLINE
  5
271
100
AcDbEntity
  8
COPY_PUBLISH
100
AcDbPolyline
 62
7
  6
CONTINUOUS
 90
4
 70
0
 10
-1.609607818
 20
-3.6835614246
 10
-1.6102970886
 20
-3.6722194774
 10
-1.6120913629
 20
-3.6607682256
 10
-1.6149906407
 20
-3.6492076691
  0
LINE
  5
272
100
AcDbEntity
  8
0
100
AcDbLine
 62
7
  6
CONTINUOUS
 10
-2.5995573117
 20
-3.1119769939
 11
-2.5995573117
 21
-3.4385651047
  0
LINE
  5
273
100
AcDbEntity
  8
DRAFT
100
AcDbLine
 62
7
  6
CONTINUOUS
 10
-2.5995573117
 20
-3.1119769939
 11
-2.5995573117
 21
-3.4385651047
  0
LINE
  5
274
100
AcDbEntity
  8
COPY_PUBLISH
100
AcDbLine
 62
7
  6
CONTINUOUS
 10
-2.5995573117
 20
-3.1119769939
 11
-2.5995573117
 21
-3.4385651047
  0
LINE
  5
275
100
AcDbEntity
  8
0
100
AcDbLine
 62
7
  6
CONTINUOUS
 10
-3.7683945271
 20
-0.5088213354
 11
-2.8052830276
 21
1.61986352
  0
LINE
  5
276
100
AcDbEntity
  8
DRAFT
100
AcDbLine
 62
7
  6
CONTINUOUS
 10
-3.768394527
 20
-0.5088213353
 11
-2.8052830276
 21
1.61986352
  0
LINE
  5
277
100
AcDbEntity
  8
COPY_PUBLISH
100
AcDbLine
 62
7
  6
CONTINUOUS
 10
-3.7683945271
 20
-0.5088213354
 11
-2.8052830276
 21
1.61986352
  0
LINE
  5
278
100
AcDbEntity
  8
0
100
AcDbLine
 62
7
  6
CONTINUOUS
 10
-3.7726581268
 20
-0.5161655816
 11
-3.7683945271
 21
-0.5088213354
  0
LINE
  5
279
100
AcDbEntity
  8
DRAFT
100
AcDbLine
 62
7
  6
CONTINUOUS
 10
-3.7726581267
 20
-0.5161655815
 11
-3.768394527
 21
-0.5088213353
  0
LINE
  5
27A
100
AcDbEntity
  8
COPY_PUBLISH
100
AcDbLine
 62
7
  6
CONTINUOUS
 10
-3.7726581268
 20
-0.5161655816
 11
-3.7683945271
 21
-0.5088213354
  0
LINE
  5
27B
100
AcDbEntity
  8
RACCORDO
100
AcDbLine
 62
7
  6
CONTINUOUS
 10
7.2795249851
 20
9.4072720475
 11
8.2583934296
 21
10.2075092452
  0
LWPOLYLINE
  5
27C
100
AcDbEntity
  8
0
100
AcDbPolyline
 62
7
  6
CONTINUOUS
 90
4
 70
0
 10
-4.4833943092
 20
-0.8242202655
 10
-4.4887178056
 20
-0.8282606532
 10
-4.4938271884
 20
-0.8341399604
 10
-4.4980907883
 20
-0.8414842067
  0
LWPOLYLINE
  5
27D
100
AcDbEntity
  8
DRAFT
100
AcDbPolyline
 62
7
  6
CONTINUOUS
 90
4
 70
0
 10
-4.4833943092
 20
-0.8242202655
 10
-4.4887178056
 20
-0.8282606532
 10
-4.4938271884
 20
-0.8341399603
 10
-4.4980907882
 20
-0.8414842065
  0
LWPOLYLINE
  5
27E
100
AcDbEntity
  8
COPY_PUBLISH
100
AcDbPolyline
 62
7
  6
CONTINUOUS
 90
4
 70
0
 10
-4.4833943092
 20
-0.8242202655
 10
-4.4887178056
 20
-0.8282606532
 10
-4.4938271884
 20
-0.8341399604
 10
-4.4980907883
 20
-0.8414842067
  0
LWPOLYLINE
  5
27F
100
AcDbEntity
  8
0
100
AcDbPolyline
 62
7
  6
CONTINUOUS
 90
3
 70
0
 10
-3.7843558982
 20
-0.5268156565
 10
-3.7777675095
 20
-0.5220448887
 10
-3.7726581268
 20
-0.5161655816
  0
LWPOLYLINE
  5
280
100
AcDbEntity
  8
DRAFT
100
AcDbPolyline
 62
7
  6
CONTINUOUS
 90
3
 70
0
 10
-3.7843558982
 20
-0.5268156565
 10
-3.7777675095
 20
-0.5220448887
 10
-3.7726581267
 20
-0.5161655815
  0
LWPOLYLINE
  5
281
100
AcDbEntity
  8
COPY_PUBLISH
100
AcDbPolyline
 62
7
  6
CONTINUOUS
 90
3
 70
0
 10
-3.7843558982
 20
-0.5268156565
 10
-3.7777675095
 20
-0.5220448887
 10
-3.7726581268
 20
-0.5161655816
  0
LINE
  5
282
100
AcDbEntity
  8
DRAFT
100
AcDbLine
 62
7
  6
CONTINUOUS
 10
6.7202441037
 20
8.0226023865
 11
7.1657213758
 21
8.2936483274
  0
LWPOLYLINE
  5
283
100
AcDbEntity
  8
0
100
AcDbPolyline
 62
7
  6
CONTINUOUS
 90
4
 70
0
 10
-2.5559244851
 20
-3.0617483087
 10
-2.5641408149
 20
-3.0617177413
 10
-2.5719165927
 20
-3.0632273975
 10
-2.5794768082
 20
-3.0665749862
  0
LWPOLYLINE
  5
284
100
AcDbEntity
  8
COPY_PUBLISH
100
AcDbPolyline
 62
7
  6
CONTINUOUS
 90
4
 70
0
 10
-2.5559244851
 20
-3.0617483087
 10
-2.5641408149
 20
-3.0617177413
 10
-2.5719165927
 20
-3.0632273975
 10
-2.5794768082
 20
-3.0665749862
  0
LWPOLYLINE
  5
285
100
AcDbEntity
  8
0
100
AcDbPolyline
 62
7
  6
CONTINUOUS
 90
7
 70
0
 10
-4.4327626399
 20
-0.8288017977
 10
-4.4422403093
 20
-0.8241251978
 10
-4.4512602443
 20
-0.8209888703
 10
-4.4598224449
 20
-0.8193928153
 10
-4.4680562605
 20
-0.8193621439
 10
-4.4758323417
 20
-0.820871745
 10
-4.4833943092
 20
-0.8242202655
  0
LWPOLYLINE
  5
286
100
AcDbEntity
  8
DRAFT
100
AcDbPolyline
 62
7
  6
CONTINUOUS
 90
7
 70
0
 10
-4.4327626399
 20
-0.8288017977
 10
-4.4422403093
 20
-0.8241251978
 10
-4.4512602443
 20
-0.8209888703
 10
-4.4598224449
 20
-0.8193928153
 10
-4.4680562605
 20
-0.8193621439
 10
-4.4758323417
 20
-0.820871745
 10
-4.4833943092
 20
-0.8242202655
  0
LWPOLYLINE
  5
287
100
AcDbEntity
  8
COPY_PUBLISH
100
AcDbPolyline
 62
7
  6
CONTINUOUS
 90
7
 70
0
 10
-4.4327626399
 20
-0.8288017977
 10
-4.4422403093
 20
-0.8241251978
 10
-4.4512602443
 20
-0.8209888703
 10
-4.4598224449
 20
-0.8193928153
 10
-4.4680562605
 20
-0.8193621439
 10
-4.4758323417
 20
-0.820871745
 10
-4.4833943092
 20
-0.8242202655
  0
LWPOLYLINE
  5
288
100
AcDbEntity
  8
0
100
AcDbPolyline
 62
7
  6
CONTINUOUS
 90
7
 70
0
 10
-3.8337226752
 20
-0.5215037442
 10
-3.8242450057
 20
-0.5261803441
 10
-3.8152250707
 20
-0.5293166715
 10
-3.8066628702
 20
-0.5309127265
 10
-3.7984290546
 20
-0.5309433979
 10
-3.7906529734
 20
-0.5294337969
 10
-3.7843558982
 20
-0.5268156565
  0
LWPOLYLINE
  5
289
100
AcDbEntity
  8
DRAFT
100
AcDbPolyline
 62
7
  6
CONTINUOUS
 90
7
 70
0
 10
-3.8337226752
 20
-0.5215037442
 10
-3.8242450057
 20
-0.5261803441
 10
-3.8152250707
 20
-0.5293166715
 10
-3.8066628702
 20
-0.5309127265
 10
-3.7984290545
 20
-0.5309433979
 10
-3.7906529734
 20
-0.5294337969
 10
-3.7843558982
 20
-0.5268156565
  0
LWPOLYLINE
  5
28A
100
AcDbEntity
  8
COPY_PUBLISH
100
AcDbPolyline
 62
7
  6
CONTINUOUS
 90
7
 70
0
 10
-3.8337226752
 20
-0.5215037442
 10
-3.8242450057
 20
-0.5261803441
 10
-3.8152250707
 20
-0.5293166715
 10
-3.8066628702
 20
-0.5309127265
 10
-3.7984290546
 20
-0.5309433979
 10
-3.7906529734
 20
-0.5294337969
 10
-3.7843558982
 20
-0.5268156565
  0
LWPOLYLINE
  5
28B
100
AcDbEntity
  8
0
100
AcDbPolyline
 62
7
  6
CONTINUOUS
 90
8
 70
0
 10
0.3350891581
 20
-4.0715818367
 10
0.3586165612
 20
-4.0835714032
 10
0.3813427213
 20
-4.0923613985
 10
0.4032676383
 20
-4.0979518225
 10
0.4246327989
 20
-4.1003330726
 10
0.4451967164
 20
-4.0995147514
 10
0.4642349315
 20
-4.0955256666
 10
0.4832904077
 20
-4.087462137
  0
LWPOLYLINE
  5
28C
100
AcDbEntity
  8
COPY_PUBLISH
100
AcDbPolyline
 62
7
  6
CONTINUOUS
 90
8
 70
0
 10
0.3350891581
 20
-4.0715818367
 10
0.3586165612
 20
-4.0835714032
 10
0.3813427213
 20
-4.0923613985
 10
0.4032676383
 20
-4.0979518225
 10
0.4246327989
 20
-4.1003330726
 10
0.4451967164
 20
-4.0995147514
 10
0.4642349315
 20
-4.0955256666
 10
0.4832904077
 20
-4.087462137
  0
LINE
  5
28D
100
AcDbEntity
  8
DRAFT
100
AcDbLine
 62
7
  6
CONTINUOUS
 10
0.3350891581
 20
-4.0715818367
 11
0.352617233
 21
-4.0808383658
  0
LINE
  5
28E
100
AcDbEntity
  8
0
100
AcDbLine
 62
7
  6
CONTINUOUS
 10
-4.3382679107
 20
-1.3732440361
 11
0.3350891581
 21
-4.0715818367
  0
LINE
  5
28F
100
AcDbEntity
  8
DRAFT
100
AcDbLine
 62
7
  6
CONTINUOUS
 10
-4.3382679107
 20
-1.3732440361
 11
0.3350891581
 21
-4.0715818367
  0
LINE
  5
290
100
AcDbEntity
  8
COPY_PUBLISH
100
AcDbLine
 62
7
  6
CONTINUOUS
 10
-4.3382679107
 20
-1.3732440361
 11
0.3350891581
 21
-4.0715818367
  0
LINE
  5
291
100
AcDbEntity
  8
0
100
AcDbLine
 62
7
  6
CONTINUOUS
 10
0.017611133
 20
-3.3983918379
 11
-4.4327626399
 21
-0.8288017977
  0
LINE
  5
292
100
AcDbEntity
  8
DRAFT
100
AcDbLine
 62
7
  6
CONTINUOUS
 10
0.017611133
 20
-3.3983918379
 11
-4.4327626399
 21
-0.8288017977
  0
LINE
  5
293
100
AcDbEntity
  8
COPY_PUBLISH
100
AcDbLine
 62
7
  6
CONTINUOUS
 10
0.017611133
 20
-3.3983918379
 11
-4.4327626399
 21
-0.8288017977
  0
LINE
  5
294
100
AcDbEntity
  8
0
100
AcDbLine
 62
7
  6
CONTINUOUS
 10
-4.1398694211
 20
-0.34473845
 11
-3.8337226752
 21
-0.5215037442
  0
LINE
  5
295
100
AcDbEntity
  8
DRAFT
100
AcDbLine
 62
7
  6
CONTINUOUS
 10
-4.1398694211
 20
-0.34473845
 11
-3.8337226752
 21
-0.5215037442
  0
LINE
  5
296
100
AcDbEntity
  8
COPY_PUBLISH
100
AcDbLine
 62
7
  6
CONTINUOUS
 10
-4.1398694211
 20
-0.34473845
 11
-3.8337226752
 21
-0.5215037442
  0
LWPOLYLINE
  5
297
100
AcDbEntity
  8
DRAFT
100
AcDbPolyline
 62
7
  6
CONTINUOUS
 90
7
 70
0
 10
-4.1731888442
 20
-0.3158676981
 10
-4.1679939871
 20
-0.3217577544
 10
-4.1625774564
 20
-0.3272968147
 10
-4.1570460543
 20
-0.3323753658
 10
-4.1514353813
 20
-0.3369569031
 10
-4.1457098369
 20
-0.3410779312
 10
-4.1398694211
 20
-0.34473845
  0
LWPOLYLINE
  5
298
100
AcDbEntity
  8
0
100
AcDbPolyline
 62
7
  6
CONTINUOUS
 90
4
 70
0
 10
-1.6303184961
 20
-3.6138701717
 10
-1.6372485369
 20
-3.6028930187
 10
-1.6450243147
 20
-3.5924040893
 10
-1.6532406446
 20
-3.5829466449
  0
LWPOLYLINE
  5
299
100
AcDbEntity
  8
COPY_PUBLISH
100
AcDbPolyline
 62
7
  6
CONTINUOUS
 90
4
 70
0
 10
-1.6303184961
 20
-3.6138701717
 10
-1.6372485369
 20
-3.6028930187
 10
-1.6450243147
 20
-3.5924040893
 10
-1.6532406446
 20
-3.5829466449
  0
LWPOLYLINE
  5
29A
100
AcDbEntity
  8
0
100
AcDbPolyline
 62
7
  6
CONTINUOUS
 90
4
 70
0
 10
-1.6149992555
 20
-3.6491826737
 10
-1.6190813445
 20
-3.6373386319
 10
-1.6242770518
 20
-3.62536029
 10
-1.6303184961
 20
-3.6138701717
  0
LWPOLYLINE
  5
29B
100
AcDbEntity
  8
COPY_PUBLISH
100
AcDbPolyline
 62
7
  6
CONTINUOUS
 90
4
 70
0
 10
-1.6149992555
 20
-3.6491826737
 10
-1.6190813445
 20
-3.6373386319
 10
-1.6242770518
 20
-3.62536029
 10
-1.6303184961
 20
-3.6138701717
  0
LINE
  5
29C
100
AcDbEntity
  8
0
100
AcDbLine
 62
7
  6
CONTINUOUS
 10
-1.609607818
 20
-4.0101495353
 11
-1.609607818
 21
-3.6835614246
  0
LINE
  5
29D
100
AcDbEntity
  8
DRAFT
100
AcDbLine
 62
7
  6
CONTINUOUS
 10
-1.609607818
 20
-4.0101495353
 11
-1.609607818
 21
-3.6835614246
  0
LINE
  5
29E
100
AcDbEntity
  8
COPY_PUBLISH
100
AcDbLine
 62
7
  6
CONTINUOUS
 10
-1.609607818
 20
-4.0101495353
 11
-1.609607818
 21
-3.6835614246
  0
LINE
  5
29F
100
AcDbEntity
  8
0
100
AcDbLine
 62
7
  6
CONTINUOUS
 10
-1.6102970886
 20
-4.0206955301
 11
-1.609607818
 21
-4.0101495353
  0
LINE
  5
2A0
100
AcDbEntity
  8
COPY_PUBLISH
100
AcDbLine
 62
7
  6
CONTINUOUS
 10
-1.6102970886
 20
-4.0206955301
 11
-1.609607818
 21
-4.0101495353
  0
LINE
  5
2A1
100
AcDbEntity
  8
DRAFT
100
AcDbLine
 62
7
  6
CONTINUOUS
 10
-1.6103054106
 20
-4.0207139047
 11
-1.609607818
 21
-4.0101495353
  0
LWPOLYLINE
  5
2A2
100
AcDbEntity
  8
DRAFT
100
AcDbPolyline
 62
7
  6
CONTINUOUS
 90
4
 70
0
 10
-2.5941658742
 20
-3.0838241399
 10
-2.5970604516
 20
-3.0920223309
 10
-2.598859719
 20
-3.1014126246
 10
-2.5995573117
 20
-3.1119769939
  0
LWPOLYLINE
  5
2A3
100
AcDbEntity
  8
0
100
AcDbPolyline
 62
7
  6
CONTINUOUS
 90
3
 70
0
 10
-1.6149906407
 20
-4.0382873421
 10
-1.6120913629
 20
-4.030074799
 10
-1.6102970886
 20
-4.0206955301
  0
LWPOLYLINE
  5
2A4
100
AcDbEntity
  8
COPY_PUBLISH
100
AcDbPolyline
 62
7
  6
CONTINUOUS
 90
3
 70
0
 10
-1.6149906407
 20
-4.0382873421
 10
-1.6120913629
 20
-4.030074799
 10
-1.6102970886
 20
-4.0206955301
  0
LINE
  5
2A5
100
AcDbEntity
  8
DRAFT
100
AcDbLine
 62
7
  6
CONTINUOUS
 10
8.950557843
 20
6.3979279759
 11
8.6323597915
 21
6.1949491816
  0
LINE
  5
2A6
100
AcDbEntity
  8
DRAFT
100
AcDbLine
 62
7
  6
CONTINUOUS
 10
6.7202441037
 20
3.9402510026
 11
7.1657213758
 21
4.2112969434
  0
LINE
  5
2A7
100
AcDbEntity
  8
RACCORDO
100
AcDbLine
 62
250
  6
CONTINUOUS
 10
6.9433114057
 20
4.503007728
 11
6.7202441037
 21
4.3742114635
  0
LINE
  5
2A8
100
AcDbEntity
  8
RACCORDO
100
AcDbLine
 62
250
  6
CONTINUOUS
 10
7.084732762
 20
4.258058754
 11
6.7202441037
 21
4.0476075708
  0
LINE
  5
2A9
100
AcDbEntity
  8
DRAFT
100
AcDbLine
 62
7
  6
CONTINUOUS
 10
8.0746822556
 20
6.268875521
 11
6.9433114057
 21
5.6370347005
  0
LINE
  5
2AA
100
AcDbEntity
  8
0
100
AcDbLine
 62
7
  6
CONTINUOUS
 10
-2.8052830276
 20
1.61986352
 11
-1.197895725
 21
0.6917782367
  0
LINE
  5
2AB
100
AcDbEntity
  8
DRAFT
100
AcDbLine
 62
7
  6
CONTINUOUS
 10
-2.8052830276
 20
1.61986352
 11
-1.197895725
 21
0.6917782367
  0
LINE
  5
2AC
100
AcDbEntity
  8
COPY_PUBLISH
100
AcDbLine
 62
7
  6
CONTINUOUS
 10
-2.8052830276
 20
1.61986352
 11
-1.197895725
 21
0.6917782367
  0
LWPOLYLINE
  5
2AD
100
AcDbEntity
  8
0
100
AcDbPolyline
 62
7
  6
CONTINUOUS
 90
4
 70
0
 10
-0.9945744309
 20
1.0537179725
 10
-1.0145114802
 20
1.0709879615
 10
-1.0350378803
 20
1.0863554021
 10
-1.0561536312
 20
1.0998202943
  0
LWPOLYLINE
  5
2AE
100
AcDbEntity
  8
COPY_PUBLISH
100
AcDbPolyline
 62
7
  6
CONTINUOUS
 90
4
 70
0
 10
-0.9945744309
 20
1.0537179725
 10
-1.0145114802
 20
1.0709879615
 10
-1.0350378803
 20
1.0863554021
 10
-1.0561536312
 20
1.0998202943
  0
LWPOLYLINE
  5
2AF
100
AcDbEntity
  8
0
100
AcDbPolyline
 62
7
  6
CONTINUOUS
 90
4
 70
0
 10
-0.9382993875
 20
0.9904927153
 10
-0.9561094811
 20
1.0130670758
 10
-0.9750472806
 20
1.0343437983
 10
-0.9945511278
 20
1.0536948519
  0
LWPOLYLINE
  5
2B0
100
AcDbEntity
  8
COPY_PUBLISH
100
AcDbPolyline
 62
7
  6
CONTINUOUS
 90
4
 70
0
 10
-0.9382993875
 20
0.9904927153
 10
-0.9561094811
 20
1.0130670758
 10
-0.9750472806
 20
1.0343437983
 10
-0.9945511278
 20
1.0536948519
  0
LWPOLYLINE
  5
2B1
100
AcDbEntity
  8
0
100
AcDbPolyline
 62
7
  6
CONTINUOUS
 90
4
 70
0
 10
-0.8921736967
 20
0.9155887165
 10
-0.9061270116
 20
0.9413766379
 10
-0.9216493466
 20
0.9665834956
 10
-0.9382993875
 20
0.9904927153
  0
LWPOLYLINE
  5
2B2
100
AcDbEntity
  8
COPY_PUBLISH
100
AcDbPolyline
 62
7
  6
CONTINUOUS
 90
4
 70
0
 10
-0.8921736967
 20
0.9155887165
 10
-0.9061270116
 20
0.9413766379
 10
-0.9216493466
 20
0.9665834956
 10
-0.9382993875
 20
0.9904927153
  0
LWPOLYLINE
  5
2B3
100
AcDbEntity
  8
DRAFT
100
AcDbPolyline
 62
7
  6
CONTINUOUS
 90
13
 70
0
 10
-0.8601691865
 20
0.8354551435
 10
-0.8692858957
 20
0.8627822359
 10
-0.8799646013
 20
0.8895143294
 10
-0.8922053033
 20
0.9156514241
 10
-0.90615336
 20
0.9414270485
 10
-0.9216634131
 20
0.9666076742
 10
-0.9382993875
 20
0.9904927153
 10
-0.9560912506
 20
1.0130476887
 10
-0.9750090351
 20
1.0343070776
 10
-0.9945267631
 20
1.0536737462
 10
-1.0144691089
 20
1.0709486492
 10
-1.0350113983
 20
1.0863308319
 10
-1.0561536312
 20
1.0998202943
  0
LWPOLYLINE
  5
2B4
100
AcDbEntity
  8
0
100
AcDbPolyline
 62
7
  6
CONTINUOUS
 90
4
 70
0
 10
-0.8601691865
 20
0.8354551436
 10
-0.8692683365
 20
0.8627473983
 10
-0.8799365066
 20
0.8894585893
 10
-0.8921736967
 20
0.9155887165
  0
LWPOLYLINE
  5
2B5
100
AcDbEntity
  8
COPY_PUBLISH
100
AcDbPolyline
 62
7
  6
CONTINUOUS
 90
4
 70
0
 10
-0.8601691865
 20
0.8354551436
 10
-0.8692683365
 20
0.8627473983
 10
-0.8799365066
 20
0.8894585893
 10
-0.8921736967
 20
0.9155887165
  0
LINE
  5
2B6
100
AcDbEntity
  8
0
100
AcDbLine
 62
7
  6
CONTINUOUS
 10
-1.197895725
 20
0.6917782367
 11
0.017611133
 21
-3.3983918379
  0
LINE
  5
2B7
100
AcDbEntity
  8
DRAFT
100
AcDbLine
 62
7
  6
CONTINUOUS
 10
-1.197895725
 20
0.6917782367
 11
0.017611133
 21
-3.3983918379
  0
LINE
  5
2B8
100
AcDbEntity
  8
COPY_PUBLISH
100
AcDbLine
 62
7
  6
CONTINUOUS
 10
-1.197895725
 20
0.6917782367
 11
0.017611133
 21
-3.3983918379
  0
LINE
  5
2B9
100
AcDbEntity
  8
0
100
AcDbLine
 62
7
  6
CONTINUOUS
 10
0.5310736028
 20
-3.846064821
 11
-0.8601691865
 21
0.8354551436
  0
LINE
  5
2BA
100
AcDbEntity
  8
DRAFT
100
AcDbLine
 62
7
  6
CONTINUOUS
 10
0.5310736029
 20
-3.8460648214
 11
-0.8601691865
 21
0.8354551435
  0
LINE
  5
2BB
100
AcDbEntity
  8
COPY_PUBLISH
100
AcDbLine
 62
7
  6
CONTINUOUS
 10
0.5310736028
 20
-3.846064821
 11
-0.8601691865
 21
0.8354551436
  0
LWPOLYLINE
  5
2BC
100
AcDbEntity
  8
0
100
AcDbPolyline
 62
7
  6
CONTINUOUS
 90
7
 70
0
 10
-2.5794768082
 20
-3.0665749862
 10
-2.5848880778
 20
-3.0707155229
 10
-2.5900837852
 20
-3.0766939921
 10
-2.5941744889
 20
-3.0838391872
 10
-2.5970737668
 20
-3.0920517303
 10
-2.598868041
 20
-3.1014309992
 10
-2.5995573117
 20
-3.1119769939
  0
LWPOLYLINE
  5
2BD
100
AcDbEntity
  8
COPY_PUBLISH
100
AcDbPolyline
 62
7
  6
CONTINUOUS
 90
7
 70
0
 10
-2.5794768082
 20
-3.0665749862
 10
-2.5848880778
 20
-3.0707155229
 10
-2.5900837852
 20
-3.0766939921
 10
-2.5941744889
 20
-3.0838391872
 10
-2.5970737668
 20
-3.0920517303
 10
-2.598868041
 20
-3.1014309992
 10
-2.5995573117
 20
-3.1119769939
  0
LWPOLYLINE
  5
2BE
100
AcDbEntity
  8
DRAFT
100
AcDbPolyline
 62
7
  6
CONTINUOUS
 90
4
 70
0
 10
-2.5794767573
 20
-3.0665749553
 10
-2.584880408
 20
-3.0707047623
 10
-2.5900707961
 20
-3.0766683998
 10
-2.5941595093
 20
-3.0838061129
  0
LWPOLYLINE
  5
2BF
100
AcDbEntity
  8
0
100
AcDbPolyline
 62
7
  6
CONTINUOUS
 90
4
 70
0
 10
-3.0086276248
 20
2.2165973789
 10
-3.0281314719
 20
2.2197688792
 10
-3.0470692714
 20
2.2203610529
 10
-3.0648793651
 20
2.2183533421
  0
LWPOLYLINE
  5
2C0
100
AcDbEntity
  8
COPY_PUBLISH
100
AcDbPolyline
 62
7
  6
CONTINUOUS
 90
4
 70
0
 10
-3.0086276248
 20
2.2165973789
 10
-3.0281314719
 20
2.2197688792
 10
-3.0470692714
 20
2.2203610529
 10
-3.0648793651
 20
2.2183533421
  0
LWPOLYLINE
  5
2C1
100
AcDbEntity
  8
DRAFT
100
AcDbPolyline
 62
7
  6
CONTINUOUS
 90
10
 70
0
 10
-2.9470251213
 20
2.1915857945
 10
-2.9681673543
 20
2.2025108528
 10
-2.9887096436
 20
2.2108503909
 10
-3.0086519894
 20
2.2166044089
 10
-3.0281697174
 20
2.2197763235
 10
-3.0470875019
 20
2.2203627179
 10
-3.0648793651
 20
2.2183533421
 10
-3.0815153394
 20
2.2136791072
 10
-3.0970253925
 20
2.206409102
 10
-3.098817313
 20
2.2053927177
  0
LWPOLYLINE
  5
2C2
100
AcDbEntity
  8
0
100
AcDbPolyline
 62
7
  6
CONTINUOUS
 90
4
 70
0
 10
-2.9470251213
 20
2.1915857945
 10
-2.9681408722
 20
2.2025048421
 10
-2.9886672723
 20
2.2108407738
 10
-3.0086043216
 20
2.2165935896
  0
LWPOLYLINE
  5
2C3
100
AcDbEntity
  8
COPY_PUBLISH
100
AcDbPolyline
 62
7
  6
CONTINUOUS
 90
4
 70
0
 10
-2.9470251213
 20
2.1915857945
 10
-2.9681408722
 20
2.2025048421
 10
-2.9886672723
 20
2.2108407738
 10
-3.0086043216
 20
2.2165935896
  0
LINE
  5
2C4
100
AcDbEntity
  8
0
100
AcDbLine
 62
7
  6
CONTINUOUS
 10
-1.0561536312
 20
1.0998202943
 11
-2.9470251213
 21
2.1915857945
  0
LINE
  5
2C5
100
AcDbEntity
  8
DRAFT
100
AcDbLine
 62
7
  6
CONTINUOUS
 10
-1.0561536312
 20
1.0998202943
 11
-2.9470251213
 21
2.1915857945
  0
LINE
  5
2C6
100
AcDbEntity
  8
COPY_PUBLISH
100
AcDbLine
 62
7
  6
CONTINUOUS
 10
-1.0561536312
 20
1.0998202943
 11
-2.9470251213
 21
2.1915857945
  0
LWPOLYLINE
  5
2C7
100
AcDbEntity
  8
0
100
AcDbPolyline
 62
7
  6
CONTINUOUS
 90
4
 70
0
 10
-1.6309517182
 20
-4.0562810155
 10
-1.6242770518
 20
-4.0514110064
 10
-1.6190813445
 20
-4.0454325372
 10
-1.6149992555
 20
-4.0383023894
  0
LWPOLYLINE
  5
2C8
100
AcDbEntity
  8
COPY_PUBLISH
100
AcDbPolyline
 62
7
  6
CONTINUOUS
 90
4
 70
0
 10
-1.6309517182
 20
-4.0562810155
 10
-1.6242770518
 20
-4.0514110064
 10
-1.6190813445
 20
-4.0454325372
 10
-1.6149992555
 20
-4.0383023894
  0
LWPOLYLINE
  5
2C9
100
AcDbEntity
  8
DRAFT
100
AcDbPolyline
 62
7
  6
CONTINUOUS
 90
6
 70
0
 10
-1.6309516664
 20
-4.0562809871
 10
-1.6242847216
 20
-4.0514217669
 10
-1.6190943336
 20
-4.0454581295
 10
-1.6150056203
 20
-4.0383204163
 10
-1.6121046781
 20
-4.0301041983
 10
-1.6103054106
 20
-4.0207139047
  0
LWPOLYLINE
  5
2CA
100
AcDbEntity
  8
0
100
AcDbPolyline
 62
7
  6
CONTINUOUS
 90
12
 70
0
 10
0.4832904077
 20
-4.087462137
 10
0.4976205435
 20
-4.0778105985
 10
0.5114709031
 20
-4.064562638
 10
0.523169163
 20
-4.0484119476
 10
0.5327878277
 20
-4.0294562125
 10
0.5399905179
 20
-4.008354208
 10
0.544691953
 20
-3.9850263868
 10
0.5469774135
 20
-3.9595522961
 10
0.5467663625
 20
-3.9328293525
 10
0.5440319542
 20
-3.9051566949
 10
0.5388010343
 20
-3.8762351844
 10
0.5310736028
 20
-3.846064821
  0
LWPOLYLINE
  5
2CB
100
AcDbEntity
  8
COPY_PUBLISH
100
AcDbPolyline
 62
7
  6
CONTINUOUS
 90
12
 70
0
 10
0.4832904077
 20
-4.087462137
 10
0.4976205435
 20
-4.0778105985
 10
0.5114709031
 20
-4.064562638
 10
0.523169163
 20
-4.0484119476
 10
0.5327878277
 20
-4.0294562125
 10
0.5399905179
 20
-4.008354208
 10
0.544691953
 20
-3.9850263868
 10
0.5469774135
 20
-3.9595522961
 10
0.5467663625
 20
-3.9328293525
 10
0.5440319542
 20
-3.9051566949
 10
0.5388010343
 20
-3.8762351844
 10
0.5310736028
 20
-3.846064821
  0
LWPOLYLINE
  5
2CC
100
AcDbEntity
  8
DRAFT
100
AcDbPolyline
 62
7
  6
CONTINUOUS
 90
16
 70
0
 10
0.4832672155
 20
-4.0874748904
 10
0.48994157
 20
-4.0834357343
 10
0.5013214749
 20
-4.0747590415
 10
0.5115243853
 20
-4.0645010506
 10
0.5205260587
 20
-4.0526304488
 10
0.5283507378
 20
-4.0391785488
 10
0.534845849
 20
-4.0244151014
 10
0.5399852111
 20
-4.0083182701
 10
0.5437950054
 20
-3.9909098913
 10
0.5462012026
 20
-3.9725252245
 10
0.547176948
 20
-3.9531397589
 10
0.5467490964
 20
-3.9327780053
 10
0.5449241826
 20
-3.9118487556
 10
0.5417043849
 20
-3.8904882737
 10
0.537087525
 20
-3.8685602956
 10
0.5310736029
 20
-3.8460648214
  0
LWPOLYLINE
  5
2CD
100
AcDbEntity
  8
DRAFT
100
AcDbPolyline
 62
7
  6
CONTINUOUS
 90
3
 70
0
 10
0.4643068736
 20
-4.0954819805
 10
0.477609972
 20
-4.0903553163
 10
0.4832672155
 20
-4.0874748904
  0
LWPOLYLINE
  5
2CE
100
AcDbEntity
  8
0
100
AcDbPolyline
 62
7
  6
CONTINUOUS
 90
4
 70
0
 10
-3.0648793651
 20
2.2183533421
 10
-3.0815294059
 20
2.2136711722
 10
-3.0970517409
 20
2.2063891179
 10
-3.0988176511
 20
2.205392513
  0
LWPOLYLINE
  5
2CF
100
AcDbEntity
  8
COPY_PUBLISH
100
AcDbPolyline
 62
7
  6
CONTINUOUS
 90
4
 70
0
 10
-3.0648793651
 20
2.2183533421
 10
-3.0815294059
 20
2.2136711722
 10
-3.0970517409
 20
2.2063891179
 10
-3.0988176511
 20
2.205392513
  0
LWPOLYLINE
  5
2D0
100
AcDbEntity
  8
RACCORDO
100
AcDbPolyline
 62
7
  6
CONTINUOUS
 90
13
 70
0
 10
6.9433114057
 20
-17.133454607
 10
6.9446896216
 20
-17.1561374064
 10
6.9482779748
 20
-17.1790392532
 10
6.9540764655
 20
-17.2021601472
 10
6.9622579507
 20
-17.2258986043
 10
6.9726495734
 20
-17.2498561086
 10
6.984732762
 20
-17.2728371128
 10
6.9985933584
 20
-17.2947920623
 10
7.0141455207
 20
-17.3157705117
 10
7.030613152
 20
-17.3347255766
 10
7.0477375531
 20
-17.3513082958
 10
7.0657774231
 20
-17.3658676306
 10
7.084732762
 20
-17.378403581
  0
LWPOLYLINE
  5
2D1
100
AcDbEntity
  8
COPY_PUBLISH
100
AcDbPolyline
 62
250
  6
CONTINUOUS
 90
9
 70
0
 10
5.4325177079
 20
-26.2740129708
 10
5.4343905448
 20
-26.3148951431
 10
5.4399892141
 20
-26.3531814897
 10
5.4492544013
 20
-26.3884663911
 10
5.4620879479
 20
-26.4203760262
 10
5.4783538906
 20
-26.4485723324
 10
5.4978799019
 20
-26.4727565877
 10
5.5204591161
 20
-26.4926725752
 10
5.5360590184
 20
-26.5028814014
  0
LINE
  5
2D2
100
AcDbEntity
  8
COPY_PUBLISH
100
AcDbLine
 62
250
  6
CONTINUOUS
 10
5.4325177079
 20
15.8777593114
 11
5.4325177079
 21
-26.2740129708
  0
LWPOLYLINE
  5
2D3
100
AcDbEntity
  8
COPY_PUBLISH
100
AcDbPolyline
 62
250
  6
CONTINUOUS
 90
16
 70
0
 10
6.1302483864
 20
15.8724855727
 10
6.1273584387
 20
15.9158624947
 10
6.1207097378
 20
15.9610678903
 10
6.110375545
 20
16.0076038759
 10
6.0964678936
 20
16.0549634487
 10
6.0791410103
 20
16.102619559
 10
6.0585934948
 20
16.1500308146
 10
6.0350603679
 20
16.1966655647
 10
6.0087991882
 20
16.2420226919
 10
5.9800917156
 20
16.2856190029
 10
5.9492088091
 20
16.3270321491
 10
5.9165296775
 20
16.3657433662
 10
5.8825498609
 20
16.4011942835
 10
5.84770168
 20
16.4329970801
 10
5.8123287117
 20
16.4608992561
 10
5.7768161449
 20
16.4846481602
  0
LWPOLYLINE
  5
2D4
100
AcDbEntity
  8
RACCORDO
100
AcDbPolyline
 62
7
  6
CONTINUOUS
 90
13
 70
0
 10
6.9433114057
 20
4.503007728
 10
6.9446896216
 20
4.4803249286
 10
6.9482779748
 20
4.4574230819
 10
6.9540764655
 20
4.4343021879
 10
6.9622579507
 20
4.4105637308
 10
6.9726495734
 20
4.3866062264
 10
6.984732762
 20
4.3636252222
 10
6.9985933584
 20
4.3416702727
 10
7.0141455207
 20
4.3206918233
 10
7.030613152
 20
4.3017367584
 10
7.0477375531
 20
4.2851540392
 10
7.0657774231
 20
4.2705947044
 10
7.084732762
 20
4.258058754
  0
LINE
  5
2D5
100
AcDbEntity
  8
COPY_PUBLISH
100
AcDbLine
 62
250
  6
CONTINUOUS
 10
6.1302483864
 20
15.8724855727
 11
6.1302483864
 21
-26.2792867095
  0
LINE
  5
2D6
100
AcDbEntity
  8
0
100
AcDbLine
 62
7
  6
CONTINUOUS
 10
6.7202441037
 20
-25.9733999633
 11
6.7202441037
 21
16.2131400254
  0
LINE
  5
2D7
100
AcDbEntity
  8
RACCORDO
100
AcDbLine
 62
7
  6
CONTINUOUS
 10
6.9433114057
 20
-17.133454607
 11
6.9433114057
 21
-13.4781370047
  0
LINE
  5
2D8
100
AcDbEntity
  8
RACCORDO
100
AcDbLine
 62
7
  6
CONTINUOUS
 10
6.9433114057
 20
4.503007728
 11
6.9433114057
 21
8.1583253303
  0
LINE
  5
2D9
100
AcDbEntity
  8
RACCORDO
100
AcDbLine
 62
7
  6
CONTINUOUS
 10
7.1657213758
 20
-25.6069609106
 11
7.1657213758
 21
-17.4251653916
  0
LINE
  5
2DA
100
AcDbEntity
  8
DRAFT
100
AcDbLine
 62
7
  6
CONTINUOUS
 10
7.1657213758
 20
-13.3428140076
 11
7.1657213758
 21
4.2112969434
  0
LINE
  5
2DB
100
AcDbEntity
  8
RACCORDO
100
AcDbLine
 62
7
  6
CONTINUOUS
 10
7.1657213758
 20
8.2936483274
 11
7.1657213758
 21
9.1772161917
  0
LINE
  5
2DC
100
AcDbEntity
  8
RACCORDO
100
AcDbLine
 62
7
  6
CONTINUOUS
 10
7.1657213758
 20
12.7171372622
 11
7.1657213758
 21
16.4754438463
  0
LWPOLYLINE
  5
2DD
100
AcDbEntity
  8
RACCORDO
100
AcDbPolyline
 62
250
  6
CONTINUOUS
 90
8
 70
0
 10
8.2867970935
 20
9.201225597
 10
8.3178082864
 20
9.2088952653
 10
8.3477731327
 20
9.2129743158
 10
8.3763640344
 20
9.2134725993
 10
8.4034338821
 20
9.2104837904
 10
8.4289694485
 20
9.2040543416
 10
8.4527781298
 20
9.1941709812
 10
8.4604847802
 20
9.1899995739
  0
LINE
  5
2DE
100
AcDbEntity
  8
DRAFT
100
AcDbLine
 62
7
  6
CONTINUOUS
 10
8.6323597915
 20
6.1949491816
 11
8.0746822556
 21
6.268875521
  0
LINE
  5
2DF
100
AcDbEntity
  8
RACCORDO
100
AcDbLine
 62
7
  6
CONTINUOUS
 10
7.1657213758
 20
4.2112969434
 11
7.084732762
 21
4.258058754
  0
LINE
  5
2E0
100
AcDbEntity
  8
DRAFT
100
AcDbLine
 62
7
  6
CONTINUOUS
 10
8.0746822556
 20
8.6975860123
 11
8.0746822556
 21
6.268875521
  0
LINE
  5
2E1
100
AcDbEntity
  8
DRAFT
100
AcDbLine
 62
7
  6
CONTINUOUS
 10
8.0746822556
 20
-15.367586814
 11
8.0746822556
 21
-12.9388763227
  0
LINE
  5
2E2
100
AcDbEntity
  8
RACCORDO
100
AcDbLine
 62
7
  6
CONTINUOUS
 10
8.5429024528
 20
12.7875671286
 11
8.5429024528
 21
10.7826488845
  0
LINE
  5
2E3
100
AcDbEntity
  8
DRAFT
100
AcDbLine
 62
7
  6
CONTINUOUS
 10
8.6323597915
 20
8.5989552047
 11
8.6323597915
 21
6.1949491816
  0
LINE
  5
2E4
100
AcDbEntity
  8
DRAFT
100
AcDbLine
 62
7
  6
CONTINUOUS
 10
8.6323597915
 20
-15.4415131534
 11
8.6323597915
 21
-13.0375071303
  0
LINE
  5
2E5
100
AcDbEntity
  8
RACCORDO
100
AcDbLine
 62
7
  6
CONTINUOUS
 10
8.950557843
 20
8.9069922052
 11
8.950557843
 21
8.7634235444
  0
LINE
  5
2E6
100
AcDbEntity
  8
DRAFT
100
AcDbLine
 62
7
  6
CONTINUOUS
 10
8.950557843
 20
8.7634235444
 11
8.950557843
 21
6.3979279759
  0
LINE
  5
2E7
100
AcDbEntity
  8
RACCORDO
100
AcDbLine
 62
7
  6
CONTINUOUS
 10
8.950557843
 20
-12.7294701298
 11
8.950557843
 21
-12.8730387906
  0
LINE
  5
2E8
100
AcDbEntity
  8
DRAFT
100
AcDbLine
 62
7
  6
CONTINUOUS
 10
8.950557843
 20
-15.2385343591
 11
8.950557843
 21
-12.8730387906
  0
LWPOLYLINE
  5
2E9
100
AcDbEntity
  8
COPY_PUBLISH
100
AcDbPolyline
 62
250
  6
CONTINUOUS
 90
9
 70
0
 10
6.1302483864
 20
-26.2792867095
 10
6.1273587586
 20
-26.3214445105
 10
6.1207108486
 20
-26.3608320217
 10
6.1103778628
 20
-26.3970155046
 10
6.0964717011
 20
-26.4296002021
 10
6.0791465614
 20
-26.4582226352
 10
6.0586012701
 20
-26.4825595324
 10
6.035071407
 20
-26.5023435586
 10
6.0163214256
 20
-26.5137053194
  0
LINE
  5
2EA
100
AcDbEntity
  8
DRAFT
100
AcDbLine
 62
7
  6
CONTINUOUS
 10
8.6323597915
 20
8.5989552047
 11
8.0746822556
 21
8.6975860123
  0
LWPOLYLINE
  5
2EB
100
AcDbEntity
  8
RACCORDO
100
AcDbPolyline
 62
7
  6
CONTINUOUS
 90
9
 70
0
 10
8.4604653459
 20
9.1899948652
 10
8.4328342394
 20
9.2038652271
 10
8.397838421
 20
9.2162377101
 10
8.3611805996
 20
9.2239337396
 10
8.3233684178
 20
9.2269438081
 10
8.2848186634
 20
9.2253039773
 10
8.2457089241
 20
9.2190638686
 10
8.2063395028
 20
9.2082551672
 10
8.1995118466
 20
9.2059155033
  0
LINE
  5
2EC
100
AcDbEntity
  8
RACCORDO
100
AcDbLine
 62
250
  6
CONTINUOUS
 10
8.950557843
 20
8.7883844534
 11
8.2550119096
 21
9.1899839581
  0
LINE
  5
2ED
100
AcDbEntity
  8
RACCORDO
100
AcDbLine
 62
7
  6
CONTINUOUS
 10
8.950557843
 20
8.9070376224
 11
8.4606268768
 21
9.189917622
  0
LINE
  5
2EE
100
AcDbEntity
  8
DRAFT
100
AcDbLine
 62
7
  6
CONTINUOUS
 10
6.7202441037
 20
-13.6138599485
 11
7.1657213758
 21
-13.3428140076
  0
LINE
  5
2EF
100
AcDbEntity
  8
DRAFT
100
AcDbLine
 62
7
  6
CONTINUOUS
 10
8.0746822556
 20
-12.9388763227
 11
7.166046301
 21
-13.3435435915
  0
LINE
  5
2F0
100
AcDbEntity
  8
RACCORDO
100
AcDbLine
 62
7
  6
CONTINUOUS
 10
7.1657213758
 20
-12.7953181612
 11
8.1995493845
 21
-12.4305335639
  0
LINE
  5
2F1
100
AcDbEntity
  8
RACCORDO
100
AcDbLine
 62
250
  6
CONTINUOUS
 10
8.2867970935
 20
-12.435236738
 11
7.1657213758
 21
-12.8308328395
  0
LWPOLYLINE
  5
2F2
100
AcDbEntity
  8
RACCORDO
100
AcDbPolyline
 62
250
  6
CONTINUOUS
 90
7
 70
0
 10
8.1995493845
 20
-12.4305335639
 10
8.2017257452
 20
-12.4298401138
 10
8.2114552756
 20
-12.428383273
 10
8.2218277392
 20
-12.4293553665
 10
8.2326676892
 20
-12.4327400119
 10
8.2437917988
 20
-12.4384800248
 10
8.2550119096
 20
-12.4464783769
  0
LWPOLYLINE
  5
2F3
100
AcDbEntity
  8
RACCORDO
100
AcDbPolyline
 62
250
  6
CONTINUOUS
 90
9
 70
0
 10
8.1269326551
 20
13.1962604635
 10
8.1085265484
 20
13.2039118869
 10
8.0889309241
 20
13.2095882595
 10
8.0685104203
 20
13.2131883712
 10
8.0473395203
 20
13.2147338456
 10
8.0245439873
 20
13.2141738183
 10
7.9998139178
 20
13.2112006826
 10
7.9735213564
 20
13.2055583861
 10
7.9457537542
 20
13.1970079783
  0
LINE
  5
2F4
100
AcDbEntity
  8
RACCORDO
100
AcDbLine
 62
250
  6
CONTINUOUS
 10
7.1681494812
 20
12.6898734345
 11
7.2795249851
 21
12.6255666144
  0
LINE
  5
2F5
100
AcDbEntity
  8
DRAFT
100
AcDbLine
 62
7
  6
CONTINUOUS
 10
8.950557843
 20
-12.8730387906
 11
8.6323597915
 21
-13.0375071303
  0
LWPOLYLINE
  5
2F6
100
AcDbEntity
  8
RACCORDO
100
AcDbPolyline
 62
7
  6
CONTINUOUS
 90
10
 70
0
 10
8.1387597612
 20
13.1899980041
 10
8.1136781495
 20
13.2032787318
 10
8.0797382939
 20
13.2176282932
 10
8.0442024478
 20
13.2286934882
 10
8.0074175544
 20
13.2362925321
 10
7.9697380922
 20
13.2403081078
 10
7.9314742517
 20
13.2406760512
 10
7.892972979
 20
13.237372161
 10
7.8545727527
 20
13.2304393077
 10
7.8158984289
 20
13.2197340199
  0
LWPOLYLINE
  5
2F7
100
AcDbEntity
  8
RACCORDO
100
AcDbPolyline
 62
250
  6
CONTINUOUS
 90
6
 70
0
 10
7.9457537542
 20
13.1970079783
 10
7.9193467376
 20
13.2111846129
 10
7.8927633285
 20
13.2206819681
 10
7.8664531356
 20
13.2253394137
 10
7.840861147
 20
13.2250781777
 10
7.8158984289
 20
13.2197340199
  0
LINE
  5
2F8
100
AcDbEntity
  8
RACCORDO
100
AcDbLine
 62
250
  6
CONTINUOUS
 10
7.9457537542
 20
13.1970079783
 11
8.2583934296
 21
13.016493748
  0
LINE
  5
2F9
100
AcDbEntity
  8
RACCORDO
100
AcDbLine
 62
7
  6
CONTINUOUS
 10
8.1383263888
 20
13.1902492529
 11
8.4420724669
 21
13.0148700743
  0
LINE
  5
2FA
100
AcDbEntity
  8
COPY_PUBLISH
100
AcDbLine
 62
250
  6
CONTINUOUS
 10
5.4325177079
 20
15.8777593114
 11
-9.4356964604
 21
24.4624798297
  0
LINE
  5
2FB
100
AcDbEntity
  8
COPY_PUBLISH
100
AcDbLine
 62
250
  6
CONTINUOUS
 10
5.7768161497
 20
16.484648163
 11
-9.0913980187
 21
25.0693686813
  0
LINE
  5
2FC
100
AcDbEntity
  8
DRAFT
100
AcDbLine
 62
7
  6
CONTINUOUS
 10
8.950557843
 20
-15.2385343591
 11
8.6323597915
 21
-15.4415131534
  0
LINE
  5
2FD
100
AcDbEntity
  8
DRAFT
100
AcDbLine
 62
7
  6
CONTINUOUS
 10
6.7202441037
 20
-17.6962113324
 11
7.1657213758
 21
-17.4251653916
  0
LINE
  5
2FE
100
AcDbEntity
  8
RACCORDO
100
AcDbLine
 62
250
  6
CONTINUOUS
 10
6.9433114057
 20
-17.133454607
 11
6.7202441037
 21
-17.2622508715
  0
LINE
  5
2FF
100
AcDbEntity
  8
RACCORDO
100
AcDbLine
 62
250
  6
CONTINUOUS
 10
7.084732762
 20
-17.378403581
 11
6.7202441037
 21
-17.5888547642
  0
LINE
  5
300
100
AcDbEntity
  8
DRAFT
100
AcDbLine
 62
7
  6
CONTINUOUS
 10
8.0746822556
 20
-15.367586814
 11
6.9433114057
 21
-15.9994276345
  0
LINE
  5
301
100
AcDbEntity
  8
0
100
AcDbLine
 62
7
  6
CONTINUOUS
 10
6.366811867
 20
16.8253026157
 11
-8.5315129884
 21
25.4274086673
  0
LINE
  5
302
100
AcDbEntity
  8
RACCORDO
100
AcDbLine
 62
7
  6
CONTINUOUS
 10
6.848140457
 20
17.0267847249
 11
-8.0228920848
 21
25.6131325367
  0
LINE
  5
303
100
AcDbEntity
  8
RACCORDO
100
AcDbLine
 62
250
  6
CONTINUOUS
 10
7.1657213758
 20
-25.6069609106
 11
6.7202441037
 21
-25.9242190533
  0
LINE
  5
304
100
AcDbEntity
  8
RACCORDO
100
AcDbLine
 62
7
  6
CONTINUOUS
 10
7.0844029225
 20
-25.8060106268
 11
6.7068767627
 21
-26.0748756302
  0
LINE
  5
305
100
AcDbEntity
  8
0
100
AcDbLine
 62
250
  6
CONTINUOUS
 10
6.1302483864
 20
-26.2792867095
 11
6.7202441037
 21
-25.9733999633
  0
LINE
  5
306
100
AcDbEntity
  8
COPY_PUBLISH
100
AcDbLine
 62
7
  6
CONTINUOUS
 10
6.0162077659
 20
-26.5137643024
 11
6.6101282163
 21
-26.2058427553
  0
LWPOLYLINE
  5
307
100
AcDbEntity
  8
COPY_PUBLISH
100
AcDbPolyline
 62
250
  6
CONTINUOUS
 90
16
 70
0
 10
6.1302483864
 20
-26.2792867095
 10
6.0910214135
 20
-26.2986590778
 10
6.048544445
 20
-26.3155930458
 10
6.0032702215
 20
-26.3299081575
 10
5.9556758278
 20
-26.3414530077
 10
5.9062735853
 20
-26.3501027937
 10
5.8556073856
 20
-26.3557639373
 10
5.8042291072
 20
-26.3583789726
 10
5.7526751471
 20
-26.3579247337
 10
5.7014779222
 20
-26.3544076218
 10
5.6511128844
 20
-26.3478541798
 10
5.6021882722
 20
-26.3383373191
 10
5.5554017304
 20
-26.3260117067
 10
5.5112779645
 20
-26.3110610927
 10
5.4701863666
 20
-26.2936584507
 10
5.4325177079
 20
-26.2740129708
  0
ARC
  5
308
100
AcDbEntity
  8
COPY_PUBLISH
100
AcDbCircle
 62
7
  6
CONTINUOUS
 10
5.7860710985
 20
-26.0698756742
 40
0.5
100
AcDbArc
 50
239.9984015654
 51
297.4194204711
  0
ARC
  5
309
100
AcDbEntity
  8
COPY_PUBLISH
100
AcDbCircle
 62
7
  6
CONTINUOUS
 10
-9.0821430698
 20
-17.4851551559
 40
0.5
100
AcDbArc
 50
179.9840060021
 51
239.998401565
  0
ARC
  5
30A
100
AcDbEntity
  8
COPY_PUBLISH
100
AcDbCircle
 62
7
  6
CONTINUOUS
 10
-9.0821430698
 20
24.6666171264
 40
0.5
100
AcDbArc
 50
122.5992954234
 51
180.0013071251
  0
ELLIPSE
  5
30B
100
AcDbEntity
  8
RACCORDO
100
AcDbEllipse
 62
7
  6
CONTINUOUS
 10
-8.0221658762
 20
25.2438981557
 30
0.0
 11
-0.2245667503
 21
0.3916366537
 31
0.0
 40
0.576009292
 41
-0.7808516838
 42
-0.0566951759
  0
ELLIPSE
  5
30C
100
AcDbEntity
  8
RACCORDO
100
AcDbEllipse
 62
7
  6
CONTINUOUS
 10
6.8474142484
 20
-25.4223329235
 30
0.0
 11
-0.2245667503
 21
0.3916366537
 31
0.0
 40
0.576009292
 41
-3.0848974781
 42
-2.3539294839
  0
ELLIPSE
  5
30D
100
AcDbEntity
  8
RACCORDO
100
AcDbEllipse
 62
7
  6
CONTINUOUS
 10
6.8474142484
 20
16.6583889514
 30
0.0
 11
-0.224044438
 21
0.3907502414
 31
0.0
 40
0.5786435377
 41
-2.35161679
 42
-0.7831019366
  0
ELLIPSE
  5
30E
100
AcDbEntity
  8
RACCORDO
100
AcDbEllipse
 62
7
  6
CONTINUOUS
 10
6.3665695176
 20
16.4170674668
 30
0.0
 11
-0.2500121049
 21
0.4330057129
 31
0.0
 40
0.5777274115
 41
-2.3559002616
 42
-0.7857891675
  0
ELLIPSE
  5
30F
100
AcDbEntity
  8
RACCORDO
100
AcDbEllipse
 62
7
  6
CONTINUOUS
 10
-8.5312706391
 20
25.0188936595
 30
0.0
 11
-0.2501834304
 21
0.4333025529
 31
0.0
 40
0.5769361983
 41
5.4980815048
 42
6.3093462599
  0
ELLIPSE
  5
310
100
AcDbEntity
  8
RACCORDO
100
AcDbEllipse
 62
7
  6
CONTINUOUS
 10
6.3665695176
 20
-25.768912858
 30
0.0
 11
-0.2501834304
 21
0.4333025529
 31
0.0
 40
0.5769361983
 41
3.1154316834
 42
3.9265999453
  0
ELLIPSE
  5
311
100
AcDbEntity
  8
RACCORDO
100
AcDbEllipse
 62
7
  6
CONTINUOUS
 10
7.3034394835
 20
9.2610093197
 30
0.0
 11
0.0961689949
 21
0.1753992367
 31
0.0
 40
0.5620258809
 41
0.9475571809
 42
2.3438205825
  0
ELLIPSE
  5
312
100
AcDbEntity
  8
RACCORDO
100
AcDbEllipse
 62
7
  6
CONTINUOUS
 10
8.1986071835
 20
10.5731660646
 30
0.0
 11
0.2404224873
 21
0.4384980918
 31
0.0
 40
0.5620258809
 41
-2.1940354727
 42
-0.7977720711
  0
ELLIPSE
  5
313
100
AcDbEntity
  8
RACCORDO
100
AcDbEllipse
 62
7
  6
CONTINUOUS
 10
7.3034394835
 20
12.8009303901
 30
0.0
 11
0.0961689949
 21
0.1753992367
 31
0.0
 40
0.5620258809
 41
2.3438205825
 42
3.7400839841
  0
ELLIPSE
  5
314
100
AcDbEntity
  8
RACCORDO
100
AcDbEllipse
 62
7
  6
CONTINUOUS
 10
8.1986071835
 20
12.5780843087
 30
0.0
 11
0.2404224873
 21
0.4384980918
 31
0.0
 40
0.5620258809
 41
5.4854132361
 42
6.8816766377
  0
ENDSEC
  0
SECTION
  2
OBJECTS
  0
DICTIONARY
  5
C
100
AcDbDictionary
280
0
281
1
  3
ACAD_GROUP
350
D
  3
ACAD_MLINESTYLE
350
17
  3
ACAD_LAYOUT
350
1A
  3
ACAD_PLOTSETTINGS
350
19
  3
ACAD_PLOTSTYLENAME
350
E
  0
DICTIONARY
  5
D
102
{ACAD_REACTORS
330
C
102
}
100
AcDbDictionary
280
0
281
1
  0
ACDBDICTIONARYWDFLT
  5
E
102
{ACAD_REACTORS
330
C
102
}
100
AcDbDictionary
281
1
  3
Normal
350
F
100
AcDbDictionaryWithDefault
340
F
  0
DICTIONARY
  5
17
102
{ACAD_REACTORS
330
C
102
}
100
AcDbDictionary
280
0
281
1
  3
Standard
350
18
  0
DICTIONARY
  5
19
102
{ACAD_REACTORS
330
C
102
}
100
AcDbDictionary
281
1
  0
DICTIONARY
  5
1A
102
{ACAD_REACTORS
330
C
102
}
100
AcDbDictionary
281
1
  3
Model
350
315
  3
Layout1
350
316
  0
ACDBPLACEHOLDER
  5
F
102
{ACAD_REACTORS
330
E
102
}
  0
MLINESTYLE
  5
18
102
{ACAD_REACTORS
330
17
102
}
100
AcDbMlineStyle
  2
STANDARD
 70
0
  3

 62
256
 51
90.0
 52
90.0
 71
2
 49
0.5
 62
256
  6
BYLAYER
 49
-0.5
 62
256
  6
BYLAYER
  0
LAYOUT
  5
315
102
{ACAD_REACTORS
330
1A
102
}
100
AcDbPlotSettings
  1

  2
none_device
  4
ISO_A4_(297.00_x_210.00_MM)
  6

 40
0.0
 41
0.0
 42
0.0
 43
0.0
 44
297.0
 45
210.0
 46
0.0
 47
0.0
 48
0.0
 49
0.0
140
0.0
141
0.0
142
1.0
143
1.0
 70
1024
 72
1
 73
0
 74
0
  7

 75
0
147
1.0
148
0.0
149
0.0
100
AcDbLayout
  1
Model
 70
0
 71
0
 10
0.0
 20
0.0
 11
297.0
 21
210.0
 12
0.0
 22
0.0
 32
0.0
 14
0.0
 24
0.0
 34
0.0
 15
0.0
 25
0.0
 35
0.0
146
0.0
 13
0.0
 23
0.0
 33
0.0
 16
1.0
 26
0.0
 36
0.0
 17
0.0
 27
1.0
 37
0.0
 76
0
330
219
345
0
346
0
  0
LAYOUT
  5
316
102
{ACAD_REACTORS
330
1A
102
}
100
AcDbPlotSettings
  1

  2
none_device
  4
ISO_A4_(297.00_x_210.00_MM)
  6

 40
0.0
 41
0.0
 42
0.0
 43
0.0
 44
297.0
 45
210.0
 46
0.0
 47
0.0
 48
0.0
 49
0.0
140
0.0
141
0.0
142
1.0
143
1.0
 70
0
 72
1
 73
0
 74
0
  7

 75
0
147
1.0
148
0.0
149
0.0
100
AcDbLayout
  1
Layout1
 70
0
 71
1
 10
0.0
 20
0.0
 11
297.0
 21
210.0
 12
0.0
 22
0.0
 32
0.0
 14
0.0
 24
0.0
 34
0.0
 15
0.0
 25
0.0
 35
0.0
146
0.0
 13
0.0
 23
0.0
 33
0.0
 16
1.0
 26
0.0
 36
0.0
 17
0.0
 27
1.0
 37
0.0
 76
0
330
21A
345
0
346
0
  0
ENDSEC
  0
EOF
