  0
SECTION
  2
HEADER
  9
$ACADVER
  1
AC1024
  9
$DWGCODEPAGE
  3
ANSI_1252
  9
$EXTMAX
 10
297.0
 20
210.0
 30
0.0
  9
$EXTMIN
 10
0.0
 20
0.0
 30
0.0
  9
$LIMMIN
 10
0.0
 20
0.0
  9
$LIMMAX
 10
297.0
 20
210.0
  9
$VIEWCTR
 10
148.5
 20
105.0
  9
$VIEWSIZE
 40
210.0
  9
$CLAYER
  8
0
  9
$LTSCALE
 40
16.335
  9
$CELTYPE
  6
BYLAYER
  9
$DIMSCALE
 40
1.0
  9
$DIMASZ
 40
3.0
  9
$DIMEXO
 40
0.5
  9
$DIMDLI
 40
11.286
  9
$DIMEXE
 40
1.5
  9
$DIMCEN
 40
2.673
  9
$DIMLFAC
 40
1.0
  9
$DIMBLK
  1
_FILLED
  9
$DIMALT
 70
0
  9
$DIMALTF
 40
0.0393700787
  9
$DIMTXT
 40
3.0
  9
$DIMTOL
 70
1
  9
$DIMLIM
 70
0
  9
$DIMTFAC
 40
1.0
  9
$DIMTP
 40
0.01
  9
$DIMTM
 40
0.01
  9
$DIMGAP
 40
0.625
  9
$DIMDSEP
 70
44
  9
$AUNITS
 70
0
  9
$PDMODE
 70
3
  9
$PDSIZE
 40
3.0
  9
$HANDSEED
  5
2AE
  9
$TILEMODE
 70
1
  9
$MEASUREMENT
 70
1
  9
$INSUNITS
 70
4
  0
ENDSEC
  0
SECTION
  2
CLASSES
  0
CLASS
  1
ACDBDICTIONARYWDFLT
  2
AcDbDictionaryWithDefault
  3
AutoCAD 2000
 90
0
 91
1
280
0
281
0
  0
CLASS
  1
ACDBPLACEHOLDER
  2
AcDbPlaceHolder
  3
AutoCAD 2000
 90
0
 91
1
280
0
281
0
  0
CLASS
  1
LAYOUT
  2
AcDbLayout
  3
AutoCAD 2000
 90
0
 91
0
280
0
281
0
  0
ENDSEC
  0
SECTION
  2
TABLES
  0
TABLE
  2
VPORT
  5
8
100
AcDbSymbolTable
 70
2
  0
VPORT
  5
1F4
100
AcDbSymbolTableRecord
100
AcDbViewportTableRecord
  2
*ACTIVE
 70
0
 10
0.0
 20
0.0
 11
1.0
 21
1.0
 12
148.5
 22
105.0
 13
0.0
 23
0.0
 14
1.0
 24
1.0
 15
0.0
 25
0.0
 16
0.0
 26
0.0
 36
1.0
 17
0.0
 27
0.0
 37
0.0
 40
210.0
 41
1.4142857143
 42
50.0
 43
0.0
 44
0.0
 50
0.0
 51
0.0
 71
0
 72
100
 73
1
 74
1
 75
0
 76
0
 77
0
 78
0
  0
ENDTAB
  0
TABLE
  2
LTYPE
  5
5
100
AcDbSymbolTable
 70
6
  0
LTYPE
  5
14
100
AcDbSymbolTableRecord
100
AcDbLinetypeTableRecord
  2
BYBLOCK
 70
0
  3

 72
65
 73
0
 40
0.0
  0
LTYPE
  5
15
100
AcDbSymbolTableRecord
100
AcDbLinetypeTableRecord
  2
BYLAYER
 70
0
  3

 72
65
 73
0
 40
0.0
  0
LTYPE
  5
16
100
AcDbSymbolTableRecord
100
AcDbLinetypeTableRecord
  2
CONTINUOUS
 70
64
  3
Solid line
 72
65
 73
0
 40
0.0
  0
LTYPE
  5
1F5
100
AcDbSymbolTableRecord
100
AcDbLinetypeTableRecord
  2
CENTER
 70
64
  3
____ _ ____ _ ____ _ ____ _ ____ _ ____ _ ____
 72
65
 73
4
 40
0.6
 49
0.375
 74
0
 49
-0.075
 74
0
 49
0.075
 74
0
 49
-0.075
 74
0
  0
LTYPE
  5
1F6
100
AcDbSymbolTableRecord
100
AcDbLinetypeTableRecord
  2
HIDDEN
 70
64
  3
- - - - - - - - - - - - - - - - - - - -
 72
65
 73
2
 40
0.2
 49
0.1
 74
0
 49
-0.1
 74
0
  0
LTYPE
  5
1F7
100
AcDbSymbolTableRecord
100
AcDbLinetypeTableRecord
  2
PHANTOM
 70
64
  3
_____ _ _ _____ _ _ _____ _ _ _____
 72
65
 73
6
 40
0.8
 49
0.45
 74
0
 49
-0.05
 74
0
 49
0.1
 74
0
 49
-0.05
 74
0
 49
0.1
 74
0
 49
-0.05
 74
0
  0
LTYPE
  5
1F8
100
AcDbSymbolTableRecord
100
AcDbLinetypeTableRecord
  2
DOT
 70
64
  3
. . . . . . . . . . . . . . . . . . . .
 72
65
 73
2
 40
0.2
 49
0.1
 74
0
 49
-0.1
 74
0
  0
LTYPE
  5
1F9
100
AcDbSymbolTableRecord
100
AcDbLinetypeTableRecord
  2
DASHED
 70
64
  3
- - - - - - - - - - - - - - - - - - - -
 72
65
 73
2
 40
0.2
 49
0.1
 74
0
 49
-0.1
 74
0
  0
ENDTAB
  0
TABLE
  2
LAYER
  5
2
100
AcDbSymbolTable
 70
36
  0
LAYER
  5
10
100
AcDbSymbolTableRecord
100
AcDbLayerTableRecord
  2
0
 70
0
 62
7
  6
CONTINUOUS
370
-3
390
F
  0
LAYER
  5
1FA
100
AcDbSymbolTableRecord
100
AcDbLayerTableRecord
  2
DEFAULT_1
 70
0
 62
7
  6
CENTER
370
-3
390
F
  0
LAYER
  5
1FB
100
AcDbSymbolTableRecord
100
AcDbLayerTableRecord
  2
DEFAULT_2
 70
0
 62
7
  6
HIDDEN
370
-3
390
F
  0
LAYER
  5
1FC
100
AcDbSymbolTableRecord
100
AcDbLayerTableRecord
  2
DEFAULT_3
 70
0
 62
7
  6
PHANTOM
370
-3
390
F
  0
LAYER
  5
1FD
100
AcDbSymbolTableRecord
100
AcDbLayerTableRecord
  2
ASSI
 70
0
 62
7
  6
CONTINUOUS
370
-3
390
F
  0
LAYER
  5
1FE
100
AcDbSymbolTableRecord
100
AcDbLayerTableRecord
  2
COORDINATE
 70
0
 62
7
  6
CONTINUOUS
370
-3
390
F
  0
LAYER
  5
1FF
100
AcDbSymbolTableRecord
100
AcDbLayerTableRecord
  2
COPY_PUBLISH
 70
0
 62
7
  6
CONTINUOUS
370
-3
390
F
  0
LAYER
  5
200
100
AcDbSymbolTableRecord
100
AcDbLayerTableRecord
  2
COSMETICI
 70
0
 62
7
  6
CONTINUOUS
370
-3
390
F
  0
LAYER
  5
201
100
AcDbSymbolTableRecord
100
AcDbLayerTableRecord
  2
CURVE
 70
0
 62
7
  6
CONTINUOUS
370
-3
390
F
  0
LAYER
  5
202
100
AcDbSymbolTableRecord
100
AcDbLayerTableRecord
  2
DRAFT
 70
0
 62
7
  6
CONTINUOUS
370
-3
390
F
  0
LAYER
  5
203
100
AcDbSymbolTableRecord
100
AcDbLayerTableRecord
  2
IMPORT_IGES
 70
0
 62
7
  6
CONTINUOUS
370
-3
390
F
  0
LAYER
  5
204
100
AcDbSymbolTableRecord
100
AcDbLayerTableRecord
  2
INTF_2
 70
0
 62
7
  6
CONTINUOUS
370
-3
390
F
  0
LAYER
  5
205
100
AcDbSymbolTableRecord
100
AcDbLayerTableRecord
  2
INTF_3
 70
0
 62
7
  6
CONTINUOUS
370
-3
390
F
  0
LAYER
  5
206
100
AcDbSymbolTableRecord
100
AcDbLayerTableRecord
  2
INTF_4
 70
0
 62
7
  6
CONTINUOUS
370
-3
390
F
  0
LAYER
  5
207
100
AcDbSymbolTableRecord
100
AcDbLayerTableRecord
  2
INTF_5
 70
0
 62
7
  6
CONTINUOUS
370
-3
390
F
  0
LAYER
  5
208
100
AcDbSymbolTableRecord
100
AcDbLayerTableRecord
  2
INTF_6
 70
0
 62
7
  6
CONTINUOUS
370
-3
390
F
  0
LAYER
  5
209
100
AcDbSymbolTableRecord
100
AcDbLayerTableRecord
  2
INTF_7
 70
0
 62
7
  6
CONTINUOUS
370
-3
390
F
  0
LAYER
  5
20A
100
AcDbSymbolTableRecord
100
AcDbLayerTableRecord
  2
INTF_9
 70
0
 62
7
  6
CONTINUOUS
370
-3
390
F
  0
LAYER
  5
20B
100
AcDbSymbolTableRecord
100
AcDbLayerTableRecord
  2
INTF_BLANK
 70
0
 62
7
  6
CONTINUOUS
370
-3
390
F
  0
LAYER
  5
20C
100
AcDbSymbolTableRecord
100
AcDbLayerTableRecord
  2
INTF_RED
 70
0
 62
7
  6
CONTINUOUS
370
-3
390
F
  0
LAYER
  5
20D
100
AcDbSymbolTableRecord
100
AcDbLayerTableRecord
  2
NOTE
 70
0
 62
7
  6
CONTINUOUS
370
-3
390
F
  0
LAYER
  5
20E
100
AcDbSymbolTableRecord
100
AcDbLayerTableRecord
  2
PIANI
 70
0
 62
7
  6
CONTINUOUS
370
-3
390
F
  0
LAYER
  5
20F
100
AcDbSymbolTableRecord
100
AcDbLayerTableRecord
  2
PUNTI
 70
0
 62
7
  6
CONTINUOUS
370
-3
390
F
  0
LAYER
  5
210
100
AcDbSymbolTableRecord
100
AcDbLayerTableRecord
  2
RACCORDO
 70
0
 62
7
  6
CONTINUOUS
370
-3
390
F
  0
LAYER
  5
211
100
AcDbSymbolTableRecord
100
AcDbLayerTableRecord
  2
RGB____0____0____0__
 70
0
 62
7
  6
CONTINUOUS
370
-3
390
F
  0
LAYER
  5
212
100
AcDbSymbolTableRecord
100
AcDbLayerTableRecord
  2
SIMBOLI
 70
0
 62
7
  6
CONTINUOUS
370
-3
390
F
  0
LAYER
  5
213
100
AcDbSymbolTableRecord
100
AcDbLayerTableRecord
  2
SMUSSO
 70
0
 62
7
  6
CONTINUOUS
370
-3
390
F
  0
LAYER
  5
214
100
AcDbSymbolTableRecord
100
AcDbLayerTableRecord
  2
SNAPLINE
 70
0
 62
7
  6
CONTINUOUS
370
-3
390
F
  0
LAYER
  5
215
100
AcDbSymbolTableRecord
100
AcDbLayerTableRecord
  2
SUPERFICI
 70
0
 62
7
  6
CONTINUOUS
370
-3
390
F
  0
LAYER
  5
216
100
AcDbSymbolTableRecord
100
AcDbLayerTableRecord
  2
TRASH
 70
0
 62
7
  6
CONTINUOUS
370
-3
390
F
  0
ENDTAB
  0
TABLE
  2
STYLE
  5
3
100
AcDbSymbolTable
 70
1
  0
STYLE
  5
11
100
AcDbSymbolTableRecord
100
AcDbTextStyleTableRecord
  2
STANDARD
 70
0
 40
0.0
 41
0.8
 50
0.0
 71
0
 42
0.2
  3
txt
  4

  0
STYLE
  5
217
100
AcDbSymbolTableRecord
100
AcDbTextStyleTableRecord
  2
TEXTSTYLE_1
 70
0
 40
0.0
 41
0.8
 50
0.0
 71
0
 42
0.2
  3
gdt
  4

  0
ENDTAB
  0
TABLE
  2
VIEW
  5
6
100
AcDbSymbolTable
 70
0
  0
ENDTAB
  0
TABLE
  2
UCS
  5
7
100
AcDbSymbolTable
 70
0
  0
ENDTAB
  0
TABLE
  2
APPID
  5
9
100
AcDbSymbolTable
 70
1
  0
APPID
  5
218
100
AcDbSymbolTableRecord
100
AcDbRegAppTableRecord
  2
ACAD
 70
0
  0
ENDTAB
  0
TABLE
  2
BLOCK_RECORD
  5
1
100
AcDbSymbolTable
 70
0
  0
BLOCK_RECORD
  5
219
100
AcDbSymbolTableRecord
100
AcDbBlockTableRecord
  2
*Model_Space
  0
BLOCK_RECORD
  5
21A
100
AcDbSymbolTableRecord
100
AcDbBlockTableRecord
  2
*Paper_Space
  0
BLOCK_RECORD
  5
21B
100
AcDbSymbolTableRecord
100
AcDbBlockTableRecord
  2
_FILLED
  0
ENDTAB
  0
TABLE
  2
DIMSTYLE
  5
A
100
AcDbSymbolTable
 70
1
100
AcDbDimStyleTable
 71
0
  0
DIMSTYLE
105
21C
100
AcDbSymbolTableRecord
100
AcDbDimStyleTableRecord
  2
STANDARD
 70
0
  3

  4

 40
1.0
 41
3.0
 42
0.5
 43
0.38
 44
1.5
 45
0.0
 46
0.0
 47
0.01
 48
0.01
140
3.0
141
0.09
142
0.0
143
25.4
144
1.0
145
0.0
146
1.0
147
0.625
 71
1
 72
0
 73
0
 74
0
 75
0
 76
0
 77
1
 78
8
 79
2
170
0
171
1
172
0
173
0
174
0
175
0
176
0
177
0
178
0
270
2
179
2
271
2
272
2
273
2
274
2
275
0
280
0
281
0
282
0
283
1
284
8
285
0
286
0
287
3
288
0
340
11
278
44
341
21B
342
21B
343
21B
344
21B
  0
ENDTAB
  0
ENDSEC
  0
SECTION
  2
BLOCKS
  0
BLOCK
  5
20
100
AcDbEntity
  8
0
100
AcDbBlockBegin
  2
*Model_Space
 70
0
 10
0.0
 20
0.0
 30
0.0
  3
*Model_Space
  1

  0
ENDBLK
  5
21
100
AcDbEntity
  8
0
100
AcDbBlockEnd
  0
BLOCK
  5
1C
100
AcDbEntity
  8
0
100
AcDbBlockBegin
  2
*Paper_Space
 70
0
 10
0.0
 20
0.0
 30
0.0
  3
*Paper_Space
  1

  0
ENDBLK
  5
1D
100
AcDbEntity
  8
0
100
AcDbBlockEnd
  0
BLOCK
  5
21D
100
AcDbEntity
  8
0
100
AcDbBlockBegin
  2
_FILLED
 70
64
 10
0.0
 20
0.0
  3
_FILLED
  1

  0
SOLID
  5
21E
100
AcDbEntity
  8
0
  6
BYBLOCK
 62
0
100
AcDbTrace
 10
0.0
 20
0.0
 11
-1.0
 21
0.3166666667
 12
-1.0
 22
-0.3166666667
 13
-1.0
 23
-0.3166666667
  0
ENDBLK
  5
21F
100
AcDbEntity
  8
0
  6
BYBLOCK
 62
0
100
AcDbBlockEnd
  0
ENDSEC
  0
SECTION
  2
ENTITIES
  0
LINE
  5
220
100
AcDbEntity
  8
COPY_PUBLISH
100
AcDbLine
 62
7
  6
CONTINUOUS
 10
-9.3515170199
 20
25.0878506424
 11
-8.7879075893
 21
25.4482723393
  0
LWPOLYLINE
  5
221
100
AcDbEntity
  8
COPY_PUBLISH
100
AcDbPolyline
 62
250
  6
CONTINUOUS
 90
9
 70
0
 10
-9.3515170199
 20
25.0878506424
 10
-9.3310150726
 20
25.0990236254
 10
-9.3020176473
 20
25.109302083
 10
-9.2705583671
 20
25.1147215879
 10
-9.2370231316
 20
25.1152043262
 10
-9.2019213288
 20
25.1107717861
 10
-9.1657023214
 20
25.1015446201
 10
-9.1287261726
 20
25.0876759083
 10
-9.0913980187
 20
25.0693686813
  0
LINE
  5
222
100
AcDbEntity
  8
RACCORDO
100
AcDbLine
 62
7
  6
CONTINUOUS
 10
-8.2335890689
 20
25.6422352556
 11
-8.6250358839
 21
25.4662884874
  0
LINE
  5
223
100
AcDbEntity
  8
RACCORDO
100
AcDbLine
 62
250
  6
CONTINUOUS
 10
-8.0228920848
 20
25.6131325367
 11
-8.4897450234
 21
25.4032923678
  0
LINE
  5
224
100
AcDbEntity
  8
0
100
AcDbLine
 62
250
  6
CONTINUOUS
 10
-9.0913980187
 20
25.0693686813
 11
-8.5315129884
 21
25.4274086673
  0
LINE
  5
225
100
AcDbEntity
  8
COPY_PUBLISH
100
AcDbLine
 62
7
  6
CONTINUOUS
 10
-9.3321551499
 20
-17.9181608831
 11
5.5360590184
 21
-26.5028814014
  0
LINE
  5
226
100
AcDbEntity
  8
COPY_PUBLISH
100
AcDbLine
 62
250
  6
CONTINUOUS
 10
-9.4356964604
 20
-17.6892924525
 11
5.4325177079
 21
-26.2740129708
  0
LWPOLYLINE
  5
227
100
AcDbEntity
  8
COPY_PUBLISH
100
AcDbPolyline
 62
250
  6
CONTINUOUS
 90
9
 70
0
 10
-9.3321551499
 20
-17.9181608831
 10
-9.3477550522
 20
-17.9079520568
 10
-9.3703342664
 20
-17.8880360694
 10
-9.3898602777
 20
-17.8638518141
 10
-9.4061262204
 20
-17.8356555079
 10
-9.418959767
 20
-17.8037458728
 10
-9.4282249543
 20
-17.7684609714
 10
-9.4338236235
 20
-17.7301746248
 10
-9.4356964604
 20
-17.6892924525
  0
LWPOLYLINE
  5
228
100
AcDbEntity
  8
RACCORDO
100
AcDbPolyline
 62
250
  6
CONTINUOUS
 90
8
 70
0
 10
8.2867969932
 20
-12.4352368056
 10
8.3178098566
 20
-12.4275667971
 10
8.3477779954
 20
-12.423487644
 10
8.3763744717
 20
-12.4229901901
 10
8.4034508701
 20
-12.4259815721
 10
8.4289911093
 20
-12.4324151482
 10
8.4528021311
 20
-12.4423035366
 10
8.4604843547
 20
-12.446462516
  0
LINE
  5
229
100
AcDbEntity
  8
DRAFT
100
AcDbLine
 62
7
  6
CONTINUOUS
 10
8.6323597915
 20
-15.4415131534
 11
8.0746822556
 21
-15.367586814
  0
LINE
  5
22A
100
AcDbEntity
  8
0
100
AcDbLine
 62
250
  6
CONTINUOUS
 10
6.366811867
 20
16.8253026157
 11
5.7768161497
 21
16.484648163
  0
LINE
  5
22B
100
AcDbEntity
  8
RACCORDO
100
AcDbLine
 62
250
  6
CONTINUOUS
 10
6.848140457
 20
17.0267847249
 11
6.4029611898
 21
16.80210139
  0
LINE
  5
22C
100
AcDbEntity
  8
RACCORDO
100
AcDbLine
 62
250
  6
CONTINUOUS
 10
7.1657213758
 20
16.4754438463
 11
6.7185134404
 21
16.2497366364
  0
LWPOLYLINE
  5
22D
100
AcDbEntity
  8
COPY_PUBLISH
100
AcDbPolyline
 62
250
  6
CONTINUOUS
 90
16
 70
0
 10
6.1302483864
 20
15.8724855727
 10
6.09102414
 20
15.853114416
 10
6.048550163
 20
15.8361812727
 10
6.0032790783
 20
15.821866591
 10
5.9556876555
 20
15.8103217371
 10
5.9062882916
 20
15.8016715916
 10
5.8556254091
 20
15.7960098066
 10
5.8042518192
 20
15.7933937865
 10
5.7527028114
 20
15.7938464797
 10
5.7015082977
 20
15.7973616503
 10
5.6511431056
 20
15.8039132116
 10
5.6022162132
 20
15.8134285835
 10
5.5554250552
 20
15.8257535732
 10
5.5112946266
 20
15.840704861
 10
5.4701950335
 20
15.8581097531
 10
5.4325177079
 20
15.8777593114
  0
LINE
  5
22E
100
AcDbEntity
  8
DRAFT
100
AcDbLine
 62
7
  6
CONTINUOUS
 10
8.6323597915
 20
-13.0375071303
 11
8.0746822556
 21
-12.9388763227
  0
LINE
  5
22F
100
AcDbEntity
  8
RACCORDO
100
AcDbLine
 62
7
  6
CONTINUOUS
 10
7.1657213758
 20
-17.4251653916
 11
7.084732762
 21
-17.378403581
  0
LWPOLYLINE
  5
230
100
AcDbEntity
  8
COPY_PUBLISH
100
AcDbPolyline
 62
250
  6
CONTINUOUS
 90
9
 70
0
 10
-9.5821430698
 20
-17.4851551559
 10
-9.5810283847
 20
-17.5044215866
 10
-9.574940323
 20
-17.5339806572
 10
-9.5635934169
 20
-17.5630608879
 10
-9.5471133712
 20
-17.5913106624
 10
-9.5257672382
 20
-17.6183272906
 10
-9.4998725164
 20
-17.643807647
 10
-9.4697283012
 20
-17.6675380369
 10
-9.4356964604
 20
-17.6892924525
  0
LINE
  5
231
100
AcDbEntity
  8
COPY_PUBLISH
100
AcDbLine
 62
7
  6
CONTINUOUS
 10
-9.5821430698
 20
-17.4851551559
 11
-9.5821430698
 21
24.6666171264
  0
LINE
  5
232
100
AcDbEntity
  8
COPY_PUBLISH
100
AcDbLine
 62
250
  6
CONTINUOUS
 10
-9.4356964604
 20
-17.6892924525
 11
-9.4356964604
 21
24.4624798297
  0
LWPOLYLINE
  5
233
100
AcDbEntity
  8
COPY_PUBLISH
100
AcDbPolyline
 62
250
  6
CONTINUOUS
 90
16
 70
0
 10
-9.4356964604
 20
24.4624798297
 10
-9.4338236235
 20
24.5055247071
 10
-9.4282249543
 20
24.5502762566
 10
-9.418959767
 20
24.596260364
 10
-9.4061262204
 20
24.642989857
 10
-9.3898602777
 20
24.6899696662
 10
-9.3703342664
 20
24.7367020699
 10
-9.3477550522
 20
24.7826919679
 10
-9.3223618476
 20
24.8274521265
 10
-9.2944236774
 20
24.8705083404
 10
-9.2642365285
 20
24.9114044564
 10
-9.2321202148
 20
24.9497072061
 10
-9.1984149884
 20
24.9850107958
 10
-9.1634779348
 20
25.0169412064
 10
-9.1276791899
 20
25.0451601556
 10
-9.0913980187
 20
25.0693686813
  0
LWPOLYLINE
  5
234
100
AcDbEntity
  8
COPY_PUBLISH
100
AcDbPolyline
 62
250
  6
CONTINUOUS
 90
16
 70
0
 10
5.7768161497
 20
16.484648163
 10
5.7405349785
 20
16.4604396372
 10
5.7047362336
 20
16.4322206881
 10
5.66979918
 20
16.4002902775
 10
5.6360939535
 20
16.3649866878
 10
5.6039776398
 20
16.3266839381
 10
5.573790491
 20
16.2857878221
 10
5.5458523207
 20
16.2427316081
 10
5.5204591161
 20
16.1979714496
 10
5.4978799019
 20
16.1519815516
 10
5.4783538906
 20
16.1052491479
 10
5.4620879479
 20
16.0582693387
 10
5.4492544013
 20
16.0115398457
 10
5.4399892141
 20
15.9655557383
 10
5.4343905448
 20
15.9208041887
 10
5.4325177079
 20
15.8777593114
  0
LINE
  5
235
100
AcDbEntity
  8
0
100
AcDbLine
 62
250
  6
CONTINUOUS
 10
6.7202441037
 20
16.2131400254
 11
6.1302483864
 21
15.8724855727
  0
LWPOLYLINE
  5
236
100
AcDbEntity
  8
COPY_PUBLISH
100
AcDbPolyline
 62
250
  6
CONTINUOUS
 90
9
 70
0
 10
-9.5821430695
 20
24.6666057195
 10
-9.5810265336
 20
24.6473347226
 10
-9.5749351097
 20
24.6177740865
 10
-9.5635849463
 20
24.588693945
 10
-9.547102322
 20
24.560445487
 10
-9.5257551105
 20
24.5334315242
 10
-9.4998615558
 20
24.5079550148
 10
-9.4697212376
 20
24.4842292411
 10
-9.4356964604
 20
24.4624798297
  0
LWPOLYLINE
  5
237
100
AcDbEntity
  8
RACCORDO
100
AcDbPolyline
 62
7
  6
CONTINUOUS
 90
9
 70
0
 10
8.4604648411
 20
-12.4464671801
 10
8.4328353201
 20
-12.4325975621
 10
8.3978396146
 20
-12.4202249609
 10
8.3611818259
 20
-12.4125287802
 10
8.3233696008
 20
-12.4095185515
 10
8.2848197514
 20
-12.4111582475
 10
8.2457098645
 20
-12.4173982622
 10
8.2063402244
 20
-12.4282069282
 10
8.19951186
 20
-12.4305468269
  0
LINE
  5
238
100
AcDbEntity
  8
RACCORDO
100
AcDbLine
 62
7
  6
CONTINUOUS
 10
7.1657213758
 20
8.8411441739
 11
8.1995493845
 21
9.2059287712
  0
LINE
  5
239
100
AcDbEntity
  8
RACCORDO
100
AcDbLine
 62
250
  6
CONTINUOUS
 10
8.2867969932
 20
9.2012255294
 11
7.1657213758
 21
8.8056294955
  0
LWPOLYLINE
  5
23A
100
AcDbEntity
  8
RACCORDO
100
AcDbPolyline
 62
250
  6
CONTINUOUS
 90
7
 70
0
 10
8.1995493845
 20
9.2059287712
 10
8.2017257452
 20
9.2066222212
 10
8.2114552756
 20
9.2080790621
 10
8.2218277392
 20
9.2071069685
 10
8.2326676892
 20
9.2037223231
 10
8.2437917988
 20
9.1979823102
 10
8.2550119096
 20
9.1899839581
  0
LINE
  5
23B
100
AcDbEntity
  8
RACCORDO
100
AcDbLine
 62
250
  6
CONTINUOUS
 10
8.950557843
 20
-12.8480778817
 11
8.2550119096
 21
-12.4464783769
  0
LINE
  5
23C
100
AcDbEntity
  8
RACCORDO
100
AcDbLine
 62
7
  6
CONTINUOUS
 10
8.950557843
 20
-12.7294247126
 11
8.4606268691
 21
-12.4465447086
  0
LINE
  5
23D
100
AcDbEntity
  8
DRAFT
100
AcDbLine
 62
7
  6
CONTINUOUS
 10
8.950557843
 20
8.7634235444
 11
8.6323597915
 21
8.5989552047
  0
LINE
  5
23E
100
AcDbEntity
  8
DRAFT
100
AcDbLine
 62
7
  6
CONTINUOUS
 10
8.0746822556
 20
8.6975860123
 11
7.166046301
 21
8.2929187435
  0
LWPOLYLINE
  5
23F
100
AcDbEntity
  8
DRAFT
100
AcDbPolyline
 62
7
  6
CONTINUOUS
 90
4
 70
0
 10
-2.7086961574
 20
-1.2323152264
 10
-2.7079985648
 20
-1.2436851582
 10
-2.7061992974
 20
-1.2551532008
 10
-2.7033048449
 20
-1.2666934793
  0
LWPOLYLINE
  5
240
100
AcDbEntity
  8
0
100
AcDbPolyline
 62
7
  6
CONTINUOUS
 90
13
 70
0
 10
-2.7086961574
 20
-1.2323152264
 10
-2.7080070495
 20
-1.2436566261
 10
-2.7062128729
 20
-1.2551075494
 10
-2.7033136276
 20
-1.2666679964
 10
-2.699222885
 20
-1.278537225
 10
-2.6940270736
 20
-1.2905159772
 10
-2.6879854793
 20
-1.3020064793
 10
-2.6810551811
 20
-1.312983954
 10
-2.6732791
 20
-1.3234731787
 10
-2.6650452843
 20
-1.3329507112
 10
-2.6564830838
 20
-1.3412420708
 10
-2.6474631488
 20
-1.3485217382
 10
-2.6379854793
 20
-1.3547897134
  0
LINE
  5
241
100
AcDbEntity
  8
0
100
AcDbLine
 62
7
  6
CONTINUOUS
 10
-2.7086961574
 20
0.2373312719
 11
-2.7086961574
 21
-1.2323152264
  0
LINE
  5
242
100
AcDbEntity
  8
DRAFT
100
AcDbLine
 62
7
  6
CONTINUOUS
 10
-2.7086961574
 20
0.2373312719
 11
-2.7086961574
 21
-1.2323152264
  0
LWPOLYLINE
  5
243
100
AcDbEntity
  8
DRAFT
100
AcDbPolyline
 62
7
  6
CONTINUOUS
 90
4
 70
0
 10
-2.7033048449
 20
0.2654837722
 10
-2.7061992974
 20
0.2572859349
 10
-2.7079985648
 20
0.2478956412
 10
-2.7086961574
 20
0.2373312719
  0
LWPOLYLINE
  5
244
100
AcDbEntity
  8
0
100
AcDbPolyline
 62
7
  6
CONTINUOUS
 90
7
 70
0
 10
-2.688615655
 20
0.282733279
 10
-2.6940270736
 20
0.2785925324
 10
-2.699222885
 20
0.2726137729
 10
-2.7033136276
 20
0.2654684314
 10
-2.7062128729
 20
0.2572559602
 10
-2.7080070495
 20
0.247876907
 10
-2.7086961574
 20
0.2373312719
  0
LWPOLYLINE
  5
245
100
AcDbEntity
  8
DRAFT
100
AcDbPolyline
 62
7
  6
CONTINUOUS
 90
4
 70
0
 10
-2.6886156031
 20
0.2827333105
 10
-2.6940192538
 20
0.2786035035
 10
-2.6992096419
 20
0.272639866
 10
-2.7032983551
 20
0.2655021529
  0
LINE
  5
246
100
AcDbEntity
  8
DRAFT
100
AcDbLine
 62
7
  6
CONTINUOUS
 10
6.7202441037
 20
8.0226023865
 11
7.1657213758
 21
8.2936483274
  0
LWPOLYLINE
  5
247
100
AcDbEntity
  8
DRAFT
100
AcDbPolyline
 62
7
  6
CONTINUOUS
 90
4
 70
0
 10
-1.3380966266
 20
-2.099096601
 10
-1.3298704324
 20
-2.0991252152
 10
-1.3221101596
 20
-2.0976127486
 10
-1.3158264435
 20
-2.0949958647
  0
LWPOLYLINE
  5
248
100
AcDbEntity
  8
DRAFT
100
AcDbPolyline
 62
7
  6
CONTINUOUS
 90
4
 70
0
 10
-1.3651932732
 20
-2.0896839814
 10
-1.3556951362
 20
-2.094362602
 10
-1.3466629207
 20
-2.0975001419
 10
-1.3381157904
 20
-2.0990930296
  0
LWPOLYLINE
  5
249
100
AcDbEntity
  8
0
100
AcDbPolyline
 62
7
  6
CONTINUOUS
 90
7
 70
0
 10
-1.3651932732
 20
-2.0896839814
 10
-1.3557156037
 20
-2.0943605813
 10
-1.3466956687
 20
-2.0974969087
 10
-1.3381334682
 20
-2.0990929637
 10
-1.3298996526
 20
-2.0991236351
 10
-1.3221235714
 20
-2.0976140341
 10
-1.3158264963
 20
-2.0949958937
  0
LINE
  5
24A
100
AcDbEntity
  8
0
100
AcDbLine
 62
7
  6
CONTINUOUS
 10
-2.6379854793
 20
-1.3547897134
 11
-1.3651932732
 21
-2.0896839814
  0
LINE
  5
24B
100
AcDbEntity
  8
DRAFT
100
AcDbLine
 62
7
  6
CONTINUOUS
 10
-2.6379854793
 20
-1.3547897134
 11
-1.3651932732
 21
-2.0896839814
  0
LWPOLYLINE
  5
24C
100
AcDbEntity
  8
DRAFT
100
AcDbPolyline
 62
7
  6
CONTINUOUS
 90
4
 70
0
 10
-2.6650629621
 20
-1.3329303632
 10
-2.6565158319
 20
-1.3412074873
 10
-2.6474836163
 20
-1.3485001235
 10
-2.6379854793
 20
-1.3547897134
  0
LWPOLYLINE
  5
24D
100
AcDbEntity
  8
DRAFT
100
AcDbPolyline
 62
7
  6
CONTINUOUS
 90
7
 70
0
 10
-2.7032983551
 20
-1.2667193542
 10
-2.6992096419
 20
-1.2785786109
 10
-2.6940192538
 20
-1.2905359784
 10
-2.6879854793
 20
-1.3020064793
 10
-2.6810685929
 20
-1.312967181
 10
-2.6733083202
 20
-1.323441016
 10
-2.6650821259
 20
-1.3329118048
  0
LWPOLYLINE
  5
24E
100
AcDbEntity
  8
DRAFT
100
AcDbPolyline
 62
7
  6
CONTINUOUS
 90
13
 70
0
 10
-1.2944825951
 20
-0.5792179148
 10
-1.2951801877
 20
-0.567847983
 10
-1.2969794551
 20
-0.5563799404
 10
-1.2998803974
 20
-0.5448137869
 10
-1.3039691106
 20
-0.5329545302
 10
-1.3091594987
 20
-0.5209971627
 10
-1.3151932732
 20
-0.5095266619
 10
-1.3221101596
 20
-0.4985659602
 10
-1.3298704324
 20
-0.4880921251
 10
-1.3380966266
 20
-0.4786213364
 10
-1.3466629207
 20
-0.4703256539
 10
-1.3556951362
 20
-0.4630330177
 10
-1.3651932732
 20
-0.4567434278
  0
LWPOLYLINE
  5
24F
100
AcDbEntity
  8
0
100
AcDbPolyline
 62
7
  6
CONTINUOUS
 90
4
 70
0
 10
-1.2944825951
 20
-0.5792179148
 10
-1.295171703
 20
-0.5678765151
 10
-1.2969658796
 20
-0.5564255917
 10
-1.2998651249
 20
-0.5448651447
  0
LINE
  5
250
100
AcDbEntity
  8
0
100
AcDbLine
 62
7
  6
CONTINUOUS
 10
-1.2944825951
 20
-2.048864413
 11
-1.2944825951
 21
-0.5792179148
  0
LINE
  5
251
100
AcDbEntity
  8
DRAFT
100
AcDbLine
 62
7
  6
CONTINUOUS
 10
-1.2944825951
 20
-2.048864413
 11
-1.2944825951
 21
-0.5792179148
  0
LINE
  5
252
100
AcDbEntity
  8
DRAFT
100
AcDbLine
 62
7
  6
CONTINUOUS
 10
-1.2951801877
 20
-2.0594287824
 11
-1.2944825951
 21
-2.048864413
  0
LWPOLYLINE
  5
253
100
AcDbEntity
  8
0
100
AcDbPolyline
 62
7
  6
CONTINUOUS
 90
4
 70
0
 10
-1.2998651249
 20
-2.0770015725
 10
-1.2969658796
 20
-2.0687891013
 10
-1.295171703
 20
-2.0594100482
 10
-1.2944825951
 20
-2.048864413
  0
LINE
  5
254
100
AcDbEntity
  8
DRAFT
100
AcDbLine
 62
7
  6
CONTINUOUS
 10
8.950557843
 20
6.3979279759
 11
8.6323597915
 21
6.1949491816
  0
LINE
  5
255
100
AcDbEntity
  8
DRAFT
100
AcDbLine
 62
7
  6
CONTINUOUS
 10
6.7202441037
 20
3.9402510026
 11
7.1657213758
 21
4.2112969434
  0
LINE
  5
256
100
AcDbEntity
  8
RACCORDO
100
AcDbLine
 62
250
  6
CONTINUOUS
 10
6.9433114057
 20
4.503007728
 11
6.7202441037
 21
4.3742114635
  0
LINE
  5
257
100
AcDbEntity
  8
RACCORDO
100
AcDbLine
 62
250
  6
CONTINUOUS
 10
7.084732762
 20
4.258058754
 11
6.7202441037
 21
4.0476075708
  0
LINE
  5
258
100
AcDbEntity
  8
DRAFT
100
AcDbLine
 62
7
  6
CONTINUOUS
 10
8.0746822556
 20
6.268875521
 11
6.9433114057
 21
5.6370347005
  0
LWPOLYLINE
  5
259
100
AcDbEntity
  8
DRAFT
100
AcDbPolyline
 62
7
  6
CONTINUOUS
 90
7
 70
0
 10
-2.6379854793
 20
0.2781508402
 10
-2.6474836163
 20
0.2828294609
 10
-2.6565158319
 20
0.2859670008
 10
-2.6650821259
 20
0.2875634599
 10
-2.6733083202
 20
0.2875920741
 10
-2.6810685929
 20
0.2860796075
 10
-2.6886156031
 20
0.2827333105
  0
LWPOLYLINE
  5
25A
100
AcDbEntity
  8
0
100
AcDbPolyline
 62
7
  6
CONTINUOUS
 90
4
 70
0
 10
-2.6379854793
 20
0.2781508402
 10
-2.6474631488
 20
0.2828274401
 10
-2.6564830838
 20
0.2859637676
 10
-2.6650452843
 20
0.2875598226
  0
LINE
  5
25B
100
AcDbEntity
  8
0
100
AcDbLine
 62
7
  6
CONTINUOUS
 10
-1.3651932732
 20
-0.4567434278
 11
-2.6379854793
 21
0.2781508402
  0
LINE
  5
25C
100
AcDbEntity
  8
DRAFT
100
AcDbLine
 62
7
  6
CONTINUOUS
 10
-1.3651932732
 20
-0.4567434278
 11
-2.6379854793
 21
0.2781508402
  0
LWPOLYLINE
  5
25D
100
AcDbEntity
  8
0
100
AcDbPolyline
 62
7
  6
CONTINUOUS
 90
4
 70
0
 10
-1.3381334682
 20
-0.47858243
 10
-1.3466956687
 20
-0.4702910704
 10
-1.3557156037
 20
-0.463011403
 10
-1.3651932732
 20
-0.4567434278
  0
LWPOLYLINE
  5
25E
100
AcDbEntity
  8
0
100
AcDbPolyline
 62
7
  6
CONTINUOUS
 90
4
 70
0
 10
-1.3151932732
 20
-0.5095266619
 10
-1.3221235714
 20
-0.4985491871
 10
-1.3298996526
 20
-0.4880599624
 10
-1.3381157904
 20
-0.4786027779
  0
LWPOLYLINE
  5
25F
100
AcDbEntity
  8
0
100
AcDbPolyline
 62
7
  6
CONTINUOUS
 90
4
 70
0
 10
-1.2998739076
 20
-0.5448396618
 10
-1.3039558676
 20
-0.5329959161
 10
-1.3091516789
 20
-0.521017164
 10
-1.3151932732
 20
-0.5095266619
  0
LWPOLYLINE
  5
260
100
AcDbEntity
  8
0
100
AcDbPolyline
 62
7
  6
CONTINUOUS
 90
4
 70
0
 10
-1.3158264963
 20
-2.0949958937
 10
-1.3091516789
 20
-2.0901256735
 10
-1.3039558676
 20
-2.084146914
 10
-1.2998739076
 20
-2.0770169133
  0
LWPOLYLINE
  5
261
100
AcDbEntity
  8
DRAFT
100
AcDbPolyline
 62
7
  6
CONTINUOUS
 90
6
 70
0
 10
-1.3158264435
 20
-2.0949958647
 10
-1.3091594987
 20
-2.0901366446
 10
-1.3039691106
 20
-2.0841730071
 10
-1.2998803974
 20
-2.077035294
 10
-1.2969794551
 20
-2.068819076
 10
-1.2951801877
 20
-2.0594287824
  0
LWPOLYLINE
  5
262
100
AcDbEntity
  8
0
100
AcDbPolyline
 62
7
  6
CONTINUOUS
 90
4
 70
0
 10
-2.6650629621
 20
0.2875598884
 10
-2.6732791
 20
0.287590494
 10
-2.6810551811
 20
0.286080893
 10
-2.688615655
 20
0.282733279
  0
LWPOLYLINE
  5
263
100
AcDbEntity
  8
RACCORDO
100
AcDbPolyline
 62
250
  6
CONTINUOUS
 90
9
 70
0
 10
8.1269326551
 20
-2.3166747955
 10
8.1085265484
 20
-2.3090233722
 10
8.0889309241
 20
-2.3033469995
 10
8.0685104203
 20
-2.2997468878
 10
8.0473395203
 20
-2.2982014134
 10
8.0245439873
 20
-2.2987614408
 10
7.9998139178
 20
-2.3017345764
 10
7.9735213564
 20
-2.307376873
 10
7.9457537542
 20
-2.3159272808
  0
LWPOLYLINE
  5
264
100
AcDbEntity
  8
RACCORDO
100
AcDbPolyline
 62
7
  6
CONTINUOUS
 90
10
 70
0
 10
8.1387597612
 20
-2.322937255
 10
8.1136781495
 20
-2.3096565272
 10
8.0797382939
 20
-2.2953069658
 10
8.0442024478
 20
-2.2842417708
 10
8.0074175544
 20
-2.2766427269
 10
7.9697380922
 20
-2.2726271513
 10
7.9314742517
 20
-2.2722592079
 10
7.892972979
 20
-2.275563098
 10
7.8545727527
 20
-2.2824959513
 10
7.8158984289
 20
-2.2932012392
  0
LWPOLYLINE
  5
265
100
AcDbEntity
  8
RACCORDO
100
AcDbPolyline
 62
250
  6
CONTINUOUS
 90
6
 70
0
 10
7.9457537542
 20
-2.3159272808
 10
7.9193467376
 20
-2.3017506462
 10
7.8927633285
 20
-2.292253291
 10
7.8664531356
 20
-2.2875958454
 10
7.840861147
 20
-2.2878570814
 10
7.8158984289
 20
-2.2932012392
  0
LINE
  5
266
100
AcDbEntity
  8
RACCORDO
100
AcDbLine
 62
250
  6
CONTINUOUS
 10
7.1675424549
 20
-2.8505008631
 11
7.2510740828
 21
-2.8987309781
  0
LINE
  5
267
100
AcDbEntity
  8
RACCORDO
100
AcDbLine
 62
250
  6
CONTINUOUS
 10
7.9457537542
 20
-2.3159272808
 11
8.2583934296
 21
-2.4964415111
  0
LINE
  5
268
100
AcDbEntity
  8
RACCORDO
100
AcDbLine
 62
7
  6
CONTINUOUS
 10
8.1383263888
 20
-2.3226860061
 11
8.4420724669
 21
-2.4980651848
  0
LWPOLYLINE
  5
269
100
AcDbEntity
  8
RACCORDO
100
AcDbPolyline
 62
7
  6
CONTINUOUS
 90
13
 70
0
 10
6.9433114057
 20
-17.133454607
 10
6.9446896216
 20
-17.1561374064
 10
6.9482779748
 20
-17.1790392532
 10
6.9540764655
 20
-17.2021601472
 10
6.9622579507
 20
-17.2258986043
 10
6.9726495734
 20
-17.2498561086
 10
6.984732762
 20
-17.2728371128
 10
6.9985933584
 20
-17.2947920623
 10
7.0141455207
 20
-17.3157705117
 10
7.030613152
 20
-17.3347255766
 10
7.0477375531
 20
-17.3513082958
 10
7.0657774231
 20
-17.3658676306
 10
7.084732762
 20
-17.378403581
  0
LWPOLYLINE
  5
26A
100
AcDbEntity
  8
COPY_PUBLISH
100
AcDbPolyline
 62
250
  6
CONTINUOUS
 90
9
 70
0
 10
5.4325177079
 20
-26.2740129708
 10
5.4343905448
 20
-26.3148951431
 10
5.4399892141
 20
-26.3531814897
 10
5.4492544013
 20
-26.3884663911
 10
5.4620879479
 20
-26.4203760262
 10
5.4783538906
 20
-26.4485723324
 10
5.4978799019
 20
-26.4727565877
 10
5.5204591161
 20
-26.4926725752
 10
5.5360590184
 20
-26.5028814014
  0
LINE
  5
26B
100
AcDbEntity
  8
COPY_PUBLISH
100
AcDbLine
 62
250
  6
CONTINUOUS
 10
5.4325177079
 20
15.8777593114
 11
5.4325177079
 21
-26.2740129708
  0
LINE
  5
26C
100
AcDbEntity
  8
RACCORDO
100
AcDbLine
 62
7
  6
CONTINUOUS
 10
7.2510740828
 20
-2.8987309781
 11
8.2583934296
 21
-2.4964415111
  0
LINE
  5
26D
100
AcDbEntity
  8
RACCORDO
100
AcDbLine
 62
7
  6
CONTINUOUS
 10
7.8158247424
 20
-2.2932252663
 11
7.1657213758
 21
-2.5054336285
  0
LINE
  5
26E
100
AcDbEntity
  8
RACCORDO
100
AcDbLine
 62
250
  6
CONTINUOUS
 10
7.9457537542
 20
-2.3159272808
 11
7.1657213758
 21
-2.570547395
  0
LWPOLYLINE
  5
26F
100
AcDbEntity
  8
COPY_PUBLISH
100
AcDbPolyline
 62
250
  6
CONTINUOUS
 90
16
 70
0
 10
6.1302483864
 20
15.8724855727
 10
6.1273584387
 20
15.9158624947
 10
6.1207097378
 20
15.9610678903
 10
6.110375545
 20
16.0076038759
 10
6.0964678936
 20
16.0549634487
 10
6.0791410103
 20
16.102619559
 10
6.0585934948
 20
16.1500308146
 10
6.0350603679
 20
16.1966655647
 10
6.0087991882
 20
16.2420226919
 10
5.9800917156
 20
16.2856190029
 10
5.9492088091
 20
16.3270321491
 10
5.9165296775
 20
16.3657433662
 10
5.8825498609
 20
16.4011942835
 10
5.84770168
 20
16.4329970801
 10
5.8123287117
 20
16.4608992561
 10
5.7768161449
 20
16.4846481602
  0
LWPOLYLINE
  5
270
100
AcDbEntity
  8
RACCORDO
100
AcDbPolyline
 62
7
  6
CONTINUOUS
 90
13
 70
0
 10
6.9433114057
 20
4.503007728
 10
6.9446896216
 20
4.4803249286
 10
6.9482779748
 20
4.4574230819
 10
6.9540764655
 20
4.4343021879
 10
6.9622579507
 20
4.4105637308
 10
6.9726495734
 20
4.3866062264
 10
6.984732762
 20
4.3636252222
 10
6.9985933584
 20
4.3416702727
 10
7.0141455207
 20
4.3206918233
 10
7.030613152
 20
4.3017367584
 10
7.0477375531
 20
4.2851540392
 10
7.0657774231
 20
4.2705947044
 10
7.084732762
 20
4.258058754
  0
LINE
  5
271
100
AcDbEntity
  8
COPY_PUBLISH
100
AcDbLine
 62
250
  6
CONTINUOUS
 10
6.1302483864
 20
15.8724855727
 11
6.1302483864
 21
-26.2792867095
  0
LINE
  5
272
100
AcDbEntity
  8
0
100
AcDbLine
 62
7
  6
CONTINUOUS
 10
6.7202441037
 20
-25.9733999633
 11
6.7202441037
 21
16.2131400254
  0
LINE
  5
273
100
AcDbEntity
  8
RACCORDO
100
AcDbLine
 62
7
  6
CONTINUOUS
 10
6.9433114057
 20
-17.133454607
 11
6.9433114057
 21
-13.4781370047
  0
LINE
  5
274
100
AcDbEntity
  8
RACCORDO
100
AcDbLine
 62
7
  6
CONTINUOUS
 10
6.9433114057
 20
4.503007728
 11
6.9433114057
 21
8.1583253303
  0
LINE
  5
275
100
AcDbEntity
  8
RACCORDO
100
AcDbLine
 62
7
  6
CONTINUOUS
 10
7.1657213758
 20
-25.6069609106
 11
7.1657213758
 21
-17.4251653916
  0
LINE
  5
276
100
AcDbEntity
  8
RACCORDO
100
AcDbLine
 62
7
  6
CONTINUOUS
 10
7.1657213758
 20
-13.3428140076
 11
7.1657213758
 21
-6.3014640719
  0
LINE
  5
277
100
AcDbEntity
  8
RACCORDO
100
AcDbLine
 62
7
  6
CONTINUOUS
 10
7.1657213758
 20
-2.8300529923
 11
7.1657213758
 21
4.2112969434
  0
LINE
  5
278
100
AcDbEntity
  8
RACCORDO
100
AcDbLine
 62
7
  6
CONTINUOUS
 10
7.1657213758
 20
8.2936483274
 11
7.1657213758
 21
16.4754438463
  0
LWPOLYLINE
  5
279
100
AcDbEntity
  8
RACCORDO
100
AcDbPolyline
 62
250
  6
CONTINUOUS
 90
8
 70
0
 10
8.2867969932
 20
9.2012255294
 10
8.3178098566
 20
9.2088955379
 10
8.3477779954
 20
9.212974691
 10
8.3763744717
 20
9.2134721449
 10
8.4034508701
 20
9.2104807629
 10
8.4289911093
 20
9.2040471868
 10
8.4528021311
 20
9.1941587984
 10
8.4604843547
 20
9.189999819
  0
LINE
  5
27A
100
AcDbEntity
  8
DRAFT
100
AcDbLine
 62
7
  6
CONTINUOUS
 10
8.6323597915
 20
6.1949491816
 11
8.0746822556
 21
6.268875521
  0
LINE
  5
27B
100
AcDbEntity
  8
RACCORDO
100
AcDbLine
 62
7
  6
CONTINUOUS
 10
7.1657213758
 20
4.2112969434
 11
7.084732762
 21
4.258058754
  0
LINE
  5
27C
100
AcDbEntity
  8
DRAFT
100
AcDbLine
 62
7
  6
CONTINUOUS
 10
8.0746822556
 20
8.6975860123
 11
8.0746822556
 21
6.268875521
  0
LINE
  5
27D
100
AcDbEntity
  8
DRAFT
100
AcDbLine
 62
7
  6
CONTINUOUS
 10
8.0746822556
 20
-15.367586814
 11
8.0746822556
 21
-12.9388763227
  0
LINE
  5
27E
100
AcDbEntity
  8
RACCORDO
100
AcDbLine
 62
7
  6
CONTINUOUS
 10
8.5429024528
 20
-2.7253681305
 11
8.5429024528
 21
-4.7302863745
  0
LINE
  5
27F
100
AcDbEntity
  8
DRAFT
100
AcDbLine
 62
7
  6
CONTINUOUS
 10
8.6323597915
 20
8.5989552047
 11
8.6323597915
 21
6.1949491816
  0
LINE
  5
280
100
AcDbEntity
  8
DRAFT
100
AcDbLine
 62
7
  6
CONTINUOUS
 10
8.6323597915
 20
-15.4415131534
 11
8.6323597915
 21
-13.0375071303
  0
LINE
  5
281
100
AcDbEntity
  8
RACCORDO
100
AcDbLine
 62
7
  6
CONTINUOUS
 10
8.950557843
 20
8.9069921422
 11
8.950557843
 21
8.7634235444
  0
LINE
  5
282
100
AcDbEntity
  8
DRAFT
100
AcDbLine
 62
7
  6
CONTINUOUS
 10
8.950557843
 20
8.7634235444
 11
8.950557843
 21
6.3979279759
  0
LINE
  5
283
100
AcDbEntity
  8
RACCORDO
100
AcDbLine
 62
7
  6
CONTINUOUS
 10
8.950557843
 20
-12.7294701928
 11
8.950557843
 21
-12.8730387906
  0
LINE
  5
284
100
AcDbEntity
  8
DRAFT
100
AcDbLine
 62
7
  6
CONTINUOUS
 10
8.950557843
 20
-15.2385343591
 11
8.950557843
 21
-12.8730387906
  0
LWPOLYLINE
  5
285
100
AcDbEntity
  8
COPY_PUBLISH
100
AcDbPolyline
 62
250
  6
CONTINUOUS
 90
9
 70
0
 10
6.1302483864
 20
-26.2792867095
 10
6.1273587586
 20
-26.3214445105
 10
6.1207108486
 20
-26.3608320217
 10
6.1103778628
 20
-26.3970155046
 10
6.0964717011
 20
-26.4296002021
 10
6.0791465614
 20
-26.4582226352
 10
6.0586012701
 20
-26.4825595324
 10
6.035071407
 20
-26.5023435586
 10
6.0163214256
 20
-26.5137053194
  0
LINE
  5
286
100
AcDbEntity
  8
RACCORDO
100
AcDbLine
 62
7
  6
CONTINUOUS
 10
7.2510740828
 20
-6.1289221801
 11
8.2583934296
 21
-5.3054260139
  0
LINE
  5
287
100
AcDbEntity
  8
DRAFT
100
AcDbLine
 62
7
  6
CONTINUOUS
 10
8.6323597915
 20
8.5989552047
 11
8.0746822556
 21
8.6975860123
  0
LWPOLYLINE
  5
288
100
AcDbEntity
  8
RACCORDO
100
AcDbPolyline
 62
7
  6
CONTINUOUS
 90
9
 70
0
 10
8.4604648411
 20
9.1899951549
 10
8.4328353201
 20
9.2038647729
 10
8.3978396146
 20
9.2162373741
 10
8.3611818259
 20
9.2239335548
 10
8.3233696008
 20
9.2269437835
 10
8.2848197514
 20
9.2253040875
 10
8.2457098645
 20
9.2190640728
 10
8.2063402244
 20
9.2082554068
 10
8.19951186
 20
9.2059155081
  0
LINE
  5
289
100
AcDbEntity
  8
RACCORDO
100
AcDbLine
 62
250
  6
CONTINUOUS
 10
8.950557843
 20
8.7883844534
 11
8.2550119096
 21
9.1899839581
  0
LINE
  5
28A
100
AcDbEntity
  8
RACCORDO
100
AcDbLine
 62
7
  6
CONTINUOUS
 10
8.950557843
 20
8.9070376224
 11
8.4606268691
 21
9.1899176265
  0
LINE
  5
28B
100
AcDbEntity
  8
DRAFT
100
AcDbLine
 62
7
  6
CONTINUOUS
 10
6.7202441037
 20
-13.6138599485
 11
7.1657213758
 21
-13.3428140076
  0
LINE
  5
28C
100
AcDbEntity
  8
DRAFT
100
AcDbLine
 62
7
  6
CONTINUOUS
 10
8.0746822556
 20
-12.9388763227
 11
7.166046301
 21
-13.3435435915
  0
LINE
  5
28D
100
AcDbEntity
  8
RACCORDO
100
AcDbLine
 62
7
  6
CONTINUOUS
 10
7.1657213758
 20
-12.7953181612
 11
8.1995493845
 21
-12.4305335639
  0
LINE
  5
28E
100
AcDbEntity
  8
RACCORDO
100
AcDbLine
 62
250
  6
CONTINUOUS
 10
8.2867969932
 20
-12.4352368056
 11
7.1657213758
 21
-12.8308328395
  0
LWPOLYLINE
  5
28F
100
AcDbEntity
  8
RACCORDO
100
AcDbPolyline
 62
250
  6
CONTINUOUS
 90
7
 70
0
 10
8.1995493845
 20
-12.4305335639
 10
8.2017257452
 20
-12.4298401138
 10
8.2114552756
 20
-12.428383273
 10
8.2218277392
 20
-12.4293553665
 10
8.2326676892
 20
-12.4327400119
 10
8.2437917988
 20
-12.4384800248
 10
8.2550119096
 20
-12.4464783769
  0
LINE
  5
290
100
AcDbEntity
  8
DRAFT
100
AcDbLine
 62
7
  6
CONTINUOUS
 10
8.950557843
 20
-12.8730387906
 11
8.6323597915
 21
-13.0375071303
  0
LINE
  5
291
100
AcDbEntity
  8
COPY_PUBLISH
100
AcDbLine
 62
250
  6
CONTINUOUS
 10
5.4325177079
 20
15.8777593114
 11
-9.4356964604
 21
24.4624798297
  0
LINE
  5
292
100
AcDbEntity
  8
COPY_PUBLISH
100
AcDbLine
 62
250
  6
CONTINUOUS
 10
5.7768161497
 20
16.484648163
 11
-9.0913980187
 21
25.0693686813
  0
LINE
  5
293
100
AcDbEntity
  8
DRAFT
100
AcDbLine
 62
7
  6
CONTINUOUS
 10
8.950557843
 20
-15.2385343591
 11
8.6323597915
 21
-15.4415131534
  0
LINE
  5
294
100
AcDbEntity
  8
DRAFT
100
AcDbLine
 62
7
  6
CONTINUOUS
 10
6.7202441037
 20
-17.6962113324
 11
7.1657213758
 21
-17.4251653916
  0
LINE
  5
295
100
AcDbEntity
  8
RACCORDO
100
AcDbLine
 62
250
  6
CONTINUOUS
 10
6.9433114057
 20
-17.133454607
 11
6.7202441037
 21
-17.2622508715
  0
LINE
  5
296
100
AcDbEntity
  8
RACCORDO
100
AcDbLine
 62
250
  6
CONTINUOUS
 10
7.084732762
 20
-17.378403581
 11
6.7202441037
 21
-17.5888547642
  0
LINE
  5
297
100
AcDbEntity
  8
DRAFT
100
AcDbLine
 62
7
  6
CONTINUOUS
 10
8.0746822556
 20
-15.367586814
 11
6.9433114057
 21
-15.9994276345
  0
LINE
  5
298
100
AcDbEntity
  8
0
100
AcDbLine
 62
7
  6
CONTINUOUS
 10
6.366811867
 20
16.8253026157
 11
-8.5315129884
 21
25.4274086673
  0
LINE
  5
299
100
AcDbEntity
  8
RACCORDO
100
AcDbLine
 62
7
  6
CONTINUOUS
 10
6.848140457
 20
17.0267847249
 11
-8.0228920848
 21
25.6131325367
  0
LINE
  5
29A
100
AcDbEntity
  8
RACCORDO
100
AcDbLine
 62
250
  6
CONTINUOUS
 10
7.1657213758
 20
-25.6069609106
 11
6.7202441037
 21
-25.9242190533
  0
LINE
  5
29B
100
AcDbEntity
  8
RACCORDO
100
AcDbLine
 62
7
  6
CONTINUOUS
 10
7.0844029225
 20
-25.8060106268
 11
6.7068767627
 21
-26.0748756302
  0
LINE
  5
29C
100
AcDbEntity
  8
0
100
AcDbLine
 62
250
  6
CONTINUOUS
 10
6.1302483864
 20
-26.2792867095
 11
6.7202441037
 21
-25.9733999633
  0
LINE
  5
29D
100
AcDbEntity
  8
COPY_PUBLISH
100
AcDbLine
 62
7
  6
CONTINUOUS
 10
6.0162077659
 20
-26.5137643024
 11
6.6101282163
 21
-26.2058427553
  0
LWPOLYLINE
  5
29E
100
AcDbEntity
  8
COPY_PUBLISH
100
AcDbPolyline
 62
250
  6
CONTINUOUS
 90
16
 70
0
 10
6.1302483864
 20
-26.2792867095
 10
6.0910214135
 20
-26.2986590778
 10
6.048544445
 20
-26.3155930458
 10
6.0032702215
 20
-26.3299081575
 10
5.9556758278
 20
-26.3414530077
 10
5.9062735853
 20
-26.3501027937
 10
5.8556073856
 20
-26.3557639373
 10
5.8042291072
 20
-26.3583789726
 10
5.7526751471
 20
-26.3579247337
 10
5.7014779222
 20
-26.3544076218
 10
5.6511128844
 20
-26.3478541798
 10
5.6021882722
 20
-26.3383373191
 10
5.5554017304
 20
-26.3260117067
 10
5.5112779645
 20
-26.3110610927
 10
5.4701863666
 20
-26.2936584507
 10
5.4325177079
 20
-26.2740129708
  0
ARC
  5
29F
100
AcDbEntity
  8
COPY_PUBLISH
100
AcDbCircle
 62
7
  6
CONTINUOUS
 10
5.7860710985
 20
-26.0698756742
 40
0.5
100
AcDbArc
 50
239.9984015654
 51
297.4194204711
  0
ARC
  5
2A0
100
AcDbEntity
  8
COPY_PUBLISH
100
AcDbCircle
 62
7
  6
CONTINUOUS
 10
-9.0821430698
 20
-17.4851551559
 40
0.5
100
AcDbArc
 50
179.9840060021
 51
239.998401565
  0
ARC
  5
2A1
100
AcDbEntity
  8
COPY_PUBLISH
100
AcDbCircle
 62
7
  6
CONTINUOUS
 10
-9.0821430698
 20
24.6666171264
 40
0.5
100
AcDbArc
 50
122.5992954234
 51
180.0013071251
  0
ELLIPSE
  5
2A2
100
AcDbEntity
  8
RACCORDO
100
AcDbEllipse
 62
7
  6
CONTINUOUS
 10
-8.0221658762
 20
25.2438981557
 30
0.0
 11
-0.2245667503
 21
0.3916366537
 31
0.0
 40
0.576009292
 41
-0.7808516838
 42
-0.0566951759
  0
ELLIPSE
  5
2A3
100
AcDbEntity
  8
RACCORDO
100
AcDbEllipse
 62
7
  6
CONTINUOUS
 10
6.8474142484
 20
-25.4223329235
 30
0.0
 11
-0.2245667503
 21
0.3916366537
 31
0.0
 40
0.576009292
 41
-3.0848974781
 42
-2.3539294839
  0
ELLIPSE
  5
2A4
100
AcDbEntity
  8
RACCORDO
100
AcDbEllipse
 62
7
  6
CONTINUOUS
 10
6.8474142484
 20
16.6583889514
 30
0.0
 11
-0.224044438
 21
0.3907502414
 31
0.0
 40
0.5786435377
 41
-2.35161679
 42
-0.7831019366
  0
ELLIPSE
  5
2A5
100
AcDbEntity
  8
RACCORDO
100
AcDbEllipse
 62
7
  6
CONTINUOUS
 10
6.3665695176
 20
16.4170674668
 30
0.0
 11
-0.2500121049
 21
0.4330057129
 31
0.0
 40
0.5777274115
 41
-2.3559002616
 42
-0.7857891675
  0
ELLIPSE
  5
2A6
100
AcDbEntity
  8
RACCORDO
100
AcDbEllipse
 62
7
  6
CONTINUOUS
 10
-8.5312706391
 20
25.0188936595
 30
0.0
 11
-0.2501834304
 21
0.4333025529
 31
0.0
 40
0.5769361983
 41
5.4980815048
 42
6.3093462599
  0
ELLIPSE
  5
2A7
100
AcDbEntity
  8
RACCORDO
100
AcDbEllipse
 62
7
  6
CONTINUOUS
 10
6.3665695176
 20
-25.768912858
 30
0.0
 11
-0.2501834304
 21
0.4333025529
 31
0.0
 40
0.5769361983
 41
3.1154316834
 42
3.9265999453
  0
ELLIPSE
  5
2A8
100
AcDbEntity
  8
RACCORDO
100
AcDbEllipse
 62
7
  6
CONTINUOUS
 10
7.2690099566
 20
-6.2386192259
 30
0.0
 11
0.0721267462
 21
0.1315494275
 31
0.0
 40
0.5620258809
 41
0.9475571809
 42
2.3438205825
  0
ELLIPSE
  5
2A9
100
AcDbEntity
  8
RACCORDO
100
AcDbEllipse
 62
7
  6
CONTINUOUS
 10
8.1986071835
 20
-4.9397691944
 30
0.0
 11
0.2404224873
 21
0.4384980918
 31
0.0
 40
0.5620258809
 41
-2.1940354727
 42
-0.7977720711
  0
ELLIPSE
  5
2AA
100
AcDbEntity
  8
RACCORDO
100
AcDbEllipse
 62
7
  6
CONTINUOUS
 10
7.2690099566
 20
-2.7672081463
 30
0.0
 11
0.0721267462
 21
0.1315494275
 31
0.0
 40
0.5620258809
 41
2.3438205825
 42
3.7400839841
  0
ELLIPSE
  5
2AB
100
AcDbEntity
  8
RACCORDO
100
AcDbEllipse
 62
7
  6
CONTINUOUS
 10
8.1986071835
 20
-2.9348509504
 30
0.0
 11
0.2404224873
 21
0.4384980918
 31
0.0
 40
0.5620258809
 41
5.4854132361
 42
6.8816766377
  0
ENDSEC
  0
SECTION
  2
OBJECTS
  0
DICTIONARY
  5
C
100
AcDbDictionary
280
0
281
1
  3
ACAD_GROUP
350
D
  3
ACAD_MLINESTYLE
350
17
  3
ACAD_LAYOUT
350
1A
  3
ACAD_PLOTSETTINGS
350
19
  3
ACAD_PLOTSTYLENAME
350
E
  0
DICTIONARY
  5
D
102
{ACAD_REACTORS
330
C
102
}
100
AcDbDictionary
280
0
281
1
  0
ACDBDICTIONARYWDFLT
  5
E
102
{ACAD_REACTORS
330
C
102
}
100
AcDbDictionary
281
1
  3
Normal
350
F
100
AcDbDictionaryWithDefault
340
F
  0
DICTIONARY
  5
17
102
{ACAD_REACTORS
330
C
102
}
100
AcDbDictionary
280
0
281
1
  3
Standard
350
18
  0
DICTIONARY
  5
19
102
{ACAD_REACTORS
330
C
102
}
100
AcDbDictionary
281
1
  0
DICTIONARY
  5
1A
102
{ACAD_REACTORS
330
C
102
}
100
AcDbDictionary
281
1
  3
Model
350
2AC
  3
Layout1
350
2AD
  0
ACDBPLACEHOLDER
  5
F
102
{ACAD_REACTORS
330
E
102
}
  0
MLINESTYLE
  5
18
102
{ACAD_REACTORS
330
17
102
}
100
AcDbMlineStyle
  2
STANDARD
 70
0
  3

 62
256
 51
90.0
 52
90.0
 71
2
 49
0.5
 62
256
  6
BYLAYER
 49
-0.5
 62
256
  6
BYLAYER
  0
LAYOUT
  5
2AC
102
{ACAD_REACTORS
330
1A
102
}
100
AcDbPlotSettings
  1

  2
none_device
  4
ISO_A4_(297.00_x_210.00_MM)
  6

 40
0.0
 41
0.0
 42
0.0
 43
0.0
 44
297.0
 45
210.0
 46
0.0
 47
0.0
 48
0.0
 49
0.0
140
0.0
141
0.0
142
1.0
143
1.0
 70
1024
 72
1
 73
0
 74
0
  7

 75
0
147
1.0
148
0.0
149
0.0
100
AcDbLayout
  1
Model
 70
0
 71
0
 10
0.0
 20
0.0
 11
297.0
 21
210.0
 12
0.0
 22
0.0
 32
0.0
 14
0.0
 24
0.0
 34
0.0
 15
0.0
 25
0.0
 35
0.0
146
0.0
 13
0.0
 23
0.0
 33
0.0
 16
1.0
 26
0.0
 36
0.0
 17
0.0
 27
1.0
 37
0.0
 76
0
330
219
345
0
346
0
  0
LAYOUT
  5
2AD
102
{ACAD_REACTORS
330
1A
102
}
100
AcDbPlotSettings
  1

  2
none_device
  4
ISO_A4_(297.00_x_210.00_MM)
  6

 40
0.0
 41
0.0
 42
0.0
 43
0.0
 44
297.0
 45
210.0
 46
0.0
 47
0.0
 48
0.0
 49
0.0
140
0.0
141
0.0
142
1.0
143
1.0
 70
0
 72
1
 73
0
 74
0
  7

 75
0
147
1.0
148
0.0
149
0.0
100
AcDbLayout
  1
Layout1
 70
0
 71
1
 10
0.0
 20
0.0
 11
297.0
 21
210.0
 12
0.0
 22
0.0
 32
0.0
 14
0.0
 24
0.0
 34
0.0
 15
0.0
 25
0.0
 35
0.0
146
0.0
 13
0.0
 23
0.0
 33
0.0
 16
1.0
 26
0.0
 36
0.0
 17
0.0
 27
1.0
 37
0.0
 76
0
330
21A
345
0
346
0
  0
ENDSEC
  0
EOF
