  0
SECTION
  2
HEADER
  9
$ACADVER
  1
AC1024
  9
$DWGCODEPAGE
  3
ANSI_1252
  9
$EXTMAX
 10
420.0
 20
297.0
 30
0.0
  9
$EXTMIN
 10
0.0
 20
-0.0
 30
0.0
  9
$LIMMIN
 10
0.0
 20
-0.0
  9
$LIMMAX
 10
420.0
 20
297.0
  9
$VIEWCTR
 10
210.0
 20
148.5
  9
$VIEWSIZE
 40
297.0
  9
$CLAYER
  8
0
  9
$LTSCALE
 40
23.1
  9
$CELTYPE
  6
BYLAYER
  9
$DIMSCALE
 40
1.0
  9
$DIMASZ
 40
3.0
  9
$DIMEXO
 40
0.5
  9
$DIMDLI
 40
15.96
  9
$DIMEXE
 40
1.5
  9
$DIMCEN
 40
3.78
  9
$DIMLFAC
 40
1.0
  9
$DIMBLK
  1
_FILLED
  9
$DIMALT
 70
0
  9
$DIMALTF
 40
0.0393700787
  9
$DIMTXT
 40
3.0
  9
$DIMTOL
 70
1
  9
$DIMLIM
 70
0
  9
$DIMTFAC
 40
1.0
  9
$DIMTP
 40
0.01
  9
$DIMTM
 40
0.01
  9
$DIMGAP
 40
0.625
  9
$DIMDSEP
 70
44
  9
$AUNITS
 70
0
  9
$PDMODE
 70
3
  9
$PDSIZE
 40
3.0
  9
$HANDSEED
  5
36B
  9
$TILEMODE
 70
1
  9
$MEASUREMENT
 70
1
  9
$INSUNITS
 70
4
  0
ENDSEC
  0
SECTION
  2
CLASSES
  0
CLASS
  1
ACDBDICTIONARYWDFLT
  2
AcDbDictionaryWithDefault
  3
AutoCAD 2000
 90
0
 91
1
280
0
281
0
  0
CLASS
  1
ACDBPLACEHOLDER
  2
AcDbPlaceHolder
  3
AutoCAD 2000
 90
0
 91
1
280
0
281
0
  0
CLASS
  1
LAYOUT
  2
AcDbLayout
  3
AutoCAD 2000
 90
0
 91
0
280
0
281
0
  0
ENDSEC
  0
SECTION
  2
TABLES
  0
TABLE
  2
VPORT
  5
8
100
AcDbSymbolTable
 70
2
  0
VPORT
  5
1F4
100
AcDbSymbolTableRecord
100
AcDbViewportTableRecord
  2
*ACTIVE
 70
0
 10
0.0
 20
0.0
 11
1.0
 21
1.0
 12
210.0
 22
148.5
 13
0.0
 23
0.0
 14
1.0
 24
1.0
 15
0.0
 25
0.0
 16
0.0
 26
0.0
 36
1.0
 17
0.0
 27
0.0
 37
0.0
 40
297.0
 41
1.4141414141
 42
50.0
 43
0.0
 44
0.0
 50
0.0
 51
0.0
 71
0
 72
100
 73
1
 74
1
 75
0
 76
0
 77
0
 78
0
  0
ENDTAB
  0
TABLE
  2
LTYPE
  5
5
100
AcDbSymbolTable
 70
6
  0
LTYPE
  5
14
100
AcDbSymbolTableRecord
100
AcDbLinetypeTableRecord
  2
BYBLOCK
 70
0
  3

 72
65
 73
0
 40
0.0
  0
LTYPE
  5
15
100
AcDbSymbolTableRecord
100
AcDbLinetypeTableRecord
  2
BYLAYER
 70
0
  3

 72
65
 73
0
 40
0.0
  0
LTYPE
  5
16
100
AcDbSymbolTableRecord
100
AcDbLinetypeTableRecord
  2
CONTINUOUS
 70
64
  3
Solid line
 72
65
 73
0
 40
0.0
  0
LTYPE
  5
1F5
100
AcDbSymbolTableRecord
100
AcDbLinetypeTableRecord
  2
CENTER
 70
64
  3
____ _ ____ _ ____ _ ____ _ ____ _ ____ _ ____
 72
65
 73
4
 40
0.6
 49
0.375
 74
0
 49
-0.075
 74
0
 49
0.075
 74
0
 49
-0.075
 74
0
  0
LTYPE
  5
1F6
100
AcDbSymbolTableRecord
100
AcDbLinetypeTableRecord
  2
HIDDEN
 70
64
  3
- - - - - - - - - - - - - - - - - - - -
 72
65
 73
2
 40
0.2
 49
0.1
 74
0
 49
-0.1
 74
0
  0
LTYPE
  5
1F7
100
AcDbSymbolTableRecord
100
AcDbLinetypeTableRecord
  2
PHANTOM
 70
64
  3
_____ _ _ _____ _ _ _____ _ _ _____
 72
65
 73
6
 40
0.8
 49
0.45
 74
0
 49
-0.05
 74
0
 49
0.1
 74
0
 49
-0.05
 74
0
 49
0.1
 74
0
 49
-0.05
 74
0
  0
LTYPE
  5
1F8
100
AcDbSymbolTableRecord
100
AcDbLinetypeTableRecord
  2
DOT
 70
64
  3
. . . . . . . . . . . . . . . . . . . .
 72
65
 73
2
 40
0.2
 49
0.1
 74
0
 49
-0.1
 74
0
  0
LTYPE
  5
1F9
100
AcDbSymbolTableRecord
100
AcDbLinetypeTableRecord
  2
DASHED
 70
64
  3
- - - - - - - - - - - - - - - - - - - -
 72
65
 73
2
 40
0.2
 49
0.1
 74
0
 49
-0.1
 74
0
  0
ENDTAB
  0
TABLE
  2
LAYER
  5
2
100
AcDbSymbolTable
 70
36
  0
LAYER
  5
10
100
AcDbSymbolTableRecord
100
AcDbLayerTableRecord
  2
0
 70
0
 62
7
  6
CONTINUOUS
370
-3
390
F
  0
LAYER
  5
1FA
100
AcDbSymbolTableRecord
100
AcDbLayerTableRecord
  2
DEFAULT_1
 70
0
 62
7
  6
CENTER
370
-3
390
F
  0
LAYER
  5
1FB
100
AcDbSymbolTableRecord
100
AcDbLayerTableRecord
  2
DEFAULT_2
 70
0
 62
7
  6
HIDDEN
370
-3
390
F
  0
LAYER
  5
1FC
100
AcDbSymbolTableRecord
100
AcDbLayerTableRecord
  2
DEFAULT_3
 70
0
 62
7
  6
PHANTOM
370
-3
390
F
  0
LAYER
  5
1FD
100
AcDbSymbolTableRecord
100
AcDbLayerTableRecord
  2
ASSI
 70
0
 62
7
  6
CONTINUOUS
370
-3
390
F
  0
LAYER
  5
1FE
100
AcDbSymbolTableRecord
100
AcDbLayerTableRecord
  2
COORDINATE
 70
0
 62
7
  6
CONTINUOUS
370
-3
390
F
  0
LAYER
  5
1FF
100
AcDbSymbolTableRecord
100
AcDbLayerTableRecord
  2
COPY_PUBLISH
 70
0
 62
7
  6
CONTINUOUS
370
-3
390
F
  0
LAYER
  5
200
100
AcDbSymbolTableRecord
100
AcDbLayerTableRecord
  2
COSMETICI
 70
0
 62
7
  6
CONTINUOUS
370
-3
390
F
  0
LAYER
  5
201
100
AcDbSymbolTableRecord
100
AcDbLayerTableRecord
  2
CURVE
 70
0
 62
7
  6
CONTINUOUS
370
-3
390
F
  0
LAYER
  5
202
100
AcDbSymbolTableRecord
100
AcDbLayerTableRecord
  2
DRAFT
 70
0
 62
7
  6
CONTINUOUS
370
-3
390
F
  0
LAYER
  5
203
100
AcDbSymbolTableRecord
100
AcDbLayerTableRecord
  2
IMPORT_IGES
 70
0
 62
7
  6
CONTINUOUS
370
-3
390
F
  0
LAYER
  5
204
100
AcDbSymbolTableRecord
100
AcDbLayerTableRecord
  2
INTF_2
 70
0
 62
7
  6
CONTINUOUS
370
-3
390
F
  0
LAYER
  5
205
100
AcDbSymbolTableRecord
100
AcDbLayerTableRecord
  2
INTF_3
 70
0
 62
7
  6
CONTINUOUS
370
-3
390
F
  0
LAYER
  5
206
100
AcDbSymbolTableRecord
100
AcDbLayerTableRecord
  2
INTF_4
 70
0
 62
7
  6
CONTINUOUS
370
-3
390
F
  0
LAYER
  5
207
100
AcDbSymbolTableRecord
100
AcDbLayerTableRecord
  2
INTF_5
 70
0
 62
7
  6
CONTINUOUS
370
-3
390
F
  0
LAYER
  5
208
100
AcDbSymbolTableRecord
100
AcDbLayerTableRecord
  2
INTF_6
 70
0
 62
7
  6
CONTINUOUS
370
-3
390
F
  0
LAYER
  5
209
100
AcDbSymbolTableRecord
100
AcDbLayerTableRecord
  2
INTF_7
 70
0
 62
7
  6
CONTINUOUS
370
-3
390
F
  0
LAYER
  5
20A
100
AcDbSymbolTableRecord
100
AcDbLayerTableRecord
  2
INTF_9
 70
0
 62
7
  6
CONTINUOUS
370
-3
390
F
  0
LAYER
  5
20B
100
AcDbSymbolTableRecord
100
AcDbLayerTableRecord
  2
INTF_BLANK
 70
0
 62
7
  6
CONTINUOUS
370
-3
390
F
  0
LAYER
  5
20C
100
AcDbSymbolTableRecord
100
AcDbLayerTableRecord
  2
INTF_RED
 70
0
 62
7
  6
CONTINUOUS
370
-3
390
F
  0
LAYER
  5
20D
100
AcDbSymbolTableRecord
100
AcDbLayerTableRecord
  2
NOTE
 70
0
 62
7
  6
CONTINUOUS
370
-3
390
F
  0
LAYER
  5
20E
100
AcDbSymbolTableRecord
100
AcDbLayerTableRecord
  2
PIANI
 70
0
 62
7
  6
CONTINUOUS
370
-3
390
F
  0
LAYER
  5
20F
100
AcDbSymbolTableRecord
100
AcDbLayerTableRecord
  2
PUNTI
 70
0
 62
7
  6
CONTINUOUS
370
-3
390
F
  0
LAYER
  5
210
100
AcDbSymbolTableRecord
100
AcDbLayerTableRecord
  2
RACCORDO
 70
0
 62
7
  6
CONTINUOUS
370
-3
390
F
  0
LAYER
  5
211
100
AcDbSymbolTableRecord
100
AcDbLayerTableRecord
  2
RGB____0____0____0__
 70
0
 62
7
  6
CONTINUOUS
370
-3
390
F
  0
LAYER
  5
212
100
AcDbSymbolTableRecord
100
AcDbLayerTableRecord
  2
SIMBOLI
 70
0
 62
7
  6
CONTINUOUS
370
-3
390
F
  0
LAYER
  5
213
100
AcDbSymbolTableRecord
100
AcDbLayerTableRecord
  2
SMUSSO
 70
0
 62
7
  6
CONTINUOUS
370
-3
390
F
  0
LAYER
  5
214
100
AcDbSymbolTableRecord
100
AcDbLayerTableRecord
  2
SNAPLINE
 70
0
 62
7
  6
CONTINUOUS
370
-3
390
F
  0
LAYER
  5
215
100
AcDbSymbolTableRecord
100
AcDbLayerTableRecord
  2
SUPERFICI
 70
0
 62
7
  6
CONTINUOUS
370
-3
390
F
  0
LAYER
  5
216
100
AcDbSymbolTableRecord
100
AcDbLayerTableRecord
  2
TRASH
 70
0
 62
7
  6
CONTINUOUS
370
-3
390
F
  0
ENDTAB
  0
TABLE
  2
STYLE
  5
3
100
AcDbSymbolTable
 70
1
  0
STYLE
  5
11
100
AcDbSymbolTableRecord
100
AcDbTextStyleTableRecord
  2
STANDARD
 70
0
 40
0.0
 41
0.8
 50
0.0
 71
0
 42
0.2
  3
txt
  4

  0
STYLE
  5
217
100
AcDbSymbolTableRecord
100
AcDbTextStyleTableRecord
  2
TEXTSTYLE_1
 70
0
 40
0.0
 41
0.8
 50
0.0
 71
0
 42
0.2
  3
gdt
  4

  0
ENDTAB
  0
TABLE
  2
VIEW
  5
6
100
AcDbSymbolTable
 70
0
  0
ENDTAB
  0
TABLE
  2
UCS
  5
7
100
AcDbSymbolTable
 70
0
  0
ENDTAB
  0
TABLE
  2
APPID
  5
9
100
AcDbSymbolTable
 70
1
  0
APPID
  5
218
100
AcDbSymbolTableRecord
100
AcDbRegAppTableRecord
  2
ACAD
 70
0
  0
ENDTAB
  0
TABLE
  2
BLOCK_RECORD
  5
1
100
AcDbSymbolTable
 70
0
  0
BLOCK_RECORD
  5
219
100
AcDbSymbolTableRecord
100
AcDbBlockTableRecord
  2
*Model_Space
  0
BLOCK_RECORD
  5
21A
100
AcDbSymbolTableRecord
100
AcDbBlockTableRecord
  2
*Paper_Space
  0
BLOCK_RECORD
  5
21B
100
AcDbSymbolTableRecord
100
AcDbBlockTableRecord
  2
_FILLED
  0
ENDTAB
  0
TABLE
  2
DIMSTYLE
  5
A
100
AcDbSymbolTable
 70
1
100
AcDbDimStyleTable
 71
0
  0
DIMSTYLE
105
21C
100
AcDbSymbolTableRecord
100
AcDbDimStyleTableRecord
  2
STANDARD
 70
0
  3

  4

 40
1.0
 41
3.0
 42
0.5
 43
0.38
 44
1.5
 45
0.0
 46
0.0
 47
0.01
 48
0.01
140
3.0
141
0.09
142
0.0
143
25.4
144
1.0
145
0.0
146
1.0
147
0.625
 71
1
 72
0
 73
0
 74
0
 75
0
 76
0
 77
1
 78
8
 79
2
170
0
171
1
172
0
173
0
174
0
175
0
176
0
177
0
178
0
270
2
179
2
271
2
272
2
273
2
274
2
275
0
280
0
281
0
282
0
283
1
284
8
285
0
286
0
287
3
288
0
340
11
278
44
341
21B
342
21B
343
21B
344
21B
  0
ENDTAB
  0
ENDSEC
  0
SECTION
  2
BLOCKS
  0
BLOCK
  5
20
100
AcDbEntity
  8
0
100
AcDbBlockBegin
  2
*Model_Space
 70
0
 10
0.0
 20
0.0
 30
0.0
  3
*Model_Space
  1

  0
ENDBLK
  5
21
100
AcDbEntity
  8
0
100
AcDbBlockEnd
  0
BLOCK
  5
1C
100
AcDbEntity
  8
0
100
AcDbBlockBegin
  2
*Paper_Space
 70
0
 10
0.0
 20
0.0
 30
0.0
  3
*Paper_Space
  1

  0
ENDBLK
  5
1D
100
AcDbEntity
  8
0
100
AcDbBlockEnd
  0
BLOCK
  5
21D
100
AcDbEntity
  8
0
100
AcDbBlockBegin
  2
_FILLED
 70
64
 10
0.0
 20
0.0
  3
_FILLED
  1

  0
SOLID
  5
21E
100
AcDbEntity
  8
0
  6
BYBLOCK
 62
0
100
AcDbTrace
 10
0.0
 20
0.0
 11
-1.0
 21
0.3166666667
 12
-1.0
 22
-0.3166666667
 13
-1.0
 23
-0.3166666667
  0
ENDBLK
  5
21F
100
AcDbEntity
  8
0
  6
BYBLOCK
 62
0
100
AcDbBlockEnd
  0
ENDSEC
  0
SECTION
  2
ENTITIES
  0
LINE
  5
220
100
AcDbEntity
  8
0
100
AcDbLine
 62
7
  6
CONTINUOUS
 10
-17.0094416257
 20
27.4360032895
 11
-16.445832195
 21
27.7964249864
  0
LINE
  5
221
100
AcDbEntity
  8
0
100
AcDbLine
 62
250
  6
CONTINUOUS
 10
-16.7493226244
 20
27.4175213284
 11
-16.1894375942
 21
27.7755613145
  0
LWPOLYLINE
  5
222
100
AcDbEntity
  8
0
100
AcDbPolyline
 62
250
  6
CONTINUOUS
 90
11
 70
0
 10
-17.0094416257
 20
27.4360032895
 10
-17.0026733779
 20
27.4401081414
 10
-16.9798422218
 20
27.4510281158
 10
-16.9551895054
 20
27.4586224755
 10
-16.9288979977
 20
27.4628361287
 10
-16.9011420444
 20
27.4636360534
 10
-16.8721566619
 20
27.4610106585
 10
-16.8422392341
 20
27.4549992164
 10
-16.8116495559
 20
27.4456818136
 10
-16.7805986187
 20
27.4331498226
 10
-16.7493226244
 20
27.4175213284
  0
LINE
  5
223
100
AcDbEntity
  8
RACCORDO
100
AcDbLine
 62
7
  6
CONTINUOUS
 10
-15.9036297081
 20
28.0113734882
 11
-16.3246444663
 21
27.8221365773
  0
LINE
  5
224
100
AcDbEntity
  8
RACCORDO
100
AcDbLine
 62
250
  6
CONTINUOUS
 10
-15.692932724
 20
27.9822707693
 11
-16.1734095878
 21
27.7663069445
  0
LINE
  5
225
100
AcDbEntity
  8
0
100
AcDbLine
 62
7
  6
CONTINUOUS
 10
-16.9900797557
 20
-15.570008236
 11
13.7880369894
 21
-33.3409071041
  0
LINE
  5
226
100
AcDbEntity
  8
0
100
AcDbLine
 62
250
  6
CONTINUOUS
 10
-17.0936210662
 20
-15.3411398054
 11
13.6844956789
 21
-33.1120386736
  0
LWPOLYLINE
  5
227
100
AcDbEntity
  8
0
100
AcDbPolyline
 62
250
  6
CONTINUOUS
 90
9
 70
0
 10
-16.9900797557
 20
-15.570008236
 10
-17.005679657
 20
-15.5597994104
 10
-17.0282588714
 20
-15.5398834231
 10
-17.0477848828
 20
-15.515699168
 10
-17.0640508256
 20
-15.487502862
 10
-17.0768843723
 20
-15.455593227
 10
-17.0861495598
 20
-15.4203083254
 10
-17.0917482292
 20
-15.3820219783
 10
-17.0936210662
 20
-15.3411398054
  0
LWPOLYLINE
  5
228
100
AcDbEntity
  8
0
100
AcDbPolyline
 62
250
  6
CONTINUOUS
 90
9
 70
0
 10
-17.2400676756
 20
-15.1370025087
 10
-17.2389529905
 20
-15.1562689399
 10
-17.2328649286
 20
-15.1858280105
 10
-17.2215180225
 20
-15.2149082412
 10
-17.2050379766
 20
-15.2431580157
 10
-17.1836918435
 20
-15.2701746439
 10
-17.1577971217
 20
-15.2956550002
 10
-17.1276529067
 20
-15.31938539
 10
-17.0936210662
 20
-15.3411398054
  0
LINE
  5
229
100
AcDbEntity
  8
0
100
AcDbLine
 62
7
  6
CONTINUOUS
 10
-17.2400676756
 20
-15.1370025087
 11
-17.2400676756
 21
27.0147697735
  0
LINE
  5
22A
100
AcDbEntity
  8
0
100
AcDbLine
 62
250
  6
CONTINUOUS
 10
-17.0936210662
 20
-15.3411398054
 11
-17.0936210662
 21
26.8106324768
  0
LWPOLYLINE
  5
22B
100
AcDbEntity
  8
0
100
AcDbPolyline
 62
250
  6
CONTINUOUS
 90
16
 70
0
 10
-17.0936210662
 20
26.8106324768
 10
-17.0917482292
 20
26.853677355
 10
-17.0861495598
 20
26.8984289051
 10
-17.0768843723
 20
26.944413013
 10
-17.0640508256
 20
26.9911425061
 10
-17.0477848828
 20
27.0381223152
 10
-17.0282588714
 20
27.0848547188
 10
-17.005679657
 20
27.1308446168
 10
-16.9802864523
 20
27.1756047755
 10
-16.9523482819
 20
27.2186609893
 10
-16.9221611331
 20
27.259557105
 10
-16.8900448197
 20
27.2978598542
 10
-16.8563395935
 20
27.3331634436
 10
-16.8214025401
 20
27.365093854
 10
-16.7856037954
 20
27.3933128029
 10
-16.7493226244
 20
27.4175213284
  0
LINE
  5
22C
100
AcDbEntity
  8
DRAFT
100
AcDbLine
 62
7
  6
CONTINUOUS
 10
16.8843377624
 20
-22.2795388562
 11
16.3266602266
 21
-22.2056125168
  0
LWPOLYLINE
  5
22D
100
AcDbEntity
  8
0
100
AcDbPolyline
 62
250
  6
CONTINUOUS
 90
9
 70
0
 10
-17.2400676752
 20
27.0147583652
 10
-17.2389511416
 20
26.995487389
 10
-17.2328597217
 20
26.9659267546
 10
-17.2215095623
 20
26.9368466131
 10
-17.2050269412
 20
26.9085981538
 10
-17.1836797311
 20
26.8815841878
 10
-17.1577861751
 20
26.8561076738
 10
-17.1276458521
 20
26.8323818944
 10
-17.0936210662
 20
26.8106324768
  0
LINE
  5
22E
100
AcDbEntity
  8
DRAFT
100
AcDbLine
 62
7
  6
CONTINUOUS
 10
16.8843377624
 20
-19.875532833
 11
16.3266602266
 21
-19.7769020255
  0
LWPOLYLINE
  5
22F
100
AcDbEntity
  8
RACCORDO
100
AcDbPolyline
 62
250
  6
CONTINUOUS
 90
22
 70
0
 10
16.6904693862
 20
-19.2727861881
 10
16.6828899374
 20
-19.269600976
 10
16.6751063339
 20
-19.26675961
 10
16.6671272906
 20
-19.2642661862
 10
16.6589596186
 20
-19.2621232279
 10
16.6506106265
 20
-19.260333023
 10
16.6420900325
 20
-19.258898829
 10
16.6334047461
 20
-19.2578220586
 10
16.6245630317
 20
-19.2571039819
 10
16.6155769613
 20
-19.2567468989
 10
16.6064545697
 20
-19.2567509746
 10
16.5972040769
 20
-19.2571160568
 10
16.5878381651
 20
-19.2578430233
 10
16.5783656731
 20
-19.25893068
 10
16.5687948579
 20
-19.2603775887
 10
16.5591377519
 20
-19.2621834625
 10
16.5494031355
 20
-19.2643460164
 10
16.5395998762
 20
-19.2668626106
 10
16.5297402691
 20
-19.2697317758
 10
16.5198344274
 20
-19.2729505999
 10
16.5098902654
 20
-19.2765147863
 10
16.4999168554
 20
-19.2804202036
  0
LINE
  5
230
100
AcDbEntity
  8
RACCORDO
100
AcDbLine
 62
7
  6
CONTINUOUS
 10
15.4298153802
 20
-24.2701867402
 11
15.3367107329
 21
-24.2164292837
  0
LINE
  5
231
100
AcDbEntity
  8
RACCORDO
100
AcDbLine
 62
250
  6
CONTINUOUS
 10
16.7055263122
 20
-19.280483358
 11
16.6978380296
 21
-19.2763119725
  0
LWPOLYLINE
  5
232
100
AcDbEntity
  8
0
100
AcDbPolyline
 62
7
  6
CONTINUOUS
 90
6
 70
0
 10
-4.1214226387
 20
-3.4923516501
 10
-4.1206367578
 20
-3.5035655126
 10
-4.1187014571
 20
-3.5150608932
 10
-4.1156297737
 20
-3.5266513376
 10
-4.1114086705
 20
-3.5385233
 10
-4.1060381475
 20
-3.5506767804
  0
LWPOLYLINE
  5
233
100
AcDbEntity
  8
DRAFT
100
AcDbPolyline
 62
7
  6
CONTINUOUS
 90
4
 70
0
 10
-4.6206467088
 20
-0.6500548765
 10
-4.622071823
 20
-0.660160499
 10
-4.6223225867
 20
-0.6706799351
 10
-4.621405546
 20
-0.6815356907
  0
LWPOLYLINE
  5
234
100
AcDbEntity
  8
0
100
AcDbPolyline
 62
7
  6
CONTINUOUS
 90
13
 70
0
 10
-4.6206467088
 20
-0.6500548762
 10
-4.6220837671
 20
-0.6600728864
 10
-4.6223416968
 20
-0.6705397561
 10
-4.621420498
 20
-0.6814554851
 10
-4.6192647169
 20
-0.6930196142
 10
-4.6159298072
 20
-0.7050326027
 10
-4.6115821299
 20
-0.7168958283
 10
-4.6061703199
 20
-0.7286020038
 10
-4.5997457423
 20
-0.7401584165
 10
-4.5926288527
 20
-0.7509883054
 10
-4.5849264697
 20
-0.7608994169
 10
-4.5765317748
 20
-0.7700840046
 10
-4.5674447679
 20
-0.7785420685
  0
LINE
  5
235
100
AcDbEntity
  8
0
100
AcDbLine
 62
7
  6
CONTINUOUS
 10
-4.557704159
 20
-0.3679983381
 11
-4.6206467088
 21
-0.6500548762
  0
LINE
  5
236
100
AcDbEntity
  8
DRAFT
100
AcDbLine
 62
7
  6
CONTINUOUS
 10
-4.5577041591
 20
-0.3679983382
 11
-4.6206467088
 21
-0.6500548765
  0
LWPOLYLINE
  5
237
100
AcDbEntity
  8
DRAFT
100
AcDbPolyline
 62
7
  6
CONTINUOUS
 90
4
 70
0
 10
-4.5464221321
 20
-0.3454159923
 10
-4.5511462472
 20
-0.3515665744
 10
-4.554910386
 20
-0.3590985319
 10
-4.5577041591
 20
-0.3679983382
  0
LWPOLYLINE
  5
238
100
AcDbEntity
  8
DRAFT
100
AcDbPolyline
 62
7
  6
CONTINUOUS
 90
4
 70
0
 10
-1.5631413374
 20
-6.4329215021
 10
-1.5536432004
 20
-6.4376001227
 10
-1.5446109849
 20
-6.4407376626
 10
-1.5360634859
 20
-6.442330619
  0
LWPOLYLINE
  5
239
100
AcDbEntity
  8
0
100
AcDbPolyline
 62
7
  6
CONTINUOUS
 90
7
 70
0
 10
-1.5631413374
 20
-6.4329215021
 10
-1.5536632752
 20
-6.4375981409
 10
-1.5446431045
 20
-6.4407344917
 10
-1.5360808254
 20
-6.4423305545
 10
-1.5278471561
 20
-6.4423611864
 10
-1.5200713783
 20
-6.4408515302
 10
-1.5137745595
 20
-6.4382334139
  0
LWPOLYLINE
  5
23A
100
AcDbEntity
  8
RACCORDO
100
AcDbPolyline
 62
7
  6
CONTINUOUS
 90
10
 70
0
 10
16.7055749726
 20
-19.2805115308
 10
16.7010798761
 20
-19.277972809
 10
16.6730333412
 20
-19.2645509658
 10
16.6434542404
 20
-19.2543616798
 10
16.61267747
 20
-19.2474809869
 10
16.5807701134
 20
-19.2439158465
 10
16.5479931891
 20
-19.2437226651
 10
16.5145968139
 20
-19.2469304474
 10
16.4805268423
 20
-19.2536190692
 10
16.4424228481
 20
-19.2651383894
  0
LINE
  5
23B
100
AcDbEntity
  8
RACCORDO
100
AcDbLine
 62
250
  6
CONTINUOUS
 10
17.2025358139
 20
-19.6861035844
 11
16.4999168554
 21
-19.2804202036
  0
LINE
  5
23C
100
AcDbEntity
  8
RACCORDO
100
AcDbLine
 62
7
  6
CONTINUOUS
 10
17.2025358139
 20
-19.5674504154
 11
16.7055261705
 21
-19.2804832762
  0
LINE
  5
23D
100
AcDbEntity
  8
0
100
AcDbLine
 62
7
  6
CONTINUOUS
 10
-1.8459840499
 20
-6.2696116647
 11
-1.5631413374
 21
-6.4329215021
  0
LINE
  5
23E
100
AcDbEntity
  8
DRAFT
100
AcDbLine
 62
7
  6
CONTINUOUS
 10
-1.8459840499
 20
-6.2696116647
 11
-1.5631413374
 21
-6.4329215021
  0
LWPOLYLINE
  5
23F
100
AcDbEntity
  8
RACCORDO
100
AcDbPolyline
 62
250
  6
CONTINUOUS
 90
7
 70
0
 10
16.4999168554
 20
-19.2804202036
 10
16.4886230676
 20
-19.2724466197
 10
16.4772955959
 20
-19.26677262
 10
16.4661260188
 20
-19.2634941674
 10
16.4553032448
 20
-19.2626667095
 10
16.4450103165
 20
-19.264304241
 10
16.4424228481
 20
-19.2651383894
  0
LWPOLYLINE
  5
240
100
AcDbEntity
  8
DRAFT
100
AcDbPolyline
 62
7
  6
CONTINUOUS
 90
4
 70
0
 10
-3.9296902548
 20
-3.9078362332
 10
-3.9232229157
 20
-3.9196427018
 10
-3.9161847419
 20
-3.9305650378
 10
-3.9085924282
 20
-3.9405812167
  0
LWPOLYLINE
  5
241
100
AcDbEntity
  8
0
100
AcDbPolyline
 62
7
  6
CONTINUOUS
 90
13
 70
0
 10
-3.9296902548
 20
-3.9078362332
 10
-3.9232419384
 20
-3.9196195868
 10
-3.9162151783
 20
-3.9305280538
 10
-3.9086099744
 20
-3.9405616343
 10
-3.9002781537
 20
-3.9498603751
 10
-3.8913678892
 20
-3.9582842293
 10
-3.8823237004
 20
-3.9654130564
 10
-3.8731388004
 20
-3.9711812281
 10
-3.8638199761
 20
-3.9756543726
 10
-3.8548321076
 20
-3.9786092344
 10
-3.8463301551
 20
-3.9799713951
 10
-3.8381591584
 20
-3.979815273
 10
-3.8303191175
 20
-3.9781408683
  0
LINE
  5
242
100
AcDbEntity
  8
0
100
AcDbLine
 62
7
  6
CONTINUOUS
 10
-4.1060381475
 20
-3.5506767804
 11
-3.9296902548
 21
-3.9078362332
  0
LINE
  5
243
100
AcDbEntity
  8
DRAFT
100
AcDbLine
 62
7
  6
CONTINUOUS
 10
-4.1060381475
 20
-3.5506767803
 11
-3.9296902548
 21
-3.9078362332
  0
LWPOLYLINE
  5
244
100
AcDbEntity
  8
DRAFT
100
AcDbPolyline
 62
7
  6
CONTINUOUS
 90
4
 70
0
 10
-4.1187055327
 20
-3.5150366847
 10
-4.1156393895
 20
-3.5266072035
 10
-4.1114146804
 20
-3.5384957162
 10
-4.1060381475
 20
-3.5506767803
  0
LWPOLYLINE
  5
245
100
AcDbEntity
  8
DRAFT
100
AcDbPolyline
 62
7
  6
CONTINUOUS
 90
4
 70
0
 10
-4.6213989997
 20
-0.6816131847
 10
-4.6192468165
 20
-0.6931439156
 10
-4.6159202826
 20
-0.7050884601
 10
-4.6115821355
 20
-0.7168958147
  0
LWPOLYLINE
  5
246
100
AcDbEntity
  8
DRAFT
100
AcDbPolyline
 62
7
  6
CONTINUOUS
 90
6
 70
0
 10
-3.225656357
 20
-3.7296905348
 10
-3.2264367296
 20
-3.7184976794
 10
-3.2283689259
 20
-3.7070122724
 10
-3.2314418113
 20
-3.6954163113
 10
-3.2356665204
 20
-3.6835277986
 10
-3.2410430533
 20
-3.6713467344
  0
LWPOLYLINE
  5
247
100
AcDbEntity
  8
DRAFT
100
AcDbPolyline
 62
7
  6
CONTINUOUS
 90
4
 70
0
 10
-2.4841262236
 20
-0.3164996782
 10
-2.4834286309
 20
-0.32786961
 10
-2.4816293635
 20
-0.3393376526
 10
-2.4787347861
 20
-0.3508784291
  0
LWPOLYLINE
  5
248
100
AcDbEntity
  8
DRAFT
100
AcDbPolyline
 62
7
  6
CONTINUOUS
 90
4
 70
0
 10
-1.916694728
 20
-6.1471371777
 10
-1.9159971354
 20
-6.1585071095
 10
-1.914197868
 20
-6.1699751521
 10
-1.9113032906
 20
-6.1815159286
  0
LWPOLYLINE
  5
249
100
AcDbEntity
  8
0
100
AcDbPolyline
 62
7
  6
CONTINUOUS
 90
13
 70
0
 10
-2.4841262236
 20
-0.3164996782
 10
-2.4834369529
 20
-0.3278416254
 10
-2.4816426787
 20
-0.3392928772
 10
-2.4787434008
 20
-0.3508534337
 10
-2.4746526971
 20
-0.3627224709
 10
-2.4694569897
 20
-0.3747008128
 10
-2.4634155454
 20
-0.3861909311
 10
-2.4564855046
 20
-0.3971680841
 10
-2.4487097268
 20
-0.4076570135
 10
-2.4404760575
 20
-0.4171344167
 10
-2.4319137783
 20
-0.4254258592
 10
-2.4228936077
 20
-0.4327057754
 10
-2.4134155454
 20
-0.4389741652
  0
LWPOLYLINE
  5
24A
100
AcDbEntity
  8
0
100
AcDbPolyline
 62
7
  6
CONTINUOUS
 90
13
 70
0
 10
-1.916694728
 20
-6.1471371777
 10
-1.9160054574
 20
-6.1584791249
 10
-1.9142111832
 20
-6.1699303768
 10
-1.9113119053
 20
-6.1814909333
 10
-1.9072212016
 20
-6.1933599705
 10
-1.9020254942
 20
-6.2053383123
 10
-1.8959840499
 20
-6.2168284306
 10
-1.8890540091
 20
-6.2278055836
 10
-1.8812782313
 20
-6.2382945131
 10
-1.8730445619
 20
-6.2477719162
 10
-1.8644822828
 20
-6.2560633587
 10
-1.8554621121
 20
-6.2633432749
 10
-1.8459840499
 20
-6.2696116647
  0
LINE
  5
24B
100
AcDbEntity
  8
0
100
AcDbLine
 62
7
  6
CONTINUOUS
 10
-2.4841262236
 20
-0.1532056228
 11
-2.4841262236
 21
-0.3164996782
  0
LINE
  5
24C
100
AcDbEntity
  8
DRAFT
100
AcDbLine
 62
7
  6
CONTINUOUS
 10
-2.4841262236
 20
-0.1532056228
 11
-2.4841262236
 21
-0.3164996782
  0
LINE
  5
24D
100
AcDbEntity
  8
0
100
AcDbLine
 62
7
  6
CONTINUOUS
 10
-1.916694728
 20
-5.2933950153
 11
-1.916694728
 21
-6.1471371777
  0
LINE
  5
24E
100
AcDbEntity
  8
DRAFT
100
AcDbLine
 62
7
  6
CONTINUOUS
 10
-1.916694728
 20
-5.2933950153
 11
-1.916694728
 21
-6.1471371777
  0
LWPOLYLINE
  5
24F
100
AcDbEntity
  8
0
100
AcDbPolyline
 62
7
  6
CONTINUOUS
 90
4
 70
0
 10
-3.2260612124
 20
-3.7400448468
 10
-3.2256585621
 20
-3.7296718647
 10
-3.226444443
 20
-3.7184580022
 10
-3.228375668
 20
-3.7069868301
  0
LWPOLYLINE
  5
250
100
AcDbEntity
  8
DRAFT
100
AcDbPolyline
 62
7
  6
CONTINUOUS
 90
3
 70
0
 10
-2.4822972379
 20
-0.1222005247
 10
-2.4836559238
 20
-0.1373445814
 10
-2.4841262236
 20
-0.1532056228
  0
LWPOLYLINE
  5
251
100
AcDbEntity
  8
DRAFT
100
AcDbPolyline
 62
7
  6
CONTINUOUS
 90
13
 70
0
 10
-3.6989831991
 20
-1.0901397405
 10
-3.6975580848
 20
-1.080034118
 10
-3.6973073212
 20
-1.069514682
 10
-3.6982309081
 20
-1.0585814324
 10
-3.7003830914
 20
-1.0470507014
 10
-3.7037096252
 20
-1.035106157
 10
-3.7080477723
 20
-1.0232988024
 10
-3.713447358
 20
-1.0116191617
 10
-3.7198585569
 20
-1.0000767109
 10
-3.7269691559
 20
-0.9892508811
 10
-3.7346750838
 20
-0.9793348159
 10
-3.7430804119
 20
-0.9701353717
 10
-3.75218514
 20
-0.9616525485
  0
LWPOLYLINE
  5
252
100
AcDbEntity
  8
0
100
AcDbPolyline
 62
7
  6
CONTINUOUS
 90
4
 70
0
 10
-3.698983199
 20
-1.0901397405
 10
-3.6975461408
 20
-1.0801217304
 10
-3.697288211
 20
-1.0696548609
 10
-3.6982094099
 20
-1.058739132
  0
LINE
  5
253
100
AcDbEntity
  8
0
100
AcDbLine
 62
7
  6
CONTINUOUS
 10
-3.7619257487
 20
-1.3721962786
 11
-3.698983199
 21
-1.0901397405
  0
LINE
  5
254
100
AcDbEntity
  8
DRAFT
100
AcDbLine
 62
7
  6
CONTINUOUS
 10
-3.7619257488
 20
-1.3721962789
 11
-3.6989831991
 21
-1.0901397405
  0
LWPOLYLINE
  5
255
100
AcDbEntity
  8
DRAFT
100
AcDbPolyline
 62
7
  6
CONTINUOUS
 90
3
 70
0
 10
-2.4768975265
 20
-0.0940078855
 10
-2.480050166
 20
-0.1077734526
 10
-2.4822972379
 20
-0.1222005247
  0
LINE
  5
256
100
AcDbEntity
  8
DRAFT
100
AcDbLine
 62
7
  6
CONTINUOUS
 10
-2.4728565009
 20
-0.080959303
 11
-2.4768975265
 21
-0.0940078855
  0
LWPOLYLINE
  5
257
100
AcDbEntity
  8
DRAFT
100
AcDbPolyline
 62
7
  6
CONTINUOUS
 90
39
 70
0
 10
-3.1188851688
 20
-1.5001218363
 10
-3.1525005631
 20
-1.5948608119
 10
-3.1790872588
 20
-1.6955509292
 10
-3.1987056218
 20
-1.8027713705
 10
-3.2112952863
 20
-1.9159429534
 10
-3.216675155
 20
-2.0333281303
 10
-3.2147496763
 20
-2.1548731501
 10
-3.2056144017
 20
-2.280631764
 10
-3.1893748887
 20
-2.4090276784
 10
-3.1658957428
 20
-2.5402703871
 10
-3.1353123583
 20
-2.6741503964
 10
-3.0981364757
 20
-2.8084629311
 10
-3.0543471051
 20
-2.9429918514
 10
-3.0039652363
 20
-3.0779532972
 10
-2.9475655792
 20
-3.2117909122
 10
-2.8849414127
 20
-3.3447470841
 10
-2.816299458
 20
-3.4765794253
 10
-2.7428345881
 20
-3.6050044168
 10
-2.6646477443
 20
-3.7296976247
 10
-2.5816379852
 20
-3.8509834829
 10
-2.4946973601
 20
-3.9675517746
 10
-2.4035545398
 20
-4.0796061482
 10
-2.3084808534
 20
-4.1869429553
 10
-2.211182337
 20
-4.2876410327
 10
-2.1118782789
 20
-4.3813605991
 10
-2.0103493908
 20
-4.4684414359
 10
-1.9076438442
 20
-4.5479817246
 10
-1.8034710986
 20
-4.6200724655
 10
-1.6981216944
 20
-4.6846226584
 10
-1.5935154244
 20
-4.7404574841
 10
-1.4899433404
 20
-4.7873147443
 10
-1.3871143906
 20
-4.8254566373
 10
-1.2860752131
 20
-4.8544949382
 10
-1.1865810462
 20
-4.8743661957
 10
-1.0888766517
 20
-4.8851338611
 10
-0.9947429523
 20
-4.8866000633
 10
-0.9044755211
 20
-4.878638398
 10
-0.8177787851
 20
-4.8613752694
 10
-0.7355469479
 20
-4.8349920194
  0
LWPOLYLINE
  5
258
100
AcDbEntity
  8
0
100
AcDbPolyline
 62
7
  6
CONTINUOUS
 90
40
 70
0
 10
-3.0782410759
 20
-1.4113340021
 10
-3.1207617821
 20
-1.5048956254
 10
-3.1555155831
 20
-1.6048883385
 10
-3.1825024792
 20
-1.7113121412
 10
-3.2017828351
 20
-1.8247940323
 10
-3.213296286
 20
-1.9447070132
 10
-3.2168617371
 20
-2.0691700873
 10
-3.2123538804
 20
-2.1982546173
 10
-3.199898024
 20
-2.3318892405
 10
-3.1796889963
 20
-2.4679788734
 10
-3.1516043912
 20
-2.6065629126
 10
-3.1157666149
 20
-2.7476019614
 10
-3.0727377149
 20
-2.8888827456
 10
-3.0224044899
 20
-3.0304084484
 10
-2.9648801411
 20
-3.1721758866
 10
-2.9010663194
 20
-3.311962237
 10
-2.8308634925
 20
-3.4497369665
 10
-2.7543711926
 20
-3.5855306082
 10
-2.6727896677
 20
-3.7172119382
 10
-2.5860389804
 20
-3.8447155657
 10
-2.494199068
 20
-3.9681068817
 10
-2.3987099903
 20
-4.0854508347
 10
-2.2995138404
 20
-4.1966524859
 10
-2.1966685252
 20
-4.3018067741
 10
-2.0917878259
 20
-4.399263465
 10
-1.9848398806
 20
-4.4889009022
 10
-1.8758565513
 20
-4.5708407421
 10
-1.766547205
 20
-4.6437977181
 10
-1.6569065535
 20
-4.7076302734
 10
-1.5469398851
 20
-4.7624799648
 10
-1.4383724321
 20
-4.8074861971
 10
-1.3312262694
 20
-4.8424936737
 10
-1.2254793221
 20
-4.8676576911
 10
-1.1227905978
 20
-4.8825835434
 10
-1.0232084573
 20
-4.8871097737
 10
-0.9266845399
 20
-4.8813978389
 10
-0.8347327707
 20
-4.8655374036
 10
-0.7474250699
 20
-4.8393683162
 10
-0.6646895173
 20
-4.8030507283
 10
-0.6485945661
 20
-4.7945826284
  0
LWPOLYLINE
  5
259
100
AcDbEntity
  8
0
100
AcDbPolyline
 62
7
  6
CONTINUOUS
 90
13
 70
0
 10
-2.6680866066
 20
-1.794899062
 10
-2.663782275
 20
-1.7854900343
 10
-2.6610925177
 20
-1.7751007722
 10
-2.6600173347
 20
-1.7637312757
 10
-2.660605925
 20
-1.7510770737
 10
-2.6628090896
 20
-1.7374426373
 10
-2.6664792317
 20
-1.7237413794
 10
-2.6717168735
 20
-1.7099687214
 10
-2.6784214928
 20
-1.6961292419
 10
-2.6861439264
 20
-1.6831500906
 10
-2.6947344533
 20
-1.6713403172
 10
-2.7043427945
 20
-1.660390872
 10
-2.7149689501
 20
-1.6503017549
  0
LWPOLYLINE
  5
25A
100
AcDbEntity
  8
DRAFT
100
AcDbPolyline
 62
7
  6
CONTINUOUS
 90
13
 70
0
 10
-2.6680866066
 20
-1.7948990619
 10
-2.663782275
 20
-1.7854900343
 10
-2.6610925177
 20
-1.7751007722
 10
-2.6600173347
 20
-1.7637312757
 10
-2.660605925
 20
-1.7510770737
 10
-2.6628090896
 20
-1.7374426373
 10
-2.6664792317
 20
-1.7237413794
 10
-2.6717168735
 20
-1.7099687214
 10
-2.6784214928
 20
-1.6961292419
 10
-2.6861439264
 20
-1.6831500906
 10
-2.6947344533
 20
-1.6713403172
 10
-2.7043427945
 20
-1.660390872
 10
-2.7149689501
 20
-1.6503017549
  0
LINE
  5
25B
100
AcDbEntity
  8
DRAFT
100
AcDbLine
 62
7
  6
CONTINUOUS
 10
-3.078241076
 20
-1.4113340022
 11
-3.1188851688
 21
-1.5001218363
  0
LWPOLYLINE
  5
25C
100
AcDbEntity
  8
DRAFT
100
AcDbPolyline
 62
7
  6
CONTINUOUS
 90
3
 70
0
 10
-2.4622532058
 20
-0.0575237261
 10
-2.4679786339
 20
-0.0687941443
 10
-2.4728565009
 20
-0.080959303
  0
LWPOLYLINE
  5
25D
100
AcDbEntity
  8
DRAFT
100
AcDbPolyline
 62
7
  6
CONTINUOUS
 90
7
 70
0
 10
-4.1126606512
 20
-3.4564929843
 10
-4.1165429401
 20
-3.463864669
 10
-4.1193740782
 20
-3.4725023968
 10
-4.1210199884
 20
-3.481978668
 10
-4.1214248437
 20
-3.49233298
 10
-4.1206444712
 20
-3.5035258354
 10
-4.1187122749
 20
-3.5150112423
  0
LWPOLYLINE
  5
25E
100
AcDbEntity
  8
0
100
AcDbPolyline
 62
7
  6
CONTINUOUS
 90
4
 70
0
 10
-3.2344312759
 20
-3.765543614
 10
-3.2305525692
 20
-3.7581829427
 10
-3.2277126252
 20
-3.749534335
 10
-3.2260612124
 20
-3.7400448468
  0
LWPOLYLINE
  5
25F
100
AcDbEntity
  8
0
100
AcDbPolyline
 62
7
  6
CONTINUOUS
 90
38
 70
0
 10
-2.6680866066
 20
-1.794899062
 10
-2.7045104904
 20
-1.8625323734
 10
-2.7346535462
 20
-1.9356520533
 10
-2.7585157742
 20
-2.0142581015
 10
-2.7761645236
 20
-2.0988846632
 10
-2.7875324451
 20
-2.1889975932
 10
-2.7924174911
 20
-2.2829944568
 10
-2.7907038229
 20
-2.3809438388
 10
-2.7825072792
 20
-2.4827771543
 10
-2.7679733277
 20
-2.586686213
 10
-2.7469883915
 20
-2.6927094032
 10
-2.7196660476
 20
-2.8008083367
 10
-2.6864924947
 20
-2.909059658
 10
-2.6473637205
 20
-3.0174644573
 10
-2.6023837372
 20
-3.1260216444
 10
-2.552350781
 20
-3.2328045931
 10
-2.4971735508
 20
-3.3377834397
 10
-2.4369433477
 20
-3.4409880479
 10
-2.3727323099
 20
-3.5405813836
 10
-2.3044705966
 20
-3.6364969767
 10
-2.2322280486
 20
-3.7288012972
 10
-2.1572863275
 20
-3.8158567213
 10
-2.0795955434
 20
-3.8975711839
 10
-1.9992055862
 20
-3.9740367502
 10
-1.9175477863
 20
-4.0438919919
 10
-1.8346013166
 20
-4.1070172621
 10
-1.7503870042
 20
-4.1635322078
 10
-1.6663986609
 20
-4.2124343418
 10
-1.5826384119
 20
-4.2535885846
 10
-1.4991041319
 20
-4.2871300158
 10
-1.4172832572
 20
-4.3124613865
 10
-1.3372082692
 20
-4.3294354284
 10
-1.2588466864
 20
-4.33819941
 10
-1.1835885003
 20
-4.338597888
 10
-1.1114875419
 20
-4.3304812379
 10
-1.0424899802
 20
-4.3139990842
 10
-0.9778243134
 20
-4.2894448568
 10
-0.925583613
 20
-4.2617347454
  0
LWPOLYLINE
  5
260
100
AcDbEntity
  8
DRAFT
100
AcDbPolyline
 62
7
  6
CONTINUOUS
 90
38
 70
0
 10
-2.6680866066
 20
-1.7948990619
 10
-2.704500085
 20
-1.8624637172
 10
-2.7346371906
 20
-1.9355600416
 10
-2.7584979236
 20
-2.0141880351
 10
-2.7761504575
 20
-2.0989290983
 10
-2.7875266187
 20
-2.1892018306
 10
-2.7924218859
 20
-2.2832620303
 10
-2.7907296719
 20
-2.3810506596
 10
-2.782556564
 20
-2.4826267563
 10
-2.7680178024
 20
-2.5864232322
 10
-2.7469583713
 20
-2.692670008
 10
-2.7195332865
 20
-2.801137163
 10
-2.6863228368
 20
-2.9095678471
 10
-2.6473122634
 20
-3.0177181334
 10
-2.602516325
 20
-3.1258319487
 10
-2.5525595859
 20
-3.2323842235
 10
-2.4972062686
 20
-3.3376233588
 10
-2.4366921507
 20
-3.4413009536
 10
-2.372349129
 20
-3.5411467354
 10
-2.3043065999
 20
-3.6368080836
 10
-2.232435167
 20
-3.7286376189
 10
-2.1576785381
 20
-3.815422931
 10
-2.0797417701
 20
-3.8973381408
 10
-1.998919806
 20
-3.9742091274
 10
-1.9170411831
 20
-4.0443011176
 10
-1.8343610193
 20
-4.1072743152
 10
-1.7506241966
 20
-4.1634685164
 10
-1.6668938983
 20
-4.2121683374
 10
-1.582885016
 20
-4.2533920956
 10
-1.4988826581
 20
-4.2871214736
 10
-1.4168053333
 20
-4.3125861344
 10
-1.336962943
 20
-4.3295654822
 10
-1.2590455857
 20
-4.3382801129
 10
-1.1840420664
 20
-4.3386214779
 10
-1.1117584641
 20
-4.330430083
 10
-1.0423886998
 20
-4.3138654223
 10
-0.9775033413
 20
-4.28929743
 10
-0.9255833067
 20
-4.2617345595
  0
LWPOLYLINE
  5
261
100
AcDbEntity
  8
0
100
AcDbPolyline
 62
7
  6
CONTINUOUS
 90
4
 70
0
 10
-3.7731955171
 20
-1.3947683954
 10
-3.7684635299
 20
-1.3886069262
 10
-3.7647069405
 20
-1.3810828872
 10
-3.7619257487
 20
-1.3721962786
  0
LWPOLYLINE
  5
262
100
AcDbEntity
  8
DRAFT
100
AcDbPolyline
 62
7
  6
CONTINUOUS
 90
4
 70
0
 10
-2.4402973379
 20
-0.0294234974
 10
-2.4483755296
 20
-0.0377656509
 10
-2.4556909364
 20
-0.0471367317
 10
-2.4622532058
 20
-0.0575237261
  0
LINE
  5
263
100
AcDbEntity
  8
0
100
AcDbLine
 62
7
  6
CONTINUOUS
 10
-3.7790159895
 20
-1.3996253391
 11
-3.7732077758
 21
-1.3947786248
  0
LWPOLYLINE
  5
264
100
AcDbEntity
  8
0
100
AcDbPolyline
 62
7
  6
CONTINUOUS
 90
4
 70
0
 10
-3.0648106104
 20
-1.3964412537
 10
-3.0662450925
 20
-1.3974367311
 10
-3.0727476681
 20
-1.4033804464
 10
-3.0782410759
 20
-1.4113340021
  0
LWPOLYLINE
  5
265
100
AcDbEntity
  8
DRAFT
100
AcDbPolyline
 62
7
  6
CONTINUOUS
 90
4
 70
0
 10
-3.0648106103
 20
-1.3964412537
 10
-3.0662450925
 20
-1.3974367311
 10
-3.0727476682
 20
-1.4033804465
 10
-3.078241076
 20
-1.4113340022
  0
LWPOLYLINE
  5
266
100
AcDbEntity
  8
0
100
AcDbPolyline
 62
7
  6
CONTINUOUS
 90
6
 70
0
 10
-4.5393576203
 20
-0.3397182125
 10
-4.5406139185
 20
-0.3405692779
 10
-4.5464343908
 20
-0.3454262216
 10
-4.551166378
 20
-0.3515876908
 10
-4.5549229674
 20
-0.3591117296
 10
-4.557704159
 20
-0.3679983381
  0
LWPOLYLINE
  5
267
100
AcDbEntity
  8
DRAFT
100
AcDbPolyline
 62
7
  6
CONTINUOUS
 90
3
 70
0
 10
-4.5393563446
 20
-0.3397174406
 10
-4.5405916399
 20
-0.3405525718
 10
-4.5464221321
 20
-0.3454159923
  0
LWPOLYLINE
  5
268
100
AcDbEntity
  8
DRAFT
100
AcDbPolyline
 62
7
  6
CONTINUOUS
 90
3
 70
0
 10
-2.4238509113
 20
-0.0169790929
 10
-2.4314660089
 20
-0.0220972575
 10
-2.4402973379
 20
-0.0294234974
  0
LWPOLYLINE
  5
269
100
AcDbEntity
  8
0
100
AcDbPolyline
 62
250
  6
CONTINUOUS
 90
16
 70
0
 10
14.0287941206
 20
9.6466224603
 10
13.9925129496
 20
9.6224139347
 10
13.956714205
 20
9.5941949858
 10
13.9217771516
 20
9.5622645754
 10
13.8880719254
 20
9.5269609861
 10
13.8559556119
 20
9.4886582368
 10
13.8257684631
 20
9.4477621211
 10
13.7978302928
 20
9.4047059073
 10
13.772437088
 20
9.3599457486
 10
13.7498578737
 20
9.3139558506
 10
13.7303318623
 20
9.267223447
 10
13.7140659195
 20
9.220243638
 10
13.7012323727
 20
9.1735141448
 10
13.6919671852
 20
9.127530037
 10
13.6863685158
 20
9.0827784868
 10
13.6844956789
 20
9.0397336086
  0
LWPOLYLINE
  5
26A
100
AcDbEntity
  8
0
100
AcDbPolyline
 62
7
  6
CONTINUOUS
 90
9
 70
0
 10
-2.4238262103
 20
-0.016964119
 10
-2.429666766
 20
-0.020855248
 10
-2.4436163941
 20
-0.0326287484
 10
-2.4556351351
 20
-0.0471293415
 10
-2.4657857673
 20
-0.0642722372
 10
-2.4737427467
 20
-0.0835064152
 10
-2.4793975585
 20
-0.1046482021
 10
-2.4828587175
 20
-0.1278812713
 10
-2.4841262236
 20
-0.1532056228
  0
LINE
  5
26B
100
AcDbEntity
  8
0
100
AcDbLine
 62
7
  6
CONTINUOUS
 10
-3.7814920138
 20
-1.4011796724
 11
-3.7790159895
 21
-1.3996253391
  0
LWPOLYLINE
  5
26C
100
AcDbEntity
  8
DRAFT
100
AcDbPolyline
 62
7
  6
CONTINUOUS
 90
6
 70
0
 10
-3.7814934658
 20
-1.4011804692
 10
-3.779038268
 20
-1.3996420452
 10
-3.7732181654
 20
-1.3947921515
 10
-3.7684836607
 20
-1.3886280427
 10
-3.7647195219
 20
-1.3810960851
 10
-3.7619257488
 20
-1.3721962789
  0
LINE
  5
26D
100
AcDbEntity
  8
0
100
AcDbLine
 62
250
  6
CONTINUOUS
 10
14.6187898379
 20
9.9872769129
 11
14.0287941206
 21
9.6466224603
  0
LINE
  5
26E
100
AcDbEntity
  8
0
100
AcDbLine
 62
250
  6
CONTINUOUS
 10
14.9722220746
 20
9.3751143226
 11
14.3822263573
 21
9.0344598699
  0
LINE
  5
26F
100
AcDbEntity
  8
RACCORDO
100
AcDbLine
 62
250
  6
CONTINUOUS
 10
15.1122344614
 20
10.1957533159
 11
14.6541710636
 21
9.9645673209
  0
LINE
  5
270
100
AcDbEntity
  8
RACCORDO
100
AcDbLine
 62
250
  6
CONTINUOUS
 10
15.4298153802
 20
9.6444124374
 11
14.9707126849
 21
9.4127019058
  0
LWPOLYLINE
  5
271
100
AcDbEntity
  8
0
100
AcDbPolyline
 62
250
  6
CONTINUOUS
 90
16
 70
0
 10
14.3822263573
 20
9.0344598699
 10
14.3430021109
 20
9.0150887132
 10
14.3005281338
 20
8.9981555699
 10
14.255257049
 20
8.9838408882
 10
14.2076656261
 20
8.9722960343
 10
14.1582662621
 20
8.9636458888
 10
14.1076033796
 20
8.9579841038
 10
14.0562297896
 20
8.9553680837
 10
14.0046807817
 20
8.955820777
 10
13.953486268
 20
8.9593359476
 10
13.9031210757
 20
8.965887509
 10
13.8541941833
 20
8.9754028809
 10
13.8074030254
 20
8.9877278707
 10
13.7632725969
 20
9.0026791585
 10
13.7221730041
 20
9.0200840505
 10
13.6844956789
 20
9.0397336086
  0
LWPOLYLINE
  5
272
100
AcDbEntity
  8
DRAFT
100
AcDbPolyline
 62
7
  6
CONTINUOUS
 90
3
 70
0
 10
0.499467041
 20
-6.4857395083
 10
0.5070593547
 20
-6.4844907429
 10
0.514840157
 20
-6.4813841852
  0
LWPOLYLINE
  5
273
100
AcDbEntity
  8
0
100
AcDbPolyline
 62
7
  6
CONTINUOUS
 90
4
 70
0
 10
0.029345839
 20
-5.2837359921
 10
0.0217406351
 20
-5.2849872738
 10
0.014713875
 20
-5.2877814143
 10
0.0127774288
 20
-5.2888016866
  0
LWPOLYLINE
  5
274
100
AcDbEntity
  8
DRAFT
100
AcDbPolyline
 62
7
  6
CONTINUOUS
 90
4
 70
0
 10
-1.5360446908
 20
-6.4423341217
 10
-1.5278184966
 20
-6.4423627359
 10
-1.5200582238
 20
-6.4408502693
 10
-1.5137745077
 20
-6.4382333855
  0
LWPOLYLINE
  5
275
100
AcDbEntity
  8
0
100
AcDbPolyline
 62
7
  6
CONTINUOUS
 90
4
 70
0
 10
-1.8730619014
 20
-5.24316633
 10
-1.8812782313
 20
-5.2431357627
 10
-1.8890540091
 20
-5.2446454188
 10
-1.8966142246
 20
-5.2479930076
  0
LWPOLYLINE
  5
276
100
AcDbEntity
  8
DRAFT
100
AcDbPolyline
 62
7
  6
CONTINUOUS
 90
4
 70
0
 10
-3.8548510354
 20
-3.9786030117
 10
-3.8463635692
 20
-3.9799632052
 10
-3.8381800422
 20
-3.9798101543
 10
-3.8303191176
 20
-3.9781408683
  0
LWPOLYLINE
  5
277
100
AcDbEntity
  8
0
100
AcDbPolyline
 62
7
  6
CONTINUOUS
 90
4
 70
0
 10
0.0556321131
 20
-5.2892393003
 10
0.0465879243
 20
-5.2859241249
 10
0.0376776598
 20
-5.2840586291
 10
0.0293633852
 20
-5.2837366716
  0
LWPOLYLINE
  5
278
100
AcDbEntity
  8
DRAFT
100
AcDbPolyline
 62
7
  6
CONTINUOUS
 90
7
 70
0
 10
-1.8459840499
 20
-5.252575447
 10
-1.8554821869
 20
-5.2478968263
 10
-1.8645144024
 20
-5.2447592864
 10
-1.8730806965
 20
-5.2431628273
 10
-1.8813068908
 20
-5.2431342131
 10
-1.8890671635
 20
-5.2446466797
 10
-1.8966141737
 20
-5.2479929767
  0
LWPOLYLINE
  5
279
100
AcDbEntity
  8
0
100
AcDbPolyline
 62
7
  6
CONTINUOUS
 90
4
 70
0
 10
-1.8459840499
 20
-5.252575447
 10
-1.8554621121
 20
-5.2478988081
 10
-1.8644822828
 20
-5.2447624573
 10
-1.8730445619
 20
-5.2431663945
  0
LINE
  5
27A
100
AcDbEntity
  8
0
100
AcDbLine
 62
7
  6
CONTINUOUS
 10
-1.5631413374
 20
-5.4158852843
 11
-1.8459840499
 21
-5.252575447
  0
LINE
  5
27B
100
AcDbEntity
  8
DRAFT
100
AcDbLine
 62
7
  6
CONTINUOUS
 10
-1.5631413374
 20
-5.4158852843
 11
-1.8459840499
 21
-5.252575447
  0
LWPOLYLINE
  5
27C
100
AcDbEntity
  8
0
100
AcDbPolyline
 62
7
  6
CONTINUOUS
 90
4
 70
0
 10
-3.4647575004
 20
-3.2566104584
 10
-3.4739424004
 20
-3.2508422867
 10
-3.4832612247
 20
-3.2463691422
 10
-3.4922301654
 20
-3.2434205031
  0
LWPOLYLINE
  5
27D
100
AcDbEntity
  8
DRAFT
100
AcDbPolyline
 62
7
  6
CONTINUOUS
 90
7
 70
0
 10
0.4457443112
 20
-6.4617206506
 10
0.4547250943
 20
-6.4691370785
 10
0.4640284798
 20
-6.4754098042
 10
0.4731983131
 20
-6.4802368795
 10
0.4822283038
 20
-6.4835502107
 10
0.4911247423
 20
-6.4854178915
 10
0.4994503462
 20
-6.4857422542
  0
LWPOLYLINE
  5
27E
100
AcDbEntity
  8
0
100
AcDbPolyline
 62
7
  6
CONTINUOUS
 90
4
 70
0
 10
0.083104778
 20
-5.3077740899
 10
0.0741358374
 20
-5.3003656212
 10
0.0648170131
 20
-5.294077621
 10
0.0556321131
 20
-5.2892393003
  0
LWPOLYLINE
  5
27F
100
AcDbEntity
  8
DRAFT
100
AcDbPolyline
 62
7
  6
CONTINUOUS
 90
4
 70
0
 10
-1.8730619014
 20
-6.2477519575
 10
-1.8645144024
 20
-6.2560294386
 10
-1.8554821869
 20
-6.2633220748
 10
-1.8459840499
 20
-6.2696116647
  0
LWPOLYLINE
  5
280
100
AcDbEntity
  8
0
100
AcDbPolyline
 62
7
  6
CONTINUOUS
 90
4
 70
0
 10
-1.5360808254
 20
-5.4377250329
 10
-1.5446431045
 20
-5.4294335903
 10
-1.5536632752
 20
-5.4221536742
 10
-1.5631413374
 20
-5.4158852843
  0
LWPOLYLINE
  5
281
100
AcDbEntity
  8
DRAFT
100
AcDbPolyline
 62
7
  6
CONTINUOUS
 90
7
 70
0
 10
-3.9085757335
 20
-3.9406032413
 10
-3.9002501296
 20
-3.9498930773
 10
-3.891353691
 20
-3.9582987808
 10
-3.8823237004
 20
-3.9654130564
 10
-3.873153867
 20
-3.9711750749
 10
-3.8638504816
 20
-3.9756456654
 10
-3.8548696985
 20
-3.9786000208
  0
LWPOLYLINE
  5
282
100
AcDbEntity
  8
0
100
AcDbPolyline
 62
7
  6
CONTINUOUS
 90
4
 70
0
 10
-3.4384887726
 20
-3.2814422981
 10
-3.4468030471
 20
-3.2721631397
 10
-3.4557133116
 20
-3.2637392855
 10
-3.4647575004
 20
-3.2566104584
  0
LWPOLYLINE
  5
283
100
AcDbEntity
  8
DRAFT
100
AcDbPolyline
 62
7
  6
CONTINUOUS
 90
4
 70
0
 10
-4.5926438418
 20
-0.7509654962
 10
-4.584954824
 20
-0.7608598012
 10
-4.576549496
 20
-0.7700592453
 10
-4.5674447679
 20
-0.7785420686
  0
LWPOLYLINE
  5
284
100
AcDbEntity
  8
0
100
AcDbPolyline
 62
7
  6
CONTINUOUS
 90
4
 70
0
 10
-3.7270010552
 20
-0.9892063117
 10
-3.7347034381
 20
-0.9792952002
 10
-3.7430981331
 20
-0.9701106125
 10
-3.75218514
 20
-0.9616525486
  0
LWPOLYLINE
  5
285
100
AcDbEntity
  8
DRAFT
100
AcDbPolyline
 62
7
  6
CONTINUOUS
 90
4
 70
0
 10
0.4211937303
 20
-6.4329111027
 10
0.4290546549
 20
-6.4436579875
 10
0.4372381819
 20
-6.4532611701
 10
0.4457256481
 20
-6.4617020899
  0
LWPOLYLINE
  5
286
100
AcDbEntity
  8
0
100
AcDbPolyline
 62
7
  6
CONTINUOUS
 90
12
 70
0
 10
0.4211937301
 20
-6.4329111024
 10
0.429033771
 20
-6.4436389899
 10
0.4372047678
 20
-6.4532307742
 10
0.4457067204
 20
-6.4616864553
 10
0.4546945888
 20
-6.4691105587
 10
0.4640134131
 20
-6.4753985589
 10
0.4731983131
 20
-6.4802368795
 10
0.4822425019
 20
-6.4835520549
 10
0.4911527664
 20
-6.4854175507
 10
0.4994845872
 20
-6.4857401877
 10
0.507089791
 20
-6.4844889061
 10
0.5148408177
 20
-6.481383817
  0
LINE
  5
287
100
AcDbEntity
  8
0
100
AcDbLine
 62
7
  6
CONTINUOUS
 10
-0.1568851431
 20
-5.5668410673
 11
0.4211937301
 21
-6.4329111024
  0
LINE
  5
288
100
AcDbEntity
  8
DRAFT
100
AcDbLine
 62
7
  6
CONTINUOUS
 10
-0.1568851432
 20
-5.5668410673
 11
0.4211937303
 21
-6.4329111027
  0
LINE
  5
289
100
AcDbEntity
  8
DRAFT
100
AcDbLine
 62
7
  6
CONTINUOUS
 10
-4.5997512486
 20
-0.7401485119
 11
-4.5926438418
 21
-0.7509654962
  0
LINE
  5
28A
100
AcDbEntity
  8
0
100
AcDbLine
 62
7
  6
CONTINUOUS
 10
-3.7198786593
 20
-1.0000461052
 11
-3.7269860661
 21
-0.9892291208
  0
LWPOLYLINE
  5
28B
100
AcDbEntity
  8
0
100
AcDbPolyline
 62
7
  6
CONTINUOUS
 90
4
 70
0
 10
-1.5131413374
 20
-5.4686685184
 10
-1.5200713783
 20
-5.4576913654
 10
-1.5278471561
 20
-5.447202436
 10
-1.5360634859
 20
-5.4377449916
  0
LINE
  5
28C
100
AcDbEntity
  8
0
100
AcDbLine
 62
7
  6
CONTINUOUS
 10
-3.7134595879
 20
-1.0115926132
 11
-3.7198786593
 21
-1.0000461052
  0
LWPOLYLINE
  5
28D
100
AcDbEntity
  8
DRAFT
100
AcDbPolyline
 62
7
  6
CONTINUOUS
 90
13
 70
0
 10
-3.4173909459
 20
-3.3141872816
 10
-3.4238582851
 20
-3.302380813
 10
-3.4308964588
 20
-3.291458477
 10
-3.4385054673
 20
-3.2814202735
 10
-3.4468310712
 20
-3.2721304375
 10
-3.4557275097
 20
-3.263724734
 10
-3.4647575004
 20
-3.2566104584
 10
-3.4739273337
 20
-3.2508484399
 10
-3.4832307192
 20
-3.2463778494
 10
-3.4922115023
 20
-3.243423494
 10
-3.5007176316
 20
-3.2420603096
 10
-3.5089011585
 20
-3.2422133605
 10
-3.5167620832
 20
-3.2438826465
  0
LWPOLYLINE
  5
28E
100
AcDbEntity
  8
0
100
AcDbPolyline
 62
7
  6
CONTINUOUS
 90
4
 70
0
 10
-3.4173909457
 20
-3.3141872819
 10
-3.4238392622
 20
-3.3024039282
 10
-3.4308660224
 20
-3.2914954611
 10
-3.4384712264
 20
-3.2814618805
  0
LINE
  5
28F
100
AcDbEntity
  8
0
100
AcDbLine
 62
7
  6
CONTINUOUS
 10
-3.2410430533
 20
-3.6713467344
 11
-3.4173909457
 21
-3.3141872819
  0
LINE
  5
290
100
AcDbEntity
  8
DRAFT
100
AcDbLine
 62
7
  6
CONTINUOUS
 10
-3.2410430533
 20
-3.6713467344
 11
-3.4173909459
 21
-3.3141872816
  0
LWPOLYLINE
  5
291
100
AcDbEntity
  8
DRAFT
100
AcDbPolyline
 62
7
  6
CONTINUOUS
 90
3
 70
0
 10
-4.6115821355
 20
-0.7168958147
 10
-4.6061825499
 20
-0.7285754553
 10
-4.5997512486
 20
-0.7401485119
  0
LINE
  5
292
100
AcDbEntity
  8
0
100
AcDbLine
 62
7
  6
CONTINUOUS
 10
-3.708047778
 20
-1.0232987888
 11
-3.7134595879
 21
-1.0115926132
  0
LWPOLYLINE
  5
293
100
AcDbEntity
  8
DRAFT
100
AcDbPolyline
 62
7
  6
CONTINUOUS
 90
7
 70
0
 10
-1.9112969257
 20
-6.1815413056
 10
-1.9072082125
 20
-6.1934005623
 10
-1.9020178244
 20
-6.2053579298
 10
-1.8959840499
 20
-6.2168284306
 10
-1.8890671635
 20
-6.2277891323
 10
-1.8813068908
 20
-6.2382629674
 10
-1.8730806965
 20
-6.2477337561
  0
LWPOLYLINE
  5
294
100
AcDbEntity
  8
0
100
AcDbPolyline
 62
7
  6
CONTINUOUS
 90
4
 70
0
 10
-1.4978220968
 20
-5.5039810205
 10
-1.5019041858
 20
-5.4921369786
 10
-1.5070998931
 20
-5.4801586367
 10
-1.5131413374
 20
-5.4686685184
  0
LWPOLYLINE
  5
295
100
AcDbEntity
  8
0
100
AcDbPolyline
 62
7
  6
CONTINUOUS
 90
4
 70
0
 10
-3.2283797436
 20
-3.7069626216
 10
-3.231451427
 20
-3.6953721772
 10
-3.2356725303
 20
-3.6835002148
 10
-3.2410430533
 20
-3.6713467344
  0
LWPOLYLINE
  5
296
100
AcDbEntity
  8
0
100
AcDbPolyline
 62
7
  6
CONTINUOUS
 90
4
 70
0
 10
-3.6982094099
 20
-1.058739132
 10
-3.700365191
 20
-1.0471750029
 10
-3.7037001006
 20
-1.0351620144
 10
-3.708047778
 20
-1.0232987888
  0
LWPOLYLINE
  5
297
100
AcDbEntity
  8
DRAFT
100
AcDbPolyline
 62
7
  6
CONTINUOUS
 90
4
 70
0
 10
-0.6208453036
 20
-3.4485751355
 10
-0.6315626814
 20
-3.3463130557
 10
-0.6487322425
 20
-3.2411246226
 10
-0.6720771241
 20
-3.1346418206
  0
LWPOLYLINE
  5
298
100
AcDbEntity
  8
DRAFT
100
AcDbPolyline
 62
7
  6
CONTINUOUS
 90
13
 70
0
 10
-1.4924306593
 20
-5.5383597713
 10
-1.4931282519
 20
-5.5269898395
 10
-1.4949275194
 20
-5.5155217969
 10
-1.4978284616
 20
-5.5039556435
 10
-1.5019171749
 20
-5.4920963868
 10
-1.507107563
 20
-5.4801390193
 10
-1.5131413374
 20
-5.4686685184
 10
-1.5200582238
 20
-5.4577078167
 10
-1.5278184966
 20
-5.4472339817
 10
-1.5360446908
 20
-5.4377631929
 10
-1.5446109849
 20
-5.4294675104
 10
-1.5536432004
 20
-5.4221748742
 10
-1.5631413374
 20
-5.4158852843
  0
LWPOLYLINE
  5
299
100
AcDbEntity
  8
0
100
AcDbPolyline
 62
7
  6
CONTINUOUS
 90
4
 70
0
 10
-1.4924306593
 20
-5.5383597713
 10
-1.4931199299
 20
-5.5270178241
 10
-1.4949142042
 20
-5.5155665723
 10
-1.497813482
 20
-5.5040060158
  0
LWPOLYLINE
  5
29A
100
AcDbEntity
  8
0
100
AcDbPolyline
 62
7
  6
CONTINUOUS
 90
16
 70
0
 10
-0.9249991637
 20
-1.0534260467
 10
-0.9262666698
 20
-1.026638011
 10
-0.9297278288
 20
-0.9994080821
 10
-0.9353826406
 20
-0.9717362603
 10
-0.9433396199
 20
-0.943313562
 10
-0.9534902521
 20
-0.9144489707
 10
-0.9655089932
 20
-0.8860694366
 10
-0.9794586212
 20
-0.8581872554
 10
-0.9952763581
 20
-0.8307901315
 10
-1.0124483252
 20
-0.8047681288
 10
-1.0310165631
 20
-0.7801694613
 10
-1.0509390312
 20
-0.7569459151
 10
-1.0715757288
 20
-0.7358429122
 10
-1.0927133224
 20
-0.7171089266
 10
-1.1145651454
 20
-0.7004954845
 10
-1.1371311981
 20
-0.6860025857
  0
LWPOLYLINE
  5
29B
100
AcDbEntity
  8
0
100
AcDbPolyline
 62
7
  6
CONTINUOUS
 90
10
 70
0
 10
-1.3492632324
 20
-1.6720612502
 10
-1.3484053641
 20
-1.6941684109
 10
-1.3459959561
 20
-1.7166913786
 10
-1.3420350086
 20
-1.7396301532
 10
-1.3364690325
 20
-1.7631647251
 10
-1.3293515168
 20
-1.7871151039
 10
-1.3208429288
 20
-1.8109413188
 10
-1.3109967575
 20
-1.8344633796
 10
-1.2997595138
 20
-1.8578612764
 10
-1.2871311979
 20
-1.8811350093
  0
LWPOLYLINE
  5
29C
100
AcDbEntity
  8
DRAFT
100
AcDbPolyline
 62
7
  6
CONTINUOUS
 90
10
 70
0
 10
-1.3492632324
 20
-1.6720612502
 10
-1.3484053641
 20
-1.6941684109
 10
-1.3459959561
 20
-1.7166913786
 10
-1.3420350086
 20
-1.7396301532
 10
-1.3364690325
 20
-1.7631647251
 10
-1.3293515168
 20
-1.7871151039
 10
-1.3208429288
 20
-1.8109413188
 10
-1.3109967575
 20
-1.8344633795
 10
-1.299759514
 20
-1.8578612762
 10
-1.2871311981
 20
-1.8811350089
  0
LWPOLYLINE
  5
29D
100
AcDbEntity
  8
DRAFT
100
AcDbPolyline
 62
7
  6
CONTINUOUS
 90
25
 70
0
 10
-0.9249991637
 20
-1.0534260467
 10
-0.9254694635
 20
-1.0370219149
 10
-0.9268281494
 20
-1.0203088818
 10
-0.9290752213
 20
-1.0032869474
 10
-0.9322278608
 20
-0.9858807912
 10
-0.9362688864
 20
-0.9681657336
 10
-0.9411467533
 20
-0.9503677365
 10
-0.9468721814
 20
-0.9324857374
 10
-0.9534344509
 20
-0.9145207987
 10
-0.9607498577
 20
-0.8967020695
 10
-0.9688280494
 20
-0.8790314227
 10
-0.9776593784
 20
-0.8615069855
 10
-0.9871311981
 20
-0.844352288
 10
-0.997251713
 20
-0.8275720666
 10
-1.0080127185
 20
-0.811161585
 10
-1.0192769543
 20
-0.7953301647
 10
-1.0310508667
 20
-0.7800852232
 10
-1.0433280093
 20
-0.7654193429
 10
-1.055951783
 20
-0.7515195923
 10
-1.0689266281
 20
-0.7383957852
 10
-1.0822481041
 20
-0.7260381078
 10
-1.0957462912
 20
-0.7146041865
 10
-1.1093645492
 20
-0.7041465635
 10
-1.1231595181
 20
-0.6946126965
 10
-1.1371311981
 20
-0.6860025857
  0
LWPOLYLINE
  5
29E
100
AcDbEntity
  8
0
100
AcDbPolyline
 62
7
  6
CONTINUOUS
 90
3
 70
0
 10
0.2881628237
 20
-3.3708043389
 10
0.2884207534
 20
-3.3815690592
 10
0.2898578117
 20
-3.3932465482
  0
LINE
  5
29F
100
AcDbEntity
  8
0
100
AcDbLine
 62
7
  6
CONTINUOUS
 10
-1.4924306593
 20
-6.3921019337
 11
-1.4924306593
 21
-5.5383597713
  0
LINE
  5
2A0
100
AcDbEntity
  8
DRAFT
100
AcDbLine
 62
7
  6
CONTINUOUS
 10
-1.4924306593
 20
-6.3921019337
 11
-1.4924306593
 21
-5.5383597713
  0
LINE
  5
2A1
100
AcDbEntity
  8
0
100
AcDbLine
 62
7
  6
CONTINUOUS
 10
-1.3492632324
 20
-1.0534023738
 11
-1.3492632324
 21
-1.6720612502
  0
LINE
  5
2A2
100
AcDbEntity
  8
DRAFT
100
AcDbLine
 62
7
  6
CONTINUOUS
 10
-1.3492632324
 20
-1.0534023738
 11
-1.3492632324
 21
-1.6720612502
  0
LINE
  5
2A3
100
AcDbEntity
  8
0
100
AcDbLine
 62
7
  6
CONTINUOUS
 10
-0.9249991637
 20
-1.8155680876
 11
-0.9249991637
 21
-1.0534260467
  0
LINE
  5
2A4
100
AcDbEntity
  8
DRAFT
100
AcDbLine
 62
7
  6
CONTINUOUS
 10
-0.9249991637
 20
-1.8155680876
 11
-0.9249991637
 21
-1.0534260467
  0
LINE
  5
2A5
100
AcDbEntity
  8
DRAFT
100
AcDbLine
 62
7
  6
CONTINUOUS
 10
-1.4931282519
 20
-6.4026663031
 11
-1.4924306593
 21
-6.3921019337
  0
LWPOLYLINE
  5
2A6
100
AcDbEntity
  8
DRAFT
100
AcDbPolyline
 62
7
  6
CONTINUOUS
 90
4
 70
0
 10
0.2891055208
 20
-3.3608195134
 10
0.2881819339
 20
-3.3706862279
 10
0.2884326975
 20
-3.3814952395
 10
0.2898578117
 20
-3.3932465483
  0
LWPOLYLINE
  5
2A7
100
AcDbEntity
  8
DRAFT
100
AcDbPolyline
 62
7
  6
CONTINUOUS
 90
4
 70
0
 10
-0.6276831323
 20
-3.736171271
 10
-0.6189906672
 20
-3.64456582
 10
-0.6166918938
 20
-3.5480336544
 10
-0.62084015
 20
-3.4486985445
  0
LWPOLYLINE
  5
2A8
100
AcDbEntity
  8
DRAFT
100
AcDbPolyline
 62
7
  6
CONTINUOUS
 90
7
 70
0
 10
-0.1807564614
 20
-5.4666655139
 10
-0.1826886577
 20
-5.4759196689
 10
-0.1834690303
 20
-5.4862113697
 10
-0.183064175
 20
-5.4970331985
 10
-0.1814182648
 20
-5.5084101256
 10
-0.1785871267
 20
-5.5203171807
 10
-0.1747048378
 20
-5.5321720352
  0
LWPOLYLINE
  5
2A9
100
AcDbEntity
  8
DRAFT
100
AcDbPolyline
 62
7
  6
CONTINUOUS
 90
4
 70
0
 10
-1.9113032906
 20
-5.2652421613
 10
-1.914197868
 20
-5.2734403523
 10
-1.9159971354
 20
-5.282830646
 10
-1.916694728
 20
-5.2933950153
  0
LWPOLYLINE
  5
2AA
100
AcDbEntity
  8
0
100
AcDbPolyline
 62
7
  6
CONTINUOUS
 90
4
 70
0
 10
-1.497813482
 20
-6.4202397405
 10
-1.4949142042
 20
-6.4120271974
 10
-1.4931199299
 20
-6.4026479285
 10
-1.4924306593
 20
-6.3921019337
  0
LWPOLYLINE
  5
2AB
100
AcDbEntity
  8
DRAFT
100
AcDbPolyline
 62
7
  6
CONTINUOUS
 90
4
 70
0
 10
-0.6920641859
 20
-3.9794269744
 10
-0.6644074909
 20
-3.9040387397
 10
-0.6428484658
 20
-3.8225683627
 10
-0.6276831323
 20
-3.736171271
  0
LWPOLYLINE
  5
2AC
100
AcDbEntity
  8
DRAFT
100
AcDbPolyline
 62
7
  6
CONTINUOUS
 90
3
 70
0
 10
-4.1011954172
 20
-3.4453483812
 10
-4.1077719038
 20
-3.4505298427
 10
-4.1126499249
 20
-3.4564799007
  0
LWPOLYLINE
  5
2AD
100
AcDbEntity
  8
0
100
AcDbPolyline
 62
7
  6
CONTINUOUS
 90
7
 70
0
 10
-4.1011947682
 20
-3.4453479932
 10
-4.1077550934
 20
-3.4505044051
 10
-4.1126417394
 20
-3.456464367
 10
-4.1165286316
 20
-3.4638405721
 10
-4.1193685756
 20
-3.4724891798
 10
-4.1210199884
 20
-3.481978668
 10
-4.1214226387
 20
-3.4923516501
  0
LWPOLYLINE
  5
2AE
100
AcDbEntity
  8
DRAFT
100
AcDbPolyline
 62
7
  6
CONTINUOUS
 90
8
 70
0
 10
-3.247106115
 20
-3.7773703447
 10
-3.2452491952
 20
-3.7761907705
 10
-3.239309297
 20
-3.7714936721
 10
-3.2344205496
 20
-3.7655305305
 10
-3.2305382607
 20
-3.7581588458
 10
-3.2277071226
 20
-3.749521118
 10
-3.2260612124
 20
-3.7400448468
 10
-3.225656357
 20
-3.7296905348
  0
LWPOLYLINE
  5
2AF
100
AcDbEntity
  8
0
100
AcDbPolyline
 62
7
  6
CONTINUOUS
 90
4
 70
0
 10
-3.2471068089
 20
-3.7773707209
 10
-3.2452597017
 20
-3.776206669
 10
-3.2393261074
 20
-3.7715191097
 10
-3.2344394614
 20
-3.7655591478
  0
LINE
  5
2B0
100
AcDbEntity
  8
0
100
AcDbLine
 62
7
  6
CONTINUOUS
 10
-4.0952427891
 20
-3.4417388728
 11
-4.1013696611
 21
-3.4454532913
  0
LINE
  5
2B1
100
AcDbEntity
  8
DRAFT
100
AcDbLine
 62
250
  6
CONTINUOUS
 10
-3.2473462532
 20
-3.776933227
 11
-3.2522402442
 21
-3.7796218258
  0
LINE
  5
2B2
100
AcDbEntity
  8
DRAFT
100
AcDbLine
 62
7
  6
CONTINUOUS
 10
-4.0948409566
 20
-3.4424016889
 11
-4.1011954172
 21
-3.4453483812
  0
LINE
  5
2B3
100
AcDbEntity
  8
0
100
AcDbLine
 62
7
  6
CONTINUOUS
 10
-4.0948409566
 20
-3.4424016889
 11
-4.1011947682
 21
-3.4453479932
  0
LINE
  5
2B4
100
AcDbEntity
  8
DRAFT
100
AcDbLine
 62
7
  6
CONTINUOUS
 10
-3.2522402442
 20
-3.7796218258
 11
-3.247106115
 21
-3.7773703447
  0
LINE
  5
2B5
100
AcDbEntity
  8
0
100
AcDbLine
 62
7
  6
CONTINUOUS
 10
-3.2522402442
 20
-3.7796218259
 11
-3.2471068089
 21
-3.7773707209
  0
LINE
  5
2B6
100
AcDbEntity
  8
0
100
AcDbLine
 62
7
  6
CONTINUOUS
 10
-3.516762083
 20
-3.2438826465
 11
-4.0948409566
 21
-3.4424016889
  0
LINE
  5
2B7
100
AcDbEntity
  8
DRAFT
100
AcDbLine
 62
7
  6
CONTINUOUS
 10
-3.5167620832
 20
-3.2438826465
 11
-4.0948409566
 21
-3.4424016889
  0
LINE
  5
2B8
100
AcDbEntity
  8
0
100
AcDbLine
 62
7
  6
CONTINUOUS
 10
-3.8303191175
 20
-3.9781408683
 11
-3.2522402442
 21
-3.7796218259
  0
LINE
  5
2B9
100
AcDbEntity
  8
DRAFT
100
AcDbLine
 62
7
  6
CONTINUOUS
 10
-3.8303191176
 20
-3.9781408683
 11
-3.2522402442
 21
-3.7796218258
  0
LWPOLYLINE
  5
2BA
100
AcDbEntity
  8
0
100
AcDbPolyline
 62
7
  6
CONTINUOUS
 90
4
 70
0
 10
-3.4922490932
 20
-3.2434142803
 10
-3.5007510456
 20
-3.2420521197
 10
-3.5089220423
 20
-3.2422082418
 10
-3.516762083
 20
-3.2438826465
  0
LWPOLYLINE
  5
2BB
100
AcDbEntity
  8
DRAFT
100
AcDbPolyline
 62
7
  6
CONTINUOUS
 90
4
 70
0
 10
1.1583193806
 20
-4.0845265272
 10
1.1674241087
 20
-4.0865576158
 10
1.1758294367
 20
-4.0870644337
 10
1.1835184545
 20
-4.0860492138
  0
LWPOLYLINE
  5
2BC
100
AcDbEntity
  8
DRAFT
100
AcDbPolyline
 62
7
  6
CONTINUOUS
 90
6
 70
0
 10
0.3430597527
 20
-3.3261956241
 10
0.3339550245
 20
-3.3241645355
 10
0.3255496965
 20
-3.3236577175
 10
0.3178437685
 20
-3.3246751702
 10
0.3107331695
 20
-3.3272898586
 10
0.3081683835
 20
-3.3286494887
  0
LWPOLYLINE
  5
2BD
100
AcDbEntity
  8
0
100
AcDbPolyline
 62
7
  6
CONTINUOUS
 90
6
 70
0
 10
1.1583193807
 20
-4.0845265272
 10
1.1674063875
 20
-4.086561911
 10
1.1758010825
 20
-4.0870713066
 10
1.1835034654
 20
-4.0860547139
 10
1.190620355
 20
-4.0834432308
 10
1.1919904669
 20
-4.0827782637
  0
LWPOLYLINE
  5
2BE
100
AcDbEntity
  8
0
100
AcDbPolyline
 62
7
  6
CONTINUOUS
 90
4
 70
0
 10
0.3430597525
 20
-3.3261956241
 10
0.3339727457
 20
-3.3241602402
 10
0.3255780508
 20
-3.3236508446
 10
0.3178756678
 20
-3.3246674373
  0
LWPOLYLINE
  5
2BF
100
AcDbEntity
  8
DRAFT
100
AcDbPolyline
 62
7
  6
CONTINUOUS
 90
4
 70
0
 10
-3.8188916058
 20
-1.4016038805
 10
-3.8099815738
 20
-1.4042633742
 10
-3.8013003893
 20
-1.4054347547
 10
-3.793243874
 20
-1.4050773862
  0
LINE
  5
2C0
100
AcDbEntity
  8
0
100
AcDbLine
 62
7
  6
CONTINUOUS
 10
0.4374735773
 20
-3.8583071497
 11
1.1583193807
 21
-4.0845265272
  0
LINE
  5
2C1
100
AcDbEntity
  8
DRAFT
100
AcDbLine
 62
7
  6
CONTINUOUS
 10
0.4374735774
 20
-3.8583071498
 11
1.1583193806
 21
-4.0845265272
  0
LINE
  5
2C2
100
AcDbEntity
  8
0
100
AcDbLine
 62
7
  6
CONTINUOUS
 10
1.063905556
 20
-3.5524150016
 11
0.3430597525
 21
-3.3261956241
  0
LINE
  5
2C3
100
AcDbEntity
  8
DRAFT
100
AcDbLine
 62
7
  6
CONTINUOUS
 10
1.0639055559
 20
-3.5524150015
 11
0.3430597527
 21
-3.3261956241
  0
LINE
  5
2C4
100
AcDbEntity
  8
0
100
AcDbLine
 62
7
  6
CONTINUOUS
 10
-2.4134155454
 20
-0.4389741652
 11
-1.3492632324
 21
-1.0534023738
  0
LINE
  5
2C5
100
AcDbEntity
  8
DRAFT
100
AcDbLine
 62
7
  6
CONTINUOUS
 10
-2.4134155454
 20
-0.4389741652
 11
-1.3492632324
 21
-1.0534023738
  0
LWPOLYLINE
  5
2C6
100
AcDbEntity
  8
DRAFT
100
AcDbPolyline
 62
7
  6
CONTINUOUS
 90
4
 70
0
 10
0.4097662185
 20
-3.8431779107
 10
0.4187731573
 20
-3.8494448363
 10
0.4280089436
 20
-3.854487916
 10
0.4374735774
 20
-3.8583071498
  0
LWPOLYLINE
  5
2C7
100
AcDbEntity
  8
0
100
AcDbPolyline
 62
7
  6
CONTINUOUS
 90
4
 70
0
 10
1.0914870886
 20
-3.5674467669
 10
1.0824941295
 20
-3.5611906704
 10
1.0733002853
 20
-3.556180082
 10
1.063905556
 20
-3.5524150016
  0
LWPOLYLINE
  5
2C8
100
AcDbEntity
  8
0
100
AcDbPolyline
 62
7
  6
CONTINUOUS
 90
8
 70
0
 10
-2.9982768511
 20
-1.4120539719
 10
-3.0092629404
 20
-1.4039520406
 10
-3.0198850271
 20
-1.3978541408
 10
-3.0301431114
 20
-1.3937602724
 10
-3.0402522482
 20
-1.3916684992
 10
-3.0499973825
 20
-1.3915807575
 10
-3.058733349
 20
-1.393502856
 10
-3.0648106104
 20
-1.3964412537
  0
LWPOLYLINE
  5
2C9
100
AcDbEntity
  8
DRAFT
100
AcDbPolyline
 62
7
  6
CONTINUOUS
 90
8
 70
0
 10
-2.9982768511
 20
-1.4120539719
 10
-3.0092629404
 20
-1.4039520407
 10
-3.0198850271
 20
-1.3978541408
 10
-3.0301431114
 20
-1.3937602724
 10
-3.0402522482
 20
-1.3916684992
 10
-3.0499973825
 20
-1.3915807574
 10
-3.058733349
 20
-1.393502856
 10
-3.0648106103
 20
-1.3964412537
  0
LWPOLYLINE
  5
2CA
100
AcDbEntity
  8
DRAFT
100
AcDbPolyline
 62
7
  6
CONTINUOUS
 90
4
 70
0
 10
-3.8465989647
 20
-1.384737356
 10
-3.8371343309
 20
-1.3918476441
 10
-3.8278985446
 20
-1.3974698189
 10
-3.8189554462
 20
-1.4015745787
  0
LWPOLYLINE
  5
2CB
100
AcDbEntity
  8
DRAFT
100
AcDbPolyline
 62
7
  6
CONTINUOUS
 90
9
 70
0
 10
-4.4730309432
 20
-0.355457261
 10
-4.482495577
 20
-0.348346973
 10
-4.4917313633
 20
-0.3427247981
 10
-4.5007383021
 20
-0.3385907365
 10
-4.5096483341
 20
-0.3359312428
 10
-4.5183295186
 20
-0.3347598624
 10
-4.5263860339
 20
-0.3351172308
 10
-4.5338011715
 20
-0.3370705269
 10
-4.5393563446
 20
-0.3397174406
  0
LWPOLYLINE
  5
2CC
100
AcDbEntity
  8
0
100
AcDbPolyline
 62
7
  6
CONTINUOUS
 90
9
 70
0
 10
-3.8465989646
 20
-1.3847373561
 10
-3.8372042353
 20
-1.3918210736
 10
-3.8280103911
 20
-1.397427306
 10
-3.8190174319
 20
-1.4015560533
 10
-3.8100802745
 20
-1.4042270547
 10
-3.801344002
 20
-1.4054205709
 10
-3.7932438651
 20
-1.4050773849
 10
-3.7858118595
 20
-1.4031197132
 10
-3.7814920138
 20
-1.4011796724
  0
LWPOLYLINE
  5
2CD
100
AcDbEntity
  8
0
100
AcDbPolyline
 62
7
  6
CONTINUOUS
 90
4
 70
0
 10
-4.4730309433
 20
-0.355457261
 10
-4.4824256726
 20
-0.3483735435
 10
-4.4916195168
 20
-0.3427673111
 10
-4.500612476
 20
-0.3386385637
  0
LINE
  5
2CE
100
AcDbEntity
  8
0
100
AcDbLine
 62
7
  6
CONTINUOUS
 10
-4.5674447679
 20
-0.7785420685
 11
-3.8465989646
 21
-1.3847373561
  0
LINE
  5
2CF
100
AcDbEntity
  8
DRAFT
100
AcDbLine
 62
7
  6
CONTINUOUS
 10
-4.5674447679
 20
-0.7785420686
 11
-3.8465989647
 21
-1.384737356
  0
LINE
  5
2D0
100
AcDbEntity
  8
0
100
AcDbLine
 62
7
  6
CONTINUOUS
 10
-3.75218514
 20
-0.9616525486
 11
-4.4730309433
 21
-0.355457261
  0
LINE
  5
2D1
100
AcDbEntity
  8
DRAFT
100
AcDbLine
 62
7
  6
CONTINUOUS
 10
-3.75218514
 20
-0.9616525485
 11
-4.4730309432
 21
-0.355457261
  0
LINE
  5
2D2
100
AcDbEntity
  8
0
100
AcDbLine
 62
7
  6
CONTINUOUS
 10
-2.7149689501
 20
-1.6503017549
 11
-2.9982768511
 21
-1.4120539719
  0
LINE
  5
2D3
100
AcDbEntity
  8
DRAFT
100
AcDbLine
 62
7
  6
CONTINUOUS
 10
-2.7149689501
 20
-1.6503017549
 11
-2.9982768511
 21
-1.4120539719
  0
LWPOLYLINE
  5
2D4
100
AcDbEntity
  8
DRAFT
100
AcDbPolyline
 62
7
  6
CONTINUOUS
 90
4
 70
0
 10
-2.440493397
 20
-0.4171144579
 10
-2.431945898
 20
-0.4253919391
 10
-2.4229136824
 20
-0.4326845753
 10
-2.4134155454
 20
-0.4389741652
  0
LWPOLYLINE
  5
2D5
100
AcDbEntity
  8
0
100
AcDbPolyline
 62
7
  6
CONTINUOUS
 90
4
 70
0
 10
1.1172606555
 20
-3.5936881043
 10
1.1091605185
 20
-3.5839910831
 10
1.1004242461
 20
-3.575096171
 10
1.0915490743
 20
-3.5674998211
  0
LWPOLYLINE
  5
2D6
100
AcDbEntity
  8
DRAFT
100
AcDbPolyline
 62
7
  6
CONTINUOUS
 90
4
 70
0
 10
0.3841184867
 20
-3.8170340587
 10
0.392175002
 20
-3.826694889
 10
0.4008561865
 20
-3.8355483228
 10
0.4097662185
 20
-3.8431779107
  0
LWPOLYLINE
  5
2D7
100
AcDbEntity
  8
DRAFT
100
AcDbPolyline
 62
7
  6
CONTINUOUS
 90
13
 70
0
 10
0.1076366958
 20
-5.3365650771
 10
0.0997757712
 20
-5.3258181924
 10
0.0915922443
 20
-5.3162150097
 10
0.083086115
 20
-5.3077555292
 10
0.0741053318
 20
-5.3003391013
 10
0.0648019464
 20
-5.2940663756
 10
0.0556321131
 20
-5.2892393003
 10
0.0466021224
 20
-5.2859259691
 10
0.0377056838
 20
-5.2840582883
 10
0.0293800799
 20
-5.2837339257
 10
0.0217710715
 20
-5.2849854369
 10
0.0147328977
 20
-5.2877802663
 10
0.0127781016
 20
-5.2888012737
  0
LWPOLYLINE
  5
2D8
100
AcDbEntity
  8
0
100
AcDbPolyline
 62
7
  6
CONTINUOUS
 90
4
 70
0
 10
0.1076366959
 20
-5.3365650771
 10
0.099796655
 20
-5.3258371898
 10
0.0916256584
 20
-5.3162454056
 10
0.0831237058
 20
-5.3077897245
  0
LINE
  5
2D9
100
AcDbEntity
  8
0
100
AcDbLine
 62
7
  6
CONTINUOUS
 10
0.6857155695
 20
-6.2026351128
 11
0.1076366959
 21
-5.3365650771
  0
LINE
  5
2DA
100
AcDbEntity
  8
DRAFT
100
AcDbLine
 62
7
  6
CONTINUOUS
 10
0.6857155693
 20
-6.2026351126
 11
0.1076366958
 21
-5.3365650771
  0
LWPOLYLINE
  5
2DB
100
AcDbEntity
  8
DRAFT
100
AcDbPolyline
 62
7
  6
CONTINUOUS
 90
3
 70
0
 10
0.3699128806
 20
-3.7951944398
 10
0.3767033491
 20
-3.8065179475
 10
0.3841184867
 20
-3.8170340587
  0
LWPOLYLINE
  5
2DC
100
AcDbEntity
  8
0
100
AcDbPolyline
 62
7
  6
CONTINUOUS
 90
3
 70
0
 10
1.1314885311
 20
-3.6155701442
 10
1.124692661
 20
-3.6042280697
 10
1.1172606555
 20
-3.5936881043
  0
LINE
  5
2DD
100
AcDbEntity
  8
0
100
AcDbLine
 62
7
  6
CONTINUOUS
 10
-1.2871311979
 20
-1.8811350093
 11
-0.935195893
 21
-2.4907048378
  0
LINE
  5
2DE
100
AcDbEntity
  8
DRAFT
100
AcDbLine
 62
7
  6
CONTINUOUS
 10
-1.2871311981
 20
-1.8811350089
 11
-0.9351958929
 21
-2.490704838
  0
LINE
  5
2DF
100
AcDbEntity
  8
0
100
AcDbLine
 62
7
  6
CONTINUOUS
 10
-0.6351958932
 20
-2.3175220758
 11
-0.9249991637
 21
-1.8155680876
  0
LINE
  5
2E0
100
AcDbEntity
  8
DRAFT
100
AcDbLine
 62
7
  6
CONTINUOUS
 10
-0.6351958929
 20
-2.3175220765
 11
-0.9249991637
 21
-1.8155680876
  0
LINE
  5
2E1
100
AcDbEntity
  8
DRAFT
100
AcDbLine
 62
7
  6
CONTINUOUS
 10
0.3640823884
 20
-3.7835981132
 11
0.3699128806
 21
-3.7951944398
  0
LINE
  5
2E2
100
AcDbEntity
  8
0
100
AcDbLine
 62
7
  6
CONTINUOUS
 10
1.1372967448
 20
-3.6271240381
 11
1.1314885311
 21
-3.6155701442
  0
LWPOLYLINE
  5
2E3
100
AcDbEntity
  8
DRAFT
100
AcDbPolyline
 62
7
  6
CONTINUOUS
 90
4
 70
0
 10
-0.7788868286
 20
-2.809059185
 10
-0.8254899211
 20
-2.7021379262
 10
-0.8775929426
 20
-2.5960198105
 10
-0.9351958929
 20
-2.490704838
  0
LWPOLYLINE
  5
2E4
100
AcDbEntity
  8
DRAFT
100
AcDbPolyline
 62
7
  6
CONTINUOUS
 90
4
 70
0
 10
-0.1746941115
 20
-5.5321975052
 10
-0.1698160904
 20
-5.5437805798
 10
-0.1638761922
 20
-5.5553369238
 10
-0.1568851432
 20
-5.5668410673
  0
LWPOLYLINE
  5
2E5
100
AcDbEntity
  8
0
100
AcDbPolyline
 62
7
  6
CONTINUOUS
 90
4
 70
0
 10
0.7035163522
 20
-6.2372536884
 10
0.6986297061
 20
-6.2256507502
 10
0.6926961119
 20
-6.214111225
 10
0.6857155695
 20
-6.2026351128
  0
LWPOLYLINE
  5
2E6
100
AcDbEntity
  8
DRAFT
100
AcDbPolyline
 62
7
  6
CONTINUOUS
 90
7
 70
0
 10
-2.4787284212
 20
-0.350903806
 10
-2.474639708
 20
-0.3627630627
 10
-2.4694493199
 20
-0.3747204302
 10
-2.4634155454
 20
-0.3861909311
 10
-2.4564986591
 20
-0.3971516328
 10
-2.4487383863
 20
-0.4076254679
 10
-2.440512192
 20
-0.4170962566
  0
LWPOLYLINE
  5
2E7
100
AcDbEntity
  8
DRAFT
100
AcDbPolyline
 62
7
  6
CONTINUOUS
 90
4
 70
0
 10
-0.6720771241
 20
-3.1346418206
 10
-0.701730169
 20
-3.0267094737
 10
-0.7375585343
 20
-2.9174827578
 10
-0.7788693227
 20
-2.8091051112
  0
LWPOLYLINE
  5
2E8
100
AcDbEntity
  8
DRAFT
100
AcDbPolyline
 62
7
  6
CONTINUOUS
 90
4
 70
0
 10
0.3528003615
 20
-3.7479875654
 10
0.3555941346
 20
-3.7601135507
 10
0.3593582734
 20
-3.7719922414
 10
0.3640823884
 20
-3.7835981132
  0
LWPOLYLINE
  5
2E9
100
AcDbEntity
  8
0
100
AcDbPolyline
 62
7
  6
CONTINUOUS
 90
13
 70
0
 10
0.3528003615
 20
-3.7479875655
 10
0.3555815532
 20
-3.7600858244
 10
0.3593381426
 20
-3.7719478785
 10
0.3640701298
 20
-3.7835737278
 10
0.3698906021
 20
-3.7951520071
 10
0.3766864722
 20
-3.8064940816
 10
0.3841184777
 20
-3.817034047
 10
0.3922186147
 20
-3.8267310682
 10
0.4009548871
 20
-3.8356259803
 10
0.4098920446
 20
-3.8432753844
 10
0.4188850037
 20
-3.8495314808
 10
0.428078848
 20
-3.8545420693
 10
0.4374735773
 20
-3.8583071497
  0
LINE
  5
2EA
100
AcDbEntity
  8
0
100
AcDbLine
 62
7
  6
CONTINUOUS
 10
0.2898578117
 20
-3.3932465482
 11
0.3528003615
 21
-3.7479875655
  0
LINE
  5
2EB
100
AcDbEntity
  8
DRAFT
100
AcDbLine
 62
7
  6
CONTINUOUS
 10
0.2898578117
 20
-3.3932465483
 11
0.3528003615
 21
-3.7479875654
  0
LWPOLYLINE
  5
2EC
100
AcDbEntity
  8
0
100
AcDbPolyline
 62
7
  6
CONTINUOUS
 90
4
 70
0
 10
0.7118946012
 20
-6.2724429813
 10
0.7102431883
 20
-6.261046483
 10
0.7074032443
 20
-6.2491183792
 10
0.7035245377
 20
-6.2372786746
  0
LWPOLYLINE
  5
2ED
100
AcDbEntity
  8
DRAFT
100
AcDbPolyline
 62
7
  6
CONTINUOUS
 90
3
 70
0
 10
1.2131971994
 20
-4.0400359234
 10
1.2129464357
 20
-4.0292269117
 10
1.2115213215
 20
-4.017475603
  0
LWPOLYLINE
  5
2EE
100
AcDbEntity
  8
0
100
AcDbPolyline
 62
7
  6
CONTINUOUS
 90
4
 70
0
 10
1.2122951107
 20
-4.0497697639
 10
1.2132163095
 20
-4.0399178123
 10
1.2129583798
 20
-4.0291530921
 10
1.2115213215
 20
-4.0174756031
  0
LWPOLYLINE
  5
2EF
100
AcDbEntity
  8
0
100
AcDbPolyline
 62
7
  6
CONTINUOUS
 90
4
 70
0
 10
0.7095801455
 20
-6.3028283227
 10
0.7115113706
 20
-6.2935872809
 10
0.7122972514
 20
-6.2832809339
 10
0.7118946012
 20
-6.2724429813
  0
LWPOLYLINE
  5
2F0
100
AcDbEntity
  8
0
100
AcDbPolyline
 62
7
  6
CONTINUOUS
 90
4
 70
0
 10
0.2945747133
 20
-3.3437157818
 10
0.2912398036
 20
-3.3518777003
 10
0.2890840226
 20
-3.3609523874
 10
0.2881628237
 20
-3.3708043389
  0
LWPOLYLINE
  5
2F1
100
AcDbEntity
  8
DRAFT
100
AcDbPolyline
 62
7
  6
CONTINUOUS
 90
4
 70
0
 10
1.2067948953
 20
-4.0670512281
 10
1.2101214292
 20
-4.0589480815
 10
1.2122736125
 20
-4.0499026379
 10
1.2131971994
 20
-4.0400359234
  0
LWPOLYLINE
  5
2F2
100
AcDbEntity
  8
0
100
AcDbPolyline
 62
7
  6
CONTINUOUS
 90
4
 70
0
 10
1.2024567426
 20
-4.0738490062
 10
1.2068044199
 20
-4.0670063694
 10
1.2101393296
 20
-4.058844451
 10
1.2122801588
 20
-4.0498327035
  0
LWPOLYLINE
  5
2F3
100
AcDbEntity
  8
DRAFT
100
AcDbPolyline
 62
7
  6
CONTINUOUS
 90
4
 70
0
 10
0.298922385
 20
-3.3368731521
 10
0.2945842379
 20
-3.3436709232
 10
0.2912577041
 20
-3.3517740697
 10
0.2891055208
 20
-3.3608195134
  0
LWPOLYLINE
  5
2F4
100
AcDbEntity
  8
DRAFT
100
AcDbPolyline
 62
7
  6
CONTINUOUS
 90
4
 70
0
 10
-0.8113242686
 20
-4.1679433971
 10
-0.7660628704
 20
-4.1121069621
 10
-0.7260146932
 20
-4.0488080394
 10
-0.6921307054
 20
-3.9795629132
  0
LWPOLYLINE
  5
2F5
100
AcDbEntity
  8
DRAFT
100
AcDbPolyline
 62
7
  6
CONTINUOUS
 90
4
 70
0
 10
-0.168082334
 20
-5.4456357405
 10
-0.1734588669
 20
-5.4516081193
 10
-0.1776835761
 20
-5.4586180437
 10
-0.1807497193
 20
-5.4666478571
  0
LWPOLYLINE
  5
2F6
100
AcDbEntity
  8
0
100
AcDbPolyline
 62
7
  6
CONTINUOUS
 90
13
 70
0
 10
-0.1680823342
 20
-5.4456357406
 10
-0.1734528571
 20
-5.4515874756
 10
-0.1776739603
 20
-5.4585850137
 10
-0.1807456437
 20
-5.4666283551
 10
-0.1826809444
 20
-5.4758888989
 10
-0.1834668253
 20
-5.486195246
 10
-0.183064175
 20
-5.4970331985
 10
-0.1814127621
 20
-5.5084296968
 10
-0.1785728182
 20
-5.5203578006
 10
-0.174685926
 20
-5.5322224914
 10
-0.1697992799
 20
-5.5438254297
 10
-0.1638656856
 20
-5.555364955
 10
-0.1568851431
 20
-5.5668410673
  0
LINE
  5
2F7
100
AcDbEntity
  8
0
100
AcDbLine
 62
7
  6
CONTINUOUS
 10
0.0082655586
 20
-5.2921184137
 11
-0.1680823342
 21
-5.4456357406
  0
LINE
  5
2F8
100
AcDbEntity
  8
DRAFT
100
AcDbLine
 62
7
  6
CONTINUOUS
 10
0.0082655586
 20
-5.2921184137
 11
-0.168082334
 21
-5.4456357405
  0
LWPOLYLINE
  5
2F9
100
AcDbEntity
  8
0
100
AcDbPolyline
 62
7
  6
CONTINUOUS
 90
7
 70
0
 10
-1.8966142246
 20
-5.2479930076
 10
-1.9020254942
 20
-5.2521335442
 10
-1.9072212016
 20
-5.2581120135
 10
-1.9113119053
 20
-5.2652572085
 10
-1.9142111832
 20
-5.2734697516
 10
-1.9160054574
 20
-5.2828490206
 10
-1.916694728
 20
-5.2933950153
  0
LWPOLYLINE
  5
2FA
100
AcDbEntity
  8
DRAFT
100
AcDbPolyline
 62
7
  6
CONTINUOUS
 90
4
 70
0
 10
-1.8966141737
 20
-5.2479929767
 10
-1.9020178244
 20
-5.2521227837
 10
-1.9072082125
 20
-5.2580864212
 10
-1.9112969257
 20
-5.2652241343
  0
LINE
  5
2FB
100
AcDbEntity
  8
0
100
AcDbLine
 62
7
  6
CONTINUOUS
 10
0.0127774288
 20
-5.2888016866
 11
0.0082655586
 21
-5.2921184137
  0
LINE
  5
2FC
100
AcDbEntity
  8
DRAFT
100
AcDbLine
 62
7
  6
CONTINUOUS
 10
0.0127781016
 20
-5.2888012737
 11
0.0082655586
 21
-5.2921184137
  0
LWPOLYLINE
  5
2FD
100
AcDbEntity
  8
0
100
AcDbPolyline
 62
7
  6
CONTINUOUS
 90
4
 70
0
 10
-1.5137745595
 20
-6.4382334139
 10
-1.5070998931
 20
-6.4333634048
 10
-1.5019041858
 20
-6.4273849356
 10
-1.4978220968
 20
-6.4202547877
  0
LWPOLYLINE
  5
2FE
100
AcDbEntity
  8
DRAFT
100
AcDbPolyline
 62
7
  6
CONTINUOUS
 90
6
 70
0
 10
-1.5137745077
 20
-6.4382333855
 10
-1.507107563
 20
-6.4333741653
 10
-1.5019171749
 20
-6.4274105279
 10
-1.4978284616
 20
-6.4202728147
 10
-1.4949275194
 20
-6.4120565967
 10
-1.4931282519
 20
-6.4026663031
  0
LWPOLYLINE
  5
2FF
100
AcDbEntity
  8
DRAFT
100
AcDbPolyline
 62
7
  6
CONTINUOUS
 90
3
 70
0
 10
0.3081683835
 20
-3.3286494887
 10
0.3043219706
 20
-3.3314288176
 10
0.298922385
 20
-3.3368731521
  0
LWPOLYLINE
  5
300
100
AcDbEntity
  8
0
100
AcDbPolyline
 62
7
  6
CONTINUOUS
 90
4
 70
0
 10
0.3081697999
 20
-3.3286486293
 10
0.3043342006
 20
-3.331416392
 10
0.2989223906
 20
-3.336873145
 10
0.2945747133
 20
-3.3437157818
  0
LWPOLYLINE
  5
301
100
AcDbEntity
  8
DRAFT
100
AcDbPolyline
 62
7
  6
CONTINUOUS
 90
4
 70
0
 10
1.1919917739
 20
-4.0827775444
 10
1.1970571626
 20
-4.0792933336
 10
1.2024567482
 20
-4.0738489991
 10
1.2067948953
 20
-4.0670512281
  0
LWPOLYLINE
  5
302
100
AcDbEntity
  8
0
100
AcDbPolyline
 62
7
  6
CONTINUOUS
 90
3
 70
0
 10
1.1919904669
 20
-4.0827782637
 10
1.1970449326
 20
-4.0793057593
 10
1.2024567426
 20
-4.0738490062
  0
LWPOLYLINE
  5
303
100
AcDbEntity
  8
0
100
AcDbPolyline
 62
7
  6
CONTINUOUS
 90
22
 70
0
 10
-0.925583613
 20
-4.2617347454
 10
-0.9175693326
 20
-4.2566748214
 10
-0.8616462468
 20
-4.2158327123
 10
-0.8110471806
 20
-4.1676431624
 10
-0.7658663431
 20
-4.1119738307
 10
-0.7260095253
 20
-4.0489570582
 10
-0.6921862257
 20
-3.9797145003
 10
-0.6645048965
 20
-3.9041360863
 10
-0.6428570855
 20
-3.822331887
 10
-0.6276269341
 20
-3.7357537697
 10
-0.6189289416
 20
-3.6443150858
 10
-0.6166486087
 20
-3.5481024838
 10
-0.6208265797
 20
-3.4488277765
 10
-0.6315782921
 20
-3.3464373962
 10
-0.6487883085
 20
-3.2409849106
 10
-0.6721509608
 20
-3.1343428349
 10
-0.7017763967
 20
-3.0264890141
 10
-0.7375544685
 20
-2.9174456032
 10
-0.7788490651
 20
-2.8091515821
 10
-0.8254481495
 20
-2.7022532775
 10
-0.8775637588
 20
-2.5961043627
 10
-0.935195893
 20
-2.4907048378
  0
LWPOLYLINE
  5
304
100
AcDbEntity
  8
DRAFT
100
AcDbPolyline
 62
7
  6
CONTINUOUS
 90
24
 70
0
 10
-0.6483274349
 20
-4.7944359334
 10
-0.5841945196
 20
-4.7544534104
 10
-0.5165350335
 20
-4.7013028823
 10
-0.4549002414
 20
-4.639845021
 10
-0.3990497279
 20
-4.5700659968
 10
-0.3495816274
 20
-4.4927232796
 10
-0.3064811298
 20
-4.4075353705
 10
-0.2697630451
 20
-4.3147837683
 10
-0.2400699374
 20
-4.2160704395
 10
-0.2175587955
 20
-4.1115028624
 10
-0.2020726305
 20
-4.0009735586
 10
-0.1937830403
 20
-3.8857620596
 10
-0.1927782187
 20
-3.7656117267
 10
-0.1989699719
 20
-3.6407791986
 10
-0.2122653164
 20
-3.5133139228
 10
-0.2327518462
 20
-3.3833426811
 10
-0.2603419672
 20
-3.2507386916
 10
-0.2946799146
 20
-3.1171710565
 10
-0.3358880085
 20
-2.9825052101
 10
-0.3838439288
 20
-2.8468757181
 10
-0.4378249499
 20
-2.7123553788
 10
-0.4975901633
 20
-2.5796351252
 10
-0.5633804777
 20
-2.4480240244
 10
-0.6351958929
 20
-2.3175220765
  0
LWPOLYLINE
  5
305
100
AcDbEntity
  8
DRAFT
100
AcDbPolyline
 62
7
  6
CONTINUOUS
 90
4
 70
0
 10
-0.9255833067
 20
-4.2617345595
 10
-0.9173829728
 20
-4.256669136
 10
-0.8617470101
 20
-4.2160375104
 10
-0.8113242686
 20
-4.1679433971
  0
LWPOLYLINE
  5
306
100
AcDbEntity
  8
0
100
AcDbPolyline
 62
7
  6
CONTINUOUS
 90
23
 70
0
 10
-0.6485945661
 20
-4.7945826284
 10
-0.5878242782
 20
-4.7571547588
 10
-0.5169221988
 20
-4.7015295505
 10
-0.451890433
 20
-4.6363259607
 10
-0.3937486071
 20
-4.5625666799
 10
-0.3426051823
 20
-4.4801164356
 10
-0.2983516975
 20
-4.3891105002
 10
-0.2616823964
 20
-4.2909773822
 10
-0.2327170548
 20
-4.1856052014
 10
-0.2113358969
 20
-4.073105838
 10
-0.1978738385
 20
-3.9552434409
 10
-0.1924557271
 20
-3.8319328949
 10
-0.1949567153
 20
-3.7032593152
 10
-0.2053371761
 20
-3.5712421969
 10
-0.2237213186
 20
-3.4358294608
 10
-0.2499849337
 20
-3.2970731859
 10
-0.2837157678
 20
-3.1571491047
 10
-0.3250316608
 20
-3.0160383897
 10
-0.3738147727
 20
-2.8737598683
 10
-0.4292993293
 20
-2.7325457547
 10
-0.4912300726
 20
-2.5931401206
 10
-0.5598622605
 20
-2.4547988942
 10
-0.6351958932
 20
-2.3175220758
  0
LINE
  5
307
100
AcDbEntity
  8
DRAFT
100
AcDbLine
 62
250
  6
CONTINUOUS
 10
0.0130361115
 20
-5.2892269591
 11
0.0082655586
 21
-5.2921184137
  0
LINE
  5
308
100
AcDbEntity
  8
DRAFT
100
AcDbLine
 62
7
  6
CONTINUOUS
 10
1.1906459637
 20
-4.0834322927
 11
1.1919917739
 21
-4.0827775444
  0
LWPOLYLINE
  5
309
100
AcDbEntity
  8
DRAFT
100
AcDbPolyline
 62
7
  6
CONTINUOUS
 90
3
 70
0
 10
-0.7355469479
 20
-4.8349920194
 10
-0.6576382843
 20
-4.7992827757
 10
-0.6483274349
 20
-4.7944359334
  0
LWPOLYLINE
  5
30A
100
AcDbEntity
  8
0
100
AcDbPolyline
 62
7
  6
CONTINUOUS
 90
3
 70
0
 10
0.3178606787
 20
-3.3246729375
 10
0.3107587782
 20
-3.3272789205
 10
0.3081697999
 20
-3.3286486293
  0
LINE
  5
30B
100
AcDbEntity
  8
DRAFT
100
AcDbLine
 62
7
  6
CONTINUOUS
 10
1.1835184545
 20
-4.0860492138
 11
1.1906459637
 21
-4.0834322927
  0
LINE
  5
30C
100
AcDbEntity
  8
RACCORDO
100
AcDbLine
 62
7
  6
CONTINUOUS
 10
16.4424060906
 20
2.3713179403
 11
15.4298153802
 21
2.0139713557
  0
LINE
  5
30D
100
AcDbEntity
  8
RACCORDO
100
AcDbLine
 62
250
  6
CONTINUOUS
 10
16.4999168554
 20
2.3560421314
 11
15.4298153802
 21
1.9784566774
  0
LWPOLYLINE
  5
30E
100
AcDbEntity
  8
DRAFT
100
AcDbPolyline
 62
7
  6
CONTINUOUS
 90
3
 70
0
 10
-3.793243874
 20
-1.4050773862
 10
-3.7858287364
 20
-1.4031240902
 10
-3.7814934658
 20
-1.4011804692
  0
LWPOLYLINE
  5
30F
100
AcDbEntity
  8
0
100
AcDbPolyline
 62
7
  6
CONTINUOUS
 90
4
 70
0
 10
-4.500612476
 20
-0.3386385637
 10
-4.5095496335
 20
-0.3359675624
 10
-4.5182859059
 20
-0.3347740461
 10
-4.5263860428
 20
-0.3351172322
  0
LWPOLYLINE
  5
310
100
AcDbEntity
  8
0
100
AcDbPolyline
 62
7
  6
CONTINUOUS
 90
9
 70
0
 10
-2.2719941892
 20
-0.0307469178
 10
-2.2945602418
 20
-0.0191811047
 10
-2.3164120649
 20
-0.0105606092
 10
-2.3375496585
 20
-0.0048854315
 10
-2.3581863561
 20
-0.0021576933
 10
-2.3781088242
 20
-0.0023752728
 10
-2.3966770621
 20
-0.0055318046
 10
-2.4138490291
 20
-0.0117240501
 10
-2.4238262103
 20
-0.016964119
  0
LWPOLYLINE
  5
311
100
AcDbEntity
  8
DRAFT
100
AcDbPolyline
 62
7
  6
CONTINUOUS
 90
14
 70
0
 10
-2.2719941892
 20
-0.0307469178
 10
-2.2859658691
 20
-0.0232228828
 10
-2.2997608381
 20
-0.0168266654
 10
-2.3133790961
 20
-0.0115582655
 10
-2.3268772831
 20
-0.0074048187
 10
-2.3401987592
 20
-0.0043791895
 10
-2.3531736042
 20
-0.0025199707
 10
-2.3657973779
 20
-0.0018421039
 10
-2.3780745206
 20
-0.0023306476
 10
-2.389848433
 20
-0.0039793702
 10
-2.4011126688
 20
-0.0068031334
 10
-2.4118736743
 20
-0.0107870755
 10
-2.4219941892
 20
-0.01588038
 10
-2.4238509113
 20
-0.0169790929
  0
LINE
  5
312
100
AcDbEntity
  8
0
100
AcDbLine
 62
7
  6
CONTINUOUS
 10
-1.1371311981
 20
-0.6860025857
 11
-2.2719941892
 21
-0.0307469178
  0
LINE
  5
313
100
AcDbEntity
  8
DRAFT
100
AcDbLine
 62
7
  6
CONTINUOUS
 10
-1.1371311981
 20
-0.6860025857
 11
-2.2719941892
 21
-0.0307469178
  0
LINE
  5
314
100
AcDbEntity
  8
0
100
AcDbLine
 62
7
  6
CONTINUOUS
 10
16.099889676
 20
-8.8195649317
 11
16.8069964571
 21
-9.227839525
  0
LWPOLYLINE
  5
315
100
AcDbEntity
  8
DRAFT
100
AcDbPolyline
 62
7
  6
CONTINUOUS
 90
13
 70
0
 10
1.1485787717
 20
-3.6627345859
 10
1.1457849987
 20
-3.6506086006
 10
1.1420208599
 20
-3.6387299099
 10
1.1372863552
 20
-3.6270985137
 10
1.1314662526
 20
-3.6155277114
 10
1.1246757842
 20
-3.6042042037
 10
1.1172606465
 20
-3.5936880926
 10
1.1092041313
 20
-3.5840272622
 10
1.1005229468
 20
-3.5751738284
 10
1.0916129148
 20
-3.5675442405
 10
1.0826059759
 20
-3.5612773149
 10
1.0733701896
 20
-3.5562342353
 10
1.0639055559
 20
-3.5524150015
  0
LWPOLYLINE
  5
316
100
AcDbEntity
  8
0
100
AcDbPolyline
 62
7
  6
CONTINUOUS
 90
4
 70
0
 10
1.1485787718
 20
-3.6627345863
 10
1.1457975801
 20
-3.6506363272
 10
1.1420409907
 20
-3.6387742729
 10
1.1373090035
 20
-3.6271484235
  0
LINE
  5
317
100
AcDbEntity
  8
0
100
AcDbLine
 62
7
  6
CONTINUOUS
 10
1.2115213215
 20
-4.0174756031
 11
1.1485787718
 21
-3.6627345863
  0
LINE
  5
318
100
AcDbEntity
  8
DRAFT
100
AcDbLine
 62
7
  6
CONTINUOUS
 10
1.2115213215
 20
-4.017475603
 11
1.1485787717
 21
-3.6627345859
  0
LWPOLYLINE
  5
319
100
AcDbEntity
  8
DRAFT
100
AcDbPolyline
 62
7
  6
CONTINUOUS
 90
13
 70
0
 10
0.6969127602
 20
-6.3238404394
 10
0.7022892931
 20
-6.3178680606
 10
0.7065140022
 20
-6.3108581361
 10
0.7095868876
 20
-6.302810666
 10
0.7115190839
 20
-6.2935565109
 10
0.7122994565
 20
-6.2832648101
 10
0.7118946012
 20
-6.2724429814
 10
0.7102486909
 20
-6.2610660543
 10
0.7074175528
 20
-6.2491589992
 10
0.7035352639
 20
-6.2373041446
 10
0.6986465165
 20
-6.2256956001
 10
0.6927066183
 20
-6.2141392561
 10
0.6857155693
 20
-6.2026351126
  0
LWPOLYLINE
  5
31A
100
AcDbEntity
  8
0
100
AcDbPolyline
 62
7
  6
CONTINUOUS
 90
4
 70
0
 10
0.6969127602
 20
-6.3238404394
 10
0.7022832833
 20
-6.3178887043
 10
0.7065043865
 20
-6.3108911661
 10
0.7095760699
 20
-6.3028478247
  0
LINE
  5
31B
100
AcDbEntity
  8
0
100
AcDbLine
 62
7
  6
CONTINUOUS
 10
0.5205648676
 20
-6.4773577661
 11
0.6969127602
 21
-6.3238404394
  0
LINE
  5
31C
100
AcDbEntity
  8
DRAFT
100
AcDbLine
 62
7
  6
CONTINUOUS
 10
0.5205648676
 20
-6.4773577661
 11
0.6969127602
 21
-6.3238404394
  0
LINE
  5
31D
100
AcDbEntity
  8
0
100
AcDbLine
 62
7
  6
CONTINUOUS
 10
0.5148408177
 20
-6.481383817
 11
0.5205648676
 21
-6.4773577661
  0
LINE
  5
31E
100
AcDbEntity
  8
DRAFT
100
AcDbLine
 62
7
  6
CONTINUOUS
 10
0.514840157
 20
-6.4813841852
 11
0.5205648676
 21
-6.4773577661
  0
LINE
  5
31F
100
AcDbEntity
  8
DRAFT
100
AcDbLine
 62
7
  6
CONTINUOUS
 10
14.9722220746
 20
1.1702091654
 11
15.4298153802
 21
1.4486269788
  0
LINE
  5
320
100
AcDbEntity
  8
0
100
AcDbLine
 62
7
  6
CONTINUOUS
 10
0.520937427
 20
-6.4780360984
 11
0.514662241
 21
-6.481482609
  0
LINE
  5
321
100
AcDbEntity
  8
DRAFT
100
AcDbLine
 62
7
  6
CONTINUOUS
 10
17.2025358139
 20
1.9253978416
 11
16.8843377624
 21
1.760929502
  0
LINE
  5
322
100
AcDbEntity
  8
RACCORDO
100
AcDbLine
 62
7
  6
CONTINUOUS
 10
16.3266602266
 20
1.8595603095
 11
15.4298153802
 21
1.4601442919
  0
LWPOLYLINE
  5
323
100
AcDbEntity
  8
0
100
AcDbPolyline
 62
7
  6
CONTINUOUS
 90
3
 70
0
 10
-4.5263860428
 20
-0.3351172322
 10
-4.5338180484
 20
-0.3370749039
 10
-4.5393576203
 20
-0.3397182125
  0
LINE
  5
324
100
AcDbEntity
  8
DRAFT
100
AcDbLine
 62
7
  6
CONTINUOUS
 10
16.8843377624
 20
-0.6430765211
 11
16.3266602266
 21
-0.5691501817
  0
LINE
  5
325
100
AcDbEntity
  8
RACCORDO
100
AcDbLine
 62
7
  6
CONTINUOUS
 10
16.3266602266
 20
-0.5691501817
 11
15.1952893767
 21
-1.2009910022
  0
LINE
  5
326
100
AcDbEntity
  8
DRAFT
100
AcDbLine
 62
7
  6
CONTINUOUS
 10
16.8843377624
 20
1.760929502
 11
16.3266602266
 21
1.8595603095
  0
LINE
  5
327
100
AcDbEntity
  8
RACCORDO
100
AcDbLine
 62
7
  6
CONTINUOUS
 10
15.4298153802
 20
-2.6337244052
 11
15.3367107329
 21
-2.5799669487
  0
LINE
  5
328
100
AcDbEntity
  8
DRAFT
100
AcDbLine
 62
7
  6
CONTINUOUS
 10
17.2025358139
 20
-0.4400977268
 11
16.8843377624
 21
-0.6430765211
  0
LINE
  5
329
100
AcDbEntity
  8
DRAFT
100
AcDbLine
 62
7
  6
CONTINUOUS
 10
14.9722220746
 20
-2.9121422186
 11
15.4298153802
 21
-2.6337244052
  0
LINE
  5
32A
100
AcDbEntity
  8
RACCORDO
100
AcDbLine
 62
250
  6
CONTINUOUS
 10
15.1952893767
 20
-2.3350179747
 11
14.9722220746
 21
-2.4638142392
  0
LINE
  5
32B
100
AcDbEntity
  8
RACCORDO
100
AcDbLine
 62
250
  6
CONTINUOUS
 10
15.3367107329
 20
-2.5799669487
 11
14.9722220746
 21
-2.7904181319
  0
LWPOLYLINE
  5
32C
100
AcDbEntity
  8
0
100
AcDbPolyline
 62
250
  6
CONTINUOUS
 90
9
 70
0
 10
13.6844956789
 20
-33.1120386736
 10
13.6863685158
 20
-33.1529208465
 10
13.6919671852
 20
-33.1912071936
 10
13.7012323727
 20
-33.2264920952
 10
13.7140659195
 20
-33.2584017302
 10
13.7303318623
 20
-33.2865980362
 10
13.7498578737
 20
-33.3107822913
 10
13.772437088
 20
-33.3306982786
 10
13.7880369894
 20
-33.3409071041
  0
LINE
  5
32D
100
AcDbEntity
  8
0
100
AcDbLine
 62
7
  6
CONTINUOUS
 10
15.4298153802
 20
-9.0700314444
 11
16.099889676
 21
-8.8195649317
  0
LWPOLYLINE
  5
32E
100
AcDbEntity
  8
RACCORDO
100
AcDbPolyline
 62
250
  6
CONTINUOUS
 90
22
 70
0
 10
16.6904693862
 20
2.3636761469
 10
16.6828899374
 20
2.366861359
 10
16.6751063339
 20
2.369702725
 10
16.6671272906
 20
2.3721961488
 10
16.6589596186
 20
2.3743391071
 10
16.6506106265
 20
2.376129312
 10
16.6420900325
 20
2.377563506
 10
16.6334047461
 20
2.3786402764
 10
16.6245630317
 20
2.3793583532
 10
16.6155769613
 20
2.3797154361
 10
16.6064545697
 20
2.3797113604
 10
16.5972040769
 20
2.3793462782
 10
16.5878381651
 20
2.3786193117
 10
16.5783656731
 20
2.377531655
 10
16.5687948579
 20
2.3760847463
 10
16.5591377519
 20
2.3742788725
 10
16.5494031355
 20
2.3721163186
 10
16.5395998762
 20
2.3695997244
 10
16.5297402691
 20
2.3667305592
 10
16.5198344274
 20
2.3635117351
 10
16.5098902654
 20
2.3599475487
 10
16.4999168554
 20
2.3560421314
  0
LINE
  5
32F
100
AcDbEntity
  8
RACCORDO
100
AcDbLine
 62
250
  6
CONTINUOUS
 10
16.7055263122
 20
2.355978977
 11
16.6978380296
 21
2.3601503625
  0
LWPOLYLINE
  5
330
100
AcDbEntity
  8
RACCORDO
100
AcDbPolyline
 62
7
  6
CONTINUOUS
 90
10
 70
0
 10
16.7055749726
 20
2.3559508042
 10
16.7010798761
 20
2.358489526
 10
16.6730333412
 20
2.3719113692
 10
16.6434542404
 20
2.3821006552
 10
16.61267747
 20
2.3889813481
 10
16.5807701134
 20
2.3925464885
 10
16.5479931891
 20
2.3927396699
 10
16.5145968139
 20
2.3895318876
 10
16.4805268423
 20
2.3828432658
 10
16.4424228481
 20
2.3713239456
  0
LINE
  5
331
100
AcDbEntity
  8
RACCORDO
100
AcDbLine
 62
250
  6
CONTINUOUS
 10
17.2025358139
 20
1.9503587506
 11
16.4999168554
 21
2.3560421314
  0
LINE
  5
332
100
AcDbEntity
  8
RACCORDO
100
AcDbLine
 62
7
  6
CONTINUOUS
 10
17.2025358139
 20
2.0690119197
 11
16.7055261705
 21
2.3559790588
  0
LWPOLYLINE
  5
333
100
AcDbEntity
  8
RACCORDO
100
AcDbPolyline
 62
7
  6
CONTINUOUS
 90
16
 70
0
 10
15.1952893767
 20
-23.9714803097
 10
15.1961337315
 20
-23.9893368689
 10
15.1984409495
 20
-24.0074892403
 10
15.2022110305
 20
-24.0259374241
 10
15.2075168005
 20
-24.0448885033
 10
15.2142854336
 20
-24.0641353949
 10
15.2222984524
 20
-24.083056849
 10
15.2315964599
 20
-24.1016422471
 10
15.2421388531
 20
-24.1199022077
 10
15.2535853454
 20
-24.1372473373
 10
15.2659654366
 20
-24.1536477858
 10
15.279249627
 20
-24.1691334034
 10
15.2930091305
 20
-24.1832043463
 10
15.3071010183
 20
-24.195694
 10
15.3216682191
 20
-24.2067689792
 10
15.3367107329
 20
-24.2164292837
  0
LINE
  5
334
100
AcDbEntity
  8
0
100
AcDbLine
 62
250
  6
CONTINUOUS
 10
13.6844956789
 20
9.0397336086
 11
13.6844956789
 21
-33.1120386736
  0
LINE
  5
335
100
AcDbEntity
  8
0
100
AcDbLine
 62
250
  6
CONTINUOUS
 10
14.3822263573
 20
9.0344598699
 11
14.3822263573
 21
-33.1173124123
  0
LINE
  5
336
100
AcDbEntity
  8
DRAFT
100
AcDbLine
 62
7
  6
CONTINUOUS
 10
15.4298153802
 20
-9.7778393271
 11
16.8069964571
 21
-9.227839525
  0
LWPOLYLINE
  5
337
100
AcDbEntity
  8
RACCORDO
100
AcDbPolyline
 62
250
  6
CONTINUOUS
 90
7
 70
0
 10
16.4999168554
 20
2.3560421314
 10
16.4886230676
 20
2.3640157153
 10
16.4772955959
 20
2.369689715
 10
16.4661260188
 20
2.3729681676
 10
16.4553032448
 20
2.3737956255
 10
16.4450103165
 20
2.372158094
 10
16.4424228481
 20
2.3713239456
  0
LWPOLYLINE
  5
338
100
AcDbEntity
  8
0
100
AcDbPolyline
 62
250
  6
CONTINUOUS
 90
19
 70
0
 10
14.3822263573
 20
9.0344598699
 10
14.3800813815
 20
9.0704574503
 10
14.3753201759
 20
9.1077867286
 10
14.3679779851
 20
9.1461627184
 10
14.3581074638
 20
9.1853006112
 10
14.3457843564
 20
9.2248929304
 10
14.3311120783
 20
9.2646111822
 10
14.3142157602
 20
9.3041306884
 10
14.2952204754
 20
9.343171093
 10
14.2742534259
 20
9.3814712107
 10
14.2514503026
 20
9.4187712327
 10
14.2270018482
 20
9.454748146
 10
14.2011417832
 20
9.4890631625
 10
14.1740725509
 20
9.5214620211
 10
14.1460058194
 20
9.5517050699
 10
14.1172145904
 20
9.5795206493
 10
14.0879421777
 20
9.6047074163
 10
14.0583945188
 20
9.6271211025
 10
14.0287941191
 20
9.6466224594
  0
LWPOLYLINE
  5
339
100
AcDbEntity
  8
RACCORDO
100
AcDbPolyline
 62
7
  6
CONTINUOUS
 90
16
 70
0
 10
15.1952893767
 20
-2.3350179747
 10
15.1961337315
 20
-2.3528745339
 10
15.1984409495
 20
-2.3710269053
 10
15.2022110305
 20
-2.3894750891
 10
15.2075168005
 20
-2.4084261683
 10
15.2142854336
 20
-2.4276730599
 10
15.2222984524
 20
-2.446594514
 10
15.2315964599
 20
-2.4651799121
 10
15.2421388531
 20
-2.4834398727
 10
15.2535853454
 20
-2.5007850023
 10
15.2659654366
 20
-2.5171854508
 10
15.279249627
 20
-2.5326710683
 10
15.2930091305
 20
-2.5467420113
 10
15.3071010183
 20
-2.559231665
 10
15.3216682191
 20
-2.5703066442
 10
15.3367107329
 20
-2.5799669487
  0
LINE
  5
33A
100
AcDbEntity
  8
0
100
AcDbLine
 62
7
  6
CONTINUOUS
 10
14.9722220746
 20
-32.8114256661
 11
14.9722220746
 21
9.3751143226
  0
LINE
  5
33B
100
AcDbEntity
  8
RACCORDO
100
AcDbLine
 62
7
  6
CONTINUOUS
 10
15.1952893767
 20
-23.9714803097
 11
15.1952893767
 21
-20.3305302259
  0
LINE
  5
33C
100
AcDbEntity
  8
RACCORDO
100
AcDbLine
 62
7
  6
CONTINUOUS
 10
15.1952893767
 20
-2.3350179747
 11
15.1952893767
 21
1.3059321091
  0
LINE
  5
33D
100
AcDbEntity
  8
RACCORDO
100
AcDbLine
 62
7
  6
CONTINUOUS
 10
15.4298153802
 20
-32.4659721988
 11
15.4298153802
 21
-24.2701867402
  0
LINE
  5
33E
100
AcDbEntity
  8
DRAFT
100
AcDbLine
 62
7
  6
CONTINUOUS
 10
15.4298153802
 20
-20.1878353562
 11
15.4298153802
 21
-13.0437204343
  0
LINE
  5
33F
100
AcDbEntity
  8
DRAFT
100
AcDbLine
 62
7
  6
CONTINUOUS
 10
15.4298153802
 20
-9.7778393271
 11
15.4298153802
 21
-2.6337244052
  0
LINE
  5
340
100
AcDbEntity
  8
RACCORDO
100
AcDbLine
 62
7
  6
CONTINUOUS
 10
15.4298153802
 20
1.4486269788
 11
15.4298153802
 21
9.6444124374
  0
LINE
  5
341
100
AcDbEntity
  8
DRAFT
100
AcDbLine
 62
7
  6
CONTINUOUS
 10
16.3266602266
 20
1.8595603095
 11
16.3266602266
 21
-0.5691501817
  0
LINE
  5
342
100
AcDbEntity
  8
DRAFT
100
AcDbLine
 62
7
  6
CONTINUOUS
 10
16.3266602266
 20
-22.2056125168
 11
16.3266602266
 21
-19.7769020255
  0
LINE
  5
343
100
AcDbEntity
  8
DRAFT
100
AcDbLine
 62
7
  6
CONTINUOUS
 10
16.8069964571
 20
-9.227839525
 11
16.8069964571
 21
-11.9178576772
  0
LINE
  5
344
100
AcDbEntity
  8
DRAFT
100
AcDbLine
 62
7
  6
CONTINUOUS
 10
16.8843377624
 20
1.760929502
 11
16.8843377624
 21
-0.6430765211
  0
LINE
  5
345
100
AcDbEntity
  8
DRAFT
100
AcDbLine
 62
7
  6
CONTINUOUS
 10
16.8843377624
 20
-22.2795388562
 11
16.8843377624
 21
-19.875532833
  0
LINE
  5
346
100
AcDbEntity
  8
RACCORDO
100
AcDbLine
 62
7
  6
CONTINUOUS
 10
17.2025358139
 20
2.0689647589
 11
17.2025358139
 21
1.9253978416
  0
LINE
  5
347
100
AcDbEntity
  8
DRAFT
100
AcDbLine
 62
7
  6
CONTINUOUS
 10
17.2025358139
 20
1.9253978416
 11
17.2025358139
 21
-0.4400977268
  0
LINE
  5
348
100
AcDbEntity
  8
RACCORDO
100
AcDbLine
 62
7
  6
CONTINUOUS
 10
17.2025358139
 20
-19.5674975761
 11
17.2025358139
 21
-19.7110644934
  0
LINE
  5
349
100
AcDbEntity
  8
DRAFT
100
AcDbLine
 62
7
  6
CONTINUOUS
 10
17.2025358139
 20
-22.0765600618
 11
17.2025358139
 21
-19.7110644934
  0
LWPOLYLINE
  5
34A
100
AcDbEntity
  8
0
100
AcDbPolyline
 62
250
  6
CONTINUOUS
 90
11
 70
0
 10
14.3822263573
 20
-33.1173124123
 10
14.380085694
 20
-33.1525743798
 10
14.3753361453
 20
-33.1859704389
 10
14.3680138672
 20
-33.2172458072
 10
14.3581746053
 20
-33.2461619575
 10
14.3458933633
 20
-33.2724981488
 10
14.3312639116
 20
-33.296053199
 10
14.3143966114
 20
-33.3166487507
 10
14.2954210757
 20
-33.3341259663
 10
14.2744868072
 20
-33.3483487996
 10
14.2682993965
 20
-33.3517310222
  0
LINE
  5
34B
100
AcDbEntity
  8
0
100
AcDbLine
 62
250
  6
CONTINUOUS
 10
13.6844956789
 20
9.0397336086
 11
-17.0936210662
 21
26.8106324768
  0
LINE
  5
34C
100
AcDbEntity
  8
DRAFT
100
AcDbLine
 62
7
  6
CONTINUOUS
 10
15.4298153802
 20
-13.0437204343
 11
16.8069964571
 21
-11.9178576772
  0
LINE
  5
34D
100
AcDbEntity
  8
0
100
AcDbLine
 62
250
  6
CONTINUOUS
 10
14.0287941206
 20
9.6466224603
 11
-16.7493226244
 21
27.4175213284
  0
LINE
  5
34E
100
AcDbEntity
  8
0
100
AcDbLine
 62
7
  6
CONTINUOUS
 10
14.6187898379
 20
9.9872769129
 11
-16.1894375942
 21
27.7755613145
  0
LINE
  5
34F
100
AcDbEntity
  8
RACCORDO
100
AcDbLine
 62
7
  6
CONTINUOUS
 10
15.1122344614
 20
10.1957533159
 11
-15.692932724
 21
27.9822707693
  0
LINE
  5
350
100
AcDbEntity
  8
RACCORDO
100
AcDbLine
 62
7
  6
CONTINUOUS
 10
16.4424060906
 20
-19.2651443947
 11
15.4298153802
 21
-19.6224909793
  0
LINE
  5
351
100
AcDbEntity
  8
RACCORDO
100
AcDbLine
 62
250
  6
CONTINUOUS
 10
16.4999168554
 20
-19.2804202036
 11
15.4298153802
 21
-19.6580056576
  0
LINE
  5
352
100
AcDbEntity
  8
DRAFT
100
AcDbLine
 62
7
  6
CONTINUOUS
 10
14.9722220746
 20
-20.4662531696
 11
15.4298153802
 21
-20.1878353562
  0
LINE
  5
353
100
AcDbEntity
  8
DRAFT
100
AcDbLine
 62
7
  6
CONTINUOUS
 10
17.2025358139
 20
-19.7110644934
 11
16.8843377624
 21
-19.875532833
  0
LINE
  5
354
100
AcDbEntity
  8
RACCORDO
100
AcDbLine
 62
7
  6
CONTINUOUS
 10
16.3266602266
 20
-19.7769020255
 11
15.4298153802
 21
-20.1763180431
  0
LINE
  5
355
100
AcDbEntity
  8
DRAFT
100
AcDbLine
 62
7
  6
CONTINUOUS
 10
17.2025358139
 20
-22.0765600618
 11
16.8843377624
 21
-22.2795388562
  0
LINE
  5
356
100
AcDbEntity
  8
RACCORDO
100
AcDbLine
 62
250
  6
CONTINUOUS
 10
15.1952893767
 20
-23.9714803097
 11
14.9722220746
 21
-24.1002765743
  0
LINE
  5
357
100
AcDbEntity
  8
RACCORDO
100
AcDbLine
 62
7
  6
CONTINUOUS
 10
16.3266602266
 20
-22.2056125168
 11
15.1952893767
 21
-22.8374533372
  0
LINE
  5
358
100
AcDbEntity
  8
DRAFT
100
AcDbLine
 62
7
  6
CONTINUOUS
 10
14.9722220746
 20
-24.5486045536
 11
15.4298153802
 21
-24.2701867402
  0
LINE
  5
359
100
AcDbEntity
  8
RACCORDO
100
AcDbLine
 62
250
  6
CONTINUOUS
 10
15.3367107329
 20
-24.2164292837
 11
14.9722220746
 21
-24.4268804669
  0
LINE
  5
35A
100
AcDbEntity
  8
RACCORDO
100
AcDbLine
 62
250
  6
CONTINUOUS
 10
15.4298153802
 20
-32.4659721988
 11
14.9722220746
 21
-32.7918590876
  0
LINE
  5
35B
100
AcDbEntity
  8
RACCORDO
100
AcDbLine
 62
7
  6
CONTINUOUS
 10
15.3484969269
 20
-32.665021915
 11
14.9445345316
 21
-32.9527141661
  0
LINE
  5
35C
100
AcDbEntity
  8
0
100
AcDbLine
 62
250
  6
CONTINUOUS
 10
14.2682993965
 20
-33.3517310222
 11
14.2681857369
 21
-33.3517900052
  0
LINE
  5
35D
100
AcDbEntity
  8
0
100
AcDbLine
 62
250
  6
CONTINUOUS
 10
14.3822263573
 20
-33.1173124123
 11
14.9722220746
 21
-32.8114256661
  0
LINE
  5
35E
100
AcDbEntity
  8
0
100
AcDbLine
 62
7
  6
CONTINUOUS
 10
14.2681857369
 20
-33.3517900052
 11
14.8621061872
 21
-33.043868458
  0
LWPOLYLINE
  5
35F
100
AcDbEntity
  8
0
100
AcDbPolyline
 62
250
  6
CONTINUOUS
 90
16
 70
0
 10
14.3822263573
 20
-33.1173124123
 10
14.3429993883
 20
-33.1366847788
 10
14.3005224239
 20
-33.1536187457
 10
14.2552482045
 20
-33.1679338569
 10
14.2076538144
 20
-33.1794787072
 10
14.1582515753
 20
-33.1881284938
 10
14.1075853793
 20
-33.1937896382
 10
14.056207106
 20
-33.1964046747
 10
14.0046531514
 20
-33.1959504377
 10
13.9534559294
 20
-33.1924333282
 10
13.9030908917
 20
-33.1858798884
 10
13.8541662771
 20
-33.1763630296
 10
13.80737973
 20
-33.164037418
 10
13.763255956
 20
-33.1490868033
 10
13.7221643482
 20
-33.1316841585
 10
13.6844956789
 20
-33.1120386736
  0
ARC
  5
360
100
AcDbEntity
  8
0
100
AcDbCircle
 62
7
  6
CONTINUOUS
 10
14.0380490694
 20
-32.9079013769
 40
0.5
100
AcDbArc
 50
239.9984015652
 51
297.4194204712
  0
ARC
  5
361
100
AcDbEntity
  8
0
100
AcDbCircle
 62
7
  6
CONTINUOUS
 10
-16.7400676756
 20
-15.1370025087
 40
0.5
100
AcDbArc
 50
179.9840060023
 51
239.9984015651
  0
ARC
  5
362
100
AcDbEntity
  8
0
100
AcDbCircle
 62
7
  6
CONTINUOUS
 10
-16.7400676756
 20
27.0147697735
 40
0.5
100
AcDbArc
 50
122.5992953906
 51
180.0013072924
  0
ELLIPSE
  5
363
100
AcDbEntity
  8
RACCORDO
100
AcDbEllipse
 62
7
  6
CONTINUOUS
 10
-15.6922065154
 20
27.6130363883
 30
0.0
 11
-0.2245667503
 21
0.3916366537
 31
0.0
 40
0.576009292
 41
-0.7808516838
 42
-0.0566951759
  0
ELLIPSE
  5
364
100
AcDbEntity
  8
RACCORDO
100
AcDbEllipse
 62
7
  6
CONTINUOUS
 10
15.1115082528
 20
-32.2813442117
 30
0.0
 11
-0.2245667503
 21
0.3916366537
 31
0.0
 40
0.576009292
 41
-3.0848974781
 42
-2.3539294839
  0
ELLIPSE
  5
365
100
AcDbEntity
  8
RACCORDO
100
AcDbEllipse
 62
7
  6
CONTINUOUS
 10
15.1115082528
 20
9.8273575424
 30
0.0
 11
-0.224044438
 21
0.3907502414
 31
0.0
 40
0.5786435377
 41
-2.35161679
 42
-0.7831019366
  0
ELLIPSE
  5
366
100
AcDbEntity
  8
RACCORDO
100
AcDbEllipse
 62
7
  6
CONTINUOUS
 10
14.6185474886
 20
9.5790417641
 30
0.0
 11
-0.2500121049
 21
0.4330057129
 31
0.0
 40
0.5777274115
 41
-2.3559002616
 42
-0.7857891675
  0
ELLIPSE
  5
367
100
AcDbEntity
  8
RACCORDO
100
AcDbEllipse
 62
7
  6
CONTINUOUS
 10
-16.1891952448
 20
27.3670463067
 30
0.0
 11
-0.2501834304
 21
0.4333025529
 31
0.0
 40
0.5769361983
 41
5.4980815048
 42
6.3093460435
  0
ELLIPSE
  5
368
100
AcDbEntity
  8
RACCORDO
100
AcDbEllipse
 62
7
  6
CONTINUOUS
 10
14.6185474886
 20
-32.6069385607
 30
0.0
 11
-0.2501834304
 21
0.4333025529
 31
0.0
 40
0.5769361983
 41
3.1154319183
 42
3.9265999453
  0
ENDSEC
  0
SECTION
  2
OBJECTS
  0
DICTIONARY
  5
C
100
AcDbDictionary
280
0
281
1
  3
ACAD_GROUP
350
D
  3
ACAD_MLINESTYLE
350
17
  3
ACAD_LAYOUT
350
1A
  3
ACAD_PLOTSETTINGS
350
19
  3
ACAD_PLOTSTYLENAME
350
E
  0
DICTIONARY
  5
D
102
{ACAD_REACTORS
330
C
102
}
100
AcDbDictionary
280
0
281
1
  0
ACDBDICTIONARYWDFLT
  5
E
102
{ACAD_REACTORS
330
C
102
}
100
AcDbDictionary
281
1
  3
Normal
350
F
100
AcDbDictionaryWithDefault
340
F
  0
DICTIONARY
  5
17
102
{ACAD_REACTORS
330
C
102
}
100
AcDbDictionary
280
0
281
1
  3
Standard
350
18
  0
DICTIONARY
  5
19
102
{ACAD_REACTORS
330
C
102
}
100
AcDbDictionary
281
1
  0
DICTIONARY
  5
1A
102
{ACAD_REACTORS
330
C
102
}
100
AcDbDictionary
281
1
  3
Model
350
369
  3
Layout1
350
36A
  0
ACDBPLACEHOLDER
  5
F
102
{ACAD_REACTORS
330
E
102
}
  0
MLINESTYLE
  5
18
102
{ACAD_REACTORS
330
17
102
}
100
AcDbMlineStyle
  2
STANDARD
 70
0
  3

 62
256
 51
90.0
 52
90.0
 71
2
 49
0.5
 62
256
  6
BYLAYER
 49
-0.5
 62
256
  6
BYLAYER
  0
LAYOUT
  5
369
102
{ACAD_REACTORS
330
1A
102
}
100
AcDbPlotSettings
  1

  2
none_device
  4
ISO_A3_(420.00_x_297.00_MM)
  6

 40
0.0
 41
0.0
 42
0.0
 43
0.0
 44
420.0
 45
297.0
 46
0.0
 47
0.0
 48
0.0
 49
0.0
140
0.0
141
0.0
142
1.0
143
1.0
 70
1024
 72
1
 73
0
 74
0
  7

 75
0
147
1.0
148
0.0
149
0.0
100
AcDbLayout
  1
Model
 70
0
 71
0
 10
0.0
 20
0.0
 11
420.0
 21
297.0
 12
0.0
 22
0.0
 32
0.0
 14
0.0
 24
0.0
 34
0.0
 15
0.0
 25
0.0
 35
0.0
146
0.0
 13
0.0
 23
0.0
 33
0.0
 16
1.0
 26
0.0
 36
0.0
 17
0.0
 27
1.0
 37
0.0
 76
0
330
219
345
0
346
0
  0
LAYOUT
  5
36A
102
{ACAD_REACTORS
330
1A
102
}
100
AcDbPlotSettings
  1

  2
none_device
  4
ISO_A3_(420.00_x_297.00_MM)
  6

 40
0.0
 41
0.0
 42
0.0
 43
0.0
 44
420.0
 45
297.0
 46
0.0
 47
0.0
 48
0.0
 49
0.0
140
0.0
141
0.0
142
1.0
143
1.0
 70
0
 72
1
 73
0
 74
0
  7

 75
0
147
1.0
148
0.0
149
0.0
100
AcDbLayout
  1
Layout1
 70
0
 71
1
 10
0.0
 20
0.0
 11
420.0
 21
297.0
 12
0.0
 22
0.0
 32
0.0
 14
0.0
 24
0.0
 34
0.0
 15
0.0
 25
0.0
 35
0.0
146
0.0
 13
0.0
 23
0.0
 33
0.0
 16
1.0
 26
0.0
 36
0.0
 17
0.0
 27
1.0
 37
0.0
 76
0
330
21A
345
0
346
0
  0
ENDSEC
  0
EOF
