  0
SECTION
  2
HEADER
  9
$ACADVER
  1
AC1024
  9
$DWGCODEPAGE
  3
ANSI_1252
  9
$EXTMAX
 10
297.0
 20
210.0
 30
0.0
  9
$EXTMIN
 10
0.0
 20
0.0
 30
0.0
  9
$LIMMIN
 10
0.0
 20
0.0
  9
$LIMMAX
 10
297.0
 20
210.0
  9
$VIEWCTR
 10
148.5
 20
105.0
  9
$VIEWSIZE
 40
210.0
  9
$CLAYER
  8
0
  9
$LTSCALE
 40
16.335
  9
$CELTYPE
  6
BYLAYER
  9
$DIMSCALE
 40
1.0
  9
$DIMASZ
 40
3.0
  9
$DIMEXO
 40
0.5
  9
$DIMDLI
 40
11.286
  9
$DIMEXE
 40
1.5
  9
$DIMCEN
 40
2.673
  9
$DIMLFAC
 40
1.0
  9
$DIMBLK
  1
_FILLED
  9
$DIMALT
 70
0
  9
$DIMALTF
 40
0.0393700787
  9
$DIMTXT
 40
3.0
  9
$DIMTOL
 70
1
  9
$DIMLIM
 70
0
  9
$DIMTFAC
 40
1.0
  9
$DIMTP
 40
0.01
  9
$DIMTM
 40
0.01
  9
$DIMGAP
 40
0.625
  9
$DIMDSEP
 70
44
  9
$AUNITS
 70
0
  9
$PDMODE
 70
3
  9
$PDSIZE
 40
3.0
  9
$HANDSEED
  5
2A7
  9
$TILEMODE
 70
1
  9
$MEASUREMENT
 70
1
  9
$INSUNITS
 70
4
  0
ENDSEC
  0
SECTION
  2
CLASSES
  0
CLASS
  1
ACDBDICTIONARYWDFLT
  2
AcDbDictionaryWithDefault
  3
AutoCAD 2000
 90
0
 91
1
280
0
281
0
  0
CLASS
  1
ACDBPLACEHOLDER
  2
AcDbPlaceHolder
  3
AutoCAD 2000
 90
0
 91
1
280
0
281
0
  0
CLASS
  1
LAYOUT
  2
AcDbLayout
  3
AutoCAD 2000
 90
0
 91
0
280
0
281
0
  0
ENDSEC
  0
SECTION
  2
TABLES
  0
TABLE
  2
VPORT
  5
8
100
AcDbSymbolTable
 70
2
  0
VPORT
  5
1F4
100
AcDbSymbolTableRecord
100
AcDbViewportTableRecord
  2
*ACTIVE
 70
0
 10
0.0
 20
0.0
 11
1.0
 21
1.0
 12
148.5
 22
105.0
 13
0.0
 23
0.0
 14
1.0
 24
1.0
 15
0.0
 25
0.0
 16
0.0
 26
0.0
 36
1.0
 17
0.0
 27
0.0
 37
0.0
 40
210.0
 41
1.4142857143
 42
50.0
 43
0.0
 44
0.0
 50
0.0
 51
0.0
 71
0
 72
100
 73
1
 74
1
 75
0
 76
0
 77
0
 78
0
  0
ENDTAB
  0
TABLE
  2
LTYPE
  5
5
100
AcDbSymbolTable
 70
6
  0
LTYPE
  5
14
100
AcDbSymbolTableRecord
100
AcDbLinetypeTableRecord
  2
BYBLOCK
 70
0
  3

 72
65
 73
0
 40
0.0
  0
LTYPE
  5
15
100
AcDbSymbolTableRecord
100
AcDbLinetypeTableRecord
  2
BYLAYER
 70
0
  3

 72
65
 73
0
 40
0.0
  0
LTYPE
  5
16
100
AcDbSymbolTableRecord
100
AcDbLinetypeTableRecord
  2
CONTINUOUS
 70
64
  3
Solid line
 72
65
 73
0
 40
0.0
  0
LTYPE
  5
1F5
100
AcDbSymbolTableRecord
100
AcDbLinetypeTableRecord
  2
CENTER
 70
64
  3
____ _ ____ _ ____ _ ____ _ ____ _ ____ _ ____
 72
65
 73
4
 40
0.6
 49
0.375
 74
0
 49
-0.075
 74
0
 49
0.075
 74
0
 49
-0.075
 74
0
  0
LTYPE
  5
1F6
100
AcDbSymbolTableRecord
100
AcDbLinetypeTableRecord
  2
HIDDEN
 70
64
  3
- - - - - - - - - - - - - - - - - - - -
 72
65
 73
2
 40
0.2
 49
0.1
 74
0
 49
-0.1
 74
0
  0
LTYPE
  5
1F7
100
AcDbSymbolTableRecord
100
AcDbLinetypeTableRecord
  2
PHANTOM
 70
64
  3
_____ _ _ _____ _ _ _____ _ _ _____
 72
65
 73
6
 40
0.8
 49
0.45
 74
0
 49
-0.05
 74
0
 49
0.1
 74
0
 49
-0.05
 74
0
 49
0.1
 74
0
 49
-0.05
 74
0
  0
LTYPE
  5
1F8
100
AcDbSymbolTableRecord
100
AcDbLinetypeTableRecord
  2
DOT
 70
64
  3
. . . . . . . . . . . . . . . . . . . .
 72
65
 73
2
 40
0.2
 49
0.1
 74
0
 49
-0.1
 74
0
  0
LTYPE
  5
1F9
100
AcDbSymbolTableRecord
100
AcDbLinetypeTableRecord
  2
DASHED
 70
64
  3
- - - - - - - - - - - - - - - - - - - -
 72
65
 73
2
 40
0.2
 49
0.1
 74
0
 49
-0.1
 74
0
  0
ENDTAB
  0
TABLE
  2
LAYER
  5
2
100
AcDbSymbolTable
 70
36
  0
LAYER
  5
10
100
AcDbSymbolTableRecord
100
AcDbLayerTableRecord
  2
0
 70
0
 62
7
  6
CONTINUOUS
370
-3
390
F
  0
LAYER
  5
1FA
100
AcDbSymbolTableRecord
100
AcDbLayerTableRecord
  2
DEFAULT_1
 70
0
 62
7
  6
CENTER
370
-3
390
F
  0
LAYER
  5
1FB
100
AcDbSymbolTableRecord
100
AcDbLayerTableRecord
  2
DEFAULT_2
 70
0
 62
7
  6
HIDDEN
370
-3
390
F
  0
LAYER
  5
1FC
100
AcDbSymbolTableRecord
100
AcDbLayerTableRecord
  2
DEFAULT_3
 70
0
 62
7
  6
PHANTOM
370
-3
390
F
  0
LAYER
  5
1FD
100
AcDbSymbolTableRecord
100
AcDbLayerTableRecord
  2
ASSI
 70
0
 62
7
  6
CONTINUOUS
370
-3
390
F
  0
LAYER
  5
1FE
100
AcDbSymbolTableRecord
100
AcDbLayerTableRecord
  2
COORDINATE
 70
0
 62
7
  6
CONTINUOUS
370
-3
390
F
  0
LAYER
  5
1FF
100
AcDbSymbolTableRecord
100
AcDbLayerTableRecord
  2
COPY_PUBLISH
 70
0
 62
7
  6
CONTINUOUS
370
-3
390
F
  0
LAYER
  5
200
100
AcDbSymbolTableRecord
100
AcDbLayerTableRecord
  2
COSMETICI
 70
0
 62
7
  6
CONTINUOUS
370
-3
390
F
  0
LAYER
  5
201
100
AcDbSymbolTableRecord
100
AcDbLayerTableRecord
  2
CURVE
 70
0
 62
7
  6
CONTINUOUS
370
-3
390
F
  0
LAYER
  5
202
100
AcDbSymbolTableRecord
100
AcDbLayerTableRecord
  2
DRAFT
 70
0
 62
7
  6
CONTINUOUS
370
-3
390
F
  0
LAYER
  5
203
100
AcDbSymbolTableRecord
100
AcDbLayerTableRecord
  2
IMPORT_IGES
 70
0
 62
7
  6
CONTINUOUS
370
-3
390
F
  0
LAYER
  5
204
100
AcDbSymbolTableRecord
100
AcDbLayerTableRecord
  2
INTF_2
 70
0
 62
7
  6
CONTINUOUS
370
-3
390
F
  0
LAYER
  5
205
100
AcDbSymbolTableRecord
100
AcDbLayerTableRecord
  2
INTF_3
 70
0
 62
7
  6
CONTINUOUS
370
-3
390
F
  0
LAYER
  5
206
100
AcDbSymbolTableRecord
100
AcDbLayerTableRecord
  2
INTF_4
 70
0
 62
7
  6
CONTINUOUS
370
-3
390
F
  0
LAYER
  5
207
100
AcDbSymbolTableRecord
100
AcDbLayerTableRecord
  2
INTF_5
 70
0
 62
7
  6
CONTINUOUS
370
-3
390
F
  0
LAYER
  5
208
100
AcDbSymbolTableRecord
100
AcDbLayerTableRecord
  2
INTF_6
 70
0
 62
7
  6
CONTINUOUS
370
-3
390
F
  0
LAYER
  5
209
100
AcDbSymbolTableRecord
100
AcDbLayerTableRecord
  2
INTF_7
 70
0
 62
7
  6
CONTINUOUS
370
-3
390
F
  0
LAYER
  5
20A
100
AcDbSymbolTableRecord
100
AcDbLayerTableRecord
  2
INTF_9
 70
0
 62
7
  6
CONTINUOUS
370
-3
390
F
  0
LAYER
  5
20B
100
AcDbSymbolTableRecord
100
AcDbLayerTableRecord
  2
INTF_BLANK
 70
0
 62
7
  6
CONTINUOUS
370
-3
390
F
  0
LAYER
  5
20C
100
AcDbSymbolTableRecord
100
AcDbLayerTableRecord
  2
INTF_RED
 70
0
 62
7
  6
CONTINUOUS
370
-3
390
F
  0
LAYER
  5
20D
100
AcDbSymbolTableRecord
100
AcDbLayerTableRecord
  2
NOTE
 70
0
 62
7
  6
CONTINUOUS
370
-3
390
F
  0
LAYER
  5
20E
100
AcDbSymbolTableRecord
100
AcDbLayerTableRecord
  2
PIANI
 70
0
 62
7
  6
CONTINUOUS
370
-3
390
F
  0
LAYER
  5
20F
100
AcDbSymbolTableRecord
100
AcDbLayerTableRecord
  2
PUNTI
 70
0
 62
7
  6
CONTINUOUS
370
-3
390
F
  0
LAYER
  5
210
100
AcDbSymbolTableRecord
100
AcDbLayerTableRecord
  2
RACCORDO
 70
0
 62
7
  6
CONTINUOUS
370
-3
390
F
  0
LAYER
  5
211
100
AcDbSymbolTableRecord
100
AcDbLayerTableRecord
  2
RGB____0____0____0__
 70
0
 62
7
  6
CONTINUOUS
370
-3
390
F
  0
LAYER
  5
212
100
AcDbSymbolTableRecord
100
AcDbLayerTableRecord
  2
SIMBOLI
 70
0
 62
7
  6
CONTINUOUS
370
-3
390
F
  0
LAYER
  5
213
100
AcDbSymbolTableRecord
100
AcDbLayerTableRecord
  2
SMUSSO
 70
0
 62
7
  6
CONTINUOUS
370
-3
390
F
  0
LAYER
  5
214
100
AcDbSymbolTableRecord
100
AcDbLayerTableRecord
  2
SNAPLINE
 70
0
 62
7
  6
CONTINUOUS
370
-3
390
F
  0
LAYER
  5
215
100
AcDbSymbolTableRecord
100
AcDbLayerTableRecord
  2
SUPERFICI
 70
0
 62
7
  6
CONTINUOUS
370
-3
390
F
  0
LAYER
  5
216
100
AcDbSymbolTableRecord
100
AcDbLayerTableRecord
  2
TRASH
 70
0
 62
7
  6
CONTINUOUS
370
-3
390
F
  0
ENDTAB
  0
TABLE
  2
STYLE
  5
3
100
AcDbSymbolTable
 70
1
  0
STYLE
  5
11
100
AcDbSymbolTableRecord
100
AcDbTextStyleTableRecord
  2
STANDARD
 70
0
 40
0.0
 41
0.8
 50
0.0
 71
0
 42
0.2
  3
txt
  4

  0
STYLE
  5
217
100
AcDbSymbolTableRecord
100
AcDbTextStyleTableRecord
  2
TEXTSTYLE_1
 70
0
 40
0.0
 41
0.8
 50
0.0
 71
0
 42
0.2
  3
gdt
  4

  0
ENDTAB
  0
TABLE
  2
VIEW
  5
6
100
AcDbSymbolTable
 70
0
  0
ENDTAB
  0
TABLE
  2
UCS
  5
7
100
AcDbSymbolTable
 70
0
  0
ENDTAB
  0
TABLE
  2
APPID
  5
9
100
AcDbSymbolTable
 70
1
  0
APPID
  5
218
100
AcDbSymbolTableRecord
100
AcDbRegAppTableRecord
  2
ACAD
 70
0
  0
ENDTAB
  0
TABLE
  2
BLOCK_RECORD
  5
1
100
AcDbSymbolTable
 70
0
  0
BLOCK_RECORD
  5
219
100
AcDbSymbolTableRecord
100
AcDbBlockTableRecord
  2
*Model_Space
  0
BLOCK_RECORD
  5
21A
100
AcDbSymbolTableRecord
100
AcDbBlockTableRecord
  2
*Paper_Space
  0
BLOCK_RECORD
  5
21B
100
AcDbSymbolTableRecord
100
AcDbBlockTableRecord
  2
_FILLED
  0
ENDTAB
  0
TABLE
  2
DIMSTYLE
  5
A
100
AcDbSymbolTable
 70
1
100
AcDbDimStyleTable
 71
0
  0
DIMSTYLE
105
21C
100
AcDbSymbolTableRecord
100
AcDbDimStyleTableRecord
  2
STANDARD
 70
0
  3

  4

 40
1.0
 41
3.0
 42
0.5
 43
0.38
 44
1.5
 45
0.0
 46
0.0
 47
0.01
 48
0.01
140
3.0
141
0.09
142
0.0
143
25.4
144
1.0
145
0.0
146
1.0
147
0.625
 71
1
 72
0
 73
0
 74
0
 75
0
 76
0
 77
1
 78
8
 79
2
170
0
171
1
172
0
173
0
174
0
175
0
176
0
177
0
178
0
270
2
179
2
271
2
272
2
273
2
274
2
275
0
280
0
281
0
282
0
283
1
284
8
285
0
286
0
287
3
288
0
340
11
278
44
341
21B
342
21B
343
21B
344
21B
  0
ENDTAB
  0
ENDSEC
  0
SECTION
  2
BLOCKS
  0
BLOCK
  5
20
100
AcDbEntity
  8
0
100
AcDbBlockBegin
  2
*Model_Space
 70
0
 10
0.0
 20
0.0
 30
0.0
  3
*Model_Space
  1

  0
ENDBLK
  5
21
100
AcDbEntity
  8
0
100
AcDbBlockEnd
  0
BLOCK
  5
1C
100
AcDbEntity
  8
0
100
AcDbBlockBegin
  2
*Paper_Space
 70
0
 10
0.0
 20
0.0
 30
0.0
  3
*Paper_Space
  1

  0
ENDBLK
  5
1D
100
AcDbEntity
  8
0
100
AcDbBlockEnd
  0
BLOCK
  5
21D
100
AcDbEntity
  8
0
100
AcDbBlockBegin
  2
_FILLED
 70
64
 10
0.0
 20
0.0
  3
_FILLED
  1

  0
SOLID
  5
21E
100
AcDbEntity
  8
0
  6
BYBLOCK
 62
0
100
AcDbTrace
 10
0.0
 20
0.0
 11
-1.0
 21
0.3166666667
 12
-1.0
 22
-0.3166666667
 13
-1.0
 23
-0.3166666667
  0
ENDBLK
  5
21F
100
AcDbEntity
  8
0
  6
BYBLOCK
 62
0
100
AcDbBlockEnd
  0
ENDSEC
  0
SECTION
  2
ENTITIES
  0
LINE
  5
220
100
AcDbEntity
  8
0
100
AcDbLine
 62
7
  6
CONTINUOUS
 10
23.180778176
 20
44.9549607674
 11
23.7443876066
 21
45.3153824643
  0
LINE
  5
221
100
AcDbEntity
  8
0
100
AcDbLine
 62
250
  6
CONTINUOUS
 10
23.4408971772
 20
44.9364788063
 11
24.0007822075
 21
45.2945187924
  0
LWPOLYLINE
  5
222
100
AcDbEntity
  8
0
100
AcDbPolyline
 62
250
  6
CONTINUOUS
 90
11
 70
0
 10
23.180778176
 20
44.9549607674
 10
23.1875464238
 20
44.9590656193
 10
23.2103775799
 20
44.9699855937
 10
23.2350302963
 20
44.9775799534
 10
23.2613218039
 20
44.9817936066
 10
23.2890777572
 20
44.9825935313
 10
23.3180631398
 20
44.9799681364
 10
23.3479805676
 20
44.9739566943
 10
23.3785702458
 20
44.9646392915
 10
23.409621183
 20
44.9521073005
 10
23.4408971772
 20
44.9364788063
  0
LINE
  5
223
100
AcDbEntity
  8
RACCORDO
100
AcDbLine
 62
7
  6
CONTINUOUS
 10
24.2865900935
 20
45.5303309661
 11
23.8655753353
 21
45.3410940552
  0
LINE
  5
224
100
AcDbEntity
  8
RACCORDO
100
AcDbLine
 62
250
  6
CONTINUOUS
 10
24.4972870777
 20
45.5012282472
 11
24.0168102138
 21
45.2852644224
  0
LINE
  5
225
100
AcDbEntity
  8
0
100
AcDbLine
 62
7
  6
CONTINUOUS
 10
23.200140046
 20
1.9489492419
 11
53.978256791
 21
-15.8219496262
  0
LINE
  5
226
100
AcDbEntity
  8
0
100
AcDbLine
 62
250
  6
CONTINUOUS
 10
23.0965987355
 20
2.1778176725
 11
53.8747154805
 21
-15.5930811957
  0
LWPOLYLINE
  5
227
100
AcDbEntity
  8
0
100
AcDbPolyline
 62
250
  6
CONTINUOUS
 90
9
 70
0
 10
23.200140046
 20
1.9489492419
 10
23.1845401446
 20
1.9591580675
 10
23.1619609303
 20
1.9790740548
 10
23.1424349189
 20
2.0032583099
 10
23.1261689761
 20
2.0314546159
 10
23.1133354293
 20
2.0633642509
 10
23.1040702418
 20
2.0986491525
 10
23.0984715724
 20
2.1369354996
 10
23.0965987355
 20
2.1778176725
  0
LWPOLYLINE
  5
228
100
AcDbEntity
  8
0
100
AcDbPolyline
 62
250
  6
CONTINUOUS
 90
9
 70
0
 10
22.9501521261
 20
2.3819549692
 10
22.9512668112
 20
2.362688538
 10
22.957354873
 20
2.3331294674
 10
22.9687017792
 20
2.3040492367
 10
22.985181825
 20
2.2757994622
 10
23.0065279581
 20
2.248782834
 10
23.0324226799
 20
2.2233024777
 10
23.062566895
 20
2.1995720879
 10
23.0965987355
 20
2.1778176725
  0
LINE
  5
229
100
AcDbEntity
  8
0
100
AcDbLine
 62
7
  6
CONTINUOUS
 10
22.9501521261
 20
2.3819549692
 11
22.9501521261
 21
44.5337272514
  0
LINE
  5
22A
100
AcDbEntity
  8
0
100
AcDbLine
 62
250
  6
CONTINUOUS
 10
23.0965987355
 20
2.1778176725
 11
23.0965987355
 21
44.3295899547
  0
LWPOLYLINE
  5
22B
100
AcDbEntity
  8
0
100
AcDbPolyline
 62
250
  6
CONTINUOUS
 90
16
 70
0
 10
23.0965987355
 20
44.3295899547
 10
23.0984715724
 20
44.3726348329
 10
23.1040702418
 20
44.417386383
 10
23.1133354293
 20
44.4633704909
 10
23.1261689761
 20
44.510099984
 10
23.1424349189
 20
44.5570797931
 10
23.1619609303
 20
44.6038121967
 10
23.1845401446
 20
44.6498020947
 10
23.2099333494
 20
44.6945622534
 10
23.2378715198
 20
44.7376184672
 10
23.2680586685
 20
44.7785145829
 10
23.300174982
 20
44.8168173321
 10
23.3338802082
 20
44.8521209215
 10
23.3688172616
 20
44.8840513318
 10
23.4046160062
 20
44.9122702808
 10
23.4408971772
 20
44.9364788063
  0
LINE
  5
22C
100
AcDbEntity
  8
DRAFT
100
AcDbLine
 62
7
  6
CONTINUOUS
 10
57.0745575641
 20
-4.7605813783
 11
56.5168800282
 21
-4.6866550389
  0
LWPOLYLINE
  5
22D
100
AcDbEntity
  8
0
100
AcDbPolyline
 62
250
  6
CONTINUOUS
 90
9
 70
0
 10
22.9501521264
 20
44.5337158431
 10
22.95126866
 20
44.5144448669
 10
22.95736008
 20
44.4848842325
 10
22.9687102394
 20
44.455804091
 10
22.9851928604
 20
44.4275556317
 10
23.0065400705
 20
44.4005416657
 10
23.0324336266
 20
44.3750651517
 10
23.0625739495
 20
44.3513393723
 10
23.0965987355
 20
44.3295899547
  0
LINE
  5
22E
100
AcDbEntity
  8
DRAFT
100
AcDbLine
 62
7
  6
CONTINUOUS
 10
57.0745575641
 20
-2.3565753551
 11
56.5168800282
 21
-2.2579445476
  0
LWPOLYLINE
  5
22F
100
AcDbEntity
  8
RACCORDO
100
AcDbPolyline
 62
250
  6
CONTINUOUS
 90
22
 70
0
 10
56.8806891878
 20
-1.7538287102
 10
56.873109739
 20
-1.7506434981
 10
56.8653261356
 20
-1.7478021321
 10
56.8573470923
 20
-1.7453087083
 10
56.8491794203
 20
-1.74316575
 10
56.8408304281
 20
-1.7413755451
 10
56.8323098342
 20
-1.7399413511
 10
56.8236245477
 20
-1.7388645807
 10
56.8147828333
 20
-1.738146504
 10
56.8057967629
 20
-1.7377894211
 10
56.7966743713
 20
-1.7377934967
 10
56.7874238785
 20
-1.7381585789
 10
56.7780579667
 20
-1.7388855454
 10
56.7685854747
 20
-1.7399732021
 10
56.7590146596
 20
-1.7414201108
 10
56.7493575536
 20
-1.7432259846
 10
56.7396229371
 20
-1.7453885385
 10
56.7298196779
 20
-1.7479051327
 10
56.7199600708
 20
-1.7507742979
 10
56.7100542291
 20
-1.753993122
 10
56.700110067
 20
-1.7575573084
 10
56.6901366571
 20
-1.7614627257
  0
LINE
  5
230
100
AcDbEntity
  8
RACCORDO
100
AcDbLine
 62
7
  6
CONTINUOUS
 10
55.6200351819
 20
-6.7512292623
 11
55.5269305346
 21
-6.6974718058
  0
LINE
  5
231
100
AcDbEntity
  8
RACCORDO
100
AcDbLine
 62
250
  6
CONTINUOUS
 10
56.8957461138
 20
-1.7615258801
 11
56.8880578312
 21
-1.7573544946
  0
LWPOLYLINE
  5
232
100
AcDbEntity
  8
RACCORDO
100
AcDbPolyline
 62
7
  6
CONTINUOUS
 90
10
 70
0
 10
56.8957947742
 20
-1.7615540529
 10
56.8912996778
 20
-1.7590153311
 10
56.8632531428
 20
-1.7455934879
 10
56.8336740421
 20
-1.7354042019
 10
56.8028972716
 20
-1.728523509
 10
56.770989915
 20
-1.7249583686
 10
56.7382129908
 20
-1.7247651872
 10
56.7048166156
 20
-1.7279729695
 10
56.670746644
 20
-1.7346615913
 10
56.6326426497
 20
-1.7461809115
  0
LINE
  5
233
100
AcDbEntity
  8
RACCORDO
100
AcDbLine
 62
250
  6
CONTINUOUS
 10
57.3927556156
 20
-2.1671461065
 11
56.6901366571
 21
-1.7614627257
  0
LINE
  5
234
100
AcDbEntity
  8
RACCORDO
100
AcDbLine
 62
7
  6
CONTINUOUS
 10
57.3927556156
 20
-2.0484929375
 11
56.8957459721
 21
-1.7615257983
  0
LWPOLYLINE
  5
235
100
AcDbEntity
  8
RACCORDO
100
AcDbPolyline
 62
250
  6
CONTINUOUS
 90
7
 70
0
 10
56.6901366571
 20
-1.7614627257
 10
56.6788428693
 20
-1.7534891418
 10
56.6675153975
 20
-1.7478151421
 10
56.6563458205
 20
-1.7445366895
 10
56.6455230464
 20
-1.7437092316
 10
56.6352301182
 20
-1.7453467631
 10
56.6326426497
 20
-1.7461809115
  0
LWPOLYLINE
  5
236
100
AcDbEntity
  8
DRAFT
100
AcDbPolyline
 62
7
  6
CONTINUOUS
 90
4
 70
0
 10
37.7785503268
 20
14.0417057237
 10
37.7792479194
 20
14.0303357919
 10
37.7810471869
 20
14.0188677493
 10
37.7839416394
 20
14.0073274708
  0
LWPOLYLINE
  5
237
100
AcDbEntity
  8
0
100
AcDbPolyline
 62
7
  6
CONTINUOUS
 90
13
 70
0
 10
37.7785503268
 20
14.0417057237
 10
37.7792394347
 20
14.030364324
 10
37.7810336113
 20
14.0189134007
 10
37.7839328567
 20
14.0073529537
 10
37.7880235993
 20
13.9954837251
 10
37.7932194106
 20
13.9835049729
 10
37.7992610049
 20
13.9720144708
 10
37.8061913031
 20
13.9610369961
 10
37.8139673843
 20
13.9505477714
 10
37.8222011999
 20
13.9410702389
 10
37.8307634005
 20
13.9327788793
 10
37.8397833355
 20
13.9254992119
 10
37.8492610049
 20
13.9192312367
  0
LINE
  5
238
100
AcDbEntity
  8
0
100
AcDbLine
 62
7
  6
CONTINUOUS
 10
37.7785503268
 20
15.511352222
 11
37.7785503268
 21
14.0417057237
  0
LINE
  5
239
100
AcDbEntity
  8
DRAFT
100
AcDbLine
 62
7
  6
CONTINUOUS
 10
37.7785503268
 20
15.511352222
 11
37.7785503268
 21
14.0417057237
  0
LWPOLYLINE
  5
23A
100
AcDbEntity
  8
DRAFT
100
AcDbPolyline
 62
7
  6
CONTINUOUS
 90
4
 70
0
 10
37.7839416394
 20
15.5395047223
 10
37.7810471869
 20
15.531306885
 10
37.7792479194
 20
15.5219165913
 10
37.7785503268
 20
15.511352222
  0
LWPOLYLINE
  5
23B
100
AcDbEntity
  8
0
100
AcDbPolyline
 62
250
  6
CONTINUOUS
 90
16
 70
0
 10
54.2190139223
 20
27.1655799382
 10
54.1827327513
 20
27.1413714126
 10
54.1469340066
 20
27.1131524637
 10
54.1119969532
 20
27.0812220533
 10
54.078291727
 20
27.0459184639
 10
54.0461754136
 20
27.0076157147
 10
54.0159882648
 20
26.966719599
 10
53.9880500944
 20
26.9236633852
 10
53.9626568897
 20
26.8789032265
 10
53.9400776753
 20
26.8329133285
 10
53.9205516639
 20
26.7861809249
 10
53.9042857211
 20
26.7392011158
 10
53.8914521744
 20
26.6924716227
 10
53.8821869869
 20
26.6464875149
 10
53.8765883175
 20
26.6017359647
 10
53.8747154805
 20
26.5586910865
  0
LINE
  5
23C
100
AcDbEntity
  8
0
100
AcDbLine
 62
250
  6
CONTINUOUS
 10
54.8090096396
 20
27.5062343908
 11
54.2190139223
 21
27.1655799382
  0
LINE
  5
23D
100
AcDbEntity
  8
0
100
AcDbLine
 62
250
  6
CONTINUOUS
 10
55.1624418763
 20
26.8940718005
 11
54.572446159
 21
26.5534173478
  0
LINE
  5
23E
100
AcDbEntity
  8
RACCORDO
100
AcDbLine
 62
250
  6
CONTINUOUS
 10
55.302454263
 20
27.7147107938
 11
54.8443908652
 21
27.4835247988
  0
LINE
  5
23F
100
AcDbEntity
  8
RACCORDO
100
AcDbLine
 62
250
  6
CONTINUOUS
 10
55.6200351819
 20
27.1633699153
 11
55.1609324866
 21
26.9316593837
  0
LWPOLYLINE
  5
240
100
AcDbEntity
  8
0
100
AcDbPolyline
 62
250
  6
CONTINUOUS
 90
16
 70
0
 10
54.572446159
 20
26.5534173478
 10
54.5332219125
 20
26.5340461911
 10
54.4907479355
 20
26.5171130478
 10
54.4454768506
 20
26.5027983661
 10
54.3978854278
 20
26.4912535122
 10
54.3484860638
 20
26.4826033667
 10
54.2978231812
 20
26.4769415817
 10
54.2464495913
 20
26.4743255616
 10
54.1949005834
 20
26.4747782549
 10
54.1437060696
 20
26.4782934255
 10
54.0933408774
 20
26.4848449869
 10
54.044413985
 20
26.4943603588
 10
53.997622827
 20
26.5066853486
 10
53.9534923986
 20
26.5216366364
 10
53.9123928058
 20
26.5390415284
 10
53.8747154805
 20
26.5586910865
  0
LWPOLYLINE
  5
241
100
AcDbEntity
  8
DRAFT
100
AcDbPolyline
 62
7
  6
CONTINUOUS
 90
4
 70
0
 10
39.1491498576
 20
13.1749243491
 10
39.1573760519
 20
13.1748957349
 10
39.1651363247
 20
13.1764082015
 10
39.1714200408
 20
13.1790250853
  0
LWPOLYLINE
  5
242
100
AcDbEntity
  8
DRAFT
100
AcDbPolyline
 62
7
  6
CONTINUOUS
 90
4
 70
0
 10
39.1220532111
 20
13.1843369687
 10
39.1315513481
 20
13.1796583481
 10
39.1405835636
 20
13.1765208082
 10
39.1491306938
 20
13.1749279205
  0
LWPOLYLINE
  5
243
100
AcDbEntity
  8
0
100
AcDbPolyline
 62
7
  6
CONTINUOUS
 90
7
 70
0
 10
39.1220532111
 20
13.1843369687
 10
39.1315308805
 20
13.1796603688
 10
39.1405508155
 20
13.1765240414
 10
39.1491130161
 20
13.1749279864
 10
39.1573468317
 20
13.174897315
 10
39.1651229129
 20
13.176406916
 10
39.171419988
 20
13.1790250564
  0
LINE
  5
244
100
AcDbEntity
  8
0
100
AcDbLine
 62
7
  6
CONTINUOUS
 10
37.8492610049
 20
13.9192312367
 11
39.1220532111
 21
13.1843369687
  0
LINE
  5
245
100
AcDbEntity
  8
DRAFT
100
AcDbLine
 62
7
  6
CONTINUOUS
 10
37.8492610049
 20
13.9192312367
 11
39.1220532111
 21
13.1843369687
  0
LWPOLYLINE
  5
246
100
AcDbEntity
  8
DRAFT
100
AcDbPolyline
 62
7
  6
CONTINUOUS
 90
4
 70
0
 10
37.8221835222
 20
13.9410905869
 10
37.8307306524
 20
13.9328134628
 10
37.8397628679
 20
13.9255208266
 10
37.8492610049
 20
13.9192312367
  0
LWPOLYLINE
  5
247
100
AcDbEntity
  8
DRAFT
100
AcDbPolyline
 62
7
  6
CONTINUOUS
 90
7
 70
0
 10
37.7839481291
 20
14.0073015959
 10
37.7880368424
 20
13.9954423392
 10
37.7932272304
 20
13.9834849717
 10
37.7992610049
 20
13.9720144708
 10
37.8061778913
 20
13.9610537691
 10
37.8139381641
 20
13.9505799341
 10
37.8221643583
 20
13.9411091453
  0
LWPOLYLINE
  5
248
100
AcDbEntity
  8
DRAFT
100
AcDbPolyline
 62
7
  6
CONTINUOUS
 90
13
 70
0
 10
39.1927638892
 20
14.6948030353
 10
39.1920662966
 20
14.7061729671
 10
39.1902670291
 20
14.7176410097
 10
39.1873660868
 20
14.7292071632
 10
39.1832773736
 20
14.7410664199
 10
39.1780869855
 20
14.7530237874
 10
39.1720532111
 20
14.7644942882
 10
39.1651363247
 20
14.7754549899
 10
39.1573760519
 20
14.785928825
 10
39.1491498576
 20
14.7953996137
 10
39.1405835636
 20
14.8036952962
 10
39.1315513481
 20
14.8109879324
 10
39.1220532111
 20
14.8172775223
  0
LWPOLYLINE
  5
249
100
AcDbEntity
  8
0
100
AcDbPolyline
 62
7
  6
CONTINUOUS
 90
4
 70
0
 10
39.1927638892
 20
14.6948030353
 10
39.1920747813
 20
14.706144435
 10
39.1902806046
 20
14.7175953584
 10
39.1873813593
 20
14.7291558054
  0
LINE
  5
24A
100
AcDbEntity
  8
0
100
AcDbLine
 62
7
  6
CONTINUOUS
 10
39.1927638892
 20
13.2251565371
 11
39.1927638892
 21
14.6948030353
  0
LINE
  5
24B
100
AcDbEntity
  8
DRAFT
100
AcDbLine
 62
7
  6
CONTINUOUS
 10
39.1927638892
 20
13.2251565371
 11
39.1927638892
 21
14.6948030353
  0
LINE
  5
24C
100
AcDbEntity
  8
DRAFT
100
AcDbLine
 62
7
  6
CONTINUOUS
 10
39.1920662966
 20
13.2145921677
 11
39.1927638892
 21
13.2251565371
  0
LWPOLYLINE
  5
24D
100
AcDbEntity
  8
0
100
AcDbPolyline
 62
7
  6
CONTINUOUS
 90
4
 70
0
 10
39.1873813593
 20
13.1970193776
 10
39.1902806046
 20
13.2052318487
 10
39.1920747813
 20
13.2146109019
 10
39.1927638892
 20
13.2251565371
  0
LWPOLYLINE
  5
24E
100
AcDbEntity
  8
0
100
AcDbPolyline
 62
7
  6
CONTINUOUS
 90
7
 70
0
 10
37.7986308293
 20
15.5567542291
 10
37.7932194106
 20
15.5526134825
 10
37.7880235993
 20
15.546634723
 10
37.7839328567
 20
15.5394893815
 10
37.7810336113
 20
15.5312769103
 10
37.7792394347
 20
15.5218978571
 10
37.7785503268
 20
15.511352222
  0
LWPOLYLINE
  5
24F
100
AcDbEntity
  8
DRAFT
100
AcDbPolyline
 62
7
  6
CONTINUOUS
 90
4
 70
0
 10
37.7986308812
 20
15.5567542606
 10
37.7932272304
 20
15.5526244536
 10
37.7880368424
 20
15.5466608161
 10
37.7839481291
 20
15.539523103
  0
LWPOLYLINE
  5
250
100
AcDbEntity
  8
0
100
AcDbPolyline
 62
7
  6
CONTINUOUS
 90
4
 70
0
 10
37.8221835222
 20
15.5615808385
 10
37.8139673843
 20
15.5616114441
 10
37.8061913031
 20
15.560101843
 10
37.7986308293
 20
15.5567542291
  0
LWPOLYLINE
  5
251
100
AcDbEntity
  8
DRAFT
100
AcDbPolyline
 62
7
  6
CONTINUOUS
 90
7
 70
0
 10
37.8492610049
 20
15.5521717903
 10
37.8397628679
 20
15.556850411
 10
37.8307306524
 20
15.5599879509
 10
37.8221643583
 20
15.56158441
 10
37.8139381641
 20
15.5616130242
 10
37.8061778913
 20
15.5601005576
 10
37.7986308812
 20
15.5567542606
  0
LWPOLYLINE
  5
252
100
AcDbEntity
  8
0
100
AcDbPolyline
 62
7
  6
CONTINUOUS
 90
4
 70
0
 10
37.8492610049
 20
15.5521717903
 10
37.8397833355
 20
15.5568483902
 10
37.8307634005
 20
15.5599847177
 10
37.8222011999
 20
15.5615807727
  0
LINE
  5
253
100
AcDbEntity
  8
0
100
AcDbLine
 62
7
  6
CONTINUOUS
 10
39.1220532111
 20
14.8172775223
 11
37.8492610049
 21
15.5521717903
  0
LINE
  5
254
100
AcDbEntity
  8
DRAFT
100
AcDbLine
 62
7
  6
CONTINUOUS
 10
39.1220532111
 20
14.8172775223
 11
37.8492610049
 21
15.5521717903
  0
LWPOLYLINE
  5
255
100
AcDbEntity
  8
0
100
AcDbPolyline
 62
7
  6
CONTINUOUS
 90
4
 70
0
 10
39.1491130161
 20
14.7954385201
 10
39.1405508155
 20
14.8037298797
 10
39.1315308805
 20
14.8110095471
 10
39.1220532111
 20
14.8172775223
  0
LWPOLYLINE
  5
256
100
AcDbEntity
  8
0
100
AcDbPolyline
 62
7
  6
CONTINUOUS
 90
4
 70
0
 10
39.1720532111
 20
14.7644942882
 10
39.1651229129
 20
14.775471763
 10
39.1573468317
 20
14.7859609877
 10
39.1491306938
 20
14.7954181722
  0
LWPOLYLINE
  5
257
100
AcDbEntity
  8
0
100
AcDbPolyline
 62
7
  6
CONTINUOUS
 90
4
 70
0
 10
39.1873725766
 20
14.7291812883
 10
39.1832906167
 20
14.741025034
 10
39.1780948054
 20
14.7530037861
 10
39.1720532111
 20
14.7644942882
  0
LWPOLYLINE
  5
258
100
AcDbEntity
  8
0
100
AcDbPolyline
 62
7
  6
CONTINUOUS
 90
4
 70
0
 10
39.171419988
 20
13.1790250564
 10
39.1780948054
 20
13.1838952766
 10
39.1832906167
 20
13.1898740361
 10
39.1873725766
 20
13.1970040368
  0
LWPOLYLINE
  5
259
100
AcDbEntity
  8
DRAFT
100
AcDbPolyline
 62
7
  6
CONTINUOUS
 90
6
 70
0
 10
39.1714200408
 20
13.1790250853
 10
39.1780869855
 20
13.1838843055
 10
39.1832773736
 20
13.1898479429
 10
39.1873660868
 20
13.1969856561
 10
39.1902670291
 20
13.2052018741
 10
39.1920662966
 20
13.2145921677
  0
LINE
  5
25A
100
AcDbEntity
  8
RACCORDO
100
AcDbLine
 62
7
  6
CONTINUOUS
 10
56.6326258923
 20
19.8902754182
 11
55.6200351819
 21
19.5329288336
  0
LINE
  5
25B
100
AcDbEntity
  8
RACCORDO
100
AcDbLine
 62
250
  6
CONTINUOUS
 10
56.6901366571
 20
19.8749996093
 11
55.6200351819
 21
19.4974141553
  0
LINE
  5
25C
100
AcDbEntity
  8
0
100
AcDbLine
 62
7
  6
CONTINUOUS
 10
56.2901094776
 20
8.6993925462
 11
56.9972162588
 21
8.2911179529
  0
LINE
  5
25D
100
AcDbEntity
  8
DRAFT
100
AcDbLine
 62
7
  6
CONTINUOUS
 10
55.1624418763
 20
18.6891666433
 11
55.6200351819
 21
18.9675844567
  0
LINE
  5
25E
100
AcDbEntity
  8
DRAFT
100
AcDbLine
 62
7
  6
CONTINUOUS
 10
57.3927556156
 20
19.4443553195
 11
57.0745575641
 21
19.2798869799
  0
LINE
  5
25F
100
AcDbEntity
  8
RACCORDO
100
AcDbLine
 62
7
  6
CONTINUOUS
 10
56.5168800282
 20
19.3785177874
 11
55.6200351819
 21
18.9791017698
  0
LINE
  5
260
100
AcDbEntity
  8
DRAFT
100
AcDbLine
 62
7
  6
CONTINUOUS
 10
57.0745575641
 20
16.8758809568
 11
56.5168800282
 21
16.9498072962
  0
LINE
  5
261
100
AcDbEntity
  8
RACCORDO
100
AcDbLine
 62
7
  6
CONTINUOUS
 10
56.5168800282
 20
16.9498072962
 11
55.3855091783
 21
16.3179664757
  0
LINE
  5
262
100
AcDbEntity
  8
DRAFT
100
AcDbLine
 62
7
  6
CONTINUOUS
 10
57.0745575641
 20
19.2798869799
 11
56.5168800282
 21
19.3785177874
  0
LINE
  5
263
100
AcDbEntity
  8
RACCORDO
100
AcDbLine
 62
7
  6
CONTINUOUS
 10
55.6200351819
 20
14.8852330727
 11
55.5269305346
 21
14.9389905292
  0
LINE
  5
264
100
AcDbEntity
  8
DRAFT
100
AcDbLine
 62
7
  6
CONTINUOUS
 10
57.3927556156
 20
17.0788597511
 11
57.0745575641
 21
16.8758809568
  0
LINE
  5
265
100
AcDbEntity
  8
DRAFT
100
AcDbLine
 62
7
  6
CONTINUOUS
 10
55.1624418763
 20
14.6068152593
 11
55.6200351819
 21
14.8852330727
  0
LINE
  5
266
100
AcDbEntity
  8
RACCORDO
100
AcDbLine
 62
250
  6
CONTINUOUS
 10
55.3855091783
 20
15.1839395032
 11
55.1624418763
 21
15.0551432387
  0
LINE
  5
267
100
AcDbEntity
  8
RACCORDO
100
AcDbLine
 62
250
  6
CONTINUOUS
 10
55.5269305346
 20
14.9389905292
 11
55.1624418763
 21
14.728539346
  0
LWPOLYLINE
  5
268
100
AcDbEntity
  8
0
100
AcDbPolyline
 62
250
  6
CONTINUOUS
 90
9
 70
0
 10
53.8747154805
 20
-15.5930811957
 10
53.8765883175
 20
-15.6339633686
 10
53.8821869869
 20
-15.6722497157
 10
53.8914521744
 20
-15.7075346173
 10
53.9042857211
 20
-15.7394442523
 10
53.9205516639
 20
-15.7676405583
 10
53.9400776753
 20
-15.7918248134
 10
53.9626568897
 20
-15.8117408007
 10
53.978256791
 20
-15.8219496262
  0
LINE
  5
269
100
AcDbEntity
  8
0
100
AcDbLine
 62
7
  6
CONTINUOUS
 10
55.6200351819
 20
8.4489260335
 11
56.2901094776
 21
8.6993925462
  0
LWPOLYLINE
  5
26A
100
AcDbEntity
  8
RACCORDO
100
AcDbPolyline
 62
250
  6
CONTINUOUS
 90
22
 70
0
 10
56.8806891878
 20
19.8826336248
 10
56.873109739
 20
19.8858188369
 10
56.8653261356
 20
19.8886602029
 10
56.8573470923
 20
19.8911536267
 10
56.8491794203
 20
19.893296585
 10
56.8408304281
 20
19.8950867899
 10
56.8323098342
 20
19.8965209839
 10
56.8236245477
 20
19.8975977543
 10
56.8147828333
 20
19.8983158311
 10
56.8057967629
 20
19.898672914
 10
56.7966743713
 20
19.8986688383
 10
56.7874238785
 20
19.8983037561
 10
56.7780579667
 20
19.8975767896
 10
56.7685854747
 20
19.8964891329
 10
56.7590146596
 20
19.8950422242
 10
56.7493575536
 20
19.8932363504
 10
56.7396229371
 20
19.8910737965
 10
56.7298196779
 20
19.8885572023
 10
56.7199600708
 20
19.8856880371
 10
56.7100542291
 20
19.882469213
 10
56.700110067
 20
19.8789050266
 10
56.6901366571
 20
19.8749996093
  0
LINE
  5
26B
100
AcDbEntity
  8
RACCORDO
100
AcDbLine
 62
250
  6
CONTINUOUS
 10
56.8957461138
 20
19.8749364549
 11
56.8880578312
 21
19.8791078404
  0
LWPOLYLINE
  5
26C
100
AcDbEntity
  8
RACCORDO
100
AcDbPolyline
 62
7
  6
CONTINUOUS
 90
10
 70
0
 10
56.8957947742
 20
19.8749082821
 10
56.8912996778
 20
19.8774470039
 10
56.8632531428
 20
19.8908688471
 10
56.8336740421
 20
19.9010581331
 10
56.8028972716
 20
19.907938826
 10
56.770989915
 20
19.9115039664
 10
56.7382129908
 20
19.9116971478
 10
56.7048166156
 20
19.9084893655
 10
56.670746644
 20
19.9018007437
 10
56.6326426497
 20
19.8902814235
  0
LINE
  5
26D
100
AcDbEntity
  8
RACCORDO
100
AcDbLine
 62
250
  6
CONTINUOUS
 10
57.3927556156
 20
19.4693162285
 11
56.6901366571
 21
19.8749996093
  0
LINE
  5
26E
100
AcDbEntity
  8
RACCORDO
100
AcDbLine
 62
7
  6
CONTINUOUS
 10
57.3927556156
 20
19.5879693975
 11
56.8957459721
 21
19.8749365367
  0
LWPOLYLINE
  5
26F
100
AcDbEntity
  8
RACCORDO
100
AcDbPolyline
 62
7
  6
CONTINUOUS
 90
16
 70
0
 10
55.3855091783
 20
-6.4525228318
 10
55.3863535332
 20
-6.470379391
 10
55.3886607511
 20
-6.4885317624
 10
55.3924308322
 20
-6.5069799462
 10
55.3977366022
 20
-6.5259310255
 10
55.4045052352
 20
-6.545177917
 10
55.412518254
 20
-6.5640993711
 10
55.4218162615
 20
-6.5826847692
 10
55.4323586547
 20
-6.6009447298
 10
55.443805147
 20
-6.6182898594
 10
55.4561852383
 20
-6.6346903079
 10
55.4694694287
 20
-6.6501759255
 10
55.4832289321
 20
-6.6642468684
 10
55.4973208199
 20
-6.6767365221
 10
55.5118880207
 20
-6.6878115013
 10
55.5269305346
 20
-6.6974718058
  0
LINE
  5
270
100
AcDbEntity
  8
0
100
AcDbLine
 62
250
  6
CONTINUOUS
 10
53.8747154805
 20
26.5586910865
 11
53.8747154805
 21
-15.5930811957
  0
LINE
  5
271
100
AcDbEntity
  8
0
100
AcDbLine
 62
250
  6
CONTINUOUS
 10
54.572446159
 20
26.5534173478
 11
54.572446159
 21
-15.5983549344
  0
LINE
  5
272
100
AcDbEntity
  8
DRAFT
100
AcDbLine
 62
7
  6
CONTINUOUS
 10
55.6200351819
 20
7.7411181508
 11
56.9972162588
 21
8.2911179529
  0
LWPOLYLINE
  5
273
100
AcDbEntity
  8
RACCORDO
100
AcDbPolyline
 62
250
  6
CONTINUOUS
 90
7
 70
0
 10
56.6901366571
 20
19.8749996093
 10
56.6788428693
 20
19.8829731932
 10
56.6675153975
 20
19.8886471929
 10
56.6563458205
 20
19.8919256455
 10
56.6455230464
 20
19.8927531034
 10
56.6352301182
 20
19.8911155719
 10
56.6326426497
 20
19.8902814235
  0
LWPOLYLINE
  5
274
100
AcDbEntity
  8
0
100
AcDbPolyline
 62
250
  6
CONTINUOUS
 90
19
 70
0
 10
54.572446159
 20
26.5534173478
 10
54.5703011831
 20
26.5894149282
 10
54.5655399775
 20
26.6267442065
 10
54.5581977867
 20
26.6651201963
 10
54.5483272654
 20
26.7042580891
 10
54.536004158
 20
26.7438504083
 10
54.5213318799
 20
26.7835686601
 10
54.5044355618
 20
26.8230881663
 10
54.4854402771
 20
26.8621285709
 10
54.4644732276
 20
26.9004286886
 10
54.4416701042
 20
26.9377287106
 10
54.4172216498
 20
26.9737056239
 10
54.3913615849
 20
27.0080206404
 10
54.3642923526
 20
27.040419499
 10
54.3362256211
 20
27.0706625478
 10
54.3074343921
 20
27.0984781272
 10
54.2781619793
 20
27.1236648942
 10
54.2486143205
 20
27.1460785804
 10
54.2190139208
 20
27.1655799373
  0
LWPOLYLINE
  5
275
100
AcDbEntity
  8
RACCORDO
100
AcDbPolyline
 62
7
  6
CONTINUOUS
 90
16
 70
0
 10
55.3855091783
 20
15.1839395032
 10
55.3863535332
 20
15.166082944
 10
55.3886607511
 20
15.1479305726
 10
55.3924308322
 20
15.1294823888
 10
55.3977366022
 20
15.1105313096
 10
55.4045052352
 20
15.091284418
 10
55.412518254
 20
15.0723629639
 10
55.4218162615
 20
15.0537775658
 10
55.4323586547
 20
15.0355176052
 10
55.443805147
 20
15.0181724756
 10
55.4561852383
 20
15.0017720271
 10
55.4694694287
 20
14.9862864096
 10
55.4832289321
 20
14.9722154666
 10
55.4973208199
 20
14.9597258129
 10
55.5118880207
 20
14.9486508337
 10
55.5269305346
 20
14.9389905292
  0
LINE
  5
276
100
AcDbEntity
  8
0
100
AcDbLine
 62
7
  6
CONTINUOUS
 10
55.1624418763
 20
-15.2924681882
 11
55.1624418763
 21
26.8940718005
  0
LINE
  5
277
100
AcDbEntity
  8
RACCORDO
100
AcDbLine
 62
7
  6
CONTINUOUS
 10
55.3855091783
 20
-6.4525228318
 11
55.3855091783
 21
-2.811572748
  0
LINE
  5
278
100
AcDbEntity
  8
RACCORDO
100
AcDbLine
 62
7
  6
CONTINUOUS
 10
55.3855091783
 20
15.1839395032
 11
55.3855091783
 21
18.824889587
  0
LINE
  5
279
100
AcDbEntity
  8
RACCORDO
100
AcDbLine
 62
7
  6
CONTINUOUS
 10
55.6200351819
 20
-14.9470147209
 11
55.6200351819
 21
-6.7512292623
  0
LINE
  5
27A
100
AcDbEntity
  8
DRAFT
100
AcDbLine
 62
7
  6
CONTINUOUS
 10
55.6200351819
 20
-2.6688778783
 11
55.6200351819
 21
4.4752370436
  0
LINE
  5
27B
100
AcDbEntity
  8
DRAFT
100
AcDbLine
 62
7
  6
CONTINUOUS
 10
55.6200351819
 20
7.7411181508
 11
55.6200351819
 21
14.8852330727
  0
LINE
  5
27C
100
AcDbEntity
  8
RACCORDO
100
AcDbLine
 62
7
  6
CONTINUOUS
 10
55.6200351819
 20
18.9675844567
 11
55.6200351819
 21
27.1633699153
  0
LINE
  5
27D
100
AcDbEntity
  8
DRAFT
100
AcDbLine
 62
7
  6
CONTINUOUS
 10
56.5168800282
 20
19.3785177874
 11
56.5168800282
 21
16.9498072962
  0
LINE
  5
27E
100
AcDbEntity
  8
DRAFT
100
AcDbLine
 62
7
  6
CONTINUOUS
 10
56.5168800282
 20
-4.6866550389
 11
56.5168800282
 21
-2.2579445476
  0
LINE
  5
27F
100
AcDbEntity
  8
DRAFT
100
AcDbLine
 62
7
  6
CONTINUOUS
 10
56.9972162588
 20
8.2911179529
 11
56.9972162588
 21
5.6010998007
  0
LINE
  5
280
100
AcDbEntity
  8
DRAFT
100
AcDbLine
 62
7
  6
CONTINUOUS
 10
57.0745575641
 20
19.2798869799
 11
57.0745575641
 21
16.8758809568
  0
LINE
  5
281
100
AcDbEntity
  8
DRAFT
100
AcDbLine
 62
7
  6
CONTINUOUS
 10
57.0745575641
 20
-4.7605813783
 11
57.0745575641
 21
-2.3565753551
  0
LINE
  5
282
100
AcDbEntity
  8
RACCORDO
100
AcDbLine
 62
7
  6
CONTINUOUS
 10
57.3927556156
 20
19.5879222368
 11
57.3927556156
 21
19.4443553195
  0
LINE
  5
283
100
AcDbEntity
  8
DRAFT
100
AcDbLine
 62
7
  6
CONTINUOUS
 10
57.3927556156
 20
19.4443553195
 11
57.3927556156
 21
17.0788597511
  0
LINE
  5
284
100
AcDbEntity
  8
RACCORDO
100
AcDbLine
 62
7
  6
CONTINUOUS
 10
57.3927556156
 20
-2.0485400982
 11
57.3927556156
 21
-2.1921070155
  0
LINE
  5
285
100
AcDbEntity
  8
DRAFT
100
AcDbLine
 62
7
  6
CONTINUOUS
 10
57.3927556156
 20
-4.5576025839
 11
57.3927556156
 21
-2.1921070155
  0
LWPOLYLINE
  5
286
100
AcDbEntity
  8
0
100
AcDbPolyline
 62
250
  6
CONTINUOUS
 90
11
 70
0
 10
54.572446159
 20
-15.5983549344
 10
54.5703054957
 20
-15.6336169019
 10
54.565555947
 20
-15.667012961
 10
54.5582336689
 20
-15.6982883293
 10
54.5483944069
 20
-15.7272044796
 10
54.536113165
 20
-15.7535406709
 10
54.5214837133
 20
-15.7770957211
 10
54.5046164131
 20
-15.7976912728
 10
54.4856408773
 20
-15.8151684884
 10
54.4647066088
 20
-15.8293913217
 10
54.4585191982
 20
-15.8327735443
  0
LINE
  5
287
100
AcDbEntity
  8
0
100
AcDbLine
 62
250
  6
CONTINUOUS
 10
53.8747154805
 20
26.5586910865
 11
23.0965987355
 21
44.3295899547
  0
LINE
  5
288
100
AcDbEntity
  8
DRAFT
100
AcDbLine
 62
7
  6
CONTINUOUS
 10
55.6200351819
 20
4.4752370436
 11
56.9972162588
 21
5.6010998007
  0
LINE
  5
289
100
AcDbEntity
  8
0
100
AcDbLine
 62
250
  6
CONTINUOUS
 10
54.2190139223
 20
27.1655799382
 11
23.4408971772
 21
44.9364788063
  0
LINE
  5
28A
100
AcDbEntity
  8
0
100
AcDbLine
 62
7
  6
CONTINUOUS
 10
54.8090096396
 20
27.5062343908
 11
24.0007822075
 21
45.2945187924
  0
LINE
  5
28B
100
AcDbEntity
  8
RACCORDO
100
AcDbLine
 62
7
  6
CONTINUOUS
 10
55.302454263
 20
27.7147107938
 11
24.4972870777
 21
45.5012282472
  0
LINE
  5
28C
100
AcDbEntity
  8
RACCORDO
100
AcDbLine
 62
7
  6
CONTINUOUS
 10
56.6326258923
 20
-1.7461869168
 11
55.6200351819
 21
-2.1035335014
  0
LINE
  5
28D
100
AcDbEntity
  8
RACCORDO
100
AcDbLine
 62
250
  6
CONTINUOUS
 10
56.6901366571
 20
-1.7614627257
 11
55.6200351819
 21
-2.1390481797
  0
LINE
  5
28E
100
AcDbEntity
  8
DRAFT
100
AcDbLine
 62
7
  6
CONTINUOUS
 10
55.1624418763
 20
-2.9472956917
 11
55.6200351819
 21
-2.6688778783
  0
LINE
  5
28F
100
AcDbEntity
  8
DRAFT
100
AcDbLine
 62
7
  6
CONTINUOUS
 10
57.3927556156
 20
-2.1921070155
 11
57.0745575641
 21
-2.3565753551
  0
LINE
  5
290
100
AcDbEntity
  8
RACCORDO
100
AcDbLine
 62
7
  6
CONTINUOUS
 10
56.5168800282
 20
-2.2579445476
 11
55.6200351819
 21
-2.6573605652
  0
LINE
  5
291
100
AcDbEntity
  8
DRAFT
100
AcDbLine
 62
7
  6
CONTINUOUS
 10
57.3927556156
 20
-4.5576025839
 11
57.0745575641
 21
-4.7605813783
  0
LINE
  5
292
100
AcDbEntity
  8
RACCORDO
100
AcDbLine
 62
250
  6
CONTINUOUS
 10
55.3855091783
 20
-6.4525228318
 11
55.1624418763
 21
-6.5813190964
  0
LINE
  5
293
100
AcDbEntity
  8
RACCORDO
100
AcDbLine
 62
7
  6
CONTINUOUS
 10
56.5168800282
 20
-4.6866550389
 11
55.3855091783
 21
-5.3184958593
  0
LINE
  5
294
100
AcDbEntity
  8
DRAFT
100
AcDbLine
 62
7
  6
CONTINUOUS
 10
55.1624418763
 20
-7.0296470757
 11
55.6200351819
 21
-6.7512292623
  0
LINE
  5
295
100
AcDbEntity
  8
RACCORDO
100
AcDbLine
 62
250
  6
CONTINUOUS
 10
55.5269305346
 20
-6.6974718058
 11
55.1624418763
 21
-6.907922989
  0
LINE
  5
296
100
AcDbEntity
  8
RACCORDO
100
AcDbLine
 62
250
  6
CONTINUOUS
 10
55.6200351819
 20
-14.9470147209
 11
55.1624418763
 21
-15.2729016097
  0
LINE
  5
297
100
AcDbEntity
  8
RACCORDO
100
AcDbLine
 62
7
  6
CONTINUOUS
 10
55.5387167285
 20
-15.1460644371
 11
55.1347543333
 21
-15.4337566882
  0
LINE
  5
298
100
AcDbEntity
  8
0
100
AcDbLine
 62
250
  6
CONTINUOUS
 10
54.4585191982
 20
-15.8327735443
 11
54.4584055385
 21
-15.8328325273
  0
LINE
  5
299
100
AcDbEntity
  8
0
100
AcDbLine
 62
250
  6
CONTINUOUS
 10
54.572446159
 20
-15.5983549344
 11
55.1624418763
 21
-15.2924681882
  0
LINE
  5
29A
100
AcDbEntity
  8
0
100
AcDbLine
 62
7
  6
CONTINUOUS
 10
54.4584055385
 20
-15.8328325273
 11
55.0523259889
 21
-15.5249109801
  0
LWPOLYLINE
  5
29B
100
AcDbEntity
  8
0
100
AcDbPolyline
 62
250
  6
CONTINUOUS
 90
16
 70
0
 10
54.572446159
 20
-15.5983549344
 10
54.53321919
 20
-15.6177273009
 10
54.4907422255
 20
-15.6346612678
 10
54.4454680062
 20
-15.648976379
 10
54.3978736161
 20
-15.6605212293
 10
54.348471377
 20
-15.6691710159
 10
54.2978051809
 20
-15.6748321603
 10
54.2464269077
 20
-15.6774471968
 10
54.1948729531
 20
-15.6769929598
 10
54.1436757311
 20
-15.6734758503
 10
54.0933106933
 20
-15.6669224105
 10
54.0443860788
 20
-15.6574055517
 10
53.9975995316
 20
-15.6450799401
 10
53.9534757577
 20
-15.6301293254
 10
53.9123841499
 20
-15.6127266806
 10
53.8747154805
 20
-15.5930811957
  0
ARC
  5
29C
100
AcDbEntity
  8
0
100
AcDbCircle
 62
7
  6
CONTINUOUS
 10
54.2282688711
 20
-15.388943899
 40
0.5
100
AcDbArc
 50
239.9984015652
 51
297.4194204712
  0
ARC
  5
29D
100
AcDbEntity
  8
0
100
AcDbCircle
 62
7
  6
CONTINUOUS
 10
23.4501521261
 20
2.3819549692
 40
0.5
100
AcDbArc
 50
179.9840060023
 51
239.9984015651
  0
ARC
  5
29E
100
AcDbEntity
  8
0
100
AcDbCircle
 62
7
  6
CONTINUOUS
 10
23.4501521261
 20
44.5337272514
 40
0.5
100
AcDbArc
 50
122.5992953906
 51
180.0013072924
  0
ELLIPSE
  5
29F
100
AcDbEntity
  8
RACCORDO
100
AcDbEllipse
 62
7
  6
CONTINUOUS
 10
24.4980132863
 20
45.1319938662
 30
0.0
 11
-0.2245667503
 21
0.3916366537
 31
0.0
 40
0.576009292
 41
-0.7808516838
 42
-0.0566951759
  0
ELLIPSE
  5
2A0
100
AcDbEntity
  8
RACCORDO
100
AcDbEllipse
 62
7
  6
CONTINUOUS
 10
55.3017280544
 20
-14.7623867338
 30
0.0
 11
-0.2245667503
 21
0.3916366537
 31
0.0
 40
0.576009292
 41
-3.0848974781
 42
-2.3539294839
  0
ELLIPSE
  5
2A1
100
AcDbEntity
  8
RACCORDO
100
AcDbEllipse
 62
7
  6
CONTINUOUS
 10
54.8087672902
 20
-15.0879810828
 30
0.0
 11
-0.2501834304
 21
0.4333025529
 31
0.0
 40
0.5769361983
 41
3.1154319183
 42
3.9265999453
  0
ELLIPSE
  5
2A2
100
AcDbEntity
  8
RACCORDO
100
AcDbEllipse
 62
7
  6
CONTINUOUS
 10
55.3017280544
 20
27.3463150203
 30
0.0
 11
-0.224044438
 21
0.3907502414
 31
0.0
 40
0.5786435377
 41
-2.35161679
 42
-0.7831019366
  0
ELLIPSE
  5
2A3
100
AcDbEntity
  8
RACCORDO
100
AcDbEllipse
 62
7
  6
CONTINUOUS
 10
54.8087672902
 20
27.097999242
 30
0.0
 11
-0.2500121049
 21
0.4330057129
 31
0.0
 40
0.5777274115
 41
-2.3559002616
 42
-0.7857891675
  0
ELLIPSE
  5
2A4
100
AcDbEntity
  8
RACCORDO
100
AcDbEllipse
 62
7
  6
CONTINUOUS
 10
24.0010245568
 20
44.8860037845
 30
0.0
 11
-0.2501834304
 21
0.4333025529
 31
0.0
 40
0.5769361983
 41
5.4980815048
 42
6.3093460435
  0
ENDSEC
  0
SECTION
  2
OBJECTS
  0
DICTIONARY
  5
C
100
AcDbDictionary
280
0
281
1
  3
ACAD_GROUP
350
D
  3
ACAD_MLINESTYLE
350
17
  3
ACAD_LAYOUT
350
1A
  3
ACAD_PLOTSETTINGS
350
19
  3
ACAD_PLOTSTYLENAME
350
E
  0
DICTIONARY
  5
D
102
{ACAD_REACTORS
330
C
102
}
100
AcDbDictionary
280
0
281
1
  0
ACDBDICTIONARYWDFLT
  5
E
102
{ACAD_REACTORS
330
C
102
}
100
AcDbDictionary
281
1
  3
Normal
350
F
100
AcDbDictionaryWithDefault
340
F
  0
DICTIONARY
  5
17
102
{ACAD_REACTORS
330
C
102
}
100
AcDbDictionary
280
0
281
1
  3
Standard
350
18
  0
DICTIONARY
  5
19
102
{ACAD_REACTORS
330
C
102
}
100
AcDbDictionary
281
1
  0
DICTIONARY
  5
1A
102
{ACAD_REACTORS
330
C
102
}
100
AcDbDictionary
281
1
  3
Model
350
2A5
  3
Layout1
350
2A6
  0
ACDBPLACEHOLDER
  5
F
102
{ACAD_REACTORS
330
E
102
}
  0
MLINESTYLE
  5
18
102
{ACAD_REACTORS
330
17
102
}
100
AcDbMlineStyle
  2
STANDARD
 70
0
  3

 62
256
 51
90.0
 52
90.0
 71
2
 49
0.5
 62
256
  6
BYLAYER
 49
-0.5
 62
256
  6
BYLAYER
  0
LAYOUT
  5
2A5
102
{ACAD_REACTORS
330
1A
102
}
100
AcDbPlotSettings
  1

  2
none_device
  4
ISO_A4_(297.00_x_210.00_MM)
  6

 40
0.0
 41
0.0
 42
0.0
 43
0.0
 44
297.0
 45
210.0
 46
0.0
 47
0.0
 48
0.0
 49
0.0
140
0.0
141
0.0
142
1.0
143
1.0
 70
1024
 72
1
 73
0
 74
0
  7

 75
0
147
1.0
148
0.0
149
0.0
100
AcDbLayout
  1
Model
 70
0
 71
0
 10
0.0
 20
0.0
 11
297.0
 21
210.0
 12
0.0
 22
0.0
 32
0.0
 14
0.0
 24
0.0
 34
0.0
 15
0.0
 25
0.0
 35
0.0
146
0.0
 13
0.0
 23
0.0
 33
0.0
 16
1.0
 26
0.0
 36
0.0
 17
0.0
 27
1.0
 37
0.0
 76
0
330
219
345
0
346
0
  0
LAYOUT
  5
2A6
102
{ACAD_REACTORS
330
1A
102
}
100
AcDbPlotSettings
  1

  2
none_device
  4
ISO_A4_(297.00_x_210.00_MM)
  6

 40
0.0
 41
0.0
 42
0.0
 43
0.0
 44
297.0
 45
210.0
 46
0.0
 47
0.0
 48
0.0
 49
0.0
140
0.0
141
0.0
142
1.0
143
1.0
 70
0
 72
1
 73
0
 74
0
  7

 75
0
147
1.0
148
0.0
149
0.0
100
AcDbLayout
  1
Layout1
 70
0
 71
1
 10
0.0
 20
0.0
 11
297.0
 21
210.0
 12
0.0
 22
0.0
 32
0.0
 14
0.0
 24
0.0
 34
0.0
 15
0.0
 25
0.0
 35
0.0
146
0.0
 13
0.0
 23
0.0
 33
0.0
 16
1.0
 26
0.0
 36
0.0
 17
0.0
 27
1.0
 37
0.0
 76
0
330
21A
345
0
346
0
  0
ENDSEC
  0
EOF
