  0
SECTION
  2
HEADER
  9
$ACADVER
  1
AC1024
  9
$DWGCODEPAGE
  3
ANSI_1252
  9
$EXTMAX
 10
558.8
 20
431.8
 30
0.0
  9
$EXTMIN
 10
0.0
 20
0.0
 30
0.0
  9
$LIMMIN
 10
0.0
 20
0.0
  9
$LIMMAX
 10
558.8
 20
431.8
  9
$VIEWCTR
 10
279.4
 20
215.9
  9
$VIEWSIZE
 40
431.8
  9
$CLAYER
  8
0
  9
$LTSCALE
 40
30.734
  9
$CELTYPE
  6
BYLAYER
  9
$DIMSCALE
 40
1.0
  9
$DIMASZ
 40
3.0
  9
$DIMEXO
 40
0.5
  9
$DIMDLI
 40
21.2344
  9
$DIMEXE
 40
1.5
  9
$DIMCEN
 40
5.0292
  9
$DIMLFAC
 40
1.0
  9
$DIMBLK
  1
_FILLED
  9
$DIMALT
 70
0
  9
$DIMALTF
 40
0.0393700787
  9
$DIMTXT
 40
3.0
  9
$DIMTOL
 70
1
  9
$DIMLIM
 70
0
  9
$DIMTFAC
 40
1.0
  9
$DIMTP
 40
0.01
  9
$DIMTM
 40
0.01
  9
$DIMGAP
 40
0.625
  9
$DIMDSEP
 70
44
  9
$AUNITS
 70
0
  9
$PDMODE
 70
3
  9
$PDSIZE
 40
3.0
  9
$HANDSEED
  5
2CF
  9
$TILEMODE
 70
1
  9
$MEASUREMENT
 70
1
  9
$INSUNITS
 70
4
  0
ENDSEC
  0
SECTION
  2
CLASSES
  0
CLASS
  1
ACDBDICTIONARYWDFLT
  2
AcDbDictionaryWithDefault
  3
AutoCAD 2000
 90
0
 91
1
280
0
281
0
  0
CLASS
  1
ACDBPLACEHOLDER
  2
AcDbPlaceHolder
  3
AutoCAD 2000
 90
0
 91
1
280
0
281
0
  0
CLASS
  1
LAYOUT
  2
AcDbLayout
  3
AutoCAD 2000
 90
0
 91
0
280
0
281
0
  0
ENDSEC
  0
SECTION
  2
TABLES
  0
TABLE
  2
VPORT
  5
8
100
AcDbSymbolTable
 70
2
  0
VPORT
  5
1F4
100
AcDbSymbolTableRecord
100
AcDbViewportTableRecord
  2
*ACTIVE
 70
0
 10
0.0
 20
0.0
 11
1.0
 21
1.0
 12
279.4
 22
215.9
 13
0.0
 23
0.0
 14
1.0
 24
1.0
 15
0.0
 25
0.0
 16
0.0
 26
0.0
 36
1.0
 17
0.0
 27
0.0
 37
0.0
 40
431.8
 41
1.2941176471
 42
50.0
 43
0.0
 44
0.0
 50
0.0
 51
0.0
 71
0
 72
100
 73
1
 74
1
 75
0
 76
0
 77
0
 78
0
  0
ENDTAB
  0
TABLE
  2
LTYPE
  5
5
100
AcDbSymbolTable
 70
6
  0
LTYPE
  5
14
100
AcDbSymbolTableRecord
100
AcDbLinetypeTableRecord
  2
BYBLOCK
 70
0
  3

 72
65
 73
0
 40
0.0
  0
LTYPE
  5
15
100
AcDbSymbolTableRecord
100
AcDbLinetypeTableRecord
  2
BYLAYER
 70
0
  3

 72
65
 73
0
 40
0.0
  0
LTYPE
  5
16
100
AcDbSymbolTableRecord
100
AcDbLinetypeTableRecord
  2
CONTINUOUS
 70
64
  3
Solid line
 72
65
 73
0
 40
0.0
  0
LTYPE
  5
1F5
100
AcDbSymbolTableRecord
100
AcDbLinetypeTableRecord
  2
CENTER
 70
64
  3
____ _ ____ _ ____ _ ____ _ ____ _ ____ _ ____
 72
65
 73
4
 40
0.6
 49
0.375
 74
0
 49
-0.075
 74
0
 49
0.075
 74
0
 49
-0.075
 74
0
  0
LTYPE
  5
1F6
100
AcDbSymbolTableRecord
100
AcDbLinetypeTableRecord
  2
HIDDEN
 70
64
  3
- - - - - - - - - - - - - - - - - - - -
 72
65
 73
2
 40
0.2
 49
0.1
 74
0
 49
-0.1
 74
0
  0
LTYPE
  5
1F7
100
AcDbSymbolTableRecord
100
AcDbLinetypeTableRecord
  2
PHANTOM
 70
64
  3
_____ _ _ _____ _ _ _____ _ _ _____
 72
65
 73
6
 40
0.8
 49
0.45
 74
0
 49
-0.05
 74
0
 49
0.1
 74
0
 49
-0.05
 74
0
 49
0.1
 74
0
 49
-0.05
 74
0
  0
LTYPE
  5
1F8
100
AcDbSymbolTableRecord
100
AcDbLinetypeTableRecord
  2
DOT
 70
64
  3
. . . . . . . . . . . . . . . . . . . .
 72
65
 73
2
 40
0.2
 49
0.1
 74
0
 49
-0.1
 74
0
  0
LTYPE
  5
1F9
100
AcDbSymbolTableRecord
100
AcDbLinetypeTableRecord
  2
DASHED
 70
64
  3
- - - - - - - - - - - - - - - - - - - -
 72
65
 73
2
 40
0.2
 49
0.1
 74
0
 49
-0.1
 74
0
  0
ENDTAB
  0
TABLE
  2
LAYER
  5
2
100
AcDbSymbolTable
 70
36
  0
LAYER
  5
10
100
AcDbSymbolTableRecord
100
AcDbLayerTableRecord
  2
0
 70
0
 62
7
  6
CONTINUOUS
370
-3
390
F
  0
LAYER
  5
1FA
100
AcDbSymbolTableRecord
100
AcDbLayerTableRecord
  2
DEFAULT_1
 70
0
 62
7
  6
CENTER
370
-3
390
F
  0
LAYER
  5
1FB
100
AcDbSymbolTableRecord
100
AcDbLayerTableRecord
  2
DEFAULT_2
 70
0
 62
7
  6
HIDDEN
370
-3
390
F
  0
LAYER
  5
1FC
100
AcDbSymbolTableRecord
100
AcDbLayerTableRecord
  2
DEFAULT_3
 70
0
 62
7
  6
PHANTOM
370
-3
390
F
  0
LAYER
  5
1FD
100
AcDbSymbolTableRecord
100
AcDbLayerTableRecord
  2
9
 70
0
 62
7
  6
CONTINUOUS
370
-3
390
F
  0
LAYER
  5
1FE
100
AcDbSymbolTableRecord
100
AcDbLayerTableRecord
  2
ASSI
 70
0
 62
7
  6
CONTINUOUS
370
-3
390
F
  0
LAYER
  5
1FF
100
AcDbSymbolTableRecord
100
AcDbLayerTableRecord
  2
COORDINATE
 70
0
 62
7
  6
CONTINUOUS
370
-3
390
F
  0
LAYER
  5
200
100
AcDbSymbolTableRecord
100
AcDbLayerTableRecord
  2
COPY_PUBLISH
 70
0
 62
7
  6
CONTINUOUS
370
-3
390
F
  0
LAYER
  5
201
100
AcDbSymbolTableRecord
100
AcDbLayerTableRecord
  2
COSMETICI
 70
0
 62
7
  6
CONTINUOUS
370
-3
390
F
  0
LAYER
  5
202
100
AcDbSymbolTableRecord
100
AcDbLayerTableRecord
  2
CURVE
 70
0
 62
7
  6
CONTINUOUS
370
-3
390
F
  0
LAYER
  5
203
100
AcDbSymbolTableRecord
100
AcDbLayerTableRecord
  2
DRAFT
 70
0
 62
7
  6
CONTINUOUS
370
-3
390
F
  0
LAYER
  5
204
100
AcDbSymbolTableRecord
100
AcDbLayerTableRecord
  2
IMPORT_IGES
 70
0
 62
7
  6
CONTINUOUS
370
-3
390
F
  0
LAYER
  5
205
100
AcDbSymbolTableRecord
100
AcDbLayerTableRecord
  2
INTF_1
 70
0
 62
7
  6
CONTINUOUS
370
-3
390
F
  0
LAYER
  5
206
100
AcDbSymbolTableRecord
100
AcDbLayerTableRecord
  2
INTF_10
 70
0
 62
7
  6
CONTINUOUS
370
-3
390
F
  0
LAYER
  5
207
100
AcDbSymbolTableRecord
100
AcDbLayerTableRecord
  2
INTF_17
 70
0
 62
7
  6
CONTINUOUS
370
-3
390
F
  0
LAYER
  5
208
100
AcDbSymbolTableRecord
100
AcDbLayerTableRecord
  2
INTF_2
 70
0
 62
7
  6
CONTINUOUS
370
-3
390
F
  0
LAYER
  5
209
100
AcDbSymbolTableRecord
100
AcDbLayerTableRecord
  2
INTF_3
 70
0
 62
7
  6
CONTINUOUS
370
-3
390
F
  0
LAYER
  5
20A
100
AcDbSymbolTableRecord
100
AcDbLayerTableRecord
  2
INTF_4
 70
0
 62
7
  6
CONTINUOUS
370
-3
390
F
  0
LAYER
  5
20B
100
AcDbSymbolTableRecord
100
AcDbLayerTableRecord
  2
INTF_5
 70
0
 62
7
  6
CONTINUOUS
370
-3
390
F
  0
LAYER
  5
20C
100
AcDbSymbolTableRecord
100
AcDbLayerTableRecord
  2
INTF_6
 70
0
 62
7
  6
CONTINUOUS
370
-3
390
F
  0
LAYER
  5
20D
100
AcDbSymbolTableRecord
100
AcDbLayerTableRecord
  2
INTF_7
 70
0
 62
7
  6
CONTINUOUS
370
-3
390
F
  0
LAYER
  5
20E
100
AcDbSymbolTableRecord
100
AcDbLayerTableRecord
  2
INTF_9
 70
0
 62
7
  6
CONTINUOUS
370
-3
390
F
  0
LAYER
  5
20F
100
AcDbSymbolTableRecord
100
AcDbLayerTableRecord
  2
INTF_BLANK
 70
0
 62
7
  6
CONTINUOUS
370
-3
390
F
  0
LAYER
  5
210
100
AcDbSymbolTableRecord
100
AcDbLayerTableRecord
  2
INTF_RED
 70
0
 62
7
  6
CONTINUOUS
370
-3
390
F
  0
LAYER
  5
211
100
AcDbSymbolTableRecord
100
AcDbLayerTableRecord
  2
NOTE
 70
0
 62
7
  6
CONTINUOUS
370
-3
390
F
  0
LAYER
  5
212
100
AcDbSymbolTableRecord
100
AcDbLayerTableRecord
  2
PIANI
 70
0
 62
7
  6
CONTINUOUS
370
-3
390
F
  0
LAYER
  5
213
100
AcDbSymbolTableRecord
100
AcDbLayerTableRecord
  2
PUNTI
 70
0
 62
7
  6
CONTINUOUS
370
-3
390
F
  0
LAYER
  5
214
100
AcDbSymbolTableRecord
100
AcDbLayerTableRecord
  2
RACCORDO
 70
0
 62
7
  6
CONTINUOUS
370
-3
390
F
  0
LAYER
  5
215
100
AcDbSymbolTableRecord
100
AcDbLayerTableRecord
  2
RGB____0____0____0__
 70
0
 62
7
  6
CONTINUOUS
370
-3
390
F
  0
LAYER
  5
216
100
AcDbSymbolTableRecord
100
AcDbLayerTableRecord
  2
SIMBOLI
 70
0
 62
7
  6
CONTINUOUS
370
-3
390
F
  0
LAYER
  5
217
100
AcDbSymbolTableRecord
100
AcDbLayerTableRecord
  2
SMUSSO
 70
0
 62
7
  6
CONTINUOUS
370
-3
390
F
  0
LAYER
  5
218
100
AcDbSymbolTableRecord
100
AcDbLayerTableRecord
  2
SUPERFICI
 70
0
 62
7
  6
CONTINUOUS
370
-3
390
F
  0
LAYER
  5
219
100
AcDbSymbolTableRecord
100
AcDbLayerTableRecord
  2
TRASH
 70
0
 62
7
  6
CONTINUOUS
370
-3
390
F
  0
ENDTAB
  0
TABLE
  2
STYLE
  5
3
100
AcDbSymbolTable
 70
1
  0
STYLE
  5
11
100
AcDbSymbolTableRecord
100
AcDbTextStyleTableRecord
  2
STANDARD
 70
0
 40
0.0
 41
0.8
 50
0.0
 71
0
 42
0.2
  3
txt
  4

  0
STYLE
  5
21A
100
AcDbSymbolTableRecord
100
AcDbTextStyleTableRecord
  2
TEXTSTYLE_1
 70
0
 40
0.0
 41
0.8
 50
0.0
 71
0
 42
0.2
  3
gdt
  4

  0
ENDTAB
  0
TABLE
  2
VIEW
  5
6
100
AcDbSymbolTable
 70
0
  0
ENDTAB
  0
TABLE
  2
UCS
  5
7
100
AcDbSymbolTable
 70
0
  0
ENDTAB
  0
TABLE
  2
APPID
  5
9
100
AcDbSymbolTable
 70
1
  0
APPID
  5
21B
100
AcDbSymbolTableRecord
100
AcDbRegAppTableRecord
  2
ACAD
 70
0
  0
ENDTAB
  0
TABLE
  2
BLOCK_RECORD
  5
1
100
AcDbSymbolTable
 70
0
  0
BLOCK_RECORD
  5
21C
100
AcDbSymbolTableRecord
100
AcDbBlockTableRecord
  2
*Model_Space
  0
BLOCK_RECORD
  5
21D
100
AcDbSymbolTableRecord
100
AcDbBlockTableRecord
  2
*Paper_Space
  0
BLOCK_RECORD
  5
21E
100
AcDbSymbolTableRecord
100
AcDbBlockTableRecord
  2
_FILLED
  0
ENDTAB
  0
TABLE
  2
DIMSTYLE
  5
A
100
AcDbSymbolTable
 70
1
100
AcDbDimStyleTable
 71
0
  0
DIMSTYLE
105
21F
100
AcDbSymbolTableRecord
100
AcDbDimStyleTableRecord
  2
STANDARD
 70
0
  3

  4

 40
1.0
 41
3.0
 42
0.5
 43
0.38
 44
1.5
 45
0.0
 46
0.0
 47
0.01
 48
0.01
140
3.0
141
0.09
142
0.0
143
25.4
144
1.0
145
0.0
146
1.0
147
0.625
 71
1
 72
0
 73
0
 74
0
 75
0
 76
0
 77
1
 78
8
 79
2
170
0
171
1
172
0
173
0
174
0
175
0
176
0
177
0
178
0
270
2
179
2
271
2
272
2
273
2
274
2
275
0
280
0
281
0
282
0
283
1
284
8
285
0
286
0
287
3
288
0
340
11
278
44
341
21E
342
21E
343
21E
344
21E
  0
ENDTAB
  0
ENDSEC
  0
SECTION
  2
BLOCKS
  0
BLOCK
  5
20
100
AcDbEntity
  8
0
100
AcDbBlockBegin
  2
*Model_Space
 70
0
 10
0.0
 20
0.0
 30
0.0
  3
*Model_Space
  1

  0
ENDBLK
  5
21
100
AcDbEntity
  8
0
100
AcDbBlockEnd
  0
BLOCK
  5
1C
100
AcDbEntity
  8
0
100
AcDbBlockBegin
  2
*Paper_Space
 70
0
 10
0.0
 20
0.0
 30
0.0
  3
*Paper_Space
  1

  0
ENDBLK
  5
1D
100
AcDbEntity
  8
0
100
AcDbBlockEnd
  0
BLOCK
  5
220
100
AcDbEntity
  8
0
100
AcDbBlockBegin
  2
_FILLED
 70
64
 10
0.0
 20
0.0
  3
_FILLED
  1

  0
SOLID
  5
221
100
AcDbEntity
  8
0
  6
BYBLOCK
 62
0
100
AcDbTrace
 10
0.0
 20
0.0
 11
-1.0
 21
0.3166666667
 12
-1.0
 22
-0.3166666667
 13
-1.0
 23
-0.3166666667
  0
ENDBLK
  5
222
100
AcDbEntity
  8
0
  6
BYBLOCK
 62
0
100
AcDbBlockEnd
  0
ENDSEC
  0
SECTION
  2
ENTITIES
  0
LINE
  5
223
100
AcDbEntity
  8
RACCORDO
100
AcDbLine
 62
7
  6
CONTINUOUS
 10
-26.934287256
 20
61.5640054017
 11
-25.8886644484
 21
62.2326690652
  0
LINE
  5
224
100
AcDbEntity
  8
RACCORDO
100
AcDbLine
 62
250
  6
CONTINUOUS
 10
-26.6741682547
 20
61.5455234407
 11
-25.6322698475
 21
62.2118053932
  0
LWPOLYLINE
  5
225
100
AcDbEntity
  8
RACCORDO
100
AcDbPolyline
 62
250
  6
CONTINUOUS
 90
11
 70
0
 10
-26.9342838561
 20
61.5640075758
 10
-26.9275190082
 20
61.5681102537
 10
-26.9046878521
 20
61.579030228
 10
-26.8800351357
 20
61.5866245877
 10
-26.853743628
 20
61.5908382409
 10
-26.8259876747
 20
61.5916381656
 10
-26.7970022922
 20
61.5890127707
 10
-26.7670848643
 20
61.5830013286
 10
-26.7364951861
 20
61.5736839259
 10
-26.705444249
 20
61.5611519348
 10
-26.6741682547
 20
61.5455234407
  0
LINE
  5
226
100
AcDbEntity
  8
RACCORDO
100
AcDbLine
 62
250
  6
CONTINUOUS
 10
5.2018803244
 20
44.4085535266
 11
4.1039484903
 21
43.7746245725
  0
LINE
  5
227
100
AcDbEntity
  8
RACCORDO
100
AcDbLine
 62
250
  6
CONTINUOUS
 10
5.5553125611
 20
43.7963909363
 11
4.457380727
 21
43.1624619821
  0
LWPOLYLINE
  5
228
100
AcDbEntity
  8
RACCORDO
100
AcDbPolyline
 62
250
  6
CONTINUOUS
 90
19
 70
0
 10
4.457380727
 20
43.1624619821
 10
4.4249798652
 20
43.1461776848
 10
4.3902775124
 20
43.131559139
 10
4.3535297609
 20
43.1187142848
 10
4.3150077025
 20
43.1077379468
 10
4.2749957439
 20
43.0987112265
 10
4.233789546
 20
43.0917008488
 10
4.1916905353
 20
43.0867583054
 10
4.1490121286
 20
43.0839205979
 10
4.1060780658
 20
43.0832086
 10
4.0632111296
 20
43.0846259332
 10
4.0207214056
 20
43.0881606123
 10
3.9789130299
 20
43.0937867135
 10
3.9380587943
 20
43.1014704683
 10
3.8984975915
 20
43.1111511517
 10
3.8606116781
 20
43.1227268784
 10
3.8246954213
 20
43.1360873713
 10
3.7909652524
 20
43.1511307955
 10
3.7596500486
 20
43.1677357209
  0
LWPOLYLINE
  5
229
100
AcDbEntity
  8
RACCORDO
100
AcDbPolyline
 62
250
  6
CONTINUOUS
 90
19
 70
0
 10
4.1039484903
 20
43.7746245725
 10
4.0736910184
 20
43.7547367708
 10
4.0437243257
 20
43.7320314038
 10
4.0142689426
 20
43.7066755644
 10
3.9855416368
 20
43.6788558509
 10
3.9577538179
 20
43.6487769937
 10
3.9311099815
 20
43.6166603489
 10
3.9058062048
 20
43.5827422689
 10
3.8820287029
 20
43.5472723629
 10
3.8599524586
 20
43.5105116606
 10
3.8397399352
 20
43.4727306907
 10
3.8215398805
 20
43.4342074904
 10
3.805486232
 20
43.3952255591
 10
3.7916971315
 20
43.3560717722
 10
3.7802740555
 20
43.3170342697
 10
3.7713010686
 20
43.2784003356
 10
3.7648442047
 20
43.2404542843
 10
3.7609509811
 20
43.2034753678
 10
3.7596500486
 20
43.1677357209
  0
LWPOLYLINE
  5
22A
100
AcDbEntity
  8
RACCORDO
100
AcDbPolyline
 62
250
  6
CONTINUOUS
 90
16
 70
0
 10
4.457380727
 20
30.8531337091
 10
4.4182760014
 20
30.8338157248
 10
4.375939226
 20
30.8169209774
 10
4.330818933
 20
30.8026284559
 10
4.2833931445
 20
30.7910895807
 10
4.2341643071
 20
30.7824265982
 10
4.1836539693
 20
30.776731286
 10
4.1323972564
 20
30.7740639817
 10
4.0809372007
 20
30.7744529433
 10
4.0298189881
 20
30.7778940495
 10
3.9795841833
 20
30.7843508431
 10
3.9307649918
 20
30.7937549182
 10
3.8838786206
 20
30.8060066447
 10
3.8394218002
 20
30.8209762234
 10
3.7978655222
 20
30.8385050603
 10
3.7596500486
 20
30.8584074478
  0
LINE
  5
22B
100
AcDbEntity
  8
RACCORDO
100
AcDbLine
 62
7
  6
CONTINUOUS
 10
6.7342455968
 20
25.3392721657
 11
5.5553125611
 21
24.9083011843
  0
LINE
  5
22C
100
AcDbEntity
  8
RACCORDO
100
AcDbLine
 62
250
  6
CONTINUOUS
 10
6.8274708427
 20
25.3264222937
 11
5.5553125611
 21
24.861371874
  0
LINE
  5
22D
100
AcDbEntity
  8
RACCORDO
100
AcDbLine
 62
250
  6
CONTINUOUS
 10
7.2202270725
 20
25.0996497691
 11
5.5553125611
 21
24.4633809827
  0
LINE
  5
22E
100
AcDbEntity
  8
RACCORDO
100
AcDbLine
 62
250
  6
CONTINUOUS
 10
7.3383196015
 20
24.8437180445
 11
5.5553125611
 21
24.1623186586
  0
LINE
  5
22F
100
AcDbEntity
  8
RACCORDO
100
AcDbLine
 62
250
  6
CONTINUOUS
 10
-27.4205267155
 20
35.5958994078
 11
-27.3440697646
 21
36.7390993542
  0
LINE
  5
230
100
AcDbEntity
  8
RACCORDO
100
AcDbLine
 62
250
  6
CONTINUOUS
 10
-27.5050894836
 20
34.425875909
 11
-27.4205267155
 21
35.5958994078
  0
LINE
  5
231
100
AcDbEntity
  8
RACCORDO
100
AcDbLine
 62
250
  6
CONTINUOUS
 10
-27.598376603
 20
33.2121259756
 11
-27.5050894836
 21
34.425875909
  0
LINE
  5
232
100
AcDbEntity
  8
RACCORDO
100
AcDbLine
 62
250
  6
CONTINUOUS
 10
-27.737629856
 20
31.4957759488
 11
-27.598376603
 21
33.2121259756
  0
LINE
  5
233
100
AcDbEntity
  8
RACCORDO
100
AcDbLine
 62
7
  6
CONTINUOUS
 10
-29.001517061
 20
18.4115971222
 11
-27.9218392105
 21
31.2486844024
  0
LINE
  5
234
100
AcDbEntity
  8
RACCORDO
100
AcDbLine
 62
250
  6
CONTINUOUS
 10
-28.8548927824
 20
18.2093451869
 11
-27.737629856
 21
31.4957759488
  0
LWPOLYLINE
  5
235
100
AcDbEntity
  8
RACCORDO
100
AcDbPolyline
 62
250
  6
CONTINUOUS
 90
7
 70
0
 10
7.5120855124
 20
24.7045949803
 10
7.5290740836
 20
24.7159704139
 10
7.5433618575
 20
24.7285229507
 10
7.5547069985
 20
24.742040244
 10
7.5629174509
 20
24.7562936195
 10
7.5678541781
 20
24.7710419201
 10
7.5694353789
 20
24.7854579098
  0
LWPOLYLINE
  5
236
100
AcDbEntity
  8
RACCORDO
100
AcDbPolyline
 62
250
  6
CONTINUOUS
 90
7
 70
0
 10
7.5120855124
 20
22.9876082138
 10
7.5290749519
 20
22.9989843192
 10
7.5433631374
 20
23.0115374997
 10
7.5547082993
 20
23.0250553434
 10
7.5629184664
 20
23.0393091154
 10
7.5678547149
 20
23.0540576281
 10
7.5694354225
 20
23.0685474587
  0
LWPOLYLINE
  5
237
100
AcDbEntity
  8
RACCORDO
100
AcDbPolyline
 62
250
  6
CONTINUOUS
 90
16
 70
0
 10
3.6578935362
 20
13.2500283123
 10
3.6189894318
 20
13.2352088734
 10
3.5768505515
 20
13.2227654551
 10
3.5319234127
 20
13.2128299119
 10
3.4846840783
 20
13.2055075242
 10
3.4356331122
 20
13.2008758823
 10
3.3852902744
 20
13.1989840647
 10
3.3341890145
 20
13.1998521178
 10
3.2828708184
 20
13.2034708433
 10
3.2318794707
 20
13.2098018961
 10
3.1817552927
 20
13.2187781901
 10
3.1330294167
 20
13.2303046097
 10
3.0862181584
 20
13.2442590169
 10
3.0418175454
 20
13.2604935464
 10
3.0002980612
 20
13.2788361717
 10
2.9620996602
 20
13.2990925281
  0
LINE
  5
238
100
AcDbEntity
  8
RACCORDO
100
AcDbLine
 62
7
  6
CONTINUOUS
 10
5.5553125611
 20
14.4804676959
 11
6.4178230123
 21
14.7970725208
  0
LWPOLYLINE
  5
239
100
AcDbEntity
  8
RACCORDO
100
AcDbPolyline
 62
250
  6
CONTINUOUS
 90
9
 70
0
 10
-27.9218392105
 20
31.2486844024
 10
-27.9211692352
 20
31.2202921727
 10
-27.9150802895
 20
31.1936657971
 10
-27.9037834391
 20
31.1671783881
 10
-27.8873983899
 20
31.1411106146
 10
-27.8660987636
 20
31.1157386981
 10
-27.8401102582
 20
31.0913314876
 10
-27.8097082569
 20
31.0681476107
 10
-27.7752149096
 20
31.0464327317
  0
LWPOLYLINE
  5
23A
100
AcDbEntity
  8
RACCORDO
100
AcDbPolyline
 62
250
  6
CONTINUOUS
 90
11
 70
0
 10
-27.1649133059
 20
61.1427718857
 10
-27.1648556869
 20
61.1383892265
 10
-27.1623508616
 20
61.1135816618
 10
-27.1561569347
 20
61.0889796447
 10
-27.1463357658
 20
61.0648087222
 10
-27.1329739813
 20
61.0412448968
 10
-27.1161845607
 20
61.0184601433
 10
-27.0961458054
 20
60.9966591627
 10
-27.0730512608
 20
60.976004423
 10
-27.0470865465
 20
60.956620506
 10
-27.0184666965
 20
60.938634589
  0
LINE
  5
23B
100
AcDbEntity
  8
RACCORDO
100
AcDbLine
 62
7
  6
CONTINUOUS
 10
-27.1649133059
 20
48.8334436127
 11
-27.1649133059
 21
61.1427718857
  0
LINE
  5
23C
100
AcDbEntity
  8
RACCORDO
100
AcDbLine
 62
250
  6
CONTINUOUS
 10
-27.0201958955
 20
47.4420457889
 11
-27.0184666965
 21
60.938634589
  0
LWPOLYLINE
  5
23D
100
AcDbEntity
  8
RACCORDO
100
AcDbPolyline
 62
7
  6
CONTINUOUS
 90
10
 70
0
 10
-27.1649133058
 20
48.8334497315
 10
-27.1694407997
 20
46.9521338103
 10
-27.1864393336
 20
45.0078199768
 10
-27.2213824933
 20
43.057833989
 10
-27.2793321808
 20
41.0994375506
 10
-27.3647853968
 20
39.1304166515
 10
-27.4773770157
 20
37.1509521263
 10
-27.6122386606
 20
35.1640514925
 10
-27.7641406458
 20
33.1726388752
 10
-27.921839192
 20
31.2486846227
  0
LINE
  5
23E
100
AcDbEntity
  8
RACCORDO
100
AcDbLine
 62
250
  6
CONTINUOUS
 10
-27.0252772212
 20
46.3513519579
 11
-27.0201958955
 21
47.4420457889
  0
LINE
  5
23F
100
AcDbEntity
  8
RACCORDO
100
AcDbLine
 62
250
  6
CONTINUOUS
 10
-27.0336198252
 20
45.3524527942
 11
-27.0252772212
 21
46.3513519579
  0
LINE
  5
240
100
AcDbEntity
  8
RACCORDO
100
AcDbLine
 62
250
  6
CONTINUOUS
 10
-27.0451448831
 20
44.4293423132
 11
-27.0336198252
 21
45.3524527942
  0
LINE
  5
241
100
AcDbEntity
  8
RACCORDO
100
AcDbLine
 62
250
  6
CONTINUOUS
 10
-27.0597389324
 20
43.5675311922
 11
-27.0451448831
 21
44.4293423132
  0
LINE
  5
242
100
AcDbEntity
  8
RACCORDO
100
AcDbLine
 62
250
  6
CONTINUOUS
 10
-27.0772070803
 20
42.757432279
 11
-27.0597389324
 21
43.5675311922
  0
LWPOLYLINE
  5
243
100
AcDbEntity
  8
RACCORDO
100
AcDbPolyline
 62
250
  6
CONTINUOUS
 90
11
 70
0
 10
-29.001517061
 20
18.4115971222
 10
-29.0019085212
 20
18.3962384649
 10
-28.9993493243
 20
18.3740677012
 10
-28.9931337995
 20
18.3518681594
 10
-28.9833075744
 20
18.3297998567
 10
-28.9699321586
 20
18.3080099604
 10
-28.9531119872
 20
18.286675242
 10
-28.9330144502
 20
18.2659937316
 10
-28.9098230461
 20
18.2461263569
 10
-28.8837133742
 20
18.2271994851
 10
-28.8548927824
 20
18.2093451869
  0
LINE
  5
244
100
AcDbEntity
  8
RACCORDO
100
AcDbLine
 62
250
  6
CONTINUOUS
 10
-27.0975618086
 20
41.9845081408
 11
-27.0772070803
 21
42.757432279
  0
LINE
  5
245
100
AcDbEntity
  8
RACCORDO
100
AcDbLine
 62
250
  6
CONTINUOUS
 10
-27.121027723
 20
41.2340564843
 11
-27.0975618086
 21
41.9845081408
  0
LWPOLYLINE
  5
246
100
AcDbEntity
  8
RACCORDO
100
AcDbPolyline
 62
250
  6
CONTINUOUS
 90
19
 70
0
 10
-27.0184666965
 20
60.938634589
 10
-27.017165764
 20
60.974374236
 10
-27.0132725403
 20
61.0113531525
 10
-27.0068156764
 20
61.0492992038
 10
-26.9978426895
 20
61.0879331379
 10
-26.9864196136
 20
61.1269706404
 10
-26.9726305131
 20
61.1661244273
 10
-26.9565768646
 20
61.2051063586
 10
-26.9383768098
 20
61.2436295589
 10
-26.9181642864
 20
61.2814105288
 10
-26.8960880422
 20
61.3181712311
 10
-26.8723105402
 20
61.353641137
 10
-26.8470067635
 20
61.3875592171
 10
-26.8203629272
 20
61.4196758619
 10
-26.7925751083
 20
61.4497547191
 10
-26.7638478024
 20
61.4775744326
 10
-26.7343924194
 20
61.502930272
 10
-26.7044257267
 20
61.525635639
 10
-26.6741682547
 20
61.5455234407
  0
LINE
  5
247
100
AcDbEntity
  8
RACCORDO
100
AcDbLine
 62
250
  6
CONTINUOUS
 10
-27.1478829269
 20
40.4963826918
 11
-27.121027723
 21
41.2340564843
  0
LINE
  5
248
100
AcDbEntity
  8
RACCORDO
100
AcDbLine
 62
250
  6
CONTINUOUS
 10
-27.1788858742
 20
39.7548545078
 11
-27.1478829269
 21
40.4963826918
  0
LINE
  5
249
100
AcDbEntity
  8
RACCORDO
100
AcDbLine
 62
250
  6
CONTINUOUS
 10
-27.2143129977
 20
39.006143071
 11
-27.1788858742
 21
39.7548545078
  0
LINE
  5
24A
100
AcDbEntity
  8
RACCORDO
100
AcDbLine
 62
250
  6
CONTINUOUS
 10
-27.2540011205
 20
38.250501203
 11
-27.2143129977
 21
39.006143071
  0
LINE
  5
24B
100
AcDbEntity
  8
RACCORDO
100
AcDbLine
 62
250
  6
CONTINUOUS
 10
-27.2973110143
 20
37.4954514213
 11
-27.2540011205
 21
38.250501203
  0
LINE
  5
24C
100
AcDbEntity
  8
RACCORDO
100
AcDbLine
 62
250
  6
CONTINUOUS
 10
-27.3440697646
 20
36.7390993542
 11
-27.2973110143
 21
37.4954514213
  0
LINE
  5
24D
100
AcDbEntity
  8
0
100
AcDbLine
 62
7
  6
CONTINUOUS
 10
-13.6836947117
 20
21.2624724988
 11
-15.0154066222
 21
18.7591874012
  0
LINE
  5
24E
100
AcDbEntity
  8
0
100
AcDbLine
 62
7
  6
CONTINUOUS
 10
-15.3826197585
 20
18.0689186092
 11
-15.4279571091
 21
17.9836957369
  0
LINE
  5
24F
100
AcDbEntity
  8
0
100
AcDbLine
 62
7
  6
CONTINUOUS
 10
-14.5842917801
 20
18.4412085738
 11
-13.3767964487
 21
20.7109975908
  0
LWPOLYLINE
  5
250
100
AcDbEntity
  8
RACCORDO
100
AcDbPolyline
 62
250
  6
CONTINUOUS
 90
19
 70
0
 10
7.3383196015
 20
22.6442915227
 10
7.3569322578
 20
22.6602341505
 10
7.3746605744
 20
22.6772111538
 10
7.3915045514
 20
22.6952225325
 10
7.4076082938
 20
22.7145984447
 10
7.4228276966
 20
22.7350087324
 10
7.4367304451
 20
22.7554629214
 10
7.4491450249
 20
22.7758029937
 10
7.4602429504
 20
22.7961869674
 10
7.4701064503
 20
22.8160984216
 10
7.478652502
 20
22.8352283884
 10
7.4859641281
 20
22.8538858357
 10
7.4923726247
 20
22.8724812465
 10
7.4980045338
 20
22.8910019559
 10
7.5027333134
 20
22.9094606289
 10
7.506510634
 20
22.9283057433
 10
7.5093203858
 20
22.947686792
 10
7.5111786786
 20
22.9674542821
 10
7.5120855124
 20
22.9876082138
  0
LWPOLYLINE
  5
251
100
AcDbEntity
  8
RACCORDO
100
AcDbPolyline
 62
7
  6
CONTINUOUS
 90
15
 70
0
 10
7.3198387134
 20
22.568444419
 10
7.3520278507
 20
22.5959628127
 10
7.381091239
 20
22.6244986861
 10
7.408656653
 20
22.6552645877
 10
7.434581456
 20
22.6880709236
 10
7.4586395837
 20
22.7225729976
 10
7.4807474106
 20
22.7586318279
 10
7.500787131
 20
22.7960696475
 10
7.5184978003
 20
22.8344335212
 10
7.5337874384
 20
22.8735535614
 10
7.5465503528
 20
22.9132729019
 10
7.5566066333
 20
22.9532089669
 10
7.5638489464
 20
22.9931935698
 10
7.5681710756
 20
23.0331637999
 10
7.5694354169
 20
23.0685749394
  0
LINE
  5
252
100
AcDbEntity
  8
RACCORDO
100
AcDbLine
 62
250
  6
CONTINUOUS
 10
5.5553125611
 20
21.2304659447
 11
7.3383196015
 21
22.6442915227
  0
LINE
  5
253
100
AcDbEntity
  8
RACCORDO
100
AcDbLine
 62
7
  6
CONTINUOUS
 10
5.5553125611
 20
21.1692729526
 11
7.3199331355
 21
22.568519084
  0
LINE
  5
254
100
AcDbEntity
  8
DRAFT
100
AcDbLine
 62
7
  6
CONTINUOUS
 10
6.4018145963
 20
14.2895187133
 11
5.5553125611
 21
13.8862726426
  0
LINE
  5
255
100
AcDbEntity
  8
DRAFT
100
AcDbLine
 62
7
  6
CONTINUOUS
 10
7.1362688274
 20
14.2668302034
 11
6.9594921321
 21
14.1826195284
  0
LWPOLYLINE
  5
256
100
AcDbEntity
  8
RACCORDO
100
AcDbPolyline
 62
250
  6
CONTINUOUS
 90
9
 70
0
 10
-27.1649133059
 20
48.8334436127
 10
-27.163871115
 20
48.8148135397
 10
-27.1579113244
 20
48.7852985206
 10
-27.1467285325
 20
48.7562935682
 10
-27.1304412138
 20
48.7281059716
 10
-27.1092219222
 20
48.7010343604
 10
-27.0832954626
 20
48.6753655414
 10
-27.0529365094
 20
48.6513714592
 10
-27.0184666965
 20
48.629306316
  0
LINE
  5
257
100
AcDbEntity
  8
DRAFT
100
AcDbLine
 62
7
  6
CONTINUOUS
 10
6.4018145963
 20
11.9839709689
 11
5.5553125611
 21
11.4096977076
  0
LINE
  5
258
100
AcDbEntity
  8
DRAFT
100
AcDbLine
 62
7
  6
CONTINUOUS
 10
7.1362688274
 20
12.0382396285
 11
6.9594921321
 21
11.9183130068
  0
LWPOLYLINE
  5
259
100
AcDbEntity
  8
RACCORDO
100
AcDbPolyline
 62
250
  6
CONTINUOUS
 90
19
 70
0
 10
2.5201504522
 20
0.4464668927
 10
2.4878920441
 20
0.4339301516
 10
2.4533229715
 20
0.423033098
 10
2.4166980576
 20
0.4138569565
 10
2.3782809405
 20
0.4064691881
 10
2.3383613059
 20
0.4009268439
 10
2.297255059
 20
0.397273018
 10
2.2552850293
 20
0.3955329285
 10
2.21274524
 20
0.395715364
 10
2.1699183344
 20
0.3978190869
 10
2.1270889377
 20
0.4018343295
 10
2.0846059515
 20
0.4077326032
 10
2.0428457123
 20
0.4154595056
 10
2.0021123859
 20
0.4249523608
 10
1.9627044566
 20
0.4361350641
 10
1.9249667357
 20
0.4488979146
 10
1.8891803202
 20
0.4631266369
 10
1.8555686043
 20
0.4787122774
 10
1.8243565762
 20
0.4955311086
  0
LWPOLYLINE
  5
25A
100
AcDbEntity
  8
RACCORDO
100
AcDbPolyline
 62
7
  6
CONTINUOUS
 90
6
 70
0
 10
4.3959373375
 20
0.8185907016
 10
4.4255157376
 20
0.8284567256
 10
4.4551314033
 20
0.839540247
 10
4.4847454524
 20
0.8518483871
 10
4.5143330563
 20
0.865392418
 10
4.5410603129
 20
0.8787213105
  0
LWPOLYLINE
  5
25B
100
AcDbEntity
  8
RACCORDO
100
AcDbPolyline
 62
250
  6
CONTINUOUS
 90
10
 70
0
 10
4.5892630142
 20
1.0858855089
 10
4.5964982373
 20
1.0882079764
 10
4.6037553727
 20
1.0907092871
 10
4.6110344206
 20
1.0933894412
 10
4.6183373978
 20
1.0962491862
 10
4.6256622873
 20
1.0992877746
 10
4.6330030384
 20
1.1025029634
 10
4.6403576342
 20
1.1058940051
 10
4.6477280916
 20
1.1094616473
 10
4.6551144105
 20
1.1132058899
  0
LINE
  5
25C
100
AcDbEntity
  8
RACCORDO
100
AcDbLine
 62
250
  6
CONTINUOUS
 10
2.5201504522
 20
0.4464668927
 11
4.5892630142
 21
1.0858855089
  0
LINE
  5
25D
100
AcDbEntity
  8
RACCORDO
100
AcDbLine
 62
7
  6
CONTINUOUS
 10
2.3235999005
 20
0.1781684486
 11
4.3959373375
 21
0.8185907016
  0
LINE
  5
25E
100
AcDbEntity
  8
0
100
AcDbLine
 62
7
  6
CONTINUOUS
 10
-13.5909782666
 20
15.7367077295
 11
-13.6207062336
 21
15.3929550633
  0
LINE
  5
25F
100
AcDbEntity
  8
0
100
AcDbLine
 62
7
  6
CONTINUOUS
 10
-12.6307567399
 20
14.8213706326
 11
-12.6010287729
 21
15.1651232989
  0
LINE
  5
260
100
AcDbEntity
  8
RACCORDO
100
AcDbLine
 62
250
  6
CONTINUOUS
 10
4.6551144105
 20
1.1132058899
 11
5.5553125611
 21
1.5799189103
  0
LINE
  5
261
100
AcDbEntity
  8
RACCORDO
100
AcDbLine
 62
7
  6
CONTINUOUS
 10
4.5410737901
 20
0.878728297
 11
5.4451966737
 21
1.3474761183
  0
LWPOLYLINE
  5
262
100
AcDbEntity
  8
RACCORDO
100
AcDbPolyline
 62
250
  6
CONTINUOUS
 90
5
 70
0
 10
4.5059325437
 20
0.8941448834
 10
4.4798437267
 20
0.8674111971
 10
4.4512006072
 20
0.8453331457
 10
4.420314838
 20
0.8281509519
 10
4.3927140827
 20
0.8175875656
  0
LWPOLYLINE
  5
263
100
AcDbEntity
  8
RACCORDO
100
AcDbPolyline
 62
250
  6
CONTINUOUS
 90
3
 70
0
 10
4.549342708
 20
0.960368155
 10
4.5291831974
 20
0.9252433259
 10
4.5059325437
 20
0.8941448834
  0
LINE
  5
264
100
AcDbEntity
  8
0
100
AcDbLine
 62
7
  6
CONTINUOUS
 10
-11.7694091461
 20
19.7829123076
 11
-10.8623299457
 21
15.5146599689
  0
LINE
  5
265
100
AcDbEntity
  8
0
100
AcDbLine
 62
7
  6
CONTINUOUS
 10
-10.3626311507
 20
15.059040012
 11
-11.4008543321
 21
19.9443890743
  0
LINE
  5
266
100
AcDbEntity
  8
RACCORDO
100
AcDbLine
 62
250
  6
CONTINUOUS
 10
3.6776313706
 20
24.2604532461
 11
3.6533114194
 21
23.5157755356
  0
LINE
  5
267
100
AcDbEntity
  8
RACCORDO
100
AcDbLine
 62
250
  6
CONTINUOUS
 10
3.6533114194
 20
23.5157755356
 11
3.6248625069
 21
22.7687269086
  0
LINE
  5
268
100
AcDbEntity
  8
RACCORDO
100
AcDbLine
 62
250
  6
CONTINUOUS
 10
3.6248625069
 20
22.7687269086
 11
3.5923516099
 21
22.0268417385
  0
LWPOLYLINE
  5
269
100
AcDbEntity
  8
RACCORDO
100
AcDbPolyline
 62
250
  6
CONTINUOUS
 90
11
 70
0
 10
1.8243565762
 20
0.4955311086
 10
1.8224283507
 20
0.4545891332
 10
1.8238758708
 20
0.41556912
 10
1.8286853151
 20
0.378843643
 10
1.8368107619
 20
0.3447633675
 10
1.848174627
 20
0.3136537016
 10
1.862668405
 20
0.2858116892
 10
1.8801537052
 20
0.2615031738
 10
1.900463573
 20
0.2409602599
 10
1.923404084
 20
0.2243790968
 10
1.9259610843
 20
0.2228722008
  0
LINE
  5
26A
100
AcDbEntity
  8
RACCORDO
100
AcDbLine
 62
250
  6
CONTINUOUS
 10
3.5923516099
 20
22.0268417385
 11
3.5555252526
 21
21.2848661453
  0
LINE
  5
26B
100
AcDbEntity
  8
RACCORDO
100
AcDbLine
 62
250
  6
CONTINUOUS
 10
4.28953809
 20
21.9992407295
 11
4.2526342216
 21
21.2544893072
  0
LINE
  5
26C
100
AcDbEntity
  8
RACCORDO
100
AcDbLine
 62
250
  6
CONTINUOUS
 10
3.5555252526
 20
21.2848661453
 11
3.514284678
 21
20.5366644601
  0
LINE
  5
26D
100
AcDbEntity
  8
RACCORDO
100
AcDbLine
 62
250
  6
CONTINUOUS
 10
4.2526342216
 20
21.2544893072
 11
4.2112225545
 21
20.5036094476
  0
LINE
  5
26E
100
AcDbEntity
  8
RACCORDO
100
AcDbLine
 62
250
  6
CONTINUOUS
 10
3.514284678
 20
20.5366644601
 11
3.4678694103
 21
19.7668039917
  0
LINE
  5
26F
100
AcDbEntity
  8
RACCORDO
100
AcDbLine
 62
250
  6
CONTINUOUS
 10
4.2112225545
 20
20.5036094476
 11
4.1646850417
 21
19.7312167406
  0
LINE
  5
270
100
AcDbEntity
  8
RACCORDO
100
AcDbLine
 62
250
  6
CONTINUOUS
 10
3.4678694103
 20
19.7668039917
 11
3.4152494459
 21
18.9601658056
  0
LINE
  5
271
100
AcDbEntity
  8
RACCORDO
100
AcDbLine
 62
250
  6
CONTINUOUS
 10
4.1646850417
 20
19.7312167406
 11
4.1118838426
 21
18.9221073425
  0
LINE
  5
272
100
AcDbEntity
  8
RACCORDO
100
AcDbLine
 62
250
  6
CONTINUOUS
 10
3.4152494459
 20
18.9601658056
 11
3.355524206
 21
18.1066278797
  0
LINE
  5
273
100
AcDbEntity
  8
RACCORDO
100
AcDbLine
 62
250
  6
CONTINUOUS
 10
4.1118838426
 20
18.9221073425
 11
4.051995175
 21
18.0661960989
  0
LINE
  5
274
100
AcDbEntity
  8
RACCORDO
100
AcDbLine
 62
250
  6
CONTINUOUS
 10
4.051995175
 20
18.0661960989
 11
3.9836165669
 21
17.1482823787
  0
LINE
  5
275
100
AcDbEntity
  8
RACCORDO
100
AcDbLine
 62
250
  6
CONTINUOUS
 10
3.355524206
 20
18.1066278797
 11
3.287299102
 21
17.1909878613
  0
LINE
  5
276
100
AcDbEntity
  8
RACCORDO
100
AcDbLine
 62
250
  6
CONTINUOUS
 10
3.287299102
 20
17.1909878613
 11
3.2090795776
 21
16.1979836894
  0
LINE
  5
277
100
AcDbEntity
  8
RACCORDO
100
AcDbLine
 62
250
  6
CONTINUOUS
 10
3.9836165669
 20
17.1482823787
 11
3.9052091825
 21
16.1531625946
  0
LINE
  5
278
100
AcDbEntity
  8
RACCORDO
100
AcDbLine
 62
250
  6
CONTINUOUS
 10
3.2090795776
 20
16.1979836894
 11
3.1198016883
 21
15.1174358845
  0
LINE
  5
279
100
AcDbEntity
  8
RACCORDO
100
AcDbLine
 62
250
  6
CONTINUOUS
 10
3.9052091825
 20
16.1531625946
 11
3.8157947103
 21
15.0707342596
  0
LINE
  5
27A
100
AcDbEntity
  8
RACCORDO
100
AcDbLine
 62
250
  6
CONTINUOUS
 10
3.1198016883
 20
15.1174358845
 11
3.0178058056
 21
13.9308860516
  0
LINE
  5
27B
100
AcDbEntity
  8
RACCORDO
100
AcDbLine
 62
250
  6
CONTINUOUS
 10
3.8157947103
 20
15.0707342596
 11
3.7136343199
 21
13.8825336921
  0
LINE
  5
27C
100
AcDbEntity
  8
RACCORDO
100
AcDbLine
 62
250
  6
CONTINUOUS
 10
3.0178058056
 20
13.9308860516
 11
1.8243565762
 21
0.4955311086
  0
LINE
  5
27D
100
AcDbEntity
  8
RACCORDO
100
AcDbLine
 62
250
  6
CONTINUOUS
 10
3.7136343199
 20
13.8825336921
 11
2.5201504522
 21
0.4464668927
  0
LWPOLYLINE
  5
27E
100
AcDbEntity
  8
RACCORDO
100
AcDbPolyline
 62
250
  6
CONTINUOUS
 90
12
 70
0
 10
2.5201504522
 20
0.4464668927
 10
2.5122976904
 20
0.4089417198
 10
2.5018964168
 20
0.3732883974
 10
2.4890255696
 20
0.339777006
 10
2.4737828893
 20
0.3086615489
 10
2.4562839155
 20
0.2801774751
 10
2.4366609796
 20
0.2545400557
 10
2.4150613398
 20
0.2319422424
 10
2.3916498364
 20
0.2125570011
 10
2.3666082832
 20
0.1965336962
 10
2.3401302979
 20
0.1839932236
 10
2.3235999005
 20
0.1781684486
  0
LWPOLYLINE
  5
27F
100
AcDbEntity
  8
RACCORDO
100
AcDbPolyline
 62
250
  6
CONTINUOUS
 90
4
 70
0
 10
4.5892630142
 20
1.0858855089
 10
4.5795469352
 20
1.0411286068
 10
4.5661917293
 20
0.9991371918
 10
4.549342708
 20
0.960368155
  0
LWPOLYLINE
  5
280
100
AcDbEntity
  8
RACCORDO
100
AcDbPolyline
 62
250
  6
CONTINUOUS
 90
19
 70
0
 10
4.457380727
 20
43.1624619821
 10
4.4552357512
 20
43.1984595625
 10
4.4504745456
 20
43.2357888409
 10
4.4431323548
 20
43.2741648307
 10
4.4332618335
 20
43.3133027234
 10
4.4209387261
 20
43.3528950426
 10
4.406266448
 20
43.3926132944
 10
4.3893701299
 20
43.4321328006
 10
4.3703748451
 20
43.4711732052
 10
4.3494077957
 20
43.509473323
 10
4.3266046723
 20
43.5467733449
 10
4.3021562179
 20
43.5827502582
 10
4.276296153
 20
43.6170652747
 10
4.2492269206
 20
43.6494641333
 10
4.2211601891
 20
43.6797071821
 10
4.1923689601
 20
43.7075227615
 10
4.1630965474
 20
43.7327095285
 10
4.1335488885
 20
43.7551232147
 10
4.1039484888
 20
43.7746245716
  0
LINE
  5
281
100
AcDbEntity
  8
RACCORDO
100
AcDbLine
 62
7
  6
CONTINUOUS
 10
5.5553125611
 20
43.7963909363
 11
5.5553125611
 21
1.5799189103
  0
LINE
  5
282
100
AcDbEntity
  8
DRAFT
100
AcDbLine
 62
7
  6
CONTINUOUS
 10
6.4018145963
 20
14.2895187133
 11
6.4018145963
 21
11.9839709689
  0
LINE
  5
283
100
AcDbEntity
  8
DRAFT
100
AcDbLine
 62
7
  6
CONTINUOUS
 10
6.9594921321
 20
14.1826195284
 11
6.9594921321
 21
11.9183130068
  0
LINE
  5
284
100
AcDbEntity
  8
RACCORDO
100
AcDbLine
 62
7
  6
CONTINUOUS
 10
7.1362688274
 20
14.517296271
 11
7.1362688274
 21
14.2668302034
  0
LINE
  5
285
100
AcDbEntity
  8
DRAFT
100
AcDbLine
 62
7
  6
CONTINUOUS
 10
7.1362688274
 20
14.2668302034
 11
7.1362688274
 21
12.0382396285
  0
LINE
  5
286
100
AcDbEntity
  8
RACCORDO
100
AcDbLine
 62
250
  6
CONTINUOUS
 10
7.5120855124
 20
22.9876082138
 11
7.5120855124
 21
24.7045949803
  0
LINE
  5
287
100
AcDbEntity
  8
RACCORDO
100
AcDbLine
 62
7
  6
CONTINUOUS
 10
7.5694354225
 20
23.0685474587
 11
7.5694354225
 21
24.7855342001
  0
LINE
  5
288
100
AcDbEntity
  8
RACCORDO
100
AcDbLine
 62
250
  6
CONTINUOUS
 10
3.7596500486
 20
43.1677357209
 11
3.7587307226
 21
30.0066345692
  0
LINE
  5
289
100
AcDbEntity
  8
RACCORDO
100
AcDbLine
 62
250
  6
CONTINUOUS
 10
4.457380727
 20
43.1624619821
 11
4.4564757804
 21
30.0003572172
  0
LINE
  5
28A
100
AcDbEntity
  8
RACCORDO
100
AcDbLine
 62
250
  6
CONTINUOUS
 10
3.7587307226
 20
30.0066345692
 11
3.7537788768
 21
28.7840991894
  0
LINE
  5
28B
100
AcDbEntity
  8
RACCORDO
100
AcDbLine
 62
250
  6
CONTINUOUS
 10
4.4564757804
 20
30.0003572172
 11
4.451514607
 21
28.7760340972
  0
LINE
  5
28C
100
AcDbEntity
  8
RACCORDO
100
AcDbLine
 62
250
  6
CONTINUOUS
 10
3.7537788768
 20
28.7840991894
 11
3.7478658949
 21
27.9998221598
  0
LINE
  5
28D
100
AcDbEntity
  8
RACCORDO
100
AcDbLine
 62
250
  6
CONTINUOUS
 10
4.451514607
 20
28.7760340972
 11
4.4455710287
 21
27.9903287684
  0
LINE
  5
28E
100
AcDbEntity
  8
RACCORDO
100
AcDbLine
 62
250
  6
CONTINUOUS
 10
3.7478658949
 20
27.9998221598
 11
3.7396004102
 21
27.2349185175
  0
LINE
  5
28F
100
AcDbEntity
  8
RACCORDO
100
AcDbLine
 62
250
  6
CONTINUOUS
 10
4.4455710287
 20
27.9903287684
 11
4.4372951972
 21
27.223807284
  0
LINE
  5
290
100
AcDbEntity
  8
RACCORDO
100
AcDbLine
 62
250
  6
CONTINUOUS
 10
4.4372951972
 20
27.223807284
 11
4.4264112387
 21
26.470816603
  0
LINE
  5
291
100
AcDbEntity
  8
RACCORDO
100
AcDbLine
 62
250
  6
CONTINUOUS
 10
3.7396004102
 20
27.2349185175
 11
3.7287324138
 21
26.4837362832
  0
LINE
  5
292
100
AcDbEntity
  8
RACCORDO
100
AcDbLine
 62
250
  6
CONTINUOUS
 10
3.7287324138
 20
26.4837362832
 11
3.7149804605
 21
25.7405908306
  0
LINE
  5
293
100
AcDbEntity
  8
RACCORDO
100
AcDbLine
 62
250
  6
CONTINUOUS
 10
4.4264112387
 20
26.470816603
 11
4.4126114509
 21
25.7256766688
  0
LINE
  5
294
100
AcDbEntity
  8
RACCORDO
100
AcDbLine
 62
250
  6
CONTINUOUS
 10
3.7149804605
 20
25.7405908306
 11
3.6980786956
 21
25.0016884866
  0
LINE
  5
295
100
AcDbEntity
  8
RACCORDO
100
AcDbLine
 62
250
  6
CONTINUOUS
 10
4.4126114509
 20
25.7256766688
 11
4.395663712
 21
24.9846133797
  0
LINE
  5
296
100
AcDbEntity
  8
RACCORDO
100
AcDbLine
 62
250
  6
CONTINUOUS
 10
3.6980786956
 20
25.0016884866
 11
3.6776313706
 21
24.2604532461
  0
LINE
  5
297
100
AcDbEntity
  8
RACCORDO
100
AcDbLine
 62
250
  6
CONTINUOUS
 10
4.395663712
 20
24.9846133797
 11
4.3751674934
 21
24.241037024
  0
LINE
  5
298
100
AcDbEntity
  8
RACCORDO
100
AcDbLine
 62
250
  6
CONTINUOUS
 10
4.3751674934
 20
24.241037024
 11
4.3507306506
 21
23.4937949147
  0
LINE
  5
299
100
AcDbEntity
  8
RACCORDO
100
AcDbLine
 62
250
  6
CONTINUOUS
 10
4.3507306506
 20
23.4937949147
 11
4.322201979
 21
22.7440282046
  0
LINE
  5
29A
100
AcDbEntity
  8
RACCORDO
100
AcDbLine
 62
250
  6
CONTINUOUS
 10
4.322201979
 20
22.7440282046
 11
4.28953809
 21
21.9992407295
  0
LWPOLYLINE
  5
29B
100
AcDbEntity
  8
RACCORDO
100
AcDbPolyline
 62
250
  6
CONTINUOUS
 90
9
 70
0
 10
4.6551144105
 20
1.1132058899
 10
4.6522389876
 20
1.071169695
 10
4.6456274489
 20
1.0318860077
 10
4.6353521686
 20
0.9957848532
 10
4.6215256267
 20
0.9632614187
 10
4.6042991777
 20
0.9346717271
 10
4.5838613936
 20
0.9103287402
 10
4.5604360001
 20
0.8904989323
 10
4.5410737901
 20
0.878728297
  0
LWPOLYLINE
  5
29C
100
AcDbEntity
  8
RACCORDO
100
AcDbPolyline
 62
250
  6
CONTINUOUS
 90
13
 70
0
 10
7.3383196015
 20
24.8437180445
 10
7.3402757063
 20
24.8672443705
 10
7.3397623239
 20
24.8917511558
 10
7.3367882213
 20
24.9168198899
 10
7.3314041885
 20
24.9420224659
 10
7.3237021702
 20
24.9669284911
 10
7.3138136964
 20
24.9911126372
 10
7.3019076357
 20
25.0141619037
 10
7.2881873118
 20
25.0356826706
 10
7.2728870307
 20
25.0553074206
 10
7.2562680801
 20
25.0727010153
 10
7.2386142674
 20
25.0875664185
 10
7.2202270725
 20
25.0996497691
  0
LWPOLYLINE
  5
29D
100
AcDbEntity
  8
RACCORDO
100
AcDbPolyline
 62
250
  6
CONTINUOUS
 90
10
 70
0
 10
-28.7558452746
 20
17.9381931752
 10
-28.7787857856
 20
17.9547743382
 10
-28.7990956534
 20
17.9753172522
 10
-28.8165809536
 20
17.9996257675
 10
-28.8310747316
 20
18.0274677799
 10
-28.8424385967
 20
18.0585774458
 10
-28.8505640435
 20
18.0926577214
 10
-28.8553734879
 20
18.1293831983
 10
-28.8568210079
 20
18.1684032115
 10
-28.8548927824
 20
18.2093451869
  0
LWPOLYLINE
  5
29E
100
AcDbEntity
  8
RACCORDO
100
AcDbPolyline
 62
250
  6
CONTINUOUS
 90
7
 70
0
 10
7.3383196015
 20
22.6442915227
 10
7.3402756714
 20
22.6258780428
 10
7.3397624282
 20
22.6091609956
 10
7.3367885804
 20
22.5944258883
 10
7.331404853
 20
22.5819243892
 10
7.3237031303
 20
22.5718700435
 10
7.3199331355
 20
22.568519084
  0
LWPOLYLINE
  5
29F
100
AcDbEntity
  8
RACCORDO
100
AcDbPolyline
 62
250
  6
CONTINUOUS
 90
16
 70
0
 10
7.5120855124
 20
24.7045949803
 10
7.5110607902
 20
24.7270661321
 10
7.5083744914
 20
24.7478745839
 10
7.5040266161
 20
24.7670203355
 10
7.4979716196
 20
24.7845801137
 10
7.4902550465
 20
24.8004771918
 10
7.481013531
 20
24.8144813901
 10
7.4702277889
 20
24.8266240564
 10
7.4579171043
 20
24.836873843
 10
7.4442759644
 20
24.8449065266
 10
7.4292417511
 20
24.8506946617
 10
7.4128770824
 20
24.8542656939
 10
7.395564299
 20
24.8553777368
 10
7.3774308478
 20
24.8539501619
 10
7.358349282
 20
24.8500635978
 10
7.3383196015
 20
24.8437180445
  0
LWPOLYLINE
  5
2A0
100
AcDbEntity
  8
RACCORDO
100
AcDbPolyline
 62
7
  6
CONTINUOUS
 90
11
 70
0
 10
7.5694353789
 20
24.7854579098
 10
7.5692452024
 20
24.7989832045
 10
7.5660857189
 20
24.8412198579
 10
7.559059781
 20
24.8818230552
 10
7.5481622847
 20
24.9205593607
 10
7.533420358
 20
24.9571410984
 10
7.5148811643
 20
24.9913274236
 10
7.4926867528
 20
25.0227177665
 10
7.4672514419
 20
25.0507303566
 10
7.439019609
 20
25.0750307501
 10
7.4078282914
 20
25.0957564037
  0
LINE
  5
2A1
100
AcDbEntity
  8
RACCORDO
100
AcDbLine
 62
7
  6
CONTINUOUS
 10
1.9259610843
 20
0.2228722008
 11
-28.7532882743
 21
17.9366862792
  0
LINE
  5
2A2
100
AcDbEntity
  8
RACCORDO
100
AcDbLine
 62
250
  6
CONTINUOUS
 10
1.8243565762
 20
0.4955311086
 11
-28.8548927824
 21
18.2093451869
  0
LINE
  5
2A3
100
AcDbEntity
  8
RACCORDO
100
AcDbLine
 62
250
  6
CONTINUOUS
 10
-28.7532882743
 20
17.9366862792
 11
-28.7558452746
 21
17.9381931752
  0
LINE
  5
2A4
100
AcDbEntity
  8
0
100
AcDbLine
 62
7
  6
CONTINUOUS
 10
-13.5574275472
 20
15.2661894373
 11
-12.7088994098
 21
14.7762599254
  0
LINE
  5
2A5
100
AcDbEntity
  8
0
100
AcDbLine
 62
7
  6
CONTINUOUS
 10
-12.6643074593
 20
15.2918889248
 11
-13.5128355967
 21
15.7818184368
  0
LINE
  5
2A6
100
AcDbEntity
  8
0
100
AcDbLine
 62
7
  6
CONTINUOUS
 10
-15.2628009399
 20
17.5140609374
 11
-10.5894438711
 21
14.8157231368
  0
LINE
  5
2A7
100
AcDbEntity
  8
0
100
AcDbLine
 62
7
  6
CONTINUOUS
 10
-10.8623299457
 20
15.5146599689
 11
-15.3127037186
 21
18.0842500091
  0
LINE
  5
2A8
100
AcDbEntity
  8
0
100
AcDbLine
 62
7
  6
CONTINUOUS
 10
-14.9603545658
 20
18.602642468
 11
-14.6542078199
 21
18.4258771738
  0
LINE
  5
2A9
100
AcDbEntity
  8
DRAFT
100
AcDbLine
 62
7
  6
CONTINUOUS
 10
6.9594921321
 20
11.9183130068
 11
6.4018145963
 21
11.9839709689
  0
LINE
  5
2AA
100
AcDbEntity
  8
DRAFT
100
AcDbLine
 62
7
  6
CONTINUOUS
 10
6.9594921321
 20
14.1826195284
 11
6.4018145963
 21
14.2895187133
  0
LINE
  5
2AB
100
AcDbEntity
  8
0
100
AcDbLine
 62
7
  6
CONTINUOUS
 10
-13.3767964487
 20
20.7109975908
 11
-11.7694091461
 21
19.7829123076
  0
LINE
  5
2AC
100
AcDbEntity
  8
0
100
AcDbLine
 62
7
  6
CONTINUOUS
 10
-11.5830751019
 20
20.2167011985
 11
-13.473946592
 21
21.3084666987
  0
LINE
  5
2AD
100
AcDbEntity
  8
RACCORDO
100
AcDbLine
 62
250
  6
CONTINUOUS
 10
-27.7752149096
 20
31.0464327317
 11
2.9620996602
 21
13.2990925281
  0
LINE
  5
2AE
100
AcDbEntity
  8
RACCORDO
100
AcDbLine
 62
250
  6
CONTINUOUS
 10
7.1362688274
 20
14.3822509114
 11
6.4178230123
 21
14.7970725208
  0
LINE
  5
2AF
100
AcDbEntity
  8
RACCORDO
100
AcDbLine
 62
7
  6
CONTINUOUS
 10
7.1362688274
 20
14.5173453244
 11
6.6623866634
 21
14.7909589467
  0
LWPOLYLINE
  5
2B0
100
AcDbEntity
  8
RACCORDO
100
AcDbPolyline
 62
250
  6
CONTINUOUS
 90
8
 70
0
 10
6.9878736879
 20
25.334726235
 10
6.9685982885
 20
25.3402406261
 10
6.9485066814
 20
25.3436751986
 10
6.927672729
 20
25.3450492883
 10
6.9052195836
 20
25.3443034811
 10
6.8808347407
 20
25.3411215119
 10
6.8548895191
 20
25.335242919
 10
6.8274708427
 20
25.3264222937
  0
LINE
  5
2B1
100
AcDbEntity
  8
RACCORDO
100
AcDbLine
 62
250
  6
CONTINUOUS
 10
7.0059638378
 20
25.3272352802
 11
6.9970290865
 21
25.3319662231
  0
LWPOLYLINE
  5
2B2
100
AcDbEntity
  8
RACCORDO
100
AcDbPolyline
 62
250
  6
CONTINUOUS
 90
7
 70
0
 10
6.8274708427
 20
25.3264222937
 10
6.8089764274
 20
25.3356339213
 10
6.7903784698
 20
25.3416998349
 10
6.7719945733
 20
25.3445164449
 10
6.7541386858
 20
25.3440356513
 10
6.737115738
 20
25.3402656646
 10
6.734253192
 20
25.3392749418
  0
LWPOLYLINE
  5
2B3
100
AcDbEntity
  8
RACCORDO
100
AcDbPolyline
 62
7
  6
CONTINUOUS
 90
10
 70
0
 10
7.0175811065
 20
25.3210839466
 10
6.9970290865
 20
25.3319662231
 10
6.9678840737
 20
25.3441648955
 10
6.937093619
 20
25.3534237929
 10
6.9049810021
 20
25.3595243488
 10
6.8719856684
 20
25.3623207568
 10
6.8383769656
 20
25.3617639767
 10
6.8043835728
 20
25.3578342523
 10
6.7703211317
 20
25.3505764932
 10
6.7342531923
 20
25.3392749419
  0
LWPOLYLINE
  5
2B4
100
AcDbEntity
  8
RACCORDO
100
AcDbPolyline
 62
250
  6
CONTINUOUS
 90
8
 70
0
 10
7.4078580244
 20
25.0957443094
 10
7.397442929
 20
25.1012714847
 10
7.3722767986
 20
25.1110773635
 10
7.3450412045
 20
25.1169969295
 10
7.3159707775
 20
25.1188886588
 10
7.2853096191
 20
25.116659918
 10
7.2533028797
 20
25.1102534257
 10
7.2202271008
 20
25.0996497527
  0
LINE
  5
2B5
100
AcDbEntity
  8
RACCORDO
100
AcDbLine
 62
250
  6
CONTINUOUS
 10
6.8274708427
 20
25.3264222937
 11
7.2202270725
 21
25.0996497691
  0
LINE
  5
2B6
100
AcDbEntity
  8
RACCORDO
100
AcDbLine
 62
7
  6
CONTINUOUS
 10
7.0170766973
 20
25.32137655
 11
7.4078578766
 21
25.0957443947
  0
LINE
  5
2B7
100
AcDbEntity
  8
RACCORDO
100
AcDbLine
 62
250
  6
CONTINUOUS
 10
-27.0184666965
 20
48.629306316
 11
3.7596500486
 21
30.8584074478
  0
LINE
  5
2B8
100
AcDbEntity
  8
RACCORDO
100
AcDbLine
 62
250
  6
CONTINUOUS
 10
3.7596500486
 20
43.1677357209
 11
-27.0184666965
 21
60.938634589
  0
LINE
  5
2B9
100
AcDbEntity
  8
RACCORDO
100
AcDbLine
 62
250
  6
CONTINUOUS
 10
4.1039484903
 20
43.7746245725
 11
-26.6741682547
 21
61.5455234407
  0
LINE
  5
2BA
100
AcDbEntity
  8
RACCORDO
100
AcDbLine
 62
7
  6
CONTINUOUS
 10
-25.6322698475
 20
62.2118053932
 11
5.2018803244
 21
44.4085535266
  0
ARC
  5
2BB
100
AcDbEntity
  8
RACCORDO
100
AcDbCircle
 62
7
  6
CONTINUOUS
 10
-28.5032761942
 20
18.3696920064
 40
0.5
100
AcDbArc
 50
175.1839975092
 51
239.9984015652
  0
ARC
  5
2BC
100
AcDbEntity
  8
RACCORDO
100
AcDbCircle
 62
7
  6
CONTINUOUS
 10
-26.6649133059
 20
61.1427718857
 40
0.5
100
AcDbArc
 50
122.5979811578
 51
179.9999235613
  0
ARC
  5
2BD
100
AcDbEntity
  8
RACCORDO
100
AcDbCircle
 62
7
  6
CONTINUOUS
 10
2.1759731644
 20
0.6558779281
 40
0.5
100
AcDbArc
 50
239.9984015652
 51
287.1696386884
  0
ELLIPSE
  5
2BE
100
AcDbEntity
  8
RACCORDO
100
AcDbEllipse
 62
7
  6
CONTINUOUS
 10
6.3834429554
 20
14.3746579789
 30
0.0
 11
0.2984123604
 21
0.4035436801
 31
0.0
 40
0.639288975
 41
0.0724911956
 42
0.7706710139
  0
ELLIPSE
  5
2BF
100
AcDbEntity
  8
0
100
AcDbEllipse
 62
7
  6
CONTINUOUS
 10
-11.6053710771
 20
19.9588866988
 30
0.0
 11
-0.1232739244
 21
0.2745179102
 31
0.0
 40
0.634096402
 41
-1.8990135541
 42
-0.7209163093
  0
ELLIPSE
  5
2C0
100
AcDbEntity
  8
0
100
AcDbEllipse
 62
7
  6
CONTINUOUS
 10
-12.6717394511
 20
15.2059507582
 30
0.0
 11
-0.0410913081
 21
0.0915059701
 31
0.0
 40
0.634096402
 41
-2.2917126361
 42
-0.7209163093
  0
ELLIPSE
  5
2C1
100
AcDbEntity
  8
RACCORDO
100
AcDbEllipse
 62
7
  6
CONTINUOUS
 10
5.201637975
 20
1.7844060156
 30
0.0
 11
-0.2501834304
 21
0.4333025529
 31
0.0
 40
0.5769361983
 41
-3.16775339
 42
-2.3565853618
  0
ELLIPSE
  5
2C2
100
AcDbEntity
  8
RACCORDO
100
AcDbEllipse
 62
7
  6
CONTINUOUS
 10
5.201637975
 20
44.0003183777
 30
0.0
 11
-0.2500121049
 21
0.4330057129
 31
0.0
 40
0.5777274115
 41
-2.3559002616
 42
-0.7857891675
  0
ELLIPSE
  5
2C3
100
AcDbEntity
  8
RACCORDO
100
AcDbEllipse
 62
7
  6
CONTINUOUS
 10
-25.6320274982
 20
61.8032903854
 30
0.0
 11
-0.2501834304
 21
0.4333025529
 31
0.0
 40
0.5769361983
 41
-0.7851038024
 42
0.0261607363
  0
ELLIPSE
  5
2C4
100
AcDbEntity
  8
0
100
AcDbEllipse
 62
7
  6
CONTINUOUS
 10
-12.7014674181
 20
14.8621980919
 30
0.0
 11
-0.0410913081
 21
0.0915059701
 31
0.0
 40
0.634096402
 41
-3.8625089629
 42
-2.2917126361
  0
ELLIPSE
  5
2C5
100
AcDbEntity
  8
0
100
AcDbEllipse
 62
7
  6
CONTINUOUS
 10
-14.952922574
 20
18.6885806345
 30
0.0
 11
-0.0410913081
 21
0.0915059701
 31
0.0
 40
0.634096402
 41
0.4571809323
 42
2.4206763442
  0
ELLIPSE
  5
2C6
100
AcDbEntity
  8
0
100
AcDbEllipse
 62
7
  6
CONTINUOUS
 10
-14.6467758282
 20
18.5118153404
 30
0.0
 11
-0.0410913081
 21
0.0915059701
 31
0.0
 40
0.634096402
 41
-3.8625089629
 42
-2.6844117209
  0
ELLIPSE
  5
2C7
100
AcDbEntity
  8
0
100
AcDbEllipse
 62
7
  6
CONTINUOUS
 10
-13.5202675885
 20
15.6958802702
 30
0.0
 11
-0.0410913081
 21
0.0915059701
 31
0.0
 40
0.634096402
 41
5.5622689978
 42
7.1330653246
  0
ELLIPSE
  5
2C8
100
AcDbEntity
  8
0
100
AcDbEllipse
 62
7
  6
CONTINUOUS
 10
-15.2405049647
 20
17.7718754371
 30
0.0
 11
-0.1232739244
 21
0.2745179102
 31
0.0
 40
0.634096402
 41
0.4571809342
 42
2.4206763442
  0
ELLIPSE
  5
2C9
100
AcDbEntity
  8
0
100
AcDbEllipse
 62
7
  6
CONTINUOUS
 10
-15.3201357104
 20
17.9983118426
 30
0.0
 11
-0.0410913081
 21
0.0915059701
 31
0.0
 40
0.634096402
 41
5.5622689978
 42
6.7403662463
  0
ELLIPSE
  5
2CA
100
AcDbEntity
  8
0
100
AcDbEllipse
 62
7
  6
CONTINUOUS
 10
-10.5671478959
 20
15.0735376365
 30
0.0
 11
-0.1232739244
 21
0.2745179102
 31
0.0
 40
0.634096402
 41
-3.8625089629
 42
-1.8990135529
  0
ELLIPSE
  5
2CB
100
AcDbEntity
  8
0
100
AcDbEllipse
 62
7
  6
CONTINUOUS
 10
-13.4962425672
 20
21.050652199
 30
0.0
 11
-0.1232739244
 21
0.2745179102
 31
0.0
 40
0.634096402
 41
5.5622689978
 42
6.7403662446
  0
ELLIPSE
  5
2CC
100
AcDbEntity
  8
0
100
AcDbEllipse
 62
7
  6
CONTINUOUS
 10
-13.5499955555
 20
15.3521276039
 30
0.0
 11
-0.0410913081
 21
0.0915059701
 31
0.0
 40
0.634096402
 41
0.8498800174
 42
2.4206763442
  0
ENDSEC
  0
SECTION
  2
OBJECTS
  0
DICTIONARY
  5
C
100
AcDbDictionary
280
0
281
1
  3
ACAD_GROUP
350
D
  3
ACAD_MLINESTYLE
350
17
  3
ACAD_LAYOUT
350
1A
  3
ACAD_PLOTSETTINGS
350
19
  3
ACAD_PLOTSTYLENAME
350
E
  0
DICTIONARY
  5
D
102
{ACAD_REACTORS
330
C
102
}
100
AcDbDictionary
280
0
281
1
  0
ACDBDICTIONARYWDFLT
  5
E
102
{ACAD_REACTORS
330
C
102
}
100
AcDbDictionary
281
1
  3
Normal
350
F
100
AcDbDictionaryWithDefault
340
F
  0
DICTIONARY
  5
17
102
{ACAD_REACTORS
330
C
102
}
100
AcDbDictionary
280
0
281
1
  3
Standard
350
18
  0
DICTIONARY
  5
19
102
{ACAD_REACTORS
330
C
102
}
100
AcDbDictionary
281
1
  0
DICTIONARY
  5
1A
102
{ACAD_REACTORS
330
C
102
}
100
AcDbDictionary
281
1
  3
Model
350
2CD
  3
Layout1
350
2CE
  0
ACDBPLACEHOLDER
  5
F
102
{ACAD_REACTORS
330
E
102
}
  0
MLINESTYLE
  5
18
102
{ACAD_REACTORS
330
17
102
}
100
AcDbMlineStyle
  2
STANDARD
 70
0
  3

 62
256
 51
90.0
 52
90.0
 71
2
 49
0.5
 62
256
  6
BYLAYER
 49
-0.5
 62
256
  6
BYLAYER
  0
LAYOUT
  5
2CD
102
{ACAD_REACTORS
330
1A
102
}
100
AcDbPlotSettings
  1

  2
none_device
  4
ANSI_C_(22.00_x_17.00_Inches)
  6

 40
0.0
 41
0.0
 42
0.0
 43
0.0
 44
558.8
 45
431.8
 46
0.0
 47
0.0
 48
0.0
 49
0.0
140
0.0
141
0.0
142
1.0
143
1.0
 70
1024
 72
1
 73
0
 74
0
  7

 75
0
147
1.0
148
0.0
149
0.0
100
AcDbLayout
  1
Model
 70
0
 71
0
 10
0.0
 20
0.0
 11
558.8
 21
431.8
 12
0.0
 22
0.0
 32
0.0
 14
0.0
 24
0.0
 34
0.0
 15
0.0
 25
0.0
 35
0.0
146
0.0
 13
0.0
 23
0.0
 33
0.0
 16
1.0
 26
0.0
 36
0.0
 17
0.0
 27
1.0
 37
0.0
 76
0
330
21C
345
0
346
0
  0
LAYOUT
  5
2CE
102
{ACAD_REACTORS
330
1A
102
}
100
AcDbPlotSettings
  1

  2
none_device
  4
ANSI_C_(22.00_x_17.00_Inches)
  6

 40
0.0
 41
0.0
 42
0.0
 43
0.0
 44
558.8
 45
431.8
 46
0.0
 47
0.0
 48
0.0
 49
0.0
140
0.0
141
0.0
142
1.0
143
1.0
 70
0
 72
1
 73
0
 74
0
  7

 75
0
147
1.0
148
0.0
149
0.0
100
AcDbLayout
  1
Layout1
 70
0
 71
1
 10
0.0
 20
0.0
 11
558.8
 21
431.8
 12
0.0
 22
0.0
 32
0.0
 14
0.0
 24
0.0
 34
0.0
 15
0.0
 25
0.0
 35
0.0
146
0.0
 13
0.0
 23
0.0
 33
0.0
 16
1.0
 26
0.0
 36
0.0
 17
0.0
 27
1.0
 37
0.0
 76
0
330
21D
345
0
346
0
  0
ENDSEC
  0
EOF
