  0
SECTION
  2
HEADER
  9
$ACADVER
  1
AC1024
  9
$DWGCODEPAGE
  3
ANSI_1252
  9
$EXTMAX
 10
210.0
 20
297.0
 30
0.0
  9
$EXTMIN
 10
0.0
 20
0.0
 30
0.0
  9
$LIMMIN
 10
0.0
 20
0.0
  9
$LIMMAX
 10
210.0
 20
297.0
  9
$VIEWCTR
 10
105.0
 20
148.5
  9
$VIEWSIZE
 40
297.0
  9
$CLAYER
  8
0
  9
$LTSCALE
 40
19.36
  9
$CELTYPE
  6
BYLAYER
  9
$DIMSCALE
 40
1.0
  9
$DIMASZ
 40
3.0
  9
$DIMEXO
 40
0.5
  9
$DIMDLI
 40
13.376
  9
$DIMEXE
 40
1.5
  9
$DIMCEN
 40
3.168
  9
$DIMLFAC
 40
1.0
  9
$DIMBLK
  1
_FILLED
  9
$DIMALT
 70
0
  9
$DIMALTF
 40
0.0393700787
  9
$DIMTXT
 40
3.0
  9
$DIMTOL
 70
1
  9
$DIMLIM
 70
0
  9
$DIMTFAC
 40
1.0
  9
$DIMTP
 40
0.01
  9
$DIMTM
 40
0.01
  9
$DIMGAP
 40
0.625
  9
$DIMDSEP
 70
44
  9
$AUNITS
 70
0
  9
$PDMODE
 70
3
  9
$PDSIZE
 40
3.0
  9
$HANDSEED
  5
401
  9
$TILEMODE
 70
1
  9
$MEASUREMENT
 70
1
  9
$INSUNITS
 70
4
  0
ENDSEC
  0
SECTION
  2
CLASSES
  0
CLASS
  1
ACDBDICTIONARYWDFLT
  2
AcDbDictionaryWithDefault
  3
AutoCAD 2000
 90
0
 91
1
280
0
281
0
  0
CLASS
  1
ACDBPLACEHOLDER
  2
AcDbPlaceHolder
  3
AutoCAD 2000
 90
0
 91
1
280
0
281
0
  0
CLASS
  1
LAYOUT
  2
AcDbLayout
  3
AutoCAD 2000
 90
0
 91
0
280
0
281
0
  0
ENDSEC
  0
SECTION
  2
TABLES
  0
TABLE
  2
VPORT
  5
8
100
AcDbSymbolTable
 70
2
  0
VPORT
  5
1F4
100
AcDbSymbolTableRecord
100
AcDbViewportTableRecord
  2
*ACTIVE
 70
0
 10
0.0
 20
0.0
 11
1.0
 21
1.0
 12
105.0
 22
148.5
 13
0.0
 23
0.0
 14
1.0
 24
1.0
 15
0.0
 25
0.0
 16
0.0
 26
0.0
 36
1.0
 17
0.0
 27
0.0
 37
0.0
 40
297.0
 41
0.7070707071
 42
50.0
 43
0.0
 44
0.0
 50
0.0
 51
0.0
 71
0
 72
100
 73
1
 74
1
 75
0
 76
0
 77
0
 78
0
  0
ENDTAB
  0
TABLE
  2
LTYPE
  5
5
100
AcDbSymbolTable
 70
6
  0
LTYPE
  5
14
100
AcDbSymbolTableRecord
100
AcDbLinetypeTableRecord
  2
BYBLOCK
 70
0
  3

 72
65
 73
0
 40
0.0
  0
LTYPE
  5
15
100
AcDbSymbolTableRecord
100
AcDbLinetypeTableRecord
  2
BYLAYER
 70
0
  3

 72
65
 73
0
 40
0.0
  0
LTYPE
  5
16
100
AcDbSymbolTableRecord
100
AcDbLinetypeTableRecord
  2
CONTINUOUS
 70
64
  3
Solid line
 72
65
 73
0
 40
0.0
  0
LTYPE
  5
1F5
100
AcDbSymbolTableRecord
100
AcDbLinetypeTableRecord
  2
CENTER
 70
64
  3
____ _ ____ _ ____ _ ____ _ ____ _ ____ _ ____
 72
65
 73
4
 40
0.6
 49
0.375
 74
0
 49
-0.075
 74
0
 49
0.075
 74
0
 49
-0.075
 74
0
  0
LTYPE
  5
1F6
100
AcDbSymbolTableRecord
100
AcDbLinetypeTableRecord
  2
HIDDEN
 70
64
  3
- - - - - - - - - - - - - - - - - - - -
 72
65
 73
2
 40
0.2
 49
0.1
 74
0
 49
-0.1
 74
0
  0
LTYPE
  5
1F7
100
AcDbSymbolTableRecord
100
AcDbLinetypeTableRecord
  2
PHANTOM
 70
64
  3
_____ _ _ _____ _ _ _____ _ _ _____
 72
65
 73
6
 40
0.8
 49
0.45
 74
0
 49
-0.05
 74
0
 49
0.1
 74
0
 49
-0.05
 74
0
 49
0.1
 74
0
 49
-0.05
 74
0
  0
LTYPE
  5
1F8
100
AcDbSymbolTableRecord
100
AcDbLinetypeTableRecord
  2
DOT
 70
64
  3
. . . . . . . . . . . . . . . . . . . .
 72
65
 73
2
 40
0.2
 49
0.1
 74
0
 49
-0.1
 74
0
  0
LTYPE
  5
1F9
100
AcDbSymbolTableRecord
100
AcDbLinetypeTableRecord
  2
DASHED
 70
64
  3
- - - - - - - - - - - - - - - - - - - -
 72
65
 73
2
 40
0.2
 49
0.1
 74
0
 49
-0.1
 74
0
  0
ENDTAB
  0
TABLE
  2
LAYER
  5
2
100
AcDbSymbolTable
 70
36
  0
LAYER
  5
10
100
AcDbSymbolTableRecord
100
AcDbLayerTableRecord
  2
0
 70
0
 62
7
  6
CONTINUOUS
370
-3
390
F
  0
LAYER
  5
1FA
100
AcDbSymbolTableRecord
100
AcDbLayerTableRecord
  2
DEFAULT_1
 70
0
 62
7
  6
CENTER
370
-3
390
F
  0
LAYER
  5
1FB
100
AcDbSymbolTableRecord
100
AcDbLayerTableRecord
  2
DEFAULT_2
 70
0
 62
7
  6
HIDDEN
370
-3
390
F
  0
LAYER
  5
1FC
100
AcDbSymbolTableRecord
100
AcDbLayerTableRecord
  2
DEFAULT_3
 70
0
 62
7
  6
PHANTOM
370
-3
390
F
  0
LAYER
  5
1FD
100
AcDbSymbolTableRecord
100
AcDbLayerTableRecord
  2
ASSI
 70
0
 62
7
  6
CONTINUOUS
370
-3
390
F
  0
LAYER
  5
1FE
100
AcDbSymbolTableRecord
100
AcDbLayerTableRecord
  2
COORDINATE
 70
0
 62
7
  6
CONTINUOUS
370
-3
390
F
  0
LAYER
  5
1FF
100
AcDbSymbolTableRecord
100
AcDbLayerTableRecord
  2
COPY_PUBLISH
 70
0
 62
7
  6
CONTINUOUS
370
-3
390
F
  0
LAYER
  5
200
100
AcDbSymbolTableRecord
100
AcDbLayerTableRecord
  2
COSMETICI
 70
0
 62
7
  6
CONTINUOUS
370
-3
390
F
  0
LAYER
  5
201
100
AcDbSymbolTableRecord
100
AcDbLayerTableRecord
  2
CURVE
 70
0
 62
7
  6
CONTINUOUS
370
-3
390
F
  0
LAYER
  5
202
100
AcDbSymbolTableRecord
100
AcDbLayerTableRecord
  2
DRAFT
 70
0
 62
7
  6
CONTINUOUS
370
-3
390
F
  0
LAYER
  5
203
100
AcDbSymbolTableRecord
100
AcDbLayerTableRecord
  2
IMPORT_IGES
 70
0
 62
7
  6
CONTINUOUS
370
-3
390
F
  0
LAYER
  5
204
100
AcDbSymbolTableRecord
100
AcDbLayerTableRecord
  2
INTF_1
 70
0
 62
7
  6
CONTINUOUS
370
-3
390
F
  0
LAYER
  5
205
100
AcDbSymbolTableRecord
100
AcDbLayerTableRecord
  2
INTF_11
 70
0
 62
7
  6
CONTINUOUS
370
-3
390
F
  0
LAYER
  5
206
100
AcDbSymbolTableRecord
100
AcDbLayerTableRecord
  2
INTF_13
 70
0
 62
7
  6
CONTINUOUS
370
-3
390
F
  0
LAYER
  5
207
100
AcDbSymbolTableRecord
100
AcDbLayerTableRecord
  2
INTF_2
 70
0
 62
7
  6
CONTINUOUS
370
-3
390
F
  0
LAYER
  5
208
100
AcDbSymbolTableRecord
100
AcDbLayerTableRecord
  2
NOTE
 70
0
 62
7
  6
CONTINUOUS
370
-3
390
F
  0
LAYER
  5
209
100
AcDbSymbolTableRecord
100
AcDbLayerTableRecord
  2
PIANI
 70
0
 62
7
  6
CONTINUOUS
370
-3
390
F
  0
LAYER
  5
20A
100
AcDbSymbolTableRecord
100
AcDbLayerTableRecord
  2
PUNTI
 70
0
 62
7
  6
CONTINUOUS
370
-3
390
F
  0
LAYER
  5
20B
100
AcDbSymbolTableRecord
100
AcDbLayerTableRecord
  2
RACCORDO
 70
0
 62
7
  6
CONTINUOUS
370
-3
390
F
  0
LAYER
  5
20C
100
AcDbSymbolTableRecord
100
AcDbLayerTableRecord
  2
SIMBOLI
 70
0
 62
7
  6
CONTINUOUS
370
-3
390
F
  0
LAYER
  5
20D
100
AcDbSymbolTableRecord
100
AcDbLayerTableRecord
  2
SMUSSO
 70
0
 62
7
  6
CONTINUOUS
370
-3
390
F
  0
LAYER
  5
20E
100
AcDbSymbolTableRecord
100
AcDbLayerTableRecord
  2
SNAPLINE
 70
0
 62
7
  6
CONTINUOUS
370
-3
390
F
  0
LAYER
  5
20F
100
AcDbSymbolTableRecord
100
AcDbLayerTableRecord
  2
SUPERFICI
 70
0
 62
7
  6
CONTINUOUS
370
-3
390
F
  0
LAYER
  5
210
100
AcDbSymbolTableRecord
100
AcDbLayerTableRecord
  2
TRASH
 70
0
 62
7
  6
CONTINUOUS
370
-3
390
F
  0
ENDTAB
  0
TABLE
  2
STYLE
  5
3
100
AcDbSymbolTable
 70
1
  0
STYLE
  5
11
100
AcDbSymbolTableRecord
100
AcDbTextStyleTableRecord
  2
STANDARD
 70
0
 40
0.0
 41
0.8
 50
0.0
 71
0
 42
0.2
  3
txt
  4

  0
STYLE
  5
211
100
AcDbSymbolTableRecord
100
AcDbTextStyleTableRecord
  2
TEXTSTYLE_1
 70
0
 40
0.0
 41
0.8
 50
0.0
 71
0
 42
0.2
  3
gdt
  4

  0
ENDTAB
  0
TABLE
  2
VIEW
  5
6
100
AcDbSymbolTable
 70
0
  0
ENDTAB
  0
TABLE
  2
UCS
  5
7
100
AcDbSymbolTable
 70
0
  0
ENDTAB
  0
TABLE
  2
APPID
  5
9
100
AcDbSymbolTable
 70
1
  0
APPID
  5
212
100
AcDbSymbolTableRecord
100
AcDbRegAppTableRecord
  2
ACAD
 70
0
  0
ENDTAB
  0
TABLE
  2
BLOCK_RECORD
  5
1
100
AcDbSymbolTable
 70
0
  0
BLOCK_RECORD
  5
213
100
AcDbSymbolTableRecord
100
AcDbBlockTableRecord
  2
*Model_Space
  0
BLOCK_RECORD
  5
214
100
AcDbSymbolTableRecord
100
AcDbBlockTableRecord
  2
*Paper_Space
  0
BLOCK_RECORD
  5
215
100
AcDbSymbolTableRecord
100
AcDbBlockTableRecord
  2
_FILLED
  0
ENDTAB
  0
TABLE
  2
DIMSTYLE
  5
A
100
AcDbSymbolTable
 70
1
100
AcDbDimStyleTable
 71
0
  0
DIMSTYLE
105
216
100
AcDbSymbolTableRecord
100
AcDbDimStyleTableRecord
  2
STANDARD
 70
0
  3

  4

 40
1.0
 41
3.0
 42
0.5
 43
0.38
 44
1.5
 45
0.0
 46
0.0
 47
0.01
 48
0.01
140
3.0
141
0.09
142
0.0
143
25.4
144
1.0
145
0.0
146
1.0
147
0.625
 71
1
 72
0
 73
0
 74
0
 75
0
 76
0
 77
1
 78
8
 79
2
170
0
171
1
172
0
173
0
174
0
175
0
176
0
177
0
178
0
270
2
179
2
271
2
272
2
273
2
274
2
275
0
280
0
281
0
282
0
283
1
284
8
285
0
286
0
287
3
288
0
340
11
278
44
341
215
342
215
343
215
344
215
  0
ENDTAB
  0
ENDSEC
  0
SECTION
  2
BLOCKS
  0
BLOCK
  5
20
100
AcDbEntity
  8
0
100
AcDbBlockBegin
  2
*Model_Space
 70
0
 10
0.0
 20
0.0
 30
0.0
  3
*Model_Space
  1

  0
ENDBLK
  5
21
100
AcDbEntity
  8
0
100
AcDbBlockEnd
  0
BLOCK
  5
1C
100
AcDbEntity
  8
0
100
AcDbBlockBegin
  2
*Paper_Space
 70
0
 10
0.0
 20
0.0
 30
0.0
  3
*Paper_Space
  1

  0
ENDBLK
  5
1D
100
AcDbEntity
  8
0
100
AcDbBlockEnd
  0
BLOCK
  5
217
100
AcDbEntity
  8
0
100
AcDbBlockBegin
  2
_FILLED
 70
64
 10
0.0
 20
0.0
  3
_FILLED
  1

  0
SOLID
  5
218
100
AcDbEntity
  8
0
  6
BYBLOCK
 62
0
100
AcDbTrace
 10
0.0
 20
0.0
 11
-1.0
 21
0.3166666667
 12
-1.0
 22
-0.3166666667
 13
-1.0
 23
-0.3166666667
  0
ENDBLK
  5
219
100
AcDbEntity
  8
0
  6
BYBLOCK
 62
0
100
AcDbBlockEnd
  0
ENDSEC
  0
SECTION
  2
ENTITIES
  0
LINE
  5
21A
100
AcDbEntity
  8
0
100
AcDbLine
 62
7
  6
CONTINUOUS
 10
-75.3139987792
 20
77.074027914
 11
-72.202728942
 21
78.8704361247
  0
LINE
  5
21B
100
AcDbEntity
  8
0
100
AcDbLine
 62
250
  6
CONTINUOUS
 10
-74.563962539
 20
76.9997161475
 11
-71.4526927017
 21
78.7961243581
  0
LINE
  5
21C
100
AcDbEntity
  8
RACCORDO
100
AcDbLine
 62
7
  6
CONTINUOUS
 10
-69.3284246899
 20
78.3344171402
 11
-70.0263515549
 21
77.9725728562
  0
LINE
  5
21D
100
AcDbEntity
  8
RACCORDO
100
AcDbLine
 62
250
  6
CONTINUOUS
 10
-68.9893516138
 20
78.2938224161
 11
-69.8288879722
 21
77.8585598583
  0
LINE
  5
21E
100
AcDbEntity
  8
0
100
AcDbLine
 62
7
  6
CONTINUOUS
 10
-75.7710693202
 20
76.1832853256
 11
-75.7710693202
 21
6.7833117982
  0
LINE
  5
21F
100
AcDbEntity
  8
0
100
AcDbLine
 62
250
  6
CONTINUOUS
 10
-75.6246227107
 20
75.979148029
 11
-75.6246227107
 21
6.5791745016
  0
LWPOLYLINE
  5
220
100
AcDbEntity
  8
RACCORDO
100
AcDbPolyline
 62
7
  6
CONTINUOUS
 90
14
 70
0
 10
-54.0297176587
 20
48.8024970925
 10
-54.0191993357
 20
48.8176710964
 10
-54.0020240069
 20
48.84440377
 10
-53.9859442444
 20
48.8720375384
 10
-53.9710757267
 20
48.9004097382
 10
-53.9574624296
 20
48.9294691564
 10
-53.9451718404
 20
48.9591407513
 10
-53.9343109505
 20
48.9892345149
 10
-53.9249354915
 20
49.0196841576
 10
-53.9171121964
 20
49.0504242553
 10
-53.9109272121
 20
49.0812989482
 10
-53.9064511492
 20
49.1122346206
 10
-53.9037532021
 20
49.1431940966
 10
-53.9029183102
 20
49.1719110064
  0
LINE
  5
221
100
AcDbEntity
  8
RACCORDO
100
AcDbLine
 62
250
  6
CONTINUOUS
 10
-54.3278519598
 20
48.4476699833
 11
-54.049936902
 21
48.8376335981
  0
LINE
  5
222
100
AcDbEntity
  8
RACCORDO
100
AcDbLine
 62
7
  6
CONTINUOUS
 10
-54.2695638082
 20
48.4659508371
 11
-54.0297158655
 21
48.8024996067
  0
LINE
  5
223
100
AcDbEntity
  8
0
100
AcDbLine
 62
250
  6
CONTINUOUS
 10
-57.9292755116
 20
52.7189873321
 11
-57.5929264133
 21
52.913191086
  0
LWPOLYLINE
  5
224
100
AcDbEntity
  8
RACCORDO
100
AcDbPolyline
 62
7
  6
CONTINUOUS
 90
14
 70
0
 10
-52.3055521316
 20
47.8083364367
 10
-52.2943965098
 20
47.8246631682
 10
-52.2772147317
 20
47.8518636225
 10
-52.261158021
 20
47.879970066
 10
-52.246344202
 20
47.908811837
 10
-52.2328176764
 20
47.9383354044
 10
-52.2206474114
 20
47.9684620919
 10
-52.2099419756
 20
47.9989926472
 10
-52.2007589592
 20
48.0298578687
 10
-52.1931650173
 20
48.0609915222
 10
-52.1872476591
 20
48.0922349214
 10
-52.1830795392
 20
48.1235127129
 10
-52.1807318467
 20
48.1547835949
 10
-52.1802214273
 20
48.1772773183
  0
LINE
  5
225
100
AcDbEntity
  8
RACCORDO
100
AcDbLine
 62
250
  6
CONTINUOUS
 10
-52.8631408428
 20
47.0789924034
 11
-52.3252326019
 21
47.8432359714
  0
LINE
  5
226
100
AcDbEntity
  8
RACCORDO
100
AcDbLine
 62
7
  6
CONTINUOUS
 10
-52.843458318
 20
47.0440957853
 11
-52.3055500775
 21
47.8083393527
  0
LINE
  5
227
100
AcDbEntity
  8
RACCORDO
100
AcDbLine
 62
7
  6
CONTINUOUS
 10
-53.6569402261
 20
45.3431974848
 11
-54.2628888538
 21
44.5697704307
  0
LWPOLYLINE
  5
228
100
AcDbEntity
  8
RACCORDO
100
AcDbPolyline
 62
7
  6
CONTINUOUS
 90
17
 70
0
 10
-52.4133151229
 20
44.7374213612
 10
-52.3931009166
 20
44.7556016075
 10
-52.3682856603
 20
44.780324118
 10
-52.3445541112
 20
44.8067251733
 10
-52.322044307
 20
44.8346215999
 10
-52.3008005652
 20
44.8639335878
 10
-52.2808984283
 20
44.8945625548
 10
-52.2625156162
 20
44.9262388724
 10
-52.2457210572
 20
44.9588601545
 10
-52.2305928762
 20
44.9923158702
 10
-52.2172903538
 20
45.0263130028
 10
-52.2058762123
 20
45.0607444751
 10
-52.1964299201
 20
45.0955129021
 10
-52.1890635079
 20
45.1303853001
 10
-52.1838595301
 20
45.1652546597
 10
-52.1809003505
 20
45.2000715264
 10
-52.1802214302
 20
45.2260431897
  0
LINE
  5
229
100
AcDbEntity
  8
RACCORDO
100
AcDbLine
 62
250
  6
CONTINUOUS
 10
-55.8180784116
 20
41.8745269905
 11
-52.3996703641
 21
44.8089995469
  0
LINE
  5
22A
100
AcDbEntity
  8
RACCORDO
100
AcDbLine
 62
7
  6
CONTINUOUS
 10
-55.8180784116
 20
41.8146618442
 11
-52.4132672647
 21
44.7374623792
  0
LINE
  5
22B
100
AcDbEntity
  8
RACCORDO
100
AcDbLine
 62
7
  6
CONTINUOUS
 10
-54.5195860232
 20
44.3138893627
 11
-55.679325732
 21
43.4410494316
  0
LINE
  5
22C
100
AcDbEntity
  8
RACCORDO
100
AcDbLine
 62
7
  6
CONTINUOUS
 10
-55.8313213783
 20
43.0665515986
 11
-55.8314253105
 21
43.066481716
  0
LINE
  5
22D
100
AcDbEntity
  8
RACCORDO
100
AcDbLine
 62
250
  6
CONTINUOUS
 10
-55.8314253105
 20
43.066481716
 11
-55.8351755434
 21
43.0640529786
  0
LWPOLYLINE
  5
22E
100
AcDbEntity
  8
RACCORDO
100
AcDbPolyline
 62
7
  6
CONTINUOUS
 90
12
 70
0
 10
-53.2170611337
 20
46.6825021915
 10
-53.1910338878
 20
46.6989002908
 10
-53.1506995295
 20
46.7265909185
 10
-53.1111927039
 20
46.7564712239
 10
-53.0725802615
 20
46.7884175989
 10
-53.0349202015
 20
46.8223091628
 10
-52.9982883546
 20
46.8580148714
 10
-52.9627510253
 20
46.8954081924
 10
-52.9283600397
 20
46.9343825775
 10
-52.8951878705
 20
46.9748079048
 10
-52.8633138406
 20
47.016531962
 10
-52.8434552615
 20
47.0441001332
  0
LINE
  5
22F
100
AcDbEntity
  8
RACCORDO
100
AcDbLine
 62
250
  6
CONTINUOUS
 10
-55.8351755434
 20
43.0640529786
 11
-55.8366430801
 21
43.0631502735
  0
LINE
  5
230
100
AcDbEntity
  8
RACCORDO
100
AcDbLine
 62
250
  6
CONTINUOUS
 10
-53.6569402261
 20
46.481356126
 11
-53.1770908283
 21
46.7731802952
  0
LINE
  5
231
100
AcDbEntity
  8
RACCORDO
100
AcDbLine
 62
7
  6
CONTINUOUS
 10
-53.5316491779
 20
46.4911830015
 11
-53.2170364651
 21
46.6825171867
  0
LINE
  5
232
100
AcDbEntity
  8
RACCORDO
100
AcDbLine
 62
250
  6
CONTINUOUS
 10
-53.3197246698
 20
45.8693971703
 11
-53.5612989912
 21
45.7274368373
  0
LINE
  5
233
100
AcDbEntity
  8
RACCORDO
100
AcDbLine
 62
250
  6
CONTINUOUS
 10
-53.1770908283
 20
45.6251793608
 11
-53.6569402261
 21
45.3431974848
  0
LINE
  5
234
100
AcDbEntity
  8
RACCORDO
100
AcDbLine
 62
7
  6
CONTINUOUS
 10
-55.8180784116
 20
48.3372868367
 11
-55.7155892362
 21
48.381787755
  0
LINE
  5
235
100
AcDbEntity
  8
0
100
AcDbLine
 62
250
  6
CONTINUOUS
 10
-58.3535395803
 20
9.8951213144
 11
-58.3535395803
 21
52.7189873321
  0
LINE
  5
236
100
AcDbEntity
  8
0
100
AcDbLine
 62
250
  6
CONTINUOUS
 10
-57.9292755116
 20
9.8951213144
 11
-57.9292755116
 21
52.7189873321
  0
LWPOLYLINE
  5
237
100
AcDbEntity
  8
RACCORDO
100
AcDbPolyline
 62
7
  6
CONTINUOUS
 90
14
 70
0
 10
-52.3055521316
 20
26.335168157
 10
-52.2943965098
 20
26.3514948886
 10
-52.2772147317
 20
26.3786953429
 10
-52.261158021
 20
26.4068017863
 10
-52.246344202
 20
26.4356435573
 10
-52.2328176764
 20
26.4651671248
 10
-52.2206474114
 20
26.4952938122
 10
-52.2099419756
 20
26.5258243675
 10
-52.2007589592
 20
26.5566895891
 10
-52.1931650173
 20
26.5878232425
 10
-52.1872476591
 20
26.6190666417
 10
-52.1830795392
 20
26.6503444332
 10
-52.1807318467
 20
26.6816153152
 10
-52.1802214273
 20
26.7041090386
  0
LWPOLYLINE
  5
238
100
AcDbEntity
  8
RACCORDO
100
AcDbPolyline
 62
7
  6
CONTINUOUS
 90
14
 70
0
 10
-54.0297176587
 20
27.3293288128
 10
-54.0191993357
 20
27.3445028167
 10
-54.0020240069
 20
27.3712354904
 10
-53.9859442444
 20
27.3988692588
 10
-53.9710757267
 20
27.4272414585
 10
-53.9574624296
 20
27.4563008767
 10
-53.9451718404
 20
27.4859724716
 10
-53.9343109505
 20
27.5160662353
 10
-53.9249354915
 20
27.5465158779
 10
-53.9171121964
 20
27.5772559756
 10
-53.9109272121
 20
27.6081306685
 10
-53.9064511492
 20
27.639066341
 10
-53.9037532021
 20
27.670025817
 10
-53.9029183102
 20
27.6987427267
  0
LINE
  5
239
100
AcDbEntity
  8
RACCORDO
100
AcDbLine
 62
250
  6
CONTINUOUS
 10
-52.8631408428
 20
25.6058241238
 11
-52.3252326019
 21
26.3700676918
  0
LINE
  5
23A
100
AcDbEntity
  8
RACCORDO
100
AcDbLine
 62
7
  6
CONTINUOUS
 10
-52.843458318
 20
25.5709275056
 11
-52.3055500775
 21
26.335171073
  0
LINE
  5
23B
100
AcDbEntity
  8
RACCORDO
100
AcDbLine
 62
250
  6
CONTINUOUS
 10
-54.3278519598
 20
26.9745017037
 11
-54.049936902
 21
27.3644653185
  0
LINE
  5
23C
100
AcDbEntity
  8
RACCORDO
100
AcDbLine
 62
7
  6
CONTINUOUS
 10
-54.2695638082
 20
26.9927825575
 11
-54.0297158655
 21
27.3293313271
  0
LINE
  5
23D
100
AcDbEntity
  8
RACCORDO
100
AcDbLine
 62
7
  6
CONTINUOUS
 10
-55.8180784116
 20
45.9036331589
 11
-54.5195860232
 21
46.4791085652
  0
LINE
  5
23E
100
AcDbEntity
  8
RACCORDO
100
AcDbLine
 62
250
  6
CONTINUOUS
 10
-52.5129291404
 20
48.7763170603
 11
-55.8180784116
 21
47.6612523964
  0
LINE
  5
23F
100
AcDbEntity
  8
RACCORDO
100
AcDbLine
 62
250
  6
CONTINUOUS
 10
-52.3996703641
 20
48.5190029596
 11
-55.8180784116
 21
47.3657279612
  0
LINE
  5
240
100
AcDbEntity
  8
RACCORDO
100
AcDbLine
 62
250
  6
CONTINUOUS
 10
-54.2370768198
 20
49.7718183218
 11
-55.8180784116
 21
49.2511668905
  0
LINE
  5
241
100
AcDbEntity
  8
RACCORDO
100
AcDbLine
 62
250
  6
CONTINUOUS
 10
-54.1250359138
 20
49.5137823835
 11
-55.8180784116
 21
48.9562339255
  0
LINE
  5
242
100
AcDbEntity
  8
RACCORDO
100
AcDbLine
 62
7
  6
CONTINUOUS
 10
-55.8180784116
 20
47.9802917739
 11
-52.8261199738
 21
48.9186566617
  0
LINE
  5
243
100
AcDbEntity
  8
RACCORDO
100
AcDbLine
 62
250
  6
CONTINUOUS
 10
-55.8180784116
 20
47.9381828969
 11
-52.7356595369
 21
48.9049187997
  0
LINE
  5
244
100
AcDbEntity
  8
RACCORDO
100
AcDbLine
 62
7
  6
CONTINUOUS
 10
-55.8180784116
 20
49.5262313816
 11
-54.5489353007
 21
49.9145706902
  0
LINE
  5
245
100
AcDbEntity
  8
RACCORDO
100
AcDbLine
 62
250
  6
CONTINUOUS
 10
-55.8180784116
 20
49.4848088569
 11
-54.4598072163
 21
49.9004200612
  0
LWPOLYLINE
  5
246
100
AcDbEntity
  8
RACCORDO
100
AcDbPolyline
 62
7
  6
CONTINUOUS
 90
15
 70
0
 10
-52.1802214207
 20
24.0333004905
 10
-52.1806971708
 20
24.0546674796
 10
-52.1830933651
 20
24.0851623284
 10
-52.1874939596
 20
24.1147298979
 10
-52.193891854
 20
24.1433102238
 10
-52.2022805251
 20
24.1708547517
 10
-52.212643357
 20
24.1972615355
 10
-52.2249268668
 20
24.2223699761
 10
-52.2390651999
 20
24.2460568022
 10
-52.2549881533
 20
24.2682108744
 10
-52.2725622917
 20
24.2886635056
 10
-52.2916522657
 20
24.3073004249
 10
-52.312108747
 20
24.3240243615
 10
-52.3337108197
 20
24.3387151964
 10
-52.3412489072
 20
24.3432169093
  0
LWPOLYLINE
  5
247
100
AcDbEntity
  8
RACCORDO
100
AcDbPolyline
 62
7
  6
CONTINUOUS
 90
15
 70
0
 10
-52.1802214207
 20
45.5064687702
 10
-52.1806971708
 20
45.5278357593
 10
-52.1830933651
 20
45.558330608
 10
-52.1874939596
 20
45.5878981776
 10
-52.193891854
 20
45.6164785035
 10
-52.2022805251
 20
45.6440230314
 10
-52.212643357
 20
45.6704298152
 10
-52.2249268668
 20
45.6955382557
 10
-52.2390651999
 20
45.7192250819
 10
-52.2549881533
 20
45.7413791541
 10
-52.2725622917
 20
45.7618317852
 10
-52.2916522657
 20
45.7804687045
 10
-52.312108747
 20
45.7971926411
 10
-52.3337108197
 20
45.8118834761
 10
-52.3412489072
 20
45.816385189
  0
LWPOLYLINE
  5
248
100
AcDbEntity
  8
RACCORDO
100
AcDbPolyline
 62
7
  6
CONTINUOUS
 90
15
 70
0
 10
-52.18022142
 20
26.9845412327
 10
-52.1806782013
 20
27.0054749872
 10
-52.1830209367
 20
27.0357523621
 10
-52.1873318386
 20
27.0650894597
 10
-52.1936128378
 20
27.0934843111
 10
-52.2018696276
 20
27.1209043868
 10
-52.2120880232
 20
27.1472307868
 10
-52.2242249944
 20
27.1723068466
 10
-52.2382325555
 20
27.1960199826
 10
-52.2540431631
 20
27.2182420036
 10
-52.2715056328
 20
27.2387699873
 10
-52.2904677387
 20
27.2574738141
 10
-52.3107942314
 20
27.2742755053
 10
-52.3322902479
 20
27.2890714294
 10
-52.3412785163
 20
27.2944735876
  0
LWPOLYLINE
  5
249
100
AcDbEntity
  8
RACCORDO
100
AcDbPolyline
 62
7
  6
CONTINUOUS
 90
15
 70
0
 10
-52.18022142
 20
48.4577095123
 10
-52.1806782013
 20
48.4786432668
 10
-52.1830209367
 20
48.5089206417
 10
-52.1873318386
 20
48.5382577394
 10
-52.1936128378
 20
48.5666525907
 10
-52.2018696276
 20
48.5940726665
 10
-52.2120880232
 20
48.6203990664
 10
-52.2242249944
 20
48.6454751263
 10
-52.2382325555
 20
48.6691882623
 10
-52.2540431631
 20
48.6914102833
 10
-52.2715056328
 20
48.711938267
 10
-52.2904677387
 20
48.7306420938
 10
-52.3107942314
 20
48.7474437849
 10
-52.3322902479
 20
48.762239709
 10
-52.3412785163
 20
48.7676418672
  0
LWPOLYLINE
  5
24A
100
AcDbEntity
  8
RACCORDO
100
AcDbPolyline
 62
7
  6
CONTINUOUS
 90
15
 70
0
 10
-53.9029183133
 20
27.9792061536
 10
-53.9033561644
 20
27.9996530886
 10
-53.9056721315
 20
28.0298900989
 10
-53.9099586274
 20
28.059205566
 10
-53.9162183534
 20
28.0875966153
 10
-53.9244574129
 20
28.1150276465
 10
-53.9346612604
 20
28.141377097
 10
-53.9467874238
 20
28.1664877489
 10
-53.9607874775
 20
28.190244655
 10
-53.9765940459
 20
28.2125193784
 10
-53.9940595637
 20
28.2331117748
 10
-54.0130339245
 20
28.2518905913
 10
-54.0333825885
 20
28.2687758497
 10
-54.0549146783
 20
28.2836640669
 10
-54.0645201118
 20
28.289451686
  0
LWPOLYLINE
  5
24B
100
AcDbEntity
  8
RACCORDO
100
AcDbPolyline
 62
7
  6
CONTINUOUS
 90
15
 70
0
 10
-53.9029183133
 20
49.4523744332
 10
-53.9033561644
 20
49.4728213682
 10
-53.9056721315
 20
49.5030583786
 10
-53.9099586274
 20
49.5323738456
 10
-53.9162183534
 20
49.560764895
 10
-53.9244574129
 20
49.5881959261
 10
-53.9346612604
 20
49.6145453767
 10
-53.9467874238
 20
49.6396560285
 10
-53.9607874775
 20
49.6634129346
 10
-53.9765940459
 20
49.685687658
 10
-53.9940595637
 20
49.7062800545
 10
-54.0130339245
 20
49.725058871
 10
-54.0333825885
 20
49.7419441294
 10
-54.0549146783
 20
49.7568323466
 10
-54.0645201118
 20
49.7626199657
  0
LINE
  5
24C
100
AcDbEntity
  8
0
100
AcDbLine
 62
7
  6
CONTINUOUS
 10
-57.2928794085
 20
52.7399477059
 11
-57.2928794085
 21
10.2625684484
  0
LINE
  5
24D
100
AcDbEntity
  8
RACCORDO
100
AcDbLine
 62
250
  6
CONTINUOUS
 10
-56.4300218007
 20
11.7414638488
 11
-56.4300218007
 21
10.5630460538
  0
LINE
  5
24E
100
AcDbEntity
  8
RACCORDO
100
AcDbLine
 62
7
  6
CONTINUOUS
 10
-56.3738897608
 20
11.8216812562
 11
-56.3738897608
 21
10.6432634618
  0
LINE
  5
24F
100
AcDbEntity
  8
RACCORDO
100
AcDbLine
 62
250
  6
CONTINUOUS
 10
-55.8742104516
 20
51.9208260303
 11
-55.8742104516
 21
43.8084313831
  0
LINE
  5
250
100
AcDbEntity
  8
RACCORDO
100
AcDbLine
 62
250
  6
CONTINUOUS
 10
-55.8742104515
 20
42.9740131803
 11
-55.8742104516
 21
22.3352631034
  0
LINE
  5
251
100
AcDbEntity
  8
RACCORDO
100
AcDbLine
 62
250
  6
CONTINUOUS
 10
-55.8742104515
 20
21.5008449007
 11
-55.8742104516
 21
13.0651539745
  0
LINE
  5
252
100
AcDbEntity
  8
RACCORDO
100
AcDbLine
 62
7
  6
CONTINUOUS
 10
-55.8180784116
 20
51.8884160939
 11
-55.8180784116
 21
43.8886487902
  0
LINE
  5
253
100
AcDbEntity
  8
RACCORDO
100
AcDbLine
 62
7
  6
CONTINUOUS
 10
-55.8180784116
 20
43.0542305877
 11
-55.8180784116
 21
22.4154805105
  0
LINE
  5
254
100
AcDbEntity
  8
RACCORDO
100
AcDbLine
 62
7
  6
CONTINUOUS
 10
-55.8180784116
 20
21.581062308
 11
-55.8180784116
 21
13.1453713855
  0
LINE
  5
255
100
AcDbEntity
  8
RACCORDO
100
AcDbLine
 62
250
  6
CONTINUOUS
 10
-53.9602682198
 20
27.6177944783
 11
-53.9602682198
 21
27.8982889798
  0
LINE
  5
256
100
AcDbEntity
  8
RACCORDO
100
AcDbLine
 62
250
  6
CONTINUOUS
 10
-53.9602682198
 20
49.090962758
 11
-53.9602682198
 21
49.3714572595
  0
LINE
  5
257
100
AcDbEntity
  8
RACCORDO
100
AcDbLine
 62
7
  6
CONTINUOUS
 10
-53.9029183096
 20
27.6987337233
 11
-53.9029183096
 21
27.9792282251
  0
LINE
  5
258
100
AcDbEntity
  8
RACCORDO
100
AcDbLine
 62
7
  6
CONTINUOUS
 10
-53.9029183096
 20
49.1719020029
 11
-53.9029183096
 21
49.4523965048
  0
LINE
  5
259
100
AcDbEntity
  8
RACCORDO
100
AcDbLine
 62
250
  6
CONTINUOUS
 10
-52.2363534558
 20
23.6726138114
 11
-52.2363534558
 21
23.9531083129
  0
LINE
  5
25A
100
AcDbEntity
  8
RACCORDO
100
AcDbLine
 62
250
  6
CONTINUOUS
 10
-52.2363534558
 20
26.6238527199
 11
-52.2363534558
 21
26.9043472214
  0
LINE
  5
25B
100
AcDbEntity
  8
RACCORDO
100
AcDbLine
 62
250
  6
CONTINUOUS
 10
-52.2363534558
 20
45.1457820911
 11
-52.2363534558
 21
45.4262765926
  0
LINE
  5
25C
100
AcDbEntity
  8
RACCORDO
100
AcDbLine
 62
250
  6
CONTINUOUS
 10
-52.2363534558
 20
48.0970209995
 11
-52.2363534558
 21
48.377515501
  0
LINE
  5
25D
100
AcDbEntity
  8
RACCORDO
100
AcDbLine
 62
7
  6
CONTINUOUS
 10
-52.1802214159
 20
23.7528312188
 11
-52.1802214159
 21
24.0333257197
  0
LINE
  5
25E
100
AcDbEntity
  8
RACCORDO
100
AcDbLine
 62
7
  6
CONTINUOUS
 10
-52.1802214159
 20
26.7040701273
 11
-52.1802214159
 21
26.9845646292
  0
LINE
  5
25F
100
AcDbEntity
  8
RACCORDO
100
AcDbLine
 62
7
  6
CONTINUOUS
 10
-52.1802214159
 20
45.2259994985
 11
-52.1802214159
 21
45.5064939994
  0
LINE
  5
260
100
AcDbEntity
  8
RACCORDO
100
AcDbLine
 62
7
  6
CONTINUOUS
 10
-52.1802214159
 20
48.1772384069
 11
-52.1802214159
 21
48.4577329088
  0
LWPOLYLINE
  5
261
100
AcDbEntity
  8
RACCORDO
100
AcDbPolyline
 62
7
  6
CONTINUOUS
 90
5
 70
0
 10
-55.8180784173
 20
43.0542576039
 10
-55.8179222672
 20
43.0614655546
 10
-55.8173950788
 20
43.0688582976
 10
-55.8166132678
 20
43.0749066116
 10
-55.8160607038
 20
43.0777719014
  0
LWPOLYLINE
  5
262
100
AcDbEntity
  8
RACCORDO
100
AcDbPolyline
 62
7
  6
CONTINUOUS
 90
5
 70
0
 10
-55.8180784173
 20
21.5810893243
 10
-55.8179222672
 20
21.588297275
 10
-55.8173950788
 20
21.5956900179
 10
-55.8166132678
 20
21.601738332
 10
-55.8160607038
 20
21.6046036218
  0
LWPOLYLINE
  5
263
100
AcDbEntity
  8
RACCORDO
100
AcDbPolyline
 62
7
  6
CONTINUOUS
 90
14
 70
0
 10
-56.3738897615
 20
11.8216914034
 10
-56.3733842023
 20
11.8439064221
 10
-56.3715038399
 20
11.8709995569
 10
-56.3681710709
 20
11.8994977884
 10
-56.3633357671
 20
11.9292263747
 10
-56.3569715062
 20
11.9599885397
 10
-56.3490705677
 20
11.9915886007
 10
-56.3396363409
 20
12.0238426476
 10
-56.328684768
 20
12.0565694844
 10
-56.3162401354
 20
12.0895988664
 10
-56.3023480179
 20
12.1227316992
 10
-56.2870574364
 20
12.1557919306
 10
-56.2704081335
 20
12.1886434475
 10
-56.2572415597
 20
12.2127316163
  0
LWPOLYLINE
  5
264
100
AcDbEntity
  8
RACCORDO
100
AcDbPolyline
 62
7
  6
CONTINUOUS
 90
11
 70
0
 10
-55.9049218661
 20
12.837422034
 10
-55.8908762809
 20
12.8635596313
 10
-55.8763745928
 20
12.8935981616
 10
-55.863245127
 20
12.9243754645
 10
-55.8516152315
 20
12.9556991661
 10
-55.8415473467
 20
12.9875180758
 10
-55.8331329598
 20
13.0197462993
 10
-55.8264858007
 20
13.0521948411
 10
-55.8216980067
 20
13.0847777244
 10
-55.8188638431
 20
13.1174558807
 10
-55.8180784156
 20
13.1453945251
  0
LINE
  5
265
100
AcDbEntity
  8
RACCORDO
100
AcDbLine
 62
250
  6
CONTINUOUS
 10
-55.9352579672
 20
12.8554540282
 11
-56.2875775975
 21
12.2307637234
  0
LINE
  5
266
100
AcDbEntity
  8
RACCORDO
100
AcDbLine
 62
7
  6
CONTINUOUS
 10
-55.9049219081
 20
12.8374219588
 11
-56.2572415384
 21
12.212731654
  0
LINE
  5
267
100
AcDbEntity
  8
RACCORDO
100
AcDbLine
 62
7
  6
CONTINUOUS
 10
-53.6569402261
 20
23.8700292052
 11
-54.2628888538
 21
23.0966021511
  0
LWPOLYLINE
  5
268
100
AcDbEntity
  8
RACCORDO
100
AcDbPolyline
 62
7
  6
CONTINUOUS
 90
17
 70
0
 10
-52.4133151229
 20
23.2642530816
 10
-52.3931009166
 20
23.2824333279
 10
-52.3682856603
 20
23.3071558383
 10
-52.3445541112
 20
23.3335568936
 10
-52.322044307
 20
23.3614533202
 10
-52.3008005652
 20
23.3907653082
 10
-52.2808984283
 20
23.4213942751
 10
-52.2625156162
 20
23.4530705928
 10
-52.2457210572
 20
23.4856918748
 10
-52.2305928762
 20
23.5191475905
 10
-52.2172903538
 20
23.5531447232
 10
-52.2058762123
 20
23.5875761954
 10
-52.1964299201
 20
23.6223446225
 10
-52.1890635079
 20
23.6572170205
 10
-52.1838595301
 20
23.6920863801
 10
-52.1809003505
 20
23.7269032467
 10
-52.1802214302
 20
23.75287491
  0
LINE
  5
269
100
AcDbEntity
  8
RACCORDO
100
AcDbLine
 62
250
  6
CONTINUOUS
 10
-55.8180784116
 20
20.4013587109
 11
-52.3996703641
 21
23.3358312673
  0
LINE
  5
26A
100
AcDbEntity
  8
RACCORDO
100
AcDbLine
 62
7
  6
CONTINUOUS
 10
-55.8180784116
 20
20.3414935645
 11
-52.4132672647
 21
23.2642940995
  0
LINE
  5
26B
100
AcDbEntity
  8
RACCORDO
100
AcDbLine
 62
7
  6
CONTINUOUS
 10
-54.5195860232
 20
22.840721083
 11
-55.679325732
 21
21.9678811519
  0
LINE
  5
26C
100
AcDbEntity
  8
RACCORDO
100
AcDbLine
 62
7
  6
CONTINUOUS
 10
-55.8313213783
 20
21.5933833189
 11
-55.8314253105
 21
21.5933134363
  0
LINE
  5
26D
100
AcDbEntity
  8
RACCORDO
100
AcDbLine
 62
250
  6
CONTINUOUS
 10
-55.8314253105
 20
21.5933134363
 11
-55.8351755434
 21
21.5908846989
  0
LWPOLYLINE
  5
26E
100
AcDbEntity
  8
RACCORDO
100
AcDbPolyline
 62
7
  6
CONTINUOUS
 90
12
 70
0
 10
-53.2170611337
 20
25.2093339118
 10
-53.1910338878
 20
25.2257320111
 10
-53.1506995295
 20
25.2534226389
 10
-53.1111927039
 20
25.2833029442
 10
-53.0725802615
 20
25.3152493193
 10
-53.0349202015
 20
25.3491408831
 10
-52.9982883546
 20
25.3848465917
 10
-52.9627510253
 20
25.4222399128
 10
-52.9283600397
 20
25.4612142978
 10
-52.8951878705
 20
25.5016396252
 10
-52.8633138406
 20
25.5433636823
 10
-52.8434552615
 20
25.5709318536
  0
LINE
  5
26F
100
AcDbEntity
  8
RACCORDO
100
AcDbLine
 62
250
  6
CONTINUOUS
 10
-55.8351755434
 20
21.5908846989
 11
-55.8366430801
 21
21.5899819939
  0
LINE
  5
270
100
AcDbEntity
  8
RACCORDO
100
AcDbLine
 62
250
  6
CONTINUOUS
 10
-53.6569402261
 20
25.0081878463
 11
-53.1770908283
 21
25.3000120156
  0
LINE
  5
271
100
AcDbEntity
  8
RACCORDO
100
AcDbLine
 62
7
  6
CONTINUOUS
 10
-53.5316491779
 20
25.0180147218
 11
-53.2170364651
 21
25.209348907
  0
LINE
  5
272
100
AcDbEntity
  8
RACCORDO
100
AcDbLine
 62
250
  6
CONTINUOUS
 10
-53.3197246698
 20
24.3962288907
 11
-53.5612989912
 21
24.2542685577
  0
LINE
  5
273
100
AcDbEntity
  8
RACCORDO
100
AcDbLine
 62
250
  6
CONTINUOUS
 10
-53.1770908283
 20
24.1520110811
 11
-53.6569402261
 21
23.8700292052
  0
LINE
  5
274
100
AcDbEntity
  8
RACCORDO
100
AcDbLine
 62
7
  6
CONTINUOUS
 10
-55.8180784116
 20
24.4304648792
 11
-54.5195860232
 21
25.0059402856
  0
LINE
  5
275
100
AcDbEntity
  8
RACCORDO
100
AcDbLine
 62
7
  6
CONTINUOUS
 10
-55.8180784116
 20
26.864118557
 11
-55.7155892362
 21
26.9086194753
  0
LINE
  5
276
100
AcDbEntity
  8
RACCORDO
100
AcDbLine
 62
250
  6
CONTINUOUS
 10
-54.2370768198
 20
28.2986500421
 11
-55.8180784116
 21
27.7779986109
  0
LINE
  5
277
100
AcDbEntity
  8
RACCORDO
100
AcDbLine
 62
250
  6
CONTINUOUS
 10
-54.1250359138
 20
28.0406141039
 11
-55.8180784116
 21
27.4830656458
  0
LINE
  5
278
100
AcDbEntity
  8
RACCORDO
100
AcDbLine
 62
7
  6
CONTINUOUS
 10
-55.8180784116
 20
28.053063102
 11
-54.5489353007
 21
28.4414024105
  0
LINE
  5
279
100
AcDbEntity
  8
RACCORDO
100
AcDbLine
 62
250
  6
CONTINUOUS
 10
-55.8180784116
 20
28.0116405772
 11
-54.4598072163
 21
28.4272517816
  0
LWPOLYLINE
  5
27A
100
AcDbEntity
  8
RACCORDO
100
AcDbPolyline
 62
7
  6
CONTINUOUS
 90
31
 70
0
 10
31.7938898919
 20
-40.2079057691
 10
31.7909568372
 20
-40.2086982413
 10
31.7861970874
 20
-40.2097706103
 10
31.7796621334
 20
-40.2109793369
 10
31.7714263345
 20
-40.2121982776
 10
31.7615908537
 20
-40.2133215411
 10
31.7504694834
 20
-40.2142463148
 10
31.7382439749
 20
-40.2149128241
 10
31.7250018189
 20
-40.2152819371
 10
31.7109100878
 20
-40.2153199759
 10
31.6960840934
 20
-40.2150041024
 10
31.680605842
 20
-40.2143171569
 10
31.6645523391
 20
-40.213244318
 10
31.6480021616
 20
-40.2117734796
 10
31.6310314329
 20
-40.2098954292
 10
31.6136917234
 20
-40.207599743
 10
31.5960576131
 20
-40.2048799238
 10
31.5781986981
 20
-40.2017309634
 10
31.5601533319
 20
-40.1981430495
 10
31.5419877659
 20
-40.1941116092
 10
31.5237895482
 20
-40.1896389417
 10
31.5056327158
 20
-40.1847268759
 10
31.4875828207
 20
-40.1793767093
 10
31.469748397
 20
-40.1736057594
 10
31.4522682547
 20
-40.1674491978
 10
31.4352456671
 20
-40.160939463
 10
31.4187573282
 20
-40.1541065714
 10
31.4028856077
 20
-40.1469906561
 10
31.3877131263
 20
-40.1396424517
 10
31.3733516585
 20
-40.1321404472
 10
31.3617693203
 20
-40.1256588438
  0
LINE
  5
27B
100
AcDbEntity
  8
0
100
AcDbLine
 62
250
  6
CONTINUOUS
 10
-57.9292755116
 20
9.8951213144
 11
-57.2928794085
 21
10.2625684484
  0
LINE
  5
27C
100
AcDbEntity
  8
0
100
AcDbLine
 62
250
  6
CONTINUOUS
 10
-57.5050114428
 20
9.1602743923
 11
-56.8686153398
 21
9.5277215263
  0
LINE
  5
27D
100
AcDbEntity
  8
RACCORDO
100
AcDbLine
 62
250
  6
CONTINUOUS
 10
-52.5129291404
 20
27.3031487806
 11
-55.8180784116
 21
26.1880841168
  0
LINE
  5
27E
100
AcDbEntity
  8
RACCORDO
100
AcDbLine
 62
250
  6
CONTINUOUS
 10
-52.3996703641
 20
27.0458346799
 11
-55.8180784116
 21
25.8925596815
  0
LINE
  5
27F
100
AcDbEntity
  8
RACCORDO
100
AcDbLine
 62
7
  6
CONTINUOUS
 10
-55.8180784116
 20
26.5071234943
 11
-52.8261199738
 21
27.4454883821
  0
LINE
  5
280
100
AcDbEntity
  8
RACCORDO
100
AcDbLine
 62
250
  6
CONTINUOUS
 10
-55.8180784116
 20
26.4650146173
 11
-52.7356595369
 21
27.4317505201
  0
LWPOLYLINE
  5
281
100
AcDbEntity
  8
RACCORDO
100
AcDbPolyline
 62
7
  6
CONTINUOUS
 90
13
 70
0
 10
-55.767515741
 20
22.24648969
 10
-55.774635021
 20
22.2599865559
 10
-55.7829007911
 20
22.2770930629
 10
-55.7903492232
 20
22.2942126952
 10
-55.7969306873
 20
22.3111772091
 10
-55.8025959673
 20
22.3277740786
 10
-55.8073441781
 20
22.3438754605
 10
-55.8111771058
 20
22.3593194547
 10
-55.8140954635
 20
22.3738435527
 10
-55.8161576033
 20
22.387328114
 10
-55.81743516
 20
22.3996562678
 10
-55.8180129569
 20
22.4105912168
 10
-55.8180784121
 20
22.4154733909
  0
LWPOLYLINE
  5
282
100
AcDbEntity
  8
RACCORDO
100
AcDbPolyline
 62
7
  6
CONTINUOUS
 90
17
 70
0
 10
-29.9743764803
 20
-3.8681821453
 10
-29.97514899
 20
-3.8465946405
 10
-29.9775978713
 20
-3.8238499116
 10
-29.9817289791
 20
-3.8009448455
 10
-29.9875584791
 20
-3.7779394766
 10
-29.9949644599
 20
-3.7552972872
 10
-30.0039595849
 20
-3.7329441161
 10
-30.0145583566
 20
-3.7109183369
 10
-30.0264913662
 20
-3.6897862714
 10
-30.0397407385
 20
-3.6695334224
 10
-30.0543405525
 20
-3.6501452631
 10
-30.0699311909
 20
-3.6320980193
 10
-30.0864734014
 20
-3.6153997167
 10
-30.1040127243
 20
-3.6000140205
 10
-30.1221824694
 20
-3.586253932
 10
-30.1408757152
 20
-3.5741382541
 10
-30.1444746108
 20
-3.5720264545
  0
LINE
  5
283
100
AcDbEntity
  8
RACCORDO
100
AcDbLine
 62
250
  6
CONTINUOUS
 10
-30.0257475099
 20
-3.9454251603
 11
-30.0257475099
 21
-4.4816162469
  0
LINE
  5
284
100
AcDbEntity
  8
RACCORDO
100
AcDbLine
 62
7
  6
CONTINUOUS
 10
-29.974376475
 20
-3.8681556351
 11
-29.974376475
 21
-4.4043467241
  0
LINE
  5
285
100
AcDbEntity
  8
RACCORDO
100
AcDbLine
 62
250
  6
CONTINUOUS
 10
-56.4300218007
 20
10.5630460538
 11
-57.2899789441
 21
10.2544848808
  0
LINE
  5
286
100
AcDbEntity
  8
0
100
AcDbLine
 62
7
  6
CONTINUOUS
 10
-74.813974619
 20
5.1255612009
 11
70.4964689148
 21
-78.774867728
  0
LINE
  5
287
100
AcDbEntity
  8
0
100
AcDbLine
 62
250
  6
CONTINUOUS
 10
-74.9175159296
 20
5.3544296315
 11
70.3929276043
 21
-78.5459992974
  0
LWPOLYLINE
  5
288
100
AcDbEntity
  8
RACCORDO
100
AcDbPolyline
 62
7
  6
CONTINUOUS
 90
13
 70
0
 10
-55.767515741
 20
43.7196579697
 10
-55.774635021
 20
43.7331548355
 10
-55.7829007911
 20
43.7502613426
 10
-55.7903492232
 20
43.7673809749
 10
-55.7969306873
 20
43.7843454887
 10
-55.8025959673
 20
43.8009423583
 10
-55.8073441781
 20
43.8170437401
 10
-55.8111771058
 20
43.8324877344
 10
-55.8140954635
 20
43.8470118323
 10
-55.8161576033
 20
43.8604963937
 10
-55.81743516
 20
43.8728245474
 10
-55.8180129569
 20
43.8837594964
 10
-55.8180784121
 20
43.8886416706
  0
LINE
  5
289
100
AcDbEntity
  8
RACCORDO
100
AcDbLine
 62
250
  6
CONTINUOUS
 10
-55.9114164789
 20
9.706066219
 11
-56.6922553395
 21
9.4258934724
  0
LINE
  5
28A
100
AcDbEntity
  8
0
100
AcDbLine
 62
250
  6
CONTINUOUS
 10
53.1925551519
 20
-55.2450190322
 11
-57.7171434772
 21
8.7928509312
  0
LWPOLYLINE
  5
28B
100
AcDbEntity
  8
RACCORDO
100
AcDbPolyline
 62
7
  6
CONTINUOUS
 90
11
 70
0
 10
32.8908657014
 20
-39.9678419661
 10
32.8785205695
 20
-39.9611137009
 10
32.8570170007
 20
-39.9511882443
 10
32.8350349447
 20
-39.9432479095
 10
32.8127138935
 20
-39.9373467665
 10
32.7901929847
 20
-39.933511866
 10
32.7676769442
 20
-39.9317587776
 10
32.7453923457
 20
-39.9320736796
 10
32.7235003793
 20
-39.9344089834
 10
32.7021705548
 20
-39.9386944379
 10
32.6919950047
 20
-39.941474341
  0
LWPOLYLINE
  5
28C
100
AcDbEntity
  8
RACCORDO
100
AcDbPolyline
 62
7
  6
CONTINUOUS
 90
11
 70
0
 10
-31.7386940991
 20
-2.651544136
 10
-31.751039231
 20
-2.6448158707
 10
-31.7725427998
 20
-2.6348904141
 10
-31.7945248557
 20
-2.6269500793
 10
-31.816845907
 20
-2.6210489364
 10
-31.8393668158
 20
-2.6172140358
 10
-31.8618828562
 20
-2.6154609474
 10
-31.8841674548
 20
-2.6157758495
 10
-31.9060594211
 20
-2.6181111533
 10
-31.9273892456
 20
-2.6223966077
 10
-31.9375647958
 20
-2.6251765108
  0
LWPOLYLINE
  5
28D
100
AcDbEntity
  8
RACCORDO
100
AcDbPolyline
 62
7
  6
CONTINUOUS
 90
12
 70
0
 10
-54.2002361775
 20
9.2767704204
 10
-54.2172687369
 20
9.286220109
 10
-54.2431859757
 20
9.2992440251
 10
-54.2699584421
 20
9.3111970591
 10
-54.2974693673
 20
9.3220828809
 10
-54.3256388171
 20
9.3319238596
 10
-54.3543961394
 20
9.3407332212
 10
-54.3835563537
 20
9.3484876505
 10
-54.4130157374
 20
9.3551922695
 10
-54.4427130797
 20
9.3608539535
 10
-54.4724701558
 20
9.3654615629
 10
-54.4891288679
 20
9.3675827784
  0
LINE
  5
28E
100
AcDbEntity
  8
0
100
AcDbLine
 62
250
  6
CONTINUOUS
 10
53.4046871863
 20
-54.8775955712
 11
-57.5050114428
 21
9.1602743923
  0
LINE
  5
28F
100
AcDbEntity
  8
0
100
AcDbLine
 62
7
  6
CONTINUOUS
 10
-56.8686153398
 20
9.5277215263
 11
53.7410832893
 21
-54.3369321971
  0
LINE
  5
290
100
AcDbEntity
  8
RACCORDO
100
AcDbLine
 62
250
  6
CONTINUOUS
 10
-55.9114164789
 20
9.706066219
 11
-55.6963971898
 21
9.5819167763
  0
LINE
  5
291
100
AcDbEntity
  8
RACCORDO
100
AcDbLine
 62
7
  6
CONTINUOUS
 10
-55.8396551267
 20
9.70300129
 11
-55.6245872413
 21
9.5788238156
  0
LINE
  5
292
100
AcDbEntity
  8
RACCORDO
100
AcDbLine
 62
250
  6
CONTINUOUS
 10
53.7410832893
 20
-53.0855637335
 11
33.6797077051
 21
-41.5023768992
  0
LINE
  5
293
100
AcDbEntity
  8
RACCORDO
100
AcDbLine
 62
250
  6
CONTINUOUS
 10
31.2899796495
 20
-40.1225778702
 11
-30.9498520953
 21
-4.1860790691
  0
LINE
  5
294
100
AcDbEntity
  8
RACCORDO
100
AcDbLine
 62
250
  6
CONTINUOUS
 10
-33.339580151
 20
-2.8062800401
 11
-54.2721331211
 21
9.2799136984
  0
LINE
  5
295
100
AcDbEntity
  8
RACCORDO
100
AcDbLine
 62
7
  6
CONTINUOUS
 10
-54.2003231729
 20
9.2768207379
 11
-33.2677712947
 21
-2.8093723701
  0
LINE
  5
296
100
AcDbEntity
  8
RACCORDO
100
AcDbLine
 62
7
  6
CONTINUOUS
 10
-30.8780410552
 20
-4.18917266
 11
31.3617885058
 21
-40.1256702002
  0
LINE
  5
297
100
AcDbEntity
  8
RACCORDO
100
AcDbLine
 62
7
  6
CONTINUOUS
 10
33.7515187453
 20
-41.5054704902
 11
53.7410832893
 21
-53.0471945298
  0
LINE
  5
298
100
AcDbEntity
  8
RACCORDO
100
AcDbLine
 62
250
  6
CONTINUOUS
 10
-31.8104400532
 20
-2.6484880776
 11
-30.2162504933
 21
-3.5689531496
  0
LINE
  5
299
100
AcDbEntity
  8
RACCORDO
100
AcDbLine
 62
250
  6
CONTINUOUS
 10
32.8191197473
 20
-39.9647859078
 11
34.4133093071
 21
-40.8852509798
  0
LINE
  5
29A
100
AcDbEntity
  8
RACCORDO
100
AcDbLine
 62
7
  6
CONTINUOUS
 10
-31.7386940991
 20
-2.651544136
 11
-30.1444404503
 21
-3.5720461648
  0
LINE
  5
29B
100
AcDbEntity
  8
RACCORDO
100
AcDbLine
 62
7
  6
CONTINUOUS
 10
32.8908657014
 20
-39.9678419661
 11
34.4851193502
 21
-40.888343995
  0
LWPOLYLINE
  5
29C
100
AcDbEntity
  8
RACCORDO
100
AcDbPolyline
 62
7
  6
CONTINUOUS
 90
29
 70
0
 10
-55.8396551267
 20
9.70300129
 10
-55.8481375142
 20
9.7079879331
 10
-55.8760292213
 20
9.7256067527
 10
-55.9046553888
 20
9.7456150273
 10
-55.9338070189
 20
9.7679933065
 10
-55.9632419999
 20
9.7926661128
 10
-55.9927907496
 20
9.8195825979
 10
-56.0222861809
 20
9.8486800153
 10
-56.051516774
 20
9.8798304302
 10
-56.0803145426
 20
9.9129211225
 10
-56.1085193095
 20
9.9478328271
 10
-56.1359482994
 20
9.9843971836
 10
-56.1624544068
 20
10.0224626128
 10
-56.1878957655
 20
10.0618684306
 10
-56.212118858
 20
10.1024120365
 10
-56.2350091746
 20
10.1439254652
 10
-56.2564431215
 20
10.1862069437
 10
-56.2762812062
 20
10.228984945
 10
-56.2944416505
 20
10.2720654806
 10
-56.3108459855
 20
10.3152407732
 10
-56.3253988299
 20
10.3582048785
 10
-56.3380643291
 20
10.400758708
 10
-56.3488137204
 20
10.4426965554
 10
-56.3576110901
 20
10.4837000389
 10
-56.3644749935
 20
10.5235868725
 10
-56.3694347996
 20
10.5621827054
 10
-56.3725275214
 20
10.5991738476
 10
-56.3738317498
 20
10.6343404638
 10
-56.3738897883
 20
10.6432028548
  0
LWPOLYLINE
  5
29D
100
AcDbEntity
  8
RACCORDO
100
AcDbPolyline
 62
7
  6
CONTINUOUS
 90
10
 70
0
 10
-30.8780649608
 20
-4.1891585806
 10
-30.8862698116
 20
-4.1843062033
 10
-30.8947955165
 20
-4.1789833991
 10
-30.9022540096
 20
-4.174030947
 10
-30.9085470409
 20
-4.1695699881
 10
-30.9136998687
 20
-4.1656562444
 10
-30.9177223199
 20
-4.1623672405
 10
-30.9205046961
 20
-4.1599077182
 10
-30.922098741
 20
-4.1583801653
 10
-30.9224865185
 20
-4.1579827658
  0
LWPOLYLINE
  5
29E
100
AcDbEntity
  8
RACCORDO
100
AcDbPolyline
 62
7
  6
CONTINUOUS
 90
10
 70
0
 10
33.7514948396
 20
-41.5054564108
 10
33.7432899888
 20
-41.5006040335
 10
33.7347642839
 20
-41.4952812293
 10
33.7273057909
 20
-41.4903287772
 10
33.7210127596
 20
-41.4858678183
 10
33.7158599318
 20
-41.4819540746
 10
33.7118374805
 20
-41.4786650706
 10
33.7090551043
 20
-41.4762055483
 10
33.7074610595
 20
-41.4746779954
 10
33.7070732819
 20
-41.474280596
  0
LWPOLYLINE
  5
29F
100
AcDbEntity
  8
RACCORDO
100
AcDbPolyline
 62
7
  6
CONTINUOUS
 90
13
 70
0
 10
-30.0830109885
 20
-4.6158107362
 10
-30.0765303726
 20
-4.6113663141
 10
-30.0602483225
 20
-4.5986748746
 10
-30.0449377579
 20
-4.5843861915
 10
-30.0307778397
 20
-4.5685789461
 10
-30.0179314726
 20
-4.5513542209
 10
-30.0065368668
 20
-4.5328135416
 10
-29.996714452
 20
-4.5130574786
 10
-29.9885896461
 20
-4.4922579623
 10
-29.9822529537
 20
-4.4705935196
 10
-29.9777550471
 20
-4.4481874217
 10
-29.9751261374
 20
-4.4251673989
 10
-29.97437648
 20
-4.4043725039
  0
LINE
  5
2A0
100
AcDbEntity
  8
RACCORDO
100
AcDbLine
 62
250
  6
CONTINUOUS
 10
-30.1867752656
 20
-4.5883008633
 11
-30.0257475099
 21
-4.4816162469
  0
LINE
  5
2A1
100
AcDbEntity
  8
RACCORDO
100
AcDbLine
 62
7
  6
CONTINUOUS
 10
-30.1091425667
 20
-4.6331250107
 11
-30.0828549335
 21
-4.6157088452
  0
LINE
  5
2A2
100
AcDbEntity
  8
RACCORDO
100
AcDbLine
 62
250
  6
CONTINUOUS
 10
-30.2162504933
 20
-3.5689531496
 11
-31.0244843538
 21
-3.8868657554
  0
LINE
  5
2A3
100
AcDbEntity
  8
RACCORDO
100
AcDbLine
 62
250
  6
CONTINUOUS
 10
-30.0257475099
 20
-3.9454251603
 11
-30.7837865629
 21
-4.2435940226
  0
LINE
  5
2A4
100
AcDbEntity
  8
RACCORDO
100
AcDbLine
 62
7
  6
CONTINUOUS
 10
-32.83569104
 20
-2.8916141503
 11
-31.937379108
 21
-2.6251195079
  0
LINE
  5
2A5
100
AcDbEntity
  8
RACCORDO
100
AcDbLine
 62
250
  6
CONTINUOUS
 10
-32.7080746935
 20
-2.9147817936
 11
-31.8104400532
 21
-2.6484880776
  0
LINE
  5
2A6
100
AcDbEntity
  8
RACCORDO
100
AcDbLine
 62
250
  6
CONTINUOUS
 10
-55.8180784116
 20
23.5904543142
 11
-54.5195860232
 21
22.840721083
  0
LINE
  5
2A7
100
AcDbEntity
  8
RACCORDO
100
AcDbLine
 62
250
  6
CONTINUOUS
 10
-55.8180784116
 20
23.9945491107
 11
-54.2628888538
 21
23.0966021511
  0
LWPOLYLINE
  5
2A8
100
AcDbEntity
  8
RACCORDO
100
AcDbPolyline
 62
7
  6
CONTINUOUS
 90
13
 70
0
 10
-52.5610241802
 20
27.4213523964
 10
-52.5712684464
 20
27.4270167914
 10
-52.5930509917
 20
27.4374249954
 10
-52.6159211649
 20
27.4461815196
 10
-52.6397427789
 20
27.4531654635
 10
-52.6643219829
 20
27.458268895
 10
-52.6895371798
 20
27.4614327867
 10
-52.7152570647
 20
27.462613771
 10
-52.7412897662
 20
27.4617864937
 10
-52.7675174442
 20
27.458949338
 10
-52.7938478584
 20
27.4541146832
 10
-52.8201667871
 20
27.4473042639
 10
-52.8261177823
 20
27.4454890694
  0
LWPOLYLINE
  5
2A9
100
AcDbEntity
  8
RACCORDO
100
AcDbPolyline
 62
7
  6
CONTINUOUS
 90
13
 70
0
 10
-54.2842647846
 20
28.4163299295
 10
-54.2930028211
 20
28.4211947774
 10
-54.3148373747
 20
28.4317853935
 10
-54.3377670531
 20
28.4407209162
 10
-54.3616559478
 20
28.4478814937
 10
-54.3863120166
 20
28.453159902
 10
-54.4116133194
 20
28.4564972845
 10
-54.4374289334
 20
28.4578507606
 10
-54.4635697886
 20
28.4571946844
 10
-54.4899179955
 20
28.4545268838
 10
-54.516380547
 20
28.4498594464
 10
-54.5428440789
 20
28.4432132534
 10
-54.5489333917
 20
28.4414029946
  0
LWPOLYLINE
  5
2AA
100
AcDbEntity
  8
RACCORDO
100
AcDbPolyline
 62
7
  6
CONTINUOUS
 90
5
 70
0
 10
-52.5610840618
 20
24.4701461979
 10
-52.5662747027
 20
24.4730789689
 10
-52.5908528847
 20
24.4852280477
 10
-52.6165321903
 20
24.4951472101
 10
-52.6442470905
 20
24.5030172852
  0
LINE
  5
2AB
100
AcDbEntity
  8
RACCORDO
100
AcDbLine
 62
7
  6
CONTINUOUS
 10
-54.7139557074
 20
24.9197980994
 11
-53.5612989912
 21
24.2542685577
  0
LINE
  5
2AC
100
AcDbEntity
  8
RACCORDO
100
AcDbLine
 62
250
  6
CONTINUOUS
 10
-53.3197246698
 20
24.3962288907
 11
-54.4314083458
 21
25.0381011125
  0
LINE
  5
2AD
100
AcDbEntity
  8
RACCORDO
100
AcDbLine
 62
250
  6
CONTINUOUS
 10
-52.9258928453
 20
24.4824371665
 11
-53.865581093
 21
25.0250013836
  0
LINE
  5
2AE
100
AcDbEntity
  8
RACCORDO
100
AcDbLine
 62
250
  6
CONTINUOUS
 10
-53.0965151269
 20
24.6030792514
 11
-53.8210423378
 21
25.0214121825
  0
LINE
  5
2AF
100
AcDbEntity
  8
RACCORDO
100
AcDbLine
 62
7
  6
CONTINUOUS
 10
-53.1020155696
 20
24.6097656319
 11
-53.813976147
 21
25.0208427463
  0
LINE
  5
2B0
100
AcDbEntity
  8
RACCORDO
100
AcDbLine
 62
250
  6
CONTINUOUS
 10
-52.3879846044
 20
24.3614266665
 11
-52.6087314535
 21
24.4888831306
  0
LINE
  5
2B1
100
AcDbEntity
  8
RACCORDO
100
AcDbLine
 62
7
  6
CONTINUOUS
 10
-52.3412571808
 20
24.3432230722
 11
-52.5612618911
 21
24.4702510346
  0
LINE
  5
2B2
100
AcDbEntity
  8
RACCORDO
100
AcDbLine
 62
250
  6
CONTINUOUS
 10
-55.7155892362
 20
26.9086194753
 11
-55.3010599599
 21
26.6692754665
  0
LINE
  5
2B3
100
AcDbEntity
  8
RACCORDO
100
AcDbLine
 62
250
  6
CONTINUOUS
 10
-55.4566117604
 20
26.9583814045
 11
-55.0773914995
 21
26.7394243786
  0
LINE
  5
2B4
100
AcDbEntity
  8
RACCORDO
100
AcDbLine
 62
250
  6
CONTINUOUS
 10
-52.5129291404
 20
27.3031487806
 11
-52.7356595369
 21
27.4317505201
  0
LINE
  5
2B5
100
AcDbEntity
  8
RACCORDO
100
AcDbLine
 62
250
  6
CONTINUOUS
 10
-54.2370768198
 20
28.2986500421
 11
-54.4598072163
 21
28.4272517816
  0
LINE
  5
2B6
100
AcDbEntity
  8
RACCORDO
100
AcDbLine
 62
7
  6
CONTINUOUS
 10
-52.3412570894
 20
27.2944619279
 11
-52.5612619785
 21
27.4214899935
  0
LINE
  5
2B7
100
AcDbEntity
  8
RACCORDO
100
AcDbLine
 62
7
  6
CONTINUOUS
 10
-54.0644961648
 20
28.2894385728
 11
-54.2845010818
 21
28.4164666546
  0
LINE
  5
2B8
100
AcDbEntity
  8
RACCORDO
100
AcDbLine
 62
7
  6
CONTINUOUS
 10
-52.3412571711
 20
27.2944619751
 11
-52.3412953734
 21
27.2944840257
  0
LINE
  5
2B9
100
AcDbEntity
  8
RACCORDO
100
AcDbLine
 62
7
  6
CONTINUOUS
 10
-54.0644962056
 20
28.2894385963
 11
-54.064536967
 21
28.2894621237
  0
LWPOLYLINE
  5
2BA
100
AcDbEntity
  8
RACCORDO
100
AcDbPolyline
 62
7
  6
CONTINUOUS
 90
31
 70
0
 10
-32.8356699086
 20
-2.891607939
 10
-32.8386029632
 20
-2.8924004112
 10
-32.843362713
 20
-2.8934727801
 10
-32.8498976671
 20
-2.8946815067
 10
-32.8581334659
 20
-2.8959004475
 10
-32.8679689468
 20
-2.8970237109
 10
-32.8790903171
 20
-2.8979484847
 10
-32.8913158255
 20
-2.8986149939
 10
-32.9045579815
 20
-2.8989841069
 10
-32.9186497127
 20
-2.8990221457
 10
-32.933475707
 20
-2.8987062723
 10
-32.9489539584
 20
-2.8980193268
 10
-32.9650074613
 20
-2.8969464879
 10
-32.9815576388
 20
-2.8954756494
 10
-32.9985283675
 20
-2.893597599
 10
-33.015868077
 20
-2.8913019129
 10
-33.0335021874
 20
-2.8885820937
 10
-33.0513611023
 20
-2.8854331333
 10
-33.0694064685
 20
-2.8818452194
 10
-33.0875720345
 20
-2.877813779
 10
-33.1057702523
 20
-2.8733411115
 10
-33.1239270846
 20
-2.8684290457
 10
-33.1419769798
 20
-2.8630788792
 10
-33.1598114035
 20
-2.8573079293
 10
-33.1772915458
 20
-2.8511513677
 10
-33.1943141333
 20
-2.8446416329
 10
-33.2108024722
 20
-2.8378087412
 10
-33.2266741927
 20
-2.8306928259
 10
-33.2418466742
 20
-2.8233446216
 10
-33.256208142
 20
-2.8158426171
 10
-33.2677904801
 20
-2.8093610137
  0
LINE
  5
2BB
100
AcDbEntity
  8
RACCORDO
100
AcDbLine
 62
250
  6
CONTINUOUS
 10
-55.201422443
 20
9.429480455
 11
-54.4842651555
 21
9.3452435504
  0
LINE
  5
2BC
100
AcDbEntity
  8
RACCORDO
100
AcDbLine
 62
7
  6
CONTINUOUS
 10
-55.2062858333
 20
9.4518196452
 11
-54.4891284609
 21
9.3675827306
  0
LWPOLYLINE
  5
2BD
100
AcDbEntity
  8
RACCORDO
100
AcDbPolyline
 62
7
  6
CONTINUOUS
 90
15
 70
0
 10
-55.2062873385
 20
9.4518198212
 10
-55.2416112529
 20
9.4564398176
 10
-55.2784510042
 20
9.4622657528
 10
-55.3146794925
 20
9.4690150961
 10
-55.3501835117
 20
9.4766394488
 10
-55.3848153564
 20
9.4850801671
 10
-55.4184118126
 20
9.494267399
 10
-55.450856307
 20
9.5041367911
 10
-55.4820148168
 20
9.5146131273
 10
-55.511751472
 20
9.5256117313
 10
-55.5399461473
 20
9.5370442401
 10
-55.5665012879
 20
9.5488222157
 10
-55.5913147566
 20
9.5608455956
 10
-55.6142518878
 20
9.5729831922
 10
-55.624562915
 20
9.5788097631
  0
LINE
  5
2BE
100
AcDbEntity
  8
RACCORDO
100
AcDbLine
 62
250
  6
CONTINUOUS
 10
-52.3252326019
 20
24.1006112626
 11
-52.8631408428
 21
24.2216217625
  0
LINE
  5
2BF
100
AcDbEntity
  8
RACCORDO
100
AcDbLine
 62
250
  6
CONTINUOUS
 10
-52.3879846044
 20
24.3614266665
 11
-52.9258928453
 21
24.4824371665
  0
LINE
  5
2C0
100
AcDbEntity
  8
RACCORDO
100
AcDbLine
 62
250
  6
CONTINUOUS
 10
-52.6087314535
 20
24.4888831306
 11
-53.0965151269
 21
24.6030792514
  0
LINE
  5
2C1
100
AcDbEntity
  8
RACCORDO
100
AcDbLine
 62
7
  6
CONTINUOUS
 10
-52.6442576546
 20
24.5030197589
 11
-53.1046199557
 21
24.6107962013
  0
LWPOLYLINE
  5
2C2
100
AcDbEntity
  8
RACCORDO
100
AcDbPolyline
 62
7
  6
CONTINUOUS
 90
5
 70
0
 10
-52.5610840618
 20
45.9433144776
 10
-52.5662747027
 20
45.9462472485
 10
-52.5908528847
 20
45.9583963273
 10
-52.6165321903
 20
45.9683154897
 10
-52.6442470905
 20
45.9761855649
  0
LINE
  5
2C3
100
AcDbEntity
  8
RACCORDO
100
AcDbLine
 62
250
  6
CONTINUOUS
 10
-55.8180784116
 20
45.0636225938
 11
-54.5195860232
 21
44.3138893627
  0
LINE
  5
2C4
100
AcDbEntity
  8
RACCORDO
100
AcDbLine
 62
250
  6
CONTINUOUS
 10
-55.8180784116
 20
45.4677173903
 11
-54.2628888538
 21
44.5697704307
  0
LINE
  5
2C5
100
AcDbEntity
  8
RACCORDO
100
AcDbLine
 62
7
  6
CONTINUOUS
 10
-54.7139557074
 20
46.3929663791
 11
-53.5612989912
 21
45.7274368373
  0
LINE
  5
2C6
100
AcDbEntity
  8
RACCORDO
100
AcDbLine
 62
250
  6
CONTINUOUS
 10
-53.3197246698
 20
45.8693971703
 11
-54.4314083458
 21
46.5112693922
  0
LINE
  5
2C7
100
AcDbEntity
  8
RACCORDO
100
AcDbLine
 62
250
  6
CONTINUOUS
 10
-52.9258928453
 20
45.9556054461
 11
-53.865581093
 21
46.4981696632
  0
LINE
  5
2C8
100
AcDbEntity
  8
RACCORDO
100
AcDbLine
 62
250
  6
CONTINUOUS
 10
-53.0965151269
 20
46.0762475311
 11
-53.8210423378
 21
46.4945804622
  0
LINE
  5
2C9
100
AcDbEntity
  8
RACCORDO
100
AcDbLine
 62
7
  6
CONTINUOUS
 10
-53.1020155696
 20
46.0829339115
 11
-53.813976147
 21
46.494011026
  0
LINE
  5
2CA
100
AcDbEntity
  8
RACCORDO
100
AcDbLine
 62
250
  6
CONTINUOUS
 10
-52.3879846044
 20
45.8345949462
 11
-52.6087314535
 21
45.9620514102
  0
LINE
  5
2CB
100
AcDbEntity
  8
RACCORDO
100
AcDbLine
 62
7
  6
CONTINUOUS
 10
-52.3412571808
 20
45.8163913518
 11
-52.5612618911
 21
45.9434193142
  0
LINE
  5
2CC
100
AcDbEntity
  8
RACCORDO
100
AcDbLine
 62
250
  6
CONTINUOUS
 10
-55.7155892362
 20
48.381787755
 11
-55.3010599599
 21
48.1424437461
  0
LINE
  5
2CD
100
AcDbEntity
  8
RACCORDO
100
AcDbLine
 62
250
  6
CONTINUOUS
 10
-55.4566117604
 20
48.4315496842
 11
-55.0773914995
 21
48.2125926583
  0
LINE
  5
2CE
100
AcDbEntity
  8
RACCORDO
100
AcDbLine
 62
7
  6
CONTINUOUS
 10
-54.2628888538
 20
25.0570188351
 11
-53.6569402261
 21
25.0081878463
  0
LINE
  5
2CF
100
AcDbEntity
  8
RACCORDO
100
AcDbLine
 62
7
  6
CONTINUOUS
 10
-55.4566117604
 20
26.9583814045
 11
-54.6088934712
 21
26.8863589397
  0
LWPOLYLINE
  5
2D0
100
AcDbEntity
  8
RACCORDO
100
AcDbPolyline
 62
7
  6
CONTINUOUS
 90
13
 70
0
 10
-52.5610241802
 20
48.8945206761
 10
-52.5712684464
 20
48.9001850711
 10
-52.5930509917
 20
48.910593275
 10
-52.6159211649
 20
48.9193497993
 10
-52.6397427789
 20
48.9263337432
 10
-52.6643219829
 20
48.9314371747
 10
-52.6895371798
 20
48.9346010664
 10
-52.7152570647
 20
48.9357820506
 10
-52.7412897662
 20
48.9349547734
 10
-52.7675174442
 20
48.9321176177
 10
-52.7938478584
 20
48.9272829629
 10
-52.8201667871
 20
48.9204725435
 10
-52.8261177823
 20
48.918657349
  0
LWPOLYLINE
  5
2D1
100
AcDbEntity
  8
RACCORDO
100
AcDbPolyline
 62
7
  6
CONTINUOUS
 90
13
 70
0
 10
-54.2842647846
 20
49.8894982092
 10
-54.2930028211
 20
49.894363057
 10
-54.3148373747
 20
49.9049536732
 10
-54.3377670531
 20
49.9138891959
 10
-54.3616559478
 20
49.9210497733
 10
-54.3863120166
 20
49.9263281817
 10
-54.4116133194
 20
49.9296655642
 10
-54.4374289334
 20
49.9310190403
 10
-54.4635697886
 20
49.9303629641
 10
-54.4899179955
 20
49.9276951634
 10
-54.516380547
 20
49.923027726
 10
-54.5428440789
 20
49.916381533
 10
-54.5489333917
 20
49.9145712743
  0
LINE
  5
2D2
100
AcDbEntity
  8
RACCORDO
100
AcDbLine
 62
250
  6
CONTINUOUS
 10
-52.5129291404
 20
48.7763170603
 11
-52.7356595369
 21
48.9049187997
  0
LINE
  5
2D3
100
AcDbEntity
  8
RACCORDO
100
AcDbLine
 62
250
  6
CONTINUOUS
 10
-54.2370768198
 20
49.7718183218
 11
-54.4598072163
 21
49.9004200612
  0
LINE
  5
2D4
100
AcDbEntity
  8
RACCORDO
100
AcDbLine
 62
7
  6
CONTINUOUS
 10
-52.3412570894
 20
48.7676302076
 11
-52.5612619785
 21
48.8946582732
  0
LINE
  5
2D5
100
AcDbEntity
  8
RACCORDO
100
AcDbLine
 62
7
  6
CONTINUOUS
 10
-54.0644961648
 20
49.7626068524
 11
-54.2845010818
 21
49.8896349342
  0
LINE
  5
2D6
100
AcDbEntity
  8
RACCORDO
100
AcDbLine
 62
7
  6
CONTINUOUS
 10
-52.3412571711
 20
48.7676302547
 11
-52.3412953734
 21
48.7676523054
  0
LINE
  5
2D7
100
AcDbEntity
  8
RACCORDO
100
AcDbLine
 62
7
  6
CONTINUOUS
 10
-54.0644962056
 20
49.762606876
 11
-54.064536967
 21
49.7626304033
  0
LINE
  5
2D8
100
AcDbEntity
  8
0
100
AcDbLine
 62
7
  6
CONTINUOUS
 10
-57.6550186909
 20
52.9490423889
 11
53.2546799382
 21
-11.0888275745
  0
LINE
  5
2D9
100
AcDbEntity
  8
0
100
AcDbLine
 62
250
  6
CONTINUOUS
 10
-57.7171434772
 20
53.0863634473
 11
53.1925551519
 21
-10.9515065162
  0
LINE
  5
2DA
100
AcDbEntity
  8
0
100
AcDbLine
 62
250
  6
CONTINUOUS
 10
70.3929276043
 20
-7.5130852164
 11
-74.9175159296
 21
76.3873437124
  0
LINE
  5
2DB
100
AcDbEntity
  8
0
100
AcDbLine
 62
250
  6
CONTINUOUS
 10
70.7464809949
 20
-6.9007127814
 11
-74.563962539
 21
76.9997161475
  0
LWPOLYLINE
  5
2DC
100
AcDbEntity
  8
RACCORDO
100
AcDbPolyline
 62
7
  6
CONTINUOUS
 90
17
 70
0
 10
34.6551833202
 20
-41.1844799755
 10
34.6544108104
 20
-41.1628924707
 10
34.6519619292
 20
-41.1401477417
 10
34.6478308214
 20
-41.1172426757
 10
34.6420013213
 20
-41.0942373068
 10
34.6345953405
 20
-41.0715951174
 10
34.6256002155
 20
-41.0492419462
 10
34.6150014439
 20
-41.0272161671
 10
34.6030684342
 20
-41.0060841015
 10
34.589819062
 20
-40.9858312525
 10
34.5752192479
 20
-40.9664430933
 10
34.5596286095
 20
-40.9483958494
 10
34.543086399
 20
-40.9316975469
 10
34.5255470762
 20
-40.9163118507
 10
34.507377331
 20
-40.9025517622
 10
34.4886840853
 20
-40.8904360843
 10
34.4850851897
 20
-40.8883242846
  0
LINE
  5
2DD
100
AcDbEntity
  8
RACCORDO
100
AcDbLine
 62
250
  6
CONTINUOUS
 10
34.6038122906
 20
-41.2617229904
 11
34.6038122906
 21
-41.7979140771
  0
LINE
  5
2DE
100
AcDbEntity
  8
RACCORDO
100
AcDbLine
 62
7
  6
CONTINUOUS
 10
34.6551833255
 20
-41.1844534652
 11
34.6551833255
 21
-41.7206445543
  0
LINE
  5
2DF
100
AcDbEntity
  8
RACCORDO
100
AcDbLine
 62
250
  6
CONTINUOUS
 10
-52.3252326019
 20
45.5737795423
 11
-52.8631408428
 21
45.6947900422
  0
LINE
  5
2E0
100
AcDbEntity
  8
RACCORDO
100
AcDbLine
 62
250
  6
CONTINUOUS
 10
-52.3879846044
 20
45.8345949462
 11
-52.9258928453
 21
45.9556054461
  0
LINE
  5
2E1
100
AcDbEntity
  8
RACCORDO
100
AcDbLine
 62
250
  6
CONTINUOUS
 10
-52.6087314535
 20
45.9620514102
 11
-53.0965151269
 21
46.0762475311
  0
LINE
  5
2E2
100
AcDbEntity
  8
RACCORDO
100
AcDbLine
 62
7
  6
CONTINUOUS
 10
-52.6442576546
 20
45.9761880385
 11
-53.1046199557
 21
46.0839644809
  0
LWPOLYLINE
  5
2E3
100
AcDbEntity
  8
RACCORDO
100
AcDbPolyline
 62
7
  6
CONTINUOUS
 90
16
 70
0
 10
-68.8930463964
 20
78.3016477663
 10
-68.918561293
 20
78.3156359206
 10
-68.9513795837
 20
78.3314801269
 10
-68.9841811302
 20
78.3449427587
 10
-69.016904442
 20
78.3560237768
 10
-69.0494724276
 20
78.3647222416
 10
-69.0817753015
 20
78.3710415909
 10
-69.1137458889
 20
78.3749967055
 10
-69.1452912081
 20
78.3765998102
 10
-69.1762276508
 20
78.3758814505
 10
-69.2064532345
 20
78.3728926785
 10
-69.2358523307
 20
78.3676923688
 10
-69.2641972718
 20
78.3603860698
 10
-69.2913452969
 20
78.3511065924
 10
-69.3172434762
 20
78.3399731532
 10
-69.3286811581
 20
78.334283139
  0
LINE
  5
2E4
100
AcDbEntity
  8
0
100
AcDbLine
 62
7
  6
CONTINUOUS
 10
73.8577508321
 20
-5.1043045707
 11
-71.4526927017
 21
78.7961243581
  0
LINE
  5
2E5
100
AcDbEntity
  8
RACCORDO
100
AcDbLine
 62
250
  6
CONTINUOUS
 10
-68.9893516138
 20
78.2938224161
 11
75.2201903216
 21
-4.9709597273
  0
LINE
  5
2E6
100
AcDbEntity
  8
RACCORDO
100
AcDbLine
 62
7
  6
CONTINUOUS
 10
-68.8930487613
 20
78.3016491319
 11
75.3164931742
 21
-4.9631330116
  0
LINE
  5
2E7
100
AcDbEntity
  8
0
100
AcDbLine
 62
250
  6
CONTINUOUS
 10
70.7464809949
 20
-6.9007127814
 11
73.8577508321
 21
-5.1043045707
  0
LINE
  5
2E8
100
AcDbEntity
  8
RACCORDO
100
AcDbLine
 62
250
  6
CONTINUOUS
 10
74.3180165565
 20
-5.4918662596
 11
75.2201903216
 21
-4.9709597273
  0
LINE
  5
2E9
100
AcDbEntity
  8
RACCORDO
100
AcDbLine
 62
250
  6
CONTINUOUS
 10
74.8128563872
 20
-6.348873851
 11
75.7149954529
 21
-5.8279873537
  0
LINE
  5
2EA
100
AcDbEntity
  8
0
100
AcDbLine
 62
250
  6
CONTINUOUS
 10
71.8071411666
 20
-8.7378300865
 11
74.9184110039
 21
-6.9414218759
  0
LINE
  5
2EB
100
AcDbEntity
  8
RACCORDO
100
AcDbLine
 62
7
  6
CONTINUOUS
 10
-54.2628888538
 20
46.5301871147
 11
-53.6569402261
 21
46.481356126
  0
LINE
  5
2EC
100
AcDbEntity
  8
RACCORDO
100
AcDbLine
 62
7
  6
CONTINUOUS
 10
-55.4566117604
 20
48.4315496842
 11
-54.6088934712
 21
48.3595272194
  0
LINE
  5
2ED
100
AcDbEntity
  8
RACCORDO
100
AcDbLine
 62
250
  6
CONTINUOUS
 10
34.4133093071
 20
-40.8852509798
 11
33.6050754467
 21
-41.2031635855
  0
LINE
  5
2EE
100
AcDbEntity
  8
RACCORDO
100
AcDbLine
 62
250
  6
CONTINUOUS
 10
34.6038122906
 20
-41.2617229904
 11
33.8457732375
 21
-41.5598918527
  0
LINE
  5
2EF
100
AcDbEntity
  8
RACCORDO
100
AcDbLine
 62
7
  6
CONTINUOUS
 10
31.7938687604
 20
-40.2079119805
 11
32.6921806925
 21
-39.9414173381
  0
LINE
  5
2F0
100
AcDbEntity
  8
RACCORDO
100
AcDbLine
 62
250
  6
CONTINUOUS
 10
31.921485107
 20
-40.2310796237
 11
32.8191197473
 21
-39.9647859078
  0
LINE
  5
2F1
100
AcDbEntity
  8
0
100
AcDbLine
 62
7
  6
CONTINUOUS
 10
53.7410832893
 20
-11.9312945213
 11
53.7410832893
 21
-54.7551605391
  0
LINE
  5
2F2
100
AcDbEntity
  8
0
100
AcDbLine
 62
250
  6
CONTINUOUS
 10
53.828951255
 20
-12.0537768993
 11
53.828951255
 21
-54.8776429171
  0
LWPOLYLINE
  5
2F3
100
AcDbEntity
  8
RACCORDO
100
AcDbPolyline
 62
7
  6
CONTINUOUS
 90
13
 70
0
 10
34.5465488119
 20
-41.9321085664
 10
34.5530294279
 20
-41.9276641442
 10
34.5693114779
 20
-41.9149727048
 10
34.5846220425
 20
-41.9006840217
 10
34.5987819607
 20
-41.8848767763
 10
34.6116283278
 20
-41.867652051
 10
34.6230229337
 20
-41.8491113718
 10
34.6328453485
 20
-41.8293553087
 10
34.6409701543
 20
-41.8085557924
 10
34.6473068468
 20
-41.7868913498
 10
34.6518047533
 20
-41.7644852519
 10
34.654433663
 20
-41.741465229
 10
34.6551833205
 20
-41.720670334
  0
LINE
  5
2F4
100
AcDbEntity
  8
RACCORDO
100
AcDbLine
 62
250
  6
CONTINUOUS
 10
34.4427845348
 20
-41.9045986935
 11
34.6038122906
 21
-41.7979140771
  0
LINE
  5
2F5
100
AcDbEntity
  8
RACCORDO
100
AcDbLine
 62
7
  6
CONTINUOUS
 10
34.5204172338
 20
-41.9494228409
 11
34.5467048669
 21
-41.9320066753
  0
LINE
  5
2F6
100
AcDbEntity
  8
0
100
AcDbLine
 62
250
  6
CONTINUOUS
 10
71.1000343855
 20
-78.1378036139
 11
71.1000343855
 21
-8.7378300865
  0
LINE
  5
2F7
100
AcDbEntity
  8
0
100
AcDbLine
 62
250
  6
CONTINUOUS
 10
71.8071411666
 20
-78.1378036139
 11
71.8071411666
 21
-8.7378300865
  0
LWPOLYLINE
  5
2F8
100
AcDbEntity
  8
RACCORDO
100
AcDbPolyline
 62
7
  6
CONTINUOUS
 90
23
 70
0
 10
75.7699204452
 20
-5.7486313151
 10
75.7696602759
 20
-5.7297506425
 10
75.7671222481
 20
-5.6861696503
 10
75.7619802905
 20
-5.6423229538
 10
75.7543316355
 20
-5.598331061
 10
75.7442671463
 20
-5.5542982107
 10
75.7318712852
 20
-5.5103441991
 10
75.7172210716
 20
-5.4666055803
 10
75.7004140681
 20
-5.4232618826
 10
75.6815286769
 20
-5.380461444
 10
75.6606451001
 20
-5.3383527791
 10
75.637877019
 20
-5.2971407725
 10
75.6133045677
 20
-5.2569730987
 10
75.5870179992
 20
-5.2180017893
 10
75.5591445129
 20
-5.1804384315
 10
75.5297710433
 20
-5.1444256979
 10
75.4989883328
 20
-5.1101078233
 10
75.4669155403
 20
-5.0776712534
 10
75.433633443
 20
-5.0472495134
 10
75.3992027181
 20
-5.0189723747
 10
75.3636795167
 20
-4.9929751536
 10
75.3271232313
 20
-4.9694015488
 10
75.3163830405
 20
-4.9630695617
  0
LINE
  5
2F9
100
AcDbEntity
  8
0
100
AcDbLine
 62
7
  6
CONTINUOUS
 10
74.9184110039
 20
-76.3413954033
 11
74.9184110039
 21
-6.9414218759
  0
LINE
  5
2FA
100
AcDbEntity
  8
RACCORDO
100
AcDbLine
 62
250
  6
CONTINUOUS
 10
75.7149954529
 20
-5.8279873537
 11
75.7149954529
 21
-73.9567901658
  0
LINE
  5
2FB
100
AcDbEntity
  8
RACCORDO
100
AcDbLine
 62
7
  6
CONTINUOUS
 10
75.7699205787
 20
-5.7484978928
 11
75.7699205787
 21
-73.8773007029
  0
LINE
  5
2FC
100
AcDbEntity
  8
0
100
AcDbLine
 62
250
  6
CONTINUOUS
 10
53.4046871863
 20
-54.8775955712
 11
53.7410832893
 21
-54.6833646773
  0
LWPOLYLINE
  5
2FD
100
AcDbEntity
  8
RACCORDO
100
AcDbPolyline
 62
7
  6
CONTINUOUS
 90
16
 70
0
 10
75.5804074776
 20
-74.2708290851
 10
75.5910640611
 20
-74.2637600655
 10
75.6136704136
 20
-74.2468796185
 10
75.6352955275
 20
-74.227985216
 10
75.655809603
 20
-74.2070636649
 10
75.6750251999
 20
-74.1841719255
 10
75.6927350464
 20
-74.1594528191
 10
75.7088302727
 20
-74.1329782369
 10
75.723216326
 20
-74.1048116956
 10
75.7357744816
 20
-74.0750960213
 10
75.7464461681
 20
-74.0439040822
 10
75.7551848207
 20
-74.0112880068
 10
75.761932543
 20
-73.9773429439
 10
75.7666501287
 20
-73.9421341385
 10
75.7693063942
 20
-73.9057139521
 10
75.7699205787
 20
-73.8772978533
  0
LINE
  5
2FE
100
AcDbEntity
  8
RACCORDO
100
AcDbLine
 62
250
  6
CONTINUOUS
 10
75.7149954529
 20
-73.9567901658
 11
74.9184110039
 21
-74.4661966861
  0
LINE
  5
2FF
100
AcDbEntity
  8
RACCORDO
100
AcDbLine
 62
7
  6
CONTINUOUS
 10
75.5806325277
 20
-74.2706856827
 11
74.9184110039
 21
-74.69416867
  0
LINE
  5
300
100
AcDbEntity
  8
0
100
AcDbLine
 62
250
  6
CONTINUOUS
 10
71.8071411666
 20
-78.1378036139
 11
74.9184110039
 21
-76.3413954033
  0
LINE
  5
301
100
AcDbEntity
  8
0
100
AcDbLine
 62
7
  6
CONTINUOUS
 10
71.4965172351
 20
-78.8244089056
 11
74.6077870723
 21
-77.028000695
  0
ARC
  5
302
100
AcDbEntity
  8
RACCORDO
100
AcDbCircle
 62
250
  6
CONTINUOUS
 10
-55.0190228375
 20
10.9811940727
 40
1.562397516
100
AcDbArc
 50
260.1385211805
 51
263.0100791393
  0
ARC
  5
303
100
AcDbEntity
  8
RACCORDO
100
AcDbCircle
 62
250
  6
CONTINUOUS
 10
-55.0208027348
 20
10.9670271731
 40
1.5481193072
100
AcDbArc
 50
263.0116569185
 51
263.3000190974
  0
ARC
  5
304
100
AcDbEntity
  8
RACCORDO
100
AcDbCircle
 62
250
  6
CONTINUOUS
 10
-53.9287998166
 20
47.8274377496
 40
1.3022286607
100
AcDbArc
 50
319.1710593463
 51
324.9184422326
  0
ARC
  5
305
100
AcDbEntity
  8
RACCORDO
100
AcDbCircle
 62
250
  6
CONTINUOUS
 10
-53.9287998166
 20
26.35426947
 40
1.3022286607
100
AcDbArc
 50
319.1710593463
 51
324.9184422326
  0
ARC
  5
306
100
AcDbEntity
  8
RACCORDO
100
AcDbCircle
 62
250
  6
CONTINUOUS
 10
-55.2220942571
 20
11.629541293
 40
1.2234063755
100
AcDbArc
 50
150.5651790254
 51
156.5988983871
  0
ARC
  5
307
100
AcDbEntity
  8
RACCORDO
100
AcDbCircle
 62
250
  6
CONTINUOUS
 10
-55.1354322568
 20
10.6003533028
 40
1.163539249
100
AcDbArc
 50
246.6536546578
 51
249.7061090564
  0
ARC
  5
308
100
AcDbEntity
  8
RACCORDO
100
AcDbCircle
 62
250
  6
CONTINUOUS
 10
-56.6699174297
 20
21.7465242725
 40
0.949990905
100
AcDbArc
 50
26.3363643406
 51
28.7008199096
  0
ARC
  5
309
100
AcDbEntity
  8
RACCORDO
100
AcDbCircle
 62
250
  6
CONTINUOUS
 10
-56.6699174297
 20
43.2196925521
 40
0.949990905
100
AcDbArc
 50
26.3363643406
 51
28.7008199096
  0
ARC
  5
30A
100
AcDbEntity
  8
RACCORDO
100
AcDbCircle
 62
250
  6
CONTINUOUS
 10
-32.886533444
 20
-2.0216539642
 40
0.9060294684
100
AcDbArc
 50
239.9976652764
 51
240.5498290741
  0
ARC
  5
30B
100
AcDbEntity
  8
RACCORDO
100
AcDbCircle
 62
250
  6
CONTINUOUS
 10
31.7430263559
 20
-39.3379517953
 40
0.9060294673
100
AcDbArc
 50
239.997665276
 51
240.5498290745
  0
ARC
  5
30C
100
AcDbEntity
  8
RACCORDO
100
AcDbCircle
 62
250
  6
CONTINUOUS
 10
-32.899268048
 20
-2.0442840531
 40
0.8800623811
100
AcDbArc
 50
240.5473960859
 51
241.6976527824
  0
ARC
  5
30D
100
AcDbEntity
  8
RACCORDO
100
AcDbCircle
 62
250
  6
CONTINUOUS
 10
31.7302917525
 20
-39.3605818832
 40
0.8800623812
100
AcDbArc
 50
240.547396086
 51
241.6976527823
  0
ARC
  5
30E
100
AcDbEntity
  8
RACCORDO
100
AcDbCircle
 62
250
  6
CONTINUOUS
 10
-30.5398025683
 20
-3.4749792304
 40
0.8208554046
100
AcDbArc
 50
238.2351697343
 51
240.0304755661
  0
ARC
  5
30F
100
AcDbEntity
  8
RACCORDO
100
AcDbCircle
 62
250
  6
CONTINUOUS
 10
34.0897572322
 20
-40.7912770605
 40
0.8208554046
100
AcDbArc
 50
238.2351697343
 51
240.0304755661
  0
ARC
  5
310
100
AcDbEntity
  8
RACCORDO
100
AcDbCircle
 62
250
  6
CONTINUOUS
 10
-54.5623884764
 20
8.680560364
 40
0.6692585386
100
AcDbArc
 50
79.9612991094
 51
83.2965146007
  0
ARC
  5
311
100
AcDbEntity
  8
RACCORDO
100
AcDbCircle
 62
250
  6
CONTINUOUS
 10
-54.5582281235
 20
8.7020635728
 40
0.6473594276
100
AcDbArc
 50
74.9105651917
 51
79.9921316305
  0
ARC
  5
312
100
AcDbEntity
  8
RACCORDO
100
AcDbCircle
 62
250
  6
CONTINUOUS
 10
-52.7547882523
 20
48.1452893766
 40
0.5251231439
100
AcDbArc
 50
324.8860173183
 51
333.0914420462
  0
ARC
  5
313
100
AcDbEntity
  8
RACCORDO
100
AcDbCircle
 62
250
  6
CONTINUOUS
 10
-52.7547882523
 20
26.6721210969
 40
0.5251231439
100
AcDbArc
 50
324.8860173183
 51
333.0914420462
  0
ARC
  5
314
100
AcDbEntity
  8
RACCORDO
100
AcDbCircle
 62
250
  6
CONTINUOUS
 10
-54.4741024724
 20
49.1396524913
 40
0.5207032196
100
AcDbArc
 50
324.547968022
 51
332.8239386405
  0
ARC
  5
315
100
AcDbEntity
  8
RACCORDO
100
AcDbCircle
 62
250
  6
CONTINUOUS
 10
-54.4741024724
 20
27.6664842117
 40
0.5207032196
100
AcDbArc
 50
324.5479680221
 51
332.8239386405
  0
ARC
  5
316
100
AcDbEntity
  8
RACCORDO
100
AcDbCircle
 62
250
  6
CONTINUOUS
 10
-56.3839894837
 20
13.1092190546
 40
0.5155159187
100
AcDbArc
 50
330.5111292396
 51
339.415865243
  0
ARC
  5
317
100
AcDbEntity
  8
RACCORDO
100
AcDbCircle
 62
250
  6
CONTINUOUS
 10
-31.2488373254
 20
-4.224372762
 40
0.4089661785
100
AcDbArc
 50
11.2027556899
 51
14.8073051062
  0
ARC
  5
318
100
AcDbEntity
  8
RACCORDO
100
AcDbCircle
 62
250
  6
CONTINUOUS
 10
33.380722475
 20
-41.5406705922
 40
0.4089661785
100
AcDbArc
 50
11.2027556899
 51
14.8073051062
  0
ARC
  5
319
100
AcDbEntity
  8
RACCORDO
100
AcDbCircle
 62
250
  6
CONTINUOUS
 10
-30.3608374165
 20
-3.9131564575
 40
0.3367011627
100
AcDbArc
 50
358.1553635059
 51
1.8399207431
  0
ARC
  5
31A
100
AcDbEntity
  8
RACCORDO
100
AcDbCircle
 62
250
  6
CONTINUOUS
 10
34.2687223839
 20
-41.2294542876
 40
0.3367011627
100
AcDbArc
 50
358.155363506
 51
1.839920743
  0
ARC
  5
31B
100
AcDbEntity
  8
RACCORDO
100
AcDbCircle
 62
250
  6
CONTINUOUS
 10
-30.3320572311
 20
-3.9141257059
 40
0.3079046949
100
AcDbArc
 50
354.165631032
 51
358.1632401493
  0
ARC
  5
31C
100
AcDbEntity
  8
RACCORDO
100
AcDbCircle
 62
250
  6
CONTINUOUS
 10
34.2975025694
 20
-41.2304235361
 40
0.3079046948
100
AcDbArc
 50
354.1656310319
 51
358.1632401495
  0
ARC
  5
31D
100
AcDbEntity
  8
RACCORDO
100
AcDbCircle
 62
250
  6
CONTINUOUS
 10
-55.9395555782
 20
21.7431839075
 40
0.1845584152
100
AcDbArc
 50
303.8910030271
 51
305.8386469543
  0
ARC
  5
31E
100
AcDbEntity
  8
RACCORDO
100
AcDbCircle
 62
250
  6
CONTINUOUS
 10
-55.9395555782
 20
43.2163521872
 40
0.1845584152
100
AcDbArc
 50
303.8910030272
 51
305.8386469542
  0
ARC
  5
31F
100
AcDbEntity
  8
RACCORDO
100
AcDbCircle
 62
250
  6
CONTINUOUS
 10
-52.64569243
 20
24.323914067
 40
0.1689446639
100
AcDbArc
 50
60.0168297031
 51
63.3396785202
  0
ARC
  5
320
100
AcDbEntity
  8
RACCORDO
100
AcDbCircle
 62
250
  6
CONTINUOUS
 10
-52.64569243
 20
45.7970823466
 40
0.1689446639
100
AcDbArc
 50
60.0168297033
 51
63.33967852
  0
ARC
  5
321
100
AcDbEntity
  8
RACCORDO
100
AcDbCircle
 62
250
  6
CONTINUOUS
 10
-52.45793242
 20
45.7128059722
 40
0.1404466129
100
AcDbArc
 50
53.0809809246
 51
60.1296894608
  0
ARC
  5
322
100
AcDbEntity
  8
RACCORDO
100
AcDbCircle
 62
250
  6
CONTINUOUS
 10
-52.45793242
 20
24.2396376926
 40
0.1404466129
100
AcDbArc
 50
53.0809809246
 51
60.1296894608
  0
ARC
  5
323
100
AcDbEntity
  8
RACCORDO
100
AcDbCircle
 62
250
  6
CONTINUOUS
 10
32.7261955006
 20
-40.0561733575
 40
0.1196894609
100
AcDbArc
 50
104.4206382968
 51
106.5110584038
  0
ARC
  5
324
100
AcDbEntity
  8
RACCORDO
100
AcDbCircle
 62
250
  6
CONTINUOUS
 10
-31.9033642998
 20
-2.7398755274
 40
0.119689461
100
AcDbArc
 50
104.4206382968
 51
106.5110584035
  0
SPLINE
  5
325
100
AcDbEntity
  8
RACCORDO
100
AcDbSpline
 62
7
  6
CONTINUOUS
 70
0
 71
3
 72
12
 73
8
 74
0
 42
0.0000001
 43
0.0000001
 44
0.0000000001
 40
0.0
 40
0.0
 40
0.0
 40
0.0
 40
0.1198522388
 40
0.2394616093
 40
0.4796721702
 40
0.7326785513
 40
1.0
 40
1.0
 40
1.0
 40
1.0
 10
-55.8314253105
 20
21.5933134363
 30
0.0
 10
-55.8076703616
 20
21.6092697314
 30
0.0
 10
-55.7643614365
 20
21.6478354376
 30
0.0
 10
-55.7006680863
 20
21.7443362584
 30
0.0
 10
-55.666682988
 20
21.8914742632
 30
0.0
 10
-55.6896829967
 20
22.0740109377
 30
0.0
 10
-55.736863828
 20
22.1905046156
 30
0.0
 10
-55.7675157304
 20
22.2464896706
 30
0.0
  0
SPLINE
  5
326
100
AcDbEntity
  8
RACCORDO
100
AcDbSpline
 62
7
  6
CONTINUOUS
 70
0
 71
3
 72
12
 73
8
 74
0
 42
0.0000001
 43
0.0000001
 44
0.0000000001
 40
0.0
 40
0.0
 40
0.0
 40
0.0
 40
0.1198522388
 40
0.2394616093
 40
0.4796721702
 40
0.7326785513
 40
1.0
 40
1.0
 40
1.0
 40
1.0
 10
-55.8314253105
 20
43.066481716
 30
0.0
 10
-55.8076703616
 20
43.0824380111
 30
0.0
 10
-55.7643614365
 20
43.1210037173
 30
0.0
 10
-55.7006680863
 20
43.217504538
 30
0.0
 10
-55.666682988
 20
43.3646425428
 30
0.0
 10
-55.6896829967
 20
43.5471792174
 30
0.0
 10
-55.736863828
 20
43.6636728953
 30
0.0
 10
-55.7675157304
 20
43.7196579502
 30
0.0
  0
SPLINE
  5
327
100
AcDbEntity
  8
RACCORDO
100
AcDbSpline
 62
250
  6
CONTINUOUS
 70
0
 71
3
 72
9
 73
5
 74
0
 42
0.0000001
 43
0.0000001
 44
0.0000000001
 40
0.0
 40
0.0
 40
0.0
 40
0.0
 40
0.4679955252
 40
1.0
 40
1.0
 40
1.0
 40
1.0
 10
-54.0645372144
 20
28.2894614739
 30
0.0
 10
-54.0884208068
 20
28.3032383486
 30
0.0
 10
-54.1478411404
 20
28.3191603685
 30
0.0
 10
-54.2072779863
 20
28.3083678566
 30
0.0
 10
-54.2370768198
 20
28.2986500421
 30
0.0
  0
SPLINE
  5
328
100
AcDbEntity
  8
RACCORDO
100
AcDbSpline
 62
250
  6
CONTINUOUS
 70
0
 71
3
 72
9
 73
5
 74
0
 42
0.0000001
 43
0.0000001
 44
0.0000000001
 40
0.0
 40
0.0
 40
0.0
 40
0.0
 40
0.4667255982
 40
1.0
 40
1.0
 40
1.0
 40
1.0
 10
-30.1444754557
 20
-3.5720279181
 30
0.0
 10
-30.1543847504
 20
-3.5663078918
 30
0.0
 10
-30.1792088484
 20
-3.5598645283
 30
0.0
 10
-30.2038825204
 20
-3.5647175305
 30
0.0
 10
-30.2162504933
 20
-3.5689531496
 30
0.0
  0
SPLINE
  5
329
100
AcDbEntity
  8
RACCORDO
100
AcDbSpline
 62
250
  6
CONTINUOUS
 70
0
 71
3
 72
9
 73
5
 74
0
 42
0.0000001
 43
0.0000001
 44
0.0000000001
 40
0.0
 40
0.0
 40
0.0
 40
0.0
 40
0.453655891
 40
1.0
 40
1.0
 40
1.0
 40
1.0
 10
-29.9743842241
 20
-3.8681821449
 30
0.0
 10
-29.9743863124
 20
-3.8826637821
 30
0.0
 10
-29.9859442588
 20
-3.914748893
 30
0.0
 10
-30.0110662911
 20
-3.9360107737
 30
0.0
 10
-30.0257475099
 20
-3.9454251603
 30
0.0
  0
SPLINE
  5
32A
100
AcDbEntity
  8
RACCORDO
100
AcDbSpline
 62
250
  6
CONTINUOUS
 70
0
 71
3
 72
9
 73
5
 74
0
 42
0.0000001
 43
0.0000001
 44
0.0000000001
 40
0.0
 40
0.0
 40
0.0
 40
0.0
 40
0.4536557238
 40
1.0
 40
1.0
 40
1.0
 40
1.0
 10
-29.974384224
 20
-4.4043725035
 30
0.0
 10
-29.9743861546
 20
-4.418854241
 30
0.0
 10
-29.9859439549
 20
-4.4509397211
 30
0.0
 10
-30.0110661792
 20
-4.4722017893
 30
0.0
 10
-30.0257475099
 20
-4.4816162469
 30
0.0
  0
SPLINE
  5
32B
100
AcDbEntity
  8
RACCORDO
100
AcDbSpline
 62
250
  6
CONTINUOUS
 70
0
 71
3
 72
9
 73
5
 74
0
 42
0.0000001
 43
0.0000001
 44
0.0000000001
 40
0.0
 40
0.0
 40
0.0
 40
0.0
 40
0.4667308395
 40
1.0
 40
1.0
 40
1.0
 40
1.0
 10
-31.7386949356
 20
-2.6515455855
 30
0.0
 10
-31.7486027729
 20
-2.6458332282
 30
0.0
 10
-31.7734165746
 20
-2.6394024417
 30
0.0
 10
-31.7980778546
 20
-2.6442544134
 30
0.0
 10
-31.8104400532
 20
-2.6484880776
 30
0.0
  0
SPLINE
  5
32C
100
AcDbEntity
  8
RACCORDO
100
AcDbSpline
 62
250
  6
CONTINUOUS
 70
0
 71
3
 72
9
 73
5
 74
0
 42
0.0000001
 43
0.0000001
 44
0.0000000001
 40
0.0
 40
0.0
 40
0.0
 40
0.0
 40
0.4667198753
 40
1.0
 40
1.0
 40
1.0
 40
1.0
 10
-54.2003240277
 20
9.276819258
 30
0.0
 10
-54.2102349646
 20
9.2825480598
 30
0.0
 10
-54.2350707915
 20
9.2890058233
 30
0.0
 10
-54.2597585889
 20
9.2841515866
 30
0.0
 10
-54.2721331211
 20
9.2799136984
 30
0.0
  0
SPLINE
  5
32D
100
AcDbEntity
  8
RACCORDO
100
AcDbSpline
 62
250
  6
CONTINUOUS
 70
0
 71
3
 72
14
 73
10
 74
0
 42
0.0000001
 43
0.0000001
 44
0.0000000001
 40
0.0
 40
0.0
 40
0.0
 40
0.0
 40
0.0191495308
 40
0.0698925641
 40
0.1527565053
 40
0.2669306869
 40
0.4108915255
 40
0.582945408
 40
1.0
 40
1.0
 40
1.0
 40
1.0
 10
-55.7675155302
 20
22.2464897801
 30
0.0
 10
-55.7672668253
 20
22.2460291516
 30
0.0
 10
-55.7693994796
 20
22.2443762406
 30
0.0
 10
-55.772017722
 20
22.2420939918
 30
0.0
 10
-55.7779951705
 20
22.2381267793
 30
0.0
 10
-55.7856689182
 20
22.233144761
 30
0.0
 10
-55.7957291215
 20
22.2269282325
 30
0.0
 10
-55.8128605579
 20
22.2165895294
 30
0.0
 10
-55.8267746939
 20
22.2084532333
 30
0.0
 10
-55.8366430803
 20
22.2027441517
 30
0.0
  0
SPLINE
  5
32E
100
AcDbEntity
  8
RACCORDO
100
AcDbSpline
 62
250
  6
CONTINUOUS
 70
0
 71
3
 72
9
 73
5
 74
0
 42
0.0000001
 43
0.0000001
 44
0.0000000001
 40
0.0
 40
0.0
 40
0.0
 40
0.0
 40
0.4757875712
 40
1.0
 40
1.0
 40
1.0
 40
1.0
 10
-54.5489331736
 20
28.4414022823
 30
0.0
 10
-54.5349411386
 20
28.4456904849
 30
0.0
 10
-54.5029568557
 20
28.4473092291
 30
0.0
 10
-54.4736784344
 20
28.4354717811
 30
0.0
 10
-54.4598072163
 20
28.4272517816
 30
0.0
  0
SPLINE
  5
32F
100
AcDbEntity
  8
RACCORDO
100
AcDbSpline
 62
250
  6
CONTINUOUS
 70
0
 71
3
 72
9
 73
5
 74
0
 42
0.0000001
 43
0.0000001
 44
0.0000000001
 40
0.0
 40
0.0
 40
0.0
 40
0.0
 40
0.4506591195
 40
1.0
 40
1.0
 40
1.0
 40
1.0
 10
-55.8180872597
 20
22.415473391
 30
0.0
 10
-55.8180875148
 20
22.400262392
 30
0.0
 10
-55.830984544
 20
22.3663904999
 30
0.0
 10
-55.8582962944
 20
22.3447782134
 30
0.0
 10
-55.8742104516
 20
22.3352631034
 30
0.0
  0
SPLINE
  5
330
100
AcDbEntity
  8
RACCORDO
100
AcDbSpline
 62
250
  6
CONTINUOUS
 70
0
 71
3
 72
14
 73
10
 74
0
 42
0.0000001
 43
0.0000001
 44
0.0000000001
 40
0.0
 40
0.0
 40
0.0
 40
0.0
 40
0.0191495308
 40
0.0698925641
 40
0.1527565053
 40
0.2669306869
 40
0.4108915255
 40
0.582945408
 40
1.0
 40
1.0
 40
1.0
 40
1.0
 10
-55.7675155302
 20
43.7196580598
 30
0.0
 10
-55.7672668253
 20
43.7191974312
 30
0.0
 10
-55.7693994796
 20
43.7175445202
 30
0.0
 10
-55.772017722
 20
43.7152622715
 30
0.0
 10
-55.7779951705
 20
43.711295059
 30
0.0
 10
-55.7856689182
 20
43.7063130406
 30
0.0
 10
-55.7957291215
 20
43.7000965122
 30
0.0
 10
-55.8128605579
 20
43.6897578091
 30
0.0
 10
-55.8267746939
 20
43.681621513
 30
0.0
 10
-55.8366430803
 20
43.6759124314
 30
0.0
  0
SPLINE
  5
331
100
AcDbEntity
  8
RACCORDO
100
AcDbSpline
 62
250
  6
CONTINUOUS
 70
0
 71
3
 72
9
 73
5
 74
0
 42
0.0000001
 43
0.0000001
 44
0.0000000001
 40
0.0
 40
0.0
 40
0.0
 40
0.0
 40
0.4506591195
 40
1.0
 40
1.0
 40
1.0
 40
1.0
 10
-55.8180872597
 20
43.8886416706
 30
0.0
 10
-55.8180875148
 20
43.8734306716
 30
0.0
 10
-55.830984544
 20
43.8395587796
 30
0.0
 10
-55.8582962944
 20
43.817946493
 30
0.0
 10
-55.8742104516
 20
43.8084313831
 30
0.0
  0
SPLINE
  5
332
100
AcDbEntity
  8
RACCORDO
100
AcDbSpline
 62
250
  6
CONTINUOUS
 70
0
 71
3
 72
9
 73
5
 74
0
 42
0.0000001
 43
0.0000001
 44
0.0000000001
 40
0.0
 40
0.0
 40
0.0
 40
0.0
 40
0.4757875712
 40
1.0
 40
1.0
 40
1.0
 40
1.0
 10
-54.5489331736
 20
49.914570562
 30
0.0
 10
-54.5349411386
 20
49.9188587645
 30
0.0
 10
-54.5029568557
 20
49.9204775087
 30
0.0
 10
-54.4736784344
 20
49.9086400608
 30
0.0
 10
-54.4598072163
 20
49.9004200612
 30
0.0
  0
SPLINE
  5
333
100
AcDbEntity
  8
RACCORDO
100
AcDbSpline
 62
250
  6
CONTINUOUS
 70
0
 71
3
 72
9
 73
5
 74
0
 42
0.0000001
 43
0.0000001
 44
0.0000000001
 40
0.0
 40
0.0
 40
0.0
 40
0.0
 40
0.4506573216
 40
1.0
 40
1.0
 40
1.0
 40
1.0
 10
-55.81808726
 20
13.1453713853
 30
0.0
 10
-55.8180859009
 20
13.1301594248
 30
0.0
 10
-55.8309814656
 20
13.0962838054
 30
0.0
 10
-55.8582951733
 20
13.0746697558
 30
0.0
 10
-55.8742104516
 20
13.0651539745
 30
0.0
  0
SPLINE
  5
334
100
AcDbEntity
  8
RACCORDO
100
AcDbSpline
 62
250
  6
CONTINUOUS
 70
0
 71
3
 72
9
 73
5
 74
0
 42
0.0000001
 43
0.0000001
 44
0.0000000001
 40
0.0
 40
0.0
 40
0.0
 40
0.0
 40
0.7429058763
 40
1.0
 40
1.0
 40
1.0
 40
1.0
 10
-55.8180872599
 20
21.5810623078
 30
0.0
 10
-55.8180866096
 20
21.5737878409
 30
0.0
 10
-55.8197422843
 20
21.5639088274
 30
0.0
 10
-55.8232846759
 20
21.5547763486
 30
0.0
 10
-55.8243035839
 20
21.5524743186
 30
0.0
  0
SPLINE
  5
335
100
AcDbEntity
  8
RACCORDO
100
AcDbSpline
 62
250
  6
CONTINUOUS
 70
0
 71
3
 72
8
 73
4
 74
0
 42
0.0000001
 43
0.0000001
 44
0.0000000001
 40
0.0
 40
0.0
 40
0.0
 40
0.0
 40
1.0
 40
1.0
 40
1.0
 40
1.0
 10
-55.8243035839
 20
21.5524743186
 30
0.0
 10
-55.8260529729
 20
21.5485219045
 30
0.0
 10
-55.8281310521
 20
21.544703432
 30
0.0
 10
-55.8304593356
 20
21.5410618616
 30
0.0
  0
SPLINE
  5
336
100
AcDbEntity
  8
RACCORDO
100
AcDbSpline
 62
250
  6
CONTINUOUS
 70
0
 71
3
 72
9
 73
5
 74
0
 42
0.0000001
 43
0.0000001
 44
0.0000000001
 40
0.0
 40
0.0
 40
0.0
 40
0.0
 40
0.229199152
 40
1.0
 40
1.0
 40
1.0
 40
1.0
 10
-55.8304593356
 20
21.5410618616
 30
0.0
 10
-55.8329178822
 20
21.5372165523
 30
0.0
 10
-55.844903374
 20
21.5212400595
 30
0.0
 10
-55.8610365361
 20
21.508721614
 30
0.0
 10
-55.8742104515
 20
21.5008449007
 30
0.0
  0
SPLINE
  5
337
100
AcDbEntity
  8
RACCORDO
100
AcDbSpline
 62
250
  6
CONTINUOUS
 70
0
 71
3
 72
9
 73
5
 74
0
 42
0.0000001
 43
0.0000001
 44
0.0000000001
 40
0.0
 40
0.0
 40
0.0
 40
0.0
 40
0.7429058763
 40
1.0
 40
1.0
 40
1.0
 40
1.0
 10
-55.8180872599
 20
43.0542305874
 30
0.0
 10
-55.8180866096
 20
43.0469561206
 30
0.0
 10
-55.8197422843
 20
43.0370771071
 30
0.0
 10
-55.8232846759
 20
43.0279446283
 30
0.0
 10
-55.8243035839
 20
43.0256425982
 30
0.0
  0
SPLINE
  5
338
100
AcDbEntity
  8
RACCORDO
100
AcDbSpline
 62
250
  6
CONTINUOUS
 70
0
 71
3
 72
8
 73
4
 74
0
 42
0.0000001
 43
0.0000001
 44
0.0000000001
 40
0.0
 40
0.0
 40
0.0
 40
0.0
 40
1.0
 40
1.0
 40
1.0
 40
1.0
 10
-55.8243035839
 20
43.0256425982
 30
0.0
 10
-55.8260529729
 20
43.0216901841
 30
0.0
 10
-55.8281310521
 20
43.0178717117
 30
0.0
 10
-55.8304593356
 20
43.0142301413
 30
0.0
  0
SPLINE
  5
339
100
AcDbEntity
  8
RACCORDO
100
AcDbSpline
 62
250
  6
CONTINUOUS
 70
0
 71
3
 72
9
 73
5
 74
0
 42
0.0000001
 43
0.0000001
 44
0.0000000001
 40
0.0
 40
0.0
 40
0.0
 40
0.0
 40
0.229199152
 40
1.0
 40
1.0
 40
1.0
 40
1.0
 10
-55.8304593356
 20
43.0142301413
 30
0.0
 10
-55.8329178822
 20
43.010384832
 30
0.0
 10
-55.844903374
 20
42.9944083392
 30
0.0
 10
-55.8610365361
 20
42.9818898937
 30
0.0
 10
-55.8742104515
 20
42.9740131803
 30
0.0
  0
SPLINE
  5
33A
100
AcDbEntity
  8
RACCORDO
100
AcDbSpline
 62
250
  6
CONTINUOUS
 70
0
 71
3
 72
14
 73
10
 74
0
 42
0.0000001
 43
0.0000001
 44
0.0000000001
 40
0.0
 40
0.0
 40
0.0
 40
0.0
 40
0.0163866209
 40
0.0646516087
 40
0.1446742753
 40
0.2562060502
 40
0.3987347421
 40
0.5710752608
 40
1.0
 40
1.0
 40
1.0
 40
1.0
 10
-55.9049212949
 20
12.8374217118
 30
0.0
 10
-55.9048256139
 20
12.8375891232
 30
0.0
 10
-55.9059819533
 20
12.8379902383
 30
0.0
 10
-55.9069087171
 20
12.8389393465
 30
0.0
 10
-55.9096058836
 20
12.8403900024
 30
0.0
 10
-55.9128535832
 20
12.8424156665
 30
0.0
 10
-55.9172236905
 20
12.8449621132
 30
0.0
 10
-55.9247551447
 20
12.8493832117
 30
0.0
 10
-55.9308874563
 20
12.8529294815
 30
0.0
 10
-55.9352579672
 20
12.8554540282
 30
0.0
  0
SPLINE
  5
33B
100
AcDbEntity
  8
RACCORDO
100
AcDbSpline
 62
250
  6
CONTINUOUS
 70
0
 71
3
 72
9
 73
5
 74
0
 42
0.0000001
 43
0.0000001
 44
0.0000000001
 40
0.0
 40
0.0
 40
0.0
 40
0.0
 40
0.4679955252
 40
1.0
 40
1.0
 40
1.0
 40
1.0
 10
-54.0645372144
 20
49.7626297535
 30
0.0
 10
-54.0884208068
 20
49.7764066282
 30
0.0
 10
-54.1478411404
 20
49.7923286482
 30
0.0
 10
-54.2072779863
 20
49.7815361362
 30
0.0
 10
-54.2370768198
 20
49.7718183218
 30
0.0
  0
SPLINE
  5
33C
100
AcDbEntity
  8
RACCORDO
100
AcDbSpline
 62
250
  6
CONTINUOUS
 70
0
 71
3
 72
9
 73
5
 74
0
 42
0.0000001
 43
0.0000001
 44
0.0000000001
 40
0.0
 40
0.0
 40
0.0
 40
0.0
 40
0.4674953273
 40
1.0
 40
1.0
 40
1.0
 40
1.0
 10
32.6963881856
 20
-39.9402548903
 30
0.0
 10
32.7156634621
 20
-39.9352979808
 30
0.0
 10
32.7599379069
 20
-39.9354638818
 30
0.0
 10
32.7997619049
 20
-39.9529873806
 30
0.0
 10
32.8191197473
 20
-39.9647859078
 30
0.0
  0
SPLINE
  5
33D
100
AcDbEntity
  8
RACCORDO
100
AcDbSpline
 62
250
  6
CONTINUOUS
 70
0
 71
3
 72
10
 73
6
 74
0
 42
0.0000001
 43
0.0000001
 44
0.0000000001
 40
0.0
 40
0.0
 40
0.0
 40
0.0
 40
0.1009259972
 40
0.2943280455
 40
1.0
 40
1.0
 40
1.0
 40
1.0
 10
-54.4891284204
 20
9.3675830753
 30
0.0
 10
-54.4883456904
 20
9.3674909022
 30
0.0
 10
-54.4867434928
 20
9.365305578
 30
0.0
 10
-54.4850700112
 20
9.3579410351
 30
0.0
 10
-54.4845066027
 20
9.3507489016
 30
0.0
 10
-54.4842651555
 20
9.3452435504
 30
0.0
  0
SPLINE
  5
33E
100
AcDbEntity
  8
RACCORDO
100
AcDbSpline
 62
250
  6
CONTINUOUS
 70
0
 71
3
 72
10
 73
6
 74
0
 42
0.0000001
 43
0.0000001
 44
0.0000000001
 40
0.0
 40
0.0
 40
0.0
 40
0.0
 40
0.1009263467
 40
0.2943285061
 40
1.0
 40
1.0
 40
1.0
 40
1.0
 10
-55.2062857928
 20
9.4518199899
 30
0.0
 10
-55.2055030591
 20
9.4517278164
 30
0.0
 10
-55.2039008485
 20
9.4495424964
 30
0.0
 10
-55.2022273352
 20
9.4421779453
 30
0.0
 10
-55.2016639062
 20
9.4349858092
 30
0.0
 10
-55.201422443
 20
9.429480455
 30
0.0
  0
SPLINE
  5
33F
100
AcDbEntity
  8
RACCORDO
100
AcDbSpline
 62
250
  6
CONTINUOUS
 70
0
 71
3
 72
8
 73
4
 74
0
 42
0.0000001
 43
0.0000001
 44
0.0000000001
 40
0.0
 40
0.0
 40
0.0
 40
0.0
 40
1.0
 40
1.0
 40
1.0
 40
1.0
 10
-52.5698869234
 20
24.474896929
 30
0.0
 10
-52.5821855345
 20
24.4810722278
 30
0.0
 10
-52.5953283572
 20
24.4857610864
 30
0.0
 10
-52.6087314535
 20
24.4888831306
 30
0.0
  0
SPLINE
  5
340
100
AcDbEntity
  8
RACCORDO
100
AcDbSpline
 62
250
  6
CONTINUOUS
 70
0
 71
3
 72
9
 73
5
 74
0
 42
0.0000001
 43
0.0000001
 44
0.0000000001
 40
0.0
 40
0.0
 40
0.0
 40
0.0
 40
0.4674953273
 40
1.0
 40
1.0
 40
1.0
 40
1.0
 10
-31.9331716148
 20
-2.6239570602
 30
0.0
 10
-31.9138963384
 20
-2.6190001506
 30
0.0
 10
-31.8696218936
 20
-2.6191660517
 30
0.0
 10
-31.8297978955
 20
-2.6366895505
 30
0.0
 10
-31.8104400532
 20
-2.6484880776
 30
0.0
  0
SPLINE
  5
341
100
AcDbEntity
  8
RACCORDO
100
AcDbSpline
 62
250
  6
CONTINUOUS
 70
0
 71
3
 72
14
 73
10
 74
0
 42
0.0000001
 43
0.0000001
 44
0.0000000001
 40
0.0
 40
0.0
 40
0.0
 40
0.0
 40
0.0163643359
 40
0.0646132798
 40
0.1446264274
 40
0.2561551548
 40
0.3986873827
 40
0.5710378236
 40
1.0
 40
1.0
 40
1.0
 40
1.0
 10
-56.2572409682
 20
12.2127313324
 30
0.0
 10
-56.25714398
 20
12.2128976865
 30
0.0
 10
-56.2583027781
 20
12.2133008542
 30
0.0
 10
-56.2592260216
 20
12.2142475269
 30
0.0
 10
-56.2619246972
 20
12.2156992391
 30
0.0
 10
-56.2651714912
 20
12.2177243273
 30
0.0
 10
-56.2695420175
 20
12.2202710486
 30
0.0
 10
-56.2770738381
 20
12.2246923601
 30
0.0
 10
-56.2832067029
 20
12.2282389551
 30
0.0
 10
-56.2875775975
 20
12.2307637234
 30
0.0
  0
SPLINE
  5
342
100
AcDbEntity
  8
RACCORDO
100
AcDbSpline
 62
250
  6
CONTINUOUS
 70
0
 71
3
 72
9
 73
5
 74
0
 42
0.0000001
 43
0.0000001
 44
0.0000000001
 40
0.0
 40
0.0
 40
0.0
 40
0.0
 40
0.2408012347
 40
1.0
 40
1.0
 40
1.0
 40
1.0
 10
-55.6963971898
 20
9.5819167763
 30
0.0
 10
-55.6886361785
 20
9.5774357372
 30
0.0
 10
-55.6561039467
 20
9.5593522993
 30
0.0
 10
-55.622467578
 20
9.5432813786
 30
0.0
 10
-55.5965292302
 20
9.5320775121
 30
0.0
  0
SPLINE
  5
343
100
AcDbEntity
  8
RACCORDO
100
AcDbSpline
 62
250
  6
CONTINUOUS
 70
0
 71
3
 72
9
 73
5
 74
0
 42
0.0000001
 43
0.0000001
 44
0.0000000001
 40
0.0
 40
0.0
 40
0.0
 40
0.0
 40
0.2427119255
 40
1.0
 40
1.0
 40
1.0
 40
1.0
 10
-55.5389891473
 20
9.5090396815
 30
0.0
 10
-55.5191613923
 20
9.5016911709
 30
0.0
 10
-55.4367015966
 20
9.4735076915
 30
0.0
 10
-55.3516119072
 20
9.4531797354
 30
0.0
 10
-55.2866095844
 20
9.4418814564
 30
0.0
  0
SPLINE
  5
344
100
AcDbEntity
  8
RACCORDO
100
AcDbSpline
 62
250
  6
CONTINUOUS
 70
0
 71
3
 72
9
 73
5
 74
0
 42
0.0000001
 43
0.0000001
 44
0.0000000001
 40
0.0
 40
0.0
 40
0.0
 40
0.0
 40
0.2658291014
 40
1.0
 40
1.0
 40
1.0
 40
1.0
 10
-54.3897033266
 20
9.3271024687
 30
0.0
 10
-54.378850473
 20
9.3241699116
 30
0.0
 10
-54.3383561929
 20
9.3120231728
 30
0.0
 10
-54.2990222545
 20
9.2954374419
 30
0.0
 10
-54.2721331211
 20
9.2799136984
 30
0.0
  0
SPLINE
  5
345
100
AcDbEntity
  8
RACCORDO
100
AcDbSpline
 62
250
  6
CONTINUOUS
 70
0
 71
3
 72
9
 73
5
 74
0
 42
0.0000001
 43
0.0000001
 44
0.0000000001
 40
0.0
 40
0.0
 40
0.0
 40
0.0
 40
0.4667198746
 40
1.0
 40
1.0
 40
1.0
 40
1.0
 10
-55.6245880961
 20
9.5788223358
 30
0.0
 10
-55.634499033
 20
9.5845511375
 30
0.0
 10
-55.65933486
 20
9.5910089011
 30
0.0
 10
-55.6840226575
 20
9.5861546645
 30
0.0
 10
-55.6963971898
 20
9.5819167763
 30
0.0
  0
SPLINE
  5
346
100
AcDbEntity
  8
RACCORDO
100
AcDbSpline
 62
250
  6
CONTINUOUS
 70
0
 71
3
 72
9
 73
5
 74
0
 42
0.0000001
 43
0.0000001
 44
0.0000000001
 40
0.0
 40
0.0
 40
0.0
 40
0.0
 40
0.4506727217
 40
1.0
 40
1.0
 40
1.0
 40
1.0
 10
-56.373898631
 20
10.6432028572
 30
0.0
 10
-56.3739110117
 20
10.6279990807
 30
0.0
 10
-56.3868190219
 20
10.5941551824
 30
0.0
 10
-56.4141160686
 20
10.5725561265
 30
0.0
 10
-56.4300218007
 20
10.5630460538
 30
0.0
  0
SPLINE
  5
347
100
AcDbEntity
  8
RACCORDO
100
AcDbSpline
 62
250
  6
CONTINUOUS
 70
0
 71
3
 72
9
 73
5
 74
0
 42
0.0000001
 43
0.0000001
 44
0.0000000001
 40
0.0
 40
0.0
 40
0.0
 40
0.0
 40
0.4667281932
 40
1.0
 40
1.0
 40
1.0
 40
1.0
 10
-55.8396559676
 20
9.7029998332
 30
0.0
 10
-55.8495645527
 20
9.708716145
 30
0.0
 10
-55.8743836548
 20
9.7151534162
 30
0.0
 10
-55.8990513131
 20
9.7103008994
 30
0.0
 10
-55.9114164789
 20
9.706066219
 30
0.0
  0
SPLINE
  5
348
100
AcDbEntity
  8
RACCORDO
100
AcDbSpline
 62
250
  6
CONTINUOUS
 70
0
 71
3
 72
9
 73
5
 74
0
 42
0.0000001
 43
0.0000001
 44
0.0000000001
 40
0.0
 40
0.0
 40
0.0
 40
0.0
 40
0.4506573102
 40
1.0
 40
1.0
 40
1.0
 40
1.0
 10
-56.373898609
 20
11.821681256
 30
0.0
 10
-56.3738972492
 20
11.8064692963
 30
0.0
 10
-56.3867928142
 20
11.7725936775
 30
0.0
 10
-56.4141065221
 20
11.7509796293
 30
0.0
 10
-56.4300218007
 20
11.7414638488
 30
0.0
  0
SPLINE
  5
349
100
AcDbEntity
  8
RACCORDO
100
AcDbSpline
 62
250
  6
CONTINUOUS
 70
0
 71
3
 72
8
 73
4
 74
0
 42
0.0000001
 43
0.0000001
 44
0.0000000001
 40
0.0
 40
0.0
 40
0.0
 40
0.0
 40
1.0
 40
1.0
 40
1.0
 40
1.0
 10
-52.5698869234
 20
45.9480652087
 30
0.0
 10
-52.5821855345
 20
45.9542405075
 30
0.0
 10
-52.5953283572
 20
45.9589293661
 30
0.0
 10
-52.6087314535
 20
45.9620514102
 30
0.0
  0
LINE
  5
34A
100
AcDbEntity
  8
RACCORDO
100
AcDbLine
 62
250
  6
CONTINUOUS
 10
-55.8742104516
 20
43.8084313831
 11
-57.2928794036
 21
42.9714446475
  0
LINE
  5
34B
100
AcDbEntity
  8
RACCORDO
100
AcDbLine
 62
250
  6
CONTINUOUS
 10
-57.2928794089
 20
20.6413809875
 11
-55.8742104515
 21
21.5008449007
  0
SPLINE
  5
34C
100
AcDbEntity
  8
RACCORDO
100
AcDbSpline
 62
250
  6
CONTINUOUS
 70
0
 71
3
 72
9
 73
5
 74
0
 42
0.0000001
 43
0.0000001
 44
0.0000000001
 40
0.0
 40
0.0
 40
0.0
 40
0.0
 40
0.232454218
 40
1.0
 40
1.0
 40
1.0
 40
1.0
 10
-55.8742104516
 20
13.0651539745
 30
0.0
 10
-55.8742110059
 20
13.0542847125
 30
0.0
 10
-55.8768640887
 20
13.0075325021
 30
0.0
 10
-55.8887895983
 20
12.961579136
 30
0.0
 10
-55.9013856864
 20
12.9279727103
 30
0.0
  0
SPLINE
  5
34D
100
AcDbEntity
  8
RACCORDO
100
AcDbSpline
 62
250
  6
CONTINUOUS
 70
0
 71
3
 72
9
 73
5
 74
0
 42
0.0000001
 43
0.0000001
 44
0.0000000001
 40
0.0
 40
0.0
 40
0.0
 40
0.0
 40
0.2569170101
 40
1.0
 40
1.0
 40
1.0
 40
1.0
 10
-56.3448717753
 20
12.1154361419
 30
0.0
 10
-56.3524699423
 20
12.0978637332
 30
0.0
 10
-56.3803871497
 20
12.0287721535
 30
0.0
 10
-56.4016730114
 20
11.9569210182
 30
0.0
 10
-56.4127661034
 20
11.9026710464
 30
0.0
  0
SPLINE
  5
34E
100
AcDbEntity
  8
RACCORDO
100
AcDbSpline
 62
250
  6
CONTINUOUS
 70
0
 71
3
 72
9
 73
5
 74
0
 42
0.0000001
 43
0.0000001
 44
0.0000000001
 40
0.0
 40
0.0
 40
0.0
 40
0.0
 40
0.2607391501
 40
1.0
 40
1.0
 40
1.0
 40
1.0
 10
-56.4127661034
 20
11.9026710464
 30
0.0
 10
-56.415591637
 20
11.8888529763
 30
0.0
 10
-56.4252392859
 20
11.8356306925
 30
0.0
 10
-56.4300198859
 20
11.7814522127
 30
0.0
 10
-56.4300218007
 20
11.7414638488
 30
0.0
  0
LINE
  5
34F
100
AcDbEntity
  8
RACCORDO
100
AcDbLine
 62
250
  6
CONTINUOUS
 10
-55.8742104516
 20
22.3352631034
 11
-57.2928794036
 21
21.4982763678
  0
LINE
  5
350
100
AcDbEntity
  8
RACCORDO
100
AcDbLine
 62
250
  6
CONTINUOUS
 10
-57.2928794089
 20
42.1145492672
 11
-55.8742104515
 21
42.9740131803
  0
SPLINE
  5
351
100
AcDbEntity
  8
RACCORDO
100
AcDbSpline
 62
250
  6
CONTINUOUS
 70
0
 71
3
 72
9
 73
5
 74
0
 42
0.0000001
 43
0.0000001
 44
0.0000000001
 40
0.0
 40
0.0
 40
0.0
 40
0.0
 40
0.4760789037
 40
1.0
 40
1.0
 40
1.0
 40
1.0
 10
-52.8261174797
 20
48.9186563849
 30
0.0
 10
-52.811952353
 20
48.9231063201
 30
0.0
 10
-52.7795331775
 20
48.924978175
 30
0.0
 10
-52.7497636565
 20
48.9131686703
 30
0.0
 10
-52.7356595369
 20
48.9049187997
 30
0.0
  0
SPLINE
  5
352
100
AcDbEntity
  8
RACCORDO
100
AcDbSpline
 62
250
  6
CONTINUOUS
 70
0
 71
3
 72
11
 73
7
 74
0
 42
0.0000001
 43
0.0000001
 44
0.0000000001
 40
0.0
 40
0.0
 40
0.0
 40
0.0
 40
0.2862068405
 40
0.5538285175
 40
0.7931580623
 40
1.0
 40
1.0
 40
1.0
 40
1.0
 10
-55.8185307903
 20
22.1679783148
 30
0.0
 10
-55.7972311693
 20
22.1249500136
 30
0.0
 10
-55.7621918219
 20
22.0384223564
 30
0.0
 10
-55.7331478424
 20
21.9078473183
 30
0.0
 10
-55.7303382141
 20
21.7872953124
 30
0.0
 10
-55.7480410709
 20
21.7131199624
 30
0.0
 10
-55.7622656754
 20
21.6814717251
 30
0.0
  0
SPLINE
  5
353
100
AcDbEntity
  8
RACCORDO
100
AcDbSpline
 62
250
  6
CONTINUOUS
 70
0
 71
3
 72
9
 73
5
 74
0
 42
0.0000001
 43
0.0000001
 44
0.0000000001
 40
0.0
 40
0.0
 40
0.0
 40
0.0
 40
0.2646005998
 40
1.0
 40
1.0
 40
1.0
 40
1.0
 10
-55.7622656754
 20
21.6814717251
 30
0.0
 10
-55.7663370675
 20
21.6724133092
 30
0.0
 10
-55.7835143205
 20
21.6390521168
 30
0.0
 10
-55.809119335
 20
21.6097286018
 30
0.0
 10
-55.8314957738
 20
21.5935681086
 30
0.0
  0
LINE
  5
354
100
AcDbEntity
  8
RACCORDO
100
AcDbLine
 62
250
  6
CONTINUOUS
 10
-57.2928796416
 20
20.7076076702
 11
-55.8366430803
 21
21.5899819937
  0
LINE
  5
355
100
AcDbEntity
  8
RACCORDO
100
AcDbLine
 62
250
  6
CONTINUOUS
 10
-55.8366430803
 20
22.2027441517
 11
-57.2928794985
 21
21.3478325634
  0
SPLINE
  5
356
100
AcDbEntity
  8
RACCORDO
100
AcDbSpline
 62
250
  6
CONTINUOUS
 70
0
 71
3
 72
11
 73
7
 74
0
 42
0.0000001
 43
0.0000001
 44
0.0000000001
 40
0.0
 40
0.0
 40
0.0
 40
0.0
 40
0.2862068405
 40
0.5538285175
 40
0.7931580623
 40
1.0
 40
1.0
 40
1.0
 40
1.0
 10
-55.8185307903
 20
43.6411465945
 30
0.0
 10
-55.7972311693
 20
43.5981182933
 30
0.0
 10
-55.7621918219
 20
43.511590636
 30
0.0
 10
-55.7331478424
 20
43.381015598
 30
0.0
 10
-55.7303382141
 20
43.2604635921
 30
0.0
 10
-55.7480410709
 20
43.186288242
 30
0.0
 10
-55.7622656754
 20
43.1546400047
 30
0.0
  0
SPLINE
  5
357
100
AcDbEntity
  8
RACCORDO
100
AcDbSpline
 62
250
  6
CONTINUOUS
 70
0
 71
3
 72
9
 73
5
 74
0
 42
0.0000001
 43
0.0000001
 44
0.0000000001
 40
0.0
 40
0.0
 40
0.0
 40
0.0
 40
0.2646005998
 40
1.0
 40
1.0
 40
1.0
 40
1.0
 10
-55.7622656754
 20
43.1546400047
 30
0.0
 10
-55.7663370675
 20
43.1455815889
 30
0.0
 10
-55.7835143205
 20
43.1122203965
 30
0.0
 10
-55.809119335
 20
43.0828968815
 30
0.0
 10
-55.8314957738
 20
43.0667363883
 30
0.0
  0
LINE
  5
358
100
AcDbEntity
  8
RACCORDO
100
AcDbLine
 62
250
  6
CONTINUOUS
 10
-57.2928796416
 20
42.1807759499
 11
-55.8366430803
 21
43.0631502734
  0
LINE
  5
359
100
AcDbEntity
  8
RACCORDO
100
AcDbLine
 62
250
  6
CONTINUOUS
 10
-55.8366430803
 20
43.6759124314
 11
-57.2928794985
 21
42.8210008431
  0
SPLINE
  5
35A
100
AcDbEntity
  8
RACCORDO
100
AcDbSpline
 62
250
  6
CONTINUOUS
 70
0
 71
3
 72
11
 73
7
 74
0
 42
0.0000001
 43
0.0000001
 44
0.0000000001
 40
0.0
 40
0.0
 40
0.0
 40
0.0
 40
0.2887333105
 40
0.5479796403
 40
0.7818331595
 40
1.0
 40
1.0
 40
1.0
 40
1.0
 10
75.7149954529
 20
-73.9567901658
 30
0.0
 10
75.7152117305
 20
-73.9909927739
 30
0.0
 10
75.71057418
 20
-74.0561470648
 30
0.0
 10
75.6854724028
 20
-74.1460915931
 30
0.0
 10
75.6428264335
 20
-74.2199789833
 30
0.0
 10
75.6024040806
 20
-74.2567604563
 30
0.0
 10
75.5806323607
 20
-74.2706854205
 30
0.0
  0
SPLINE
  5
35B
100
AcDbEntity
  8
RACCORDO
100
AcDbSpline
 62
250
  6
CONTINUOUS
 70
0
 71
3
 72
9
 73
5
 74
0
 42
0.0000001
 43
0.0000001
 44
0.0000000001
 40
0.0
 40
0.0
 40
0.0
 40
0.0
 40
0.2417232955
 40
1.0
 40
1.0
 40
1.0
 40
1.0
 10
75.2201903216
 20
-4.9709597273
 30
0.0
 10
75.2284292601
 20
-4.9756480978
 30
0.0
 10
75.2620895671
 20
-4.9957845582
 30
0.0
 10
75.294062421
 20
-5.0186987534
 30
0.0
 10
75.3172979513
 20
-5.037256477
 30
0.0
  0
SPLINE
  5
35C
100
AcDbEntity
  8
RACCORDO
100
AcDbSpline
 62
250
  6
CONTINUOUS
 70
0
 71
3
 72
11
 73
7
 74
0
 42
0.0000001
 43
0.0000001
 44
0.0000000001
 40
0.0
 40
0.0
 40
0.0
 40
0.0
 40
0.2483153727
 40
0.5107464911
 40
0.7674332211
 40
1.0
 40
1.0
 40
1.0
 40
1.0
 10
75.3172979513
 20
-5.037256477
 30
0.0
 10
75.3761612921
 20
-5.0842693748
 30
0.0
 10
75.4848439535
 20
-5.196890408
 30
0.0
 10
75.6102517292
 20
-5.3947208152
 30
0.0
 10
75.6931098088
 20
-5.6087019496
 30
0.0
 10
75.7154381093
 20
-5.7574332155
 30
0.0
 10
75.7149954529
 20
-5.8279873537
 30
0.0
  0
SPLINE
  5
35D
100
AcDbEntity
  8
RACCORDO
100
AcDbSpline
 62
250
  6
CONTINUOUS
 70
0
 71
3
 72
8
 73
4
 74
0
 42
0.0000001
 43
0.0000001
 44
0.0000000001
 40
0.0
 40
0.0
 40
0.0
 40
0.0
 40
1.0
 40
1.0
 40
1.0
 40
1.0
 10
-52.3412803437
 20
24.3432347896
 30
0.0
 10
-52.3557525814
 20
24.351582919
 30
0.0
 10
-52.3716933839
 20
24.3577208521
 30
0.0
 10
-52.3879846044
 20
24.3614266665
 30
0.0
  0
SPLINE
  5
35E
100
AcDbEntity
  8
RACCORDO
100
AcDbSpline
 62
250
  6
CONTINUOUS
 70
0
 71
3
 72
9
 73
5
 74
0
 42
0.0000001
 43
0.0000001
 44
0.0000000001
 40
0.0
 40
0.0
 40
0.0
 40
0.0
 40
0.4677581197
 40
1.0
 40
1.0
 40
1.0
 40
1.0
 10
-52.3412955244
 20
48.7676516002
 30
0.0
 10
-52.3650440083
 20
48.7813509958
 30
0.0
 10
-52.4242132446
 20
48.797108966
 30
0.0
 10
-52.4833123183
 20
48.7861169168
 30
0.0
 10
-52.5129291404
 20
48.7763170603
 30
0.0
  0
SPLINE
  5
35F
100
AcDbEntity
  8
RACCORDO
100
AcDbSpline
 62
7
  6
CONTINUOUS
 70
0
 71
3
 72
9
 73
5
 74
0
 42
0.0000001
 43
0.0000001
 44
0.0000000001
 40
0.0
 40
0.0
 40
0.0
 40
0.0
 40
0.45378778
 40
1.0
 40
1.0
 40
1.0
 40
1.0
 10
-57.2927951817
 20
42.2340829024
 30
0.0
 10
-57.2715754337
 20
42.2840197591
 30
0.0
 10
-57.254304874
 20
42.40617301
 30
0.0
 10
-57.2748916199
 20
42.5251836347
 30
0.0
 10
-57.2927951817
 20
42.5879910288
 30
0.0
  0
SPLINE
  5
360
100
AcDbEntity
  8
RACCORDO
100
AcDbSpline
 62
250
  6
CONTINUOUS
 70
0
 71
3
 72
11
 73
7
 74
0
 42
0.0000001
 43
0.0000001
 44
0.0000000001
 40
0.0
 40
0.0
 40
0.0
 40
0.0
 40
0.2332103743
 40
0.4952169582
 40
0.760500392
 40
1.0
 40
1.0
 40
1.0
 40
1.0
 10
-56.4300218007
 20
10.5630460538
 30
0.0
 10
-56.4261448669
 20
10.4827400009
 30
0.0
 10
-56.3892413849
 20
10.3135384676
 30
0.0
 10
-56.2772133658
 20
10.0746097854
 30
0.0
 10
-56.1178535768
 20
9.861545503
 30
0.0
 10
-55.9827836809
 20
9.7475892803
 30
0.0
 10
-55.9114164789
 20
9.706066219
 30
0.0
  0
SPLINE
  5
361
100
AcDbEntity
  8
RACCORDO
100
AcDbSpline
 62
7
  6
CONTINUOUS
 70
0
 71
3
 72
9
 73
5
 74
0
 42
0.0000001
 43
0.0000001
 44
0.0000000001
 40
0.0
 40
0.0
 40
0.0
 40
0.0
 40
0.45378778
 40
1.0
 40
1.0
 40
1.0
 40
1.0
 10
-57.2927951817
 20
20.7609146227
 30
0.0
 10
-57.2715754337
 20
20.8108514794
 30
0.0
 10
-57.254304874
 20
20.9330047304
 30
0.0
 10
-57.2748916199
 20
21.0520153551
 30
0.0
 10
-57.2927951817
 20
21.1148227491
 30
0.0
  0
SPLINE
  5
362
100
AcDbEntity
  8
RACCORDO
100
AcDbSpline
 62
250
  6
CONTINUOUS
 70
0
 71
3
 72
9
 73
5
 74
0
 42
0.0000001
 43
0.0000001
 44
0.0000000001
 40
0.0
 40
0.0
 40
0.0
 40
0.0
 40
0.2352755969
 40
1.0
 40
1.0
 40
1.0
 40
1.0
 10
-55.8366431322
 20
43.063150242
 30
0.0
 10
-55.8401270397
 20
43.0608075715
 30
0.0
 10
-55.8539982851
 20
43.049424032
 30
0.0
 10
-55.8630271448
 20
43.03293939
 30
0.0
 10
-55.8673128296
 20
43.0199839715
 30
0.0
  0
SPLINE
  5
363
100
AcDbEntity
  8
RACCORDO
100
AcDbSpline
 62
250
  6
CONTINUOUS
 70
0
 71
3
 72
9
 73
5
 74
0
 42
0.0000001
 43
0.0000001
 44
0.0000000001
 40
0.0
 40
0.0
 40
0.0
 40
0.0
 40
0.2339657093
 40
1.0
 40
1.0
 40
1.0
 40
1.0
 10
-55.8673128296
 20
43.0199839715
 30
0.0
 10
-55.8684541343
 20
43.0165338626
 30
0.0
 10
-55.8726288115
 20
43.0015552627
 30
0.0
 10
-55.874141589
 20
42.985911082
 30
0.0
 10
-55.8742105041
 20
42.9740131486
 30
0.0
  0
SPLINE
  5
364
100
AcDbEntity
  8
RACCORDO
100
AcDbSpline
 62
250
  6
CONTINUOUS
 70
0
 71
3
 72
9
 73
5
 74
0
 42
0.0000001
 43
0.0000001
 44
0.0000000001
 40
0.0
 40
0.0
 40
0.0
 40
0.0
 40
0.2290217679
 40
1.0
 40
1.0
 40
1.0
 40
1.0
 10
-55.8742105042
 20
43.8084313522
 30
0.0
 10
-55.874148876
 20
43.7978571333
 30
0.0
 10
-55.8700545416
 20
43.7517288143
 30
0.0
 10
-55.8535665068
 20
43.7072299727
 30
0.0
 10
-55.8366431315
 20
43.6759124013
 30
0.0
  0
SPLINE
  5
365
100
AcDbEntity
  8
RACCORDO
100
AcDbSpline
 62
250
  6
CONTINUOUS
 70
0
 71
3
 72
9
 73
5
 74
0
 42
0.0000001
 43
0.0000001
 44
0.0000000001
 40
0.0
 40
0.0
 40
0.0
 40
0.0
 40
0.2352755969
 40
1.0
 40
1.0
 40
1.0
 40
1.0
 10
-55.8366431322
 20
21.5899819624
 30
0.0
 10
-55.8401270397
 20
21.5876392919
 30
0.0
 10
-55.8539982851
 20
21.5762557523
 30
0.0
 10
-55.8630271448
 20
21.5597711103
 30
0.0
 10
-55.8673128296
 20
21.5468156919
 30
0.0
  0
SPLINE
  5
366
100
AcDbEntity
  8
RACCORDO
100
AcDbSpline
 62
250
  6
CONTINUOUS
 70
0
 71
3
 72
9
 73
5
 74
0
 42
0.0000001
 43
0.0000001
 44
0.0000000001
 40
0.0
 40
0.0
 40
0.0
 40
0.0
 40
0.2339657093
 40
1.0
 40
1.0
 40
1.0
 40
1.0
 10
-55.8673128296
 20
21.5468156919
 30
0.0
 10
-55.8684541343
 20
21.5433655829
 30
0.0
 10
-55.8726288115
 20
21.5283869831
 30
0.0
 10
-55.874141589
 20
21.5127428024
 30
0.0
 10
-55.8742105041
 20
21.500844869
 30
0.0
  0
SPLINE
  5
367
100
AcDbEntity
  8
RACCORDO
100
AcDbSpline
 62
250
  6
CONTINUOUS
 70
0
 71
3
 72
9
 73
5
 74
0
 42
0.0000001
 43
0.0000001
 44
0.0000000001
 40
0.0
 40
0.0
 40
0.0
 40
0.0
 40
0.2290217679
 40
1.0
 40
1.0
 40
1.0
 40
1.0
 10
-55.8742105042
 20
22.3352630725
 30
0.0
 10
-55.874148876
 20
22.3246888537
 30
0.0
 10
-55.8700545416
 20
22.2785605346
 30
0.0
 10
-55.8535665068
 20
22.2340616931
 30
0.0
 10
-55.8366431315
 20
22.2027441217
 30
0.0
  0
SPLINE
  5
368
100
AcDbEntity
  8
RACCORDO
100
AcDbSpline
 62
250
  6
CONTINUOUS
 70
0
 71
3
 72
9
 73
5
 74
0
 42
0.0000001
 43
0.0000001
 44
0.0000000001
 40
0.0
 40
0.0
 40
0.0
 40
0.0
 40
0.4513854762
 40
1.0
 40
1.0
 40
1.0
 40
1.0
 10
-68.8930530616
 20
78.3016416848
 30
0.0
 10
-68.9060678229
 20
78.3091585311
 30
0.0
 10
-68.9412961292
 20
78.315002705
 30
0.0
 10
-68.9733266112
 20
78.302590521
 30
0.0
 10
-68.9893516138
 20
78.2938224161
 30
0.0
  0
SPLINE
  5
369
100
AcDbEntity
  8
RACCORDO
100
AcDbSpline
 62
250
  6
CONTINUOUS
 70
0
 71
3
 72
9
 73
5
 74
0
 42
0.0000001
 43
0.0000001
 44
0.0000000001
 40
0.0
 40
0.0
 40
0.0
 40
0.0
 40
0.4514171564
 40
1.0
 40
1.0
 40
1.0
 40
1.0
 10
75.3163787535
 20
-4.9630769963
 30
0.0
 10
75.303364707
 20
-4.955593426
 30
0.0
 10
75.2681805832
 20
-4.9498046505
 30
0.0
 10
75.2361949005
 20
-4.9622027973
 30
0.0
 10
75.2201903216
 20
-4.9709597273
 30
0.0
  0
SPLINE
  5
36A
100
AcDbEntity
  8
RACCORDO
100
AcDbSpline
 62
250
  6
CONTINUOUS
 70
0
 71
3
 72
9
 73
5
 74
0
 42
0.0000001
 43
0.0000001
 44
0.0000000001
 40
0.0
 40
0.0
 40
0.0
 40
0.0
 40
0.4514336678
 40
1.0
 40
1.0
 40
1.0
 40
1.0
 10
75.7699118648
 20
-5.74863131
 30
0.0
 10
75.7698839828
 20
-5.7636430292
 30
0.0
 10
75.7573055425
 20
-5.7970039822
 30
0.0
 10
75.7305792984
 20
-5.8185055276
 30
0.0
 10
75.7149954529
 20
-5.8279873537
 30
0.0
  0
SPLINE
  5
36B
100
AcDbEntity
  8
RACCORDO
100
AcDbSpline
 62
250
  6
CONTINUOUS
 70
0
 71
3
 72
9
 73
5
 74
0
 42
0.0000001
 43
0.0000001
 44
0.0000000001
 40
0.0
 40
0.0
 40
0.0
 40
0.0
 40
0.4514004039
 40
1.0
 40
1.0
 40
1.0
 40
1.0
 10
75.76991198
 20
-73.8773007033
 30
0.0
 10
75.7699139676
 20
-73.8923305406
 30
0.0
 10
75.7573626881
 20
-73.9257607272
 30
0.0
 10
75.7306001761
 20
-73.9472956365
 30
0.0
 10
75.7149954529
 20
-73.9567901658
 30
0.0
  0
SPLINE
  5
36C
100
AcDbEntity
  8
RACCORDO
100
AcDbSpline
 62
250
  6
CONTINUOUS
 70
0
 71
3
 72
9
 73
5
 74
0
 42
0.0000001
 43
0.0000001
 44
0.0000000001
 40
0.0
 40
0.0
 40
0.0
 40
0.0
 40
0.4667226318
 40
1.0
 40
1.0
 40
1.0
 40
1.0
 10
33.7514938692
 20
-41.5054580918
 30
0.0
 10
33.7415839799
 20
-41.4997354017
 30
0.0
 10
33.71675611
 20
-41.4932876687
 30
0.0
 10
33.6920778951
 20
-41.4981407601
 30
0.0
 10
33.6797077051
 20
-41.5023768992
 30
0.0
  0
SPLINE
  5
36D
100
AcDbEntity
  8
RACCORDO
100
AcDbSpline
 62
250
  6
CONTINUOUS
 70
0
 71
3
 72
9
 73
5
 74
0
 42
0.0000001
 43
0.0000001
 44
0.0000000001
 40
0.0
 40
0.0
 40
0.0
 40
0.0
 40
0.4667245256
 40
1.0
 40
1.0
 40
1.0
 40
1.0
 10
31.3617683483
 20
-40.1256605269
 30
0.0
 10
31.3518584581
 20
-40.1199367549
 30
0.0
 10
31.3270295875
 20
-40.1134872452
 30
0.0
 10
31.3023501704
 20
-40.1183410938
 30
0.0
 10
31.2899796495
 20
-40.1225778702
 30
0.0
  0
SPLINE
  5
36E
100
AcDbEntity
  8
RACCORDO
100
AcDbSpline
 62
250
  6
CONTINUOUS
 70
0
 71
3
 72
9
 73
5
 74
0
 42
0.0000001
 43
0.0000001
 44
0.0000000001
 40
0.0
 40
0.0
 40
0.0
 40
0.0
 40
0.472641581
 40
1.0
 40
1.0
 40
1.0
 40
1.0
 10
31.7938911836
 20
-40.2079101243
 30
0.0
 10
31.8139376354
 20
-40.2019659521
 30
0.0
 10
31.8600841142
 20
-40.2004868749
 30
0.0
 10
31.9017114549
 20
-40.2186989284
 30
0.0
 10
31.9214851069
 20
-40.2310796237
 30
0.0
  0
SPLINE
  5
36F
100
AcDbEntity
  8
RACCORDO
100
AcDbSpline
 62
250
  6
CONTINUOUS
 70
0
 71
3
 72
9
 73
5
 74
0
 42
0.0000001
 43
0.0000001
 44
0.0000000001
 40
0.0
 40
0.0
 40
0.0
 40
0.0
 40
0.4667226318
 40
1.0
 40
1.0
 40
1.0
 40
1.0
 10
-30.8780659313
 20
-4.1891602616
 30
0.0
 10
-30.8879758205
 20
-4.1834375715
 30
0.0
 10
-30.9128036904
 20
-4.1769898385
 30
0.0
 10
-30.9374819053
 20
-4.18184293
 30
0.0
 10
-30.9498520953
 20
-4.1860790691
 30
0.0
  0
SPLINE
  5
370
100
AcDbEntity
  8
RACCORDO
100
AcDbSpline
 62
250
  6
CONTINUOUS
 70
0
 71
3
 72
9
 73
5
 74
0
 42
0.0000001
 43
0.0000001
 44
0.0000000001
 40
0.0
 40
0.0
 40
0.0
 40
0.0
 40
0.4667245256
 40
1.0
 40
1.0
 40
1.0
 40
1.0
 10
-33.2677914522
 20
-2.8093626968
 30
0.0
 10
-33.2777013423
 20
-2.8036389248
 30
0.0
 10
-33.302530213
 20
-2.797189415
 30
0.0
 10
-33.32720963
 20
-2.8020432636
 30
0.0
 10
-33.339580151
 20
-2.8062800401
 30
0.0
  0
SPLINE
  5
371
100
AcDbEntity
  8
RACCORDO
100
AcDbSpline
 62
250
  6
CONTINUOUS
 70
0
 71
3
 72
9
 73
5
 74
0
 42
0.0000001
 43
0.0000001
 44
0.0000000001
 40
0.0
 40
0.0
 40
0.0
 40
0.0
 40
0.472641581
 40
1.0
 40
1.0
 40
1.0
 40
1.0
 10
-32.8356686168
 20
-2.8916122942
 30
0.0
 10
-32.8156221651
 20
-2.8856681219
 30
0.0
 10
-32.7694756863
 20
-2.8841890448
 30
0.0
 10
-32.7278483455
 20
-2.9024010982
 30
0.0
 10
-32.7080746935
 20
-2.9147817936
 30
0.0
  0
SPLINE
  5
372
100
AcDbEntity
  8
RACCORDO
100
AcDbSpline
 62
250
  6
CONTINUOUS
 70
0
 71
3
 72
11
 73
7
 74
0
 42
0.0000001
 43
0.0000001
 44
0.0000000001
 40
0.0
 40
0.0
 40
0.0
 40
0.0
 40
0.2181464989
 40
0.4519843095
 40
0.7112502436
 40
1.0
 40
1.0
 40
1.0
 40
1.0
 10
-69.3284242446
 20
78.3344165097
 30
0.0
 10
-69.3054780785
 20
78.3463104823
 30
0.0
 10
-69.2534101881
 20
78.3629299775
 30
0.0
 10
-69.1680874376
 20
78.3629227011
 30
0.0
 10
-69.0776262716
 20
78.3396829172
 30
0.0
 10
-69.0188695536
 20
78.3111154578
 30
0.0
 10
-68.9893516138
 20
78.2938224161
 30
0.0
  0
SPLINE
  5
373
100
AcDbEntity
  8
RACCORDO
100
AcDbSpline
 62
250
  6
CONTINUOUS
 70
0
 71
3
 72
9
 73
5
 74
0
 42
0.0000001
 43
0.0000001
 44
0.0000000001
 40
0.0
 40
0.0
 40
0.0
 40
0.0
 40
0.4667308395
 40
1.0
 40
1.0
 40
1.0
 40
1.0
 10
32.8908648649
 20
-39.9678434156
 30
0.0
 10
32.8809570276
 20
-39.9621310584
 30
0.0
 10
32.8561432258
 20
-39.9557002718
 30
0.0
 10
32.8314819458
 20
-39.9605522435
 30
0.0
 10
32.8191197473
 20
-39.9647859078
 30
0.0
  0
SPLINE
  5
374
100
AcDbEntity
  8
RACCORDO
100
AcDbSpline
 62
250
  6
CONTINUOUS
 70
0
 71
3
 72
9
 73
5
 74
0
 42
0.0000001
 43
0.0000001
 44
0.0000000001
 40
0.0
 40
0.0
 40
0.0
 40
0.0
 40
0.4667255982
 40
1.0
 40
1.0
 40
1.0
 40
1.0
 10
34.4850843448
 20
-40.8883257483
 30
0.0
 10
34.47517505
 20
-40.882605722
 30
0.0
 10
34.450350952
 20
-40.8761623585
 30
0.0
 10
34.4256772801
 20
-40.8810153606
 30
0.0
 10
34.4133093071
 20
-40.8852509798
 30
0.0
  0
SPLINE
  5
375
100
AcDbEntity
  8
RACCORDO
100
AcDbSpline
 62
250
  6
CONTINUOUS
 70
0
 71
3
 72
9
 73
5
 74
0
 42
0.0000001
 43
0.0000001
 44
0.0000000001
 40
0.0
 40
0.0
 40
0.0
 40
0.0
 40
0.453655891
 40
1.0
 40
1.0
 40
1.0
 40
1.0
 10
34.6551755764
 20
-41.1844799751
 30
0.0
 10
34.655173488
 20
-41.1989616122
 30
0.0
 10
34.6436155416
 20
-41.2310467232
 30
0.0
 10
34.6184935094
 20
-41.2523086038
 30
0.0
 10
34.6038122906
 20
-41.2617229904
 30
0.0
  0
SPLINE
  5
376
100
AcDbEntity
  8
RACCORDO
100
AcDbSpline
 62
250
  6
CONTINUOUS
 70
0
 71
3
 72
9
 73
5
 74
0
 42
0.0000001
 43
0.0000001
 44
0.0000000001
 40
0.0
 40
0.0
 40
0.0
 40
0.0
 40
0.4677581197
 40
1.0
 40
1.0
 40
1.0
 40
1.0
 10
-52.3412955244
 20
27.2944833205
 30
0.0
 10
-52.3650440083
 20
27.3081827161
 30
0.0
 10
-52.4242132446
 20
27.3239406864
 30
0.0
 10
-52.4833123183
 20
27.3129486372
 30
0.0
 10
-52.5129291404
 20
27.3031487806
 30
0.0
  0
SPLINE
  5
377
100
AcDbEntity
  8
RACCORDO
100
AcDbSpline
 62
250
  6
CONTINUOUS
 70
0
 71
3
 72
9
 73
5
 74
0
 42
0.0000001
 43
0.0000001
 44
0.0000000001
 40
0.0
 40
0.0
 40
0.0
 40
0.0
 40
0.4536557238
 40
1.0
 40
1.0
 40
1.0
 40
1.0
 10
34.6551755765
 20
-41.7206703337
 30
0.0
 10
34.6551736459
 20
-41.7351520711
 30
0.0
 10
34.6436158455
 20
-41.7672375512
 30
0.0
 10
34.6184936213
 20
-41.7884996194
 30
0.0
 10
34.6038122906
 20
-41.7979140771
 30
0.0
  0
SPLINE
  5
378
100
AcDbEntity
  8
RACCORDO
100
AcDbSpline
 62
250
  6
CONTINUOUS
 70
0
 71
3
 72
9
 73
5
 74
0
 42
0.0000001
 43
0.0000001
 44
0.0000000001
 40
0.0
 40
0.0
 40
0.0
 40
0.0
 40
0.2401064452
 40
1.0
 40
1.0
 40
1.0
 40
1.0
 10
-30.2162504933
 20
-3.5689531496
 30
0.0
 10
-30.2107608078
 20
-3.5719581441
 30
0.0
 10
-30.188358136
 20
-3.5853091674
 30
0.0
 10
-30.1678378444
 20
-3.6017245236
 30
0.0
 10
-30.1534589674
 20
-3.615345984
 30
0.0
  0
SPLINE
  5
379
100
AcDbEntity
  8
RACCORDO
100
AcDbSpline
 62
250
  6
CONTINUOUS
 70
0
 71
3
 72
9
 73
5
 74
0
 42
0.0000001
 43
0.0000001
 44
0.0000000001
 40
0.0
 40
0.0
 40
0.0
 40
0.0
 40
0.2451596318
 40
1.0
 40
1.0
 40
1.0
 40
1.0
 10
-30.1534589674
 20
-3.615345984
 30
0.0
 10
-30.1497705337
 20
-3.6188401271
 30
0.0
 10
-30.1350340663
 20
-3.633416222
 30
0.0
 10
-30.1215300175
 20
-3.6492274223
 30
0.0
 10
-30.1120624685
 20
-3.6616805541
 30
0.0
  0
SPLINE
  5
37A
100
AcDbEntity
  8
RACCORDO
100
AcDbSpline
 62
250
  6
CONTINUOUS
 70
0
 71
3
 72
9
 73
5
 74
0
 42
0.0000001
 43
0.0000001
 44
0.0000000001
 40
0.0
 40
0.0
 40
0.0
 40
0.0
 40
0.2471788624
 40
1.0
 40
1.0
 40
1.0
 40
1.0
 10
-30.1120624685
 20
-3.6616805541
 30
0.0
 10
-30.1055724352
 20
-3.6702172135
 30
0.0
 10
-30.0806681958
 20
-3.7057644713
 30
0.0
 10
-30.0611274557
 20
-3.7450415331
 30
0.0
 10
-30.04983635
 20
-3.7756879988
 30
0.0
  0
SPLINE
  5
37B
100
AcDbEntity
  8
RACCORDO
100
AcDbSpline
 62
250
  6
CONTINUOUS
 70
0
 71
3
 72
9
 73
5
 74
0
 42
0.0000001
 43
0.0000001
 44
0.0000000001
 40
0.0
 40
0.0
 40
0.0
 40
0.0
 40
0.2572793954
 40
1.0
 40
1.0
 40
1.0
 40
1.0
 10
-30.04983635
 20
-3.7756879988
 30
0.0
 10
-30.045996661
 20
-3.7861097324
 30
0.0
 10
-30.0325924411
 20
-3.8271467684
 30
0.0
 10
-30.0253259712
 20
-3.8702993419
 30
0.0
 10
-30.0243098461
 20
-3.9023459407
 30
0.0
  0
SPLINE
  5
37C
100
AcDbEntity
  8
RACCORDO
100
AcDbSpline
 62
250
  6
CONTINUOUS
 70
0
 71
3
 72
9
 73
5
 74
0
 42
0.0000001
 43
0.0000001
 44
0.0000000001
 40
0.0
 40
0.0
 40
0.0
 40
0.0
 40
0.2462887049
 40
1.0
 40
1.0
 40
1.0
 40
1.0
 10
-30.8403656724
 20
-4.210865679
 30
0.0
 10
-30.8404820603
 20
-4.2054159215
 30
0.0
 10
-30.8414594667
 20
-4.1833010552
 30
0.0
 10
-30.8444246806
 20
-4.1612822787
 30
0.0
 10
-30.8476636653
 20
-4.1449181868
 30
0.0
  0
SPLINE
  5
37D
100
AcDbEntity
  8
RACCORDO
100
AcDbSpline
 62
250
  6
CONTINUOUS
 70
0
 71
3
 72
9
 73
5
 74
0
 42
0.0000001
 43
0.0000001
 44
0.0000000001
 40
0.0
 40
0.0
 40
0.0
 40
0.0
 40
0.2652759831
 40
1.0
 40
1.0
 40
1.0
 40
1.0
 10
-30.8534525817
 20
-4.1198536749
 30
0.0
 10
-30.8600757964
 20
-4.0947883338
 30
0.0
 10
-30.8934549968
 20
-4.0031683468
 30
0.0
 10
-30.9611265949
 20
-3.9206559122
 30
0.0
 10
-31.0244843538
 20
-3.8868657554
 30
0.0
  0
SPLINE
  5
37E
100
AcDbEntity
  8
RACCORDO
100
AcDbSpline
 62
250
  6
CONTINUOUS
 70
0
 71
3
 72
10
 73
6
 74
0
 42
0.0000001
 43
0.0000001
 44
0.0000000001
 40
0.0
 40
0.0
 40
0.0
 40
0.0
 40
0.5432313216
 40
0.7786934396
 40
1.0
 40
1.0
 40
1.0
 40
1.0
 10
-30.0257475099
 20
-4.4816162469
 30
0.0
 10
-30.0254839639
 20
-4.508983525
 30
0.0
 10
-30.0309814635
 20
-4.5494163965
 30
0.0
 10
-30.056362372
 20
-4.5935855902
 30
0.0
 10
-30.07356029
 20
-4.6095505736
 30
0.0
 10
-30.0828554266
 20
-4.6157080997
 30
0.0
  0
SPLINE
  5
37F
100
AcDbEntity
  8
RACCORDO
100
AcDbSpline
 62
250
  6
CONTINUOUS
 70
0
 71
3
 72
10
 73
6
 74
0
 42
0.0000001
 43
0.0000001
 44
0.0000000001
 40
0.0
 40
0.0
 40
0.0
 40
0.0
 40
0.5432313216
 40
0.7786934396
 40
1.0
 40
1.0
 40
1.0
 40
1.0
 10
34.6038122906
 20
-41.7979140771
 30
0.0
 10
34.6040758365
 20
-41.8252813551
 30
0.0
 10
34.5985783369
 20
-41.8657142267
 30
0.0
 10
34.5731974285
 20
-41.9098834204
 30
0.0
 10
34.5559995104
 20
-41.9258484038
 30
0.0
 10
34.5467043739
 20
-41.9320059298
 30
0.0
  0
SPLINE
  5
380
100
AcDbEntity
  8
RACCORDO
100
AcDbSpline
 62
250
  6
CONTINUOUS
 70
0
 71
3
 72
8
 73
4
 74
0
 42
0.0000001
 43
0.0000001
 44
0.0000000001
 40
0.0
 40
0.0
 40
0.0
 40
0.0
 40
1.0
 40
1.0
 40
1.0
 40
1.0
 10
-52.3412803437
 20
45.8164030692
 30
0.0
 10
-52.3557525814
 20
45.8247511986
 30
0.0
 10
-52.3716933839
 20
45.8308891317
 30
0.0
 10
-52.3879846044
 20
45.8345949462
 30
0.0
  0
SPLINE
  5
381
100
AcDbEntity
  8
RACCORDO
100
AcDbSpline
 62
250
  6
CONTINUOUS
 70
0
 71
3
 72
9
 73
5
 74
0
 42
0.0000001
 43
0.0000001
 44
0.0000000001
 40
0.0
 40
0.0
 40
0.0
 40
0.0
 40
0.2401064452
 40
1.0
 40
1.0
 40
1.0
 40
1.0
 10
34.4133093071
 20
-40.8852509798
 30
0.0
 10
34.4187989927
 20
-40.8882559742
 30
0.0
 10
34.4412016644
 20
-40.9016069975
 30
0.0
 10
34.4617219561
 20
-40.9180223538
 30
0.0
 10
34.476100833
 20
-40.9316438141
 30
0.0
  0
SPLINE
  5
382
100
AcDbEntity
  8
RACCORDO
100
AcDbSpline
 62
250
  6
CONTINUOUS
 70
0
 71
3
 72
9
 73
5
 74
0
 42
0.0000001
 43
0.0000001
 44
0.0000000001
 40
0.0
 40
0.0
 40
0.0
 40
0.0
 40
0.2451596318
 40
1.0
 40
1.0
 40
1.0
 40
1.0
 10
34.476100833
 20
-40.9316438141
 30
0.0
 10
34.4797892668
 20
-40.9351379572
 30
0.0
 10
34.4945257341
 20
-40.9497140522
 30
0.0
 10
34.508029783
 20
-40.9655252525
 30
0.0
 10
34.5174973319
 20
-40.9779783843
 30
0.0
  0
SPLINE
  5
383
100
AcDbEntity
  8
RACCORDO
100
AcDbSpline
 62
250
  6
CONTINUOUS
 70
0
 71
3
 72
9
 73
5
 74
0
 42
0.0000001
 43
0.0000001
 44
0.0000000001
 40
0.0
 40
0.0
 40
0.0
 40
0.0
 40
0.2471788624
 40
1.0
 40
1.0
 40
1.0
 40
1.0
 10
34.5174973319
 20
-40.9779783843
 30
0.0
 10
34.5239873652
 20
-40.9865150437
 30
0.0
 10
34.5488916046
 20
-41.0220623014
 30
0.0
 10
34.5684323448
 20
-41.0613393633
 30
0.0
 10
34.5797234505
 20
-41.091985829
 30
0.0
  0
SPLINE
  5
384
100
AcDbEntity
  8
RACCORDO
100
AcDbSpline
 62
250
  6
CONTINUOUS
 70
0
 71
3
 72
9
 73
5
 74
0
 42
0.0000001
 43
0.0000001
 44
0.0000000001
 40
0.0
 40
0.0
 40
0.0
 40
0.0
 40
0.2572793954
 40
1.0
 40
1.0
 40
1.0
 40
1.0
 10
34.5797234505
 20
-41.091985829
 30
0.0
 10
34.5835631394
 20
-41.1024075625
 30
0.0
 10
34.5969673594
 20
-41.1434445986
 30
0.0
 10
34.6042338293
 20
-41.186597172
 30
0.0
 10
34.6052499544
 20
-41.2186437709
 30
0.0
  0
SPLINE
  5
385
100
AcDbEntity
  8
RACCORDO
100
AcDbSpline
 62
250
  6
CONTINUOUS
 70
0
 71
3
 72
9
 73
5
 74
0
 42
0.0000001
 43
0.0000001
 44
0.0000000001
 40
0.0
 40
0.0
 40
0.0
 40
0.0
 40
0.2462887049
 40
1.0
 40
1.0
 40
1.0
 40
1.0
 10
33.7891941281
 20
-41.5271635091
 30
0.0
 10
33.7890777401
 20
-41.5217137516
 30
0.0
 10
33.7881003337
 20
-41.4995988853
 30
0.0
 10
33.7851351199
 20
-41.4775801088
 30
0.0
 10
33.7818961352
 20
-41.4612160169
 30
0.0
  0
SPLINE
  5
386
100
AcDbEntity
  8
RACCORDO
100
AcDbSpline
 62
250
  6
CONTINUOUS
 70
0
 71
3
 72
9
 73
5
 74
0
 42
0.0000001
 43
0.0000001
 44
0.0000000001
 40
0.0
 40
0.0
 40
0.0
 40
0.0
 40
0.2652759831
 40
1.0
 40
1.0
 40
1.0
 40
1.0
 10
33.7761072187
 20
-41.4361515051
 30
0.0
 10
33.7694840041
 20
-41.4110861639
 30
0.0
 10
33.7361048037
 20
-41.3194661769
 30
0.0
 10
33.6684332056
 20
-41.2369537423
 30
0.0
 10
33.6050754467
 20
-41.2031635856
 30
0.0
  0
SPLINE
  5
387
100
AcDbEntity
  8
RACCORDO
100
AcDbSpline
 62
250
  6
CONTINUOUS
 70
0
 71
3
 72
9
 73
5
 74
0
 42
0.0000001
 43
0.0000001
 44
0.0000000001
 40
0.0
 40
0.0
 40
0.0
 40
0.0
 40
0.4689262467
 40
1.0
 40
1.0
 40
1.0
 40
1.0
 10
-32.7080746935
 20
-2.9147817936
 30
0.0
 10
-32.741072035
 20
-2.9245693088
 30
0.0
 10
-32.8145934151
 20
-2.9342525007
 30
0.0
 10
-32.8880868557
 20
-2.9327302173
 30
0.0
 10
-32.9269479909
 20
-2.9296907229
 30
0.0
  0
SPLINE
  5
388
100
AcDbEntity
  8
RACCORDO
100
AcDbSpline
 62
250
  6
CONTINUOUS
 70
0
 71
3
 72
9
 73
5
 74
0
 42
0.0000001
 43
0.0000001
 44
0.0000000001
 40
0.0
 40
0.0
 40
0.0
 40
0.0
 40
0.2519992622
 40
1.0
 40
1.0
 40
1.0
 40
1.0
 10
-32.9269479909
 20
-2.9296907229
 30
0.0
 10
-32.9483023259
 20
-2.9280205097
 30
0.0
 10
-33.032798946
 20
-2.9186479896
 30
0.0
 10
-33.116248793
 20
-2.8994140009
 30
0.0
 10
-33.1765630845
 20
-2.8793026743
 30
0.0
  0
SPLINE
  5
389
100
AcDbEntity
  8
RACCORDO
100
AcDbSpline
 62
250
  6
CONTINUOUS
 70
0
 71
3
 72
9
 73
5
 74
0
 42
0.0000001
 43
0.0000001
 44
0.0000000001
 40
0.0
 40
0.0
 40
0.0
 40
0.0
 40
0.2619809485
 40
1.0
 40
1.0
 40
1.0
 40
1.0
 10
-33.1765630845
 20
-2.8793026743
 30
0.0
 10
-33.1891927743
 20
-2.8750914035
 30
0.0
 10
-33.2370674646
 20
-2.8580358455
 30
0.0
 10
-33.2835047808
 20
-2.8369217709
 30
0.0
 10
-33.3165269898
 20
-2.8191419562
 30
0.0
  0
SPLINE
  5
38A
100
AcDbEntity
  8
RACCORDO
100
AcDbSpline
 62
250
  6
CONTINUOUS
 70
0
 71
3
 72
14
 73
10
 74
0
 42
0.0000001
 43
0.0000001
 44
0.0000000001
 40
0.0
 40
0.0
 40
0.0
 40
0.0
 40
0.3119190333
 40
0.4397391139
 40
0.550354074
 40
0.6501434837
 40
0.7497612503
 40
0.8623023962
 40
1.0
 40
1.0
 40
1.0
 40
1.0
 10
-30.9719287694
 20
-4.1728836232
 30
0.0
 10
-31.006001372
 20
-4.1517599756
 30
0.0
 10
-31.0525902182
 20
-4.1179872289
 30
0.0
 10
-31.0962394019
 20
-4.0616809074
 30
0.0
 10
-31.1136519047
 20
-4.021155956
 30
0.0
 10
-31.1161241431
 20
-3.9803825045
 30
0.0
 10
-31.1016222737
 20
-3.9417360644
 30
0.0
 10
-31.0698771409
 20
-3.9085095179
 30
0.0
 10
-31.040954735
 20
-3.8933410418
 30
0.0
 10
-31.0244843538
 20
-3.8868657554
 30
0.0
  0
SPLINE
  5
38B
100
AcDbEntity
  8
RACCORDO
100
AcDbSpline
 62
250
  6
CONTINUOUS
 70
0
 71
3
 72
9
 73
5
 74
0
 42
0.0000001
 43
0.0000001
 44
0.0000000001
 40
0.0
 40
0.0
 40
0.0
 40
0.0
 40
0.4689262467
 40
1.0
 40
1.0
 40
1.0
 40
1.0
 10
31.921485107
 20
-40.2310796237
 30
0.0
 10
31.8884877655
 20
-40.240867139
 30
0.0
 10
31.8149663853
 20
-40.2505503309
 30
0.0
 10
31.7414729447
 20
-40.2490280474
 30
0.0
 10
31.7026118096
 20
-40.2459885531
 30
0.0
  0
SPLINE
  5
38C
100
AcDbEntity
  8
RACCORDO
100
AcDbSpline
 62
250
  6
CONTINUOUS
 70
0
 71
3
 72
9
 73
5
 74
0
 42
0.0000001
 43
0.0000001
 44
0.0000000001
 40
0.0
 40
0.0
 40
0.0
 40
0.0
 40
0.2519992622
 40
1.0
 40
1.0
 40
1.0
 40
1.0
 10
31.7026118096
 20
-40.2459885531
 30
0.0
 10
31.6812574745
 20
-40.2443183399
 30
0.0
 10
31.5967608545
 20
-40.2349458197
 30
0.0
 10
31.5133110074
 20
-40.215711831
 30
0.0
 10
31.452996716
 20
-40.1956005045
 30
0.0
  0
SPLINE
  5
38D
100
AcDbEntity
  8
RACCORDO
100
AcDbSpline
 62
250
  6
CONTINUOUS
 70
0
 71
3
 72
9
 73
5
 74
0
 42
0.0000001
 43
0.0000001
 44
0.0000000001
 40
0.0
 40
0.0
 40
0.0
 40
0.0
 40
0.2619809485
 40
1.0
 40
1.0
 40
1.0
 40
1.0
 10
31.452996716
 20
-40.1956005045
 30
0.0
 10
31.4403670262
 20
-40.1913892337
 30
0.0
 10
31.3924923359
 20
-40.1743336756
 30
0.0
 10
31.3460550197
 20
-40.153219601
 30
0.0
 10
31.3130328106
 20
-40.1354397864
 30
0.0
  0
SPLINE
  5
38E
100
AcDbEntity
  8
RACCORDO
100
AcDbSpline
 62
250
  6
CONTINUOUS
 70
0
 71
3
 72
14
 73
10
 74
0
 42
0.0000001
 43
0.0000001
 44
0.0000000001
 40
0.0
 40
0.0
 40
0.0
 40
0.0
 40
0.3119190333
 40
0.4397391139
 40
0.550354074
 40
0.6501434837
 40
0.7497612503
 40
0.8623023962
 40
1.0
 40
1.0
 40
1.0
 40
1.0
 10
33.657631031
 20
-41.4891814534
 30
0.0
 10
33.6235584284
 20
-41.4680578057
 30
0.0
 10
33.5769695822
 20
-41.4342850591
 30
0.0
 10
33.5333203985
 20
-41.3779787376
 30
0.0
 10
33.5159078958
 20
-41.3374537861
 30
0.0
 10
33.5134356574
 20
-41.2966803346
 30
0.0
 10
33.5279375267
 20
-41.2580338946
 30
0.0
 10
33.5596826596
 20
-41.2248073481
 30
0.0
 10
33.5886050654
 20
-41.209638872
 30
0.0
 10
33.6050754467
 20
-41.2031635855
 30
0.0
  0
SPLINE
  5
38F
100
AcDbEntity
  8
RACCORDO
100
AcDbSpline
 62
7
  6
CONTINUOUS
 70
0
 71
3
 72
9
 73
5
 74
0
 42
0.0000001
 43
0.0000001
 44
0.0000000001
 40
0.0
 40
0.0
 40
0.0
 40
0.0
 40
0.2831516702
 40
1.0
 40
1.0
 40
1.0
 40
1.0
 10
-53.0965151269
 20
46.0762475311
 30
0.0
 10
-53.0968548529
 20
46.0769983707
 30
0.0
 10
-53.0981767673
 20
46.079579874
 30
0.0
 10
-53.1002082626
 20
46.0818916248
 30
0.0
 10
-53.1020154338
 20
46.0829343228
 30
0.0
  0
SPLINE
  5
390
100
AcDbEntity
  8
RACCORDO
100
AcDbSpline
 62
250
  6
CONTINUOUS
 70
0
 71
3
 72
8
 73
4
 74
0
 42
0.0000001
 43
0.0000001
 44
0.0000000001
 40
0.0
 40
0.0
 40
0.0
 40
0.0
 40
1.0
 40
1.0
 40
1.0
 40
1.0
 10
-52.6087314535
 20
45.9620514102
 30
0.0
 10
-52.6197557477
 20
45.9684391852
 30
0.0
 10
-52.6318451195
 20
45.9732649564
 30
0.0
 10
-52.6442488346
 20
45.9761781305
 30
0.0
  0
SPLINE
  5
391
100
AcDbEntity
  8
RACCORDO
100
AcDbSpline
 62
250
  6
CONTINUOUS
 70
0
 71
3
 72
9
 73
5
 74
0
 42
0.0000001
 43
0.0000001
 44
0.0000000001
 40
0.0
 40
0.0
 40
0.0
 40
0.0
 40
0.570327809
 40
1.0
 40
1.0
 40
1.0
 40
1.0
 10
-52.3996703641
 20
44.8089995469
 30
0.0
 10
-52.3966894223
 20
44.7949754393
 30
0.0
 10
-52.3937071443
 20
44.7694025171
 30
0.0
 10
-52.4050677804
 20
44.7444937809
 30
0.0
 10
-52.4132701511
 20
44.7374657429
 30
0.0
  0
SPLINE
  5
392
100
AcDbEntity
  8
RACCORDO
100
AcDbSpline
 62
250
  6
CONTINUOUS
 70
0
 71
3
 72
9
 73
5
 74
0
 42
0.0000001
 43
0.0000001
 44
0.0000000001
 40
0.0
 40
0.0
 40
0.0
 40
0.0
 40
0.5493426898
 40
1.0
 40
1.0
 40
1.0
 40
1.0
 10
-52.2363534558
 20
45.1457820911
 30
0.0
 10
-52.2204381772
 20
45.1552978716
 30
0.0
 10
-52.1931244694
 20
45.1769119197
 30
0.0
 10
-52.1802289044
 20
45.2107875385
 30
0.0
 10
-52.1802302642
 20
45.2259994982
 30
0.0
  0
SPLINE
  5
393
100
AcDbEntity
  8
RACCORDO
100
AcDbSpline
 62
250
  6
CONTINUOUS
 70
0
 71
3
 72
9
 73
5
 74
0
 42
0.0000001
 43
0.0000001
 44
0.0000000001
 40
0.0
 40
0.0
 40
0.0
 40
0.0
 40
0.5493362849
 40
1.0
 40
1.0
 40
1.0
 40
1.0
 10
-52.2363534558
 20
45.4262765926
 30
0.0
 10
-52.2204421509
 20
45.435789997
 30
0.0
 10
-52.1931353795
 20
45.4573978034
 30
0.0
 10
-52.1802346281
 20
45.4912602166
 30
0.0
 10
-52.1802302667
 20
45.506468771
 30
0.0
  0
SPLINE
  5
394
100
AcDbEntity
  8
RACCORDO
100
AcDbSpline
 62
250
  6
CONTINUOUS
 70
0
 71
3
 72
9
 73
5
 74
0
 42
0.0000001
 43
0.0000001
 44
0.0000000001
 40
0.0
 40
0.0
 40
0.0
 40
0.0
 40
0.506292358
 40
1.0
 40
1.0
 40
1.0
 40
1.0
 10
-52.3252326019
 20
45.5737795423
 30
0.0
 10
-52.3141547745
 20
45.599000864
 30
0.0
 10
-52.3007003175
 20
45.6528990574
 30
0.0
 10
-52.3058472711
 20
45.7083691163
 30
0.0
 10
-52.3133423923
 20
45.7341644893
 30
0.0
  0
SPLINE
  5
395
100
AcDbEntity
  8
RACCORDO
100
AcDbSpline
 62
250
  6
CONTINUOUS
 70
0
 71
3
 72
9
 73
5
 74
0
 42
0.0000001
 43
0.0000001
 44
0.0000000001
 40
0.0
 40
0.0
 40
0.0
 40
0.0
 40
0.5158066174
 40
1.0
 40
1.0
 40
1.0
 40
1.0
 10
-52.3133423923
 20
45.7341644893
 30
0.0
 10
-52.3186430806
 20
45.7524074543
 30
0.0
 10
-52.3338430065
 20
45.7866267596
 30
0.0
 10
-52.359304378
 20
45.8143874878
 30
0.0
 10
-52.3735681559
 20
45.8250909758
 30
0.0
  0
SPLINE
  5
396
100
AcDbEntity
  8
RACCORDO
100
AcDbSpline
 62
250
  6
CONTINUOUS
 70
0
 71
3
 72
11
 73
7
 74
0
 42
0.0000001
 43
0.0000001
 44
0.0000000001
 40
0.0
 40
0.0
 40
0.0
 40
0.0
 40
0.2667310296
 40
0.5280856995
 40
0.7733419461
 40
1.0
 40
1.0
 40
1.0
 40
1.0
 10
-52.8631408428
 20
45.6947900422
 30
0.0
 10
-52.8527477736
 20
45.7184523478
 30
0.0
 10
-52.8396310513
 20
45.7689496468
 30
0.0
 10
-52.8442299023
 20
45.8450091845
 30
0.0
 10
-52.8724817496
 20
45.9119007107
 30
0.0
 10
-52.9068410352
 20
45.9446815438
 30
0.0
 10
-52.9258928453
 20
45.9556054461
 30
0.0
  0
SPLINE
  5
397
100
AcDbEntity
  8
RACCORDO
100
AcDbSpline
 62
250
  6
CONTINUOUS
 70
0
 71
3
 72
11
 73
7
 74
0
 42
0.0000001
 43
0.0000001
 44
0.0000000001
 40
0.0
 40
0.0
 40
0.0
 40
0.0
 40
0.2372268473
 40
0.4994453217
 40
0.7619661536
 40
1.0
 40
1.0
 40
1.0
 40
1.0
 10
-53.1770908283
 20
45.6251793608
 30
0.0
 10
-53.1769192003
 20
45.648400755
 30
0.0
 10
-53.1854056443
 20
45.6973973289
 30
0.0
 10
-53.2159121302
 20
45.7661024345
 30
0.0
 10
-53.2608215825
 20
45.8264853139
 30
0.0
 10
-53.2993749037
 20
45.8580470692
 30
0.0
 10
-53.3197246698
 20
45.8693971703
 30
0.0
  0
SPLINE
  5
398
100
AcDbEntity
  8
RACCORDO
100
AcDbSpline
 62
250
  6
CONTINUOUS
 70
0
 71
3
 72
10
 73
6
 74
0
 42
0.0000001
 43
0.0000001
 44
0.0000000001
 40
0.0
 40
0.0
 40
0.0
 40
0.0
 40
0.6810296868
 40
0.8791641691
 40
1.0
 40
1.0
 40
1.0
 40
1.0
 10
-54.049936902
 20
48.8376335981
 30
0.0
 10
-54.0434544344
 20
48.8306576807
 30
0.0
 10
-54.0352989609
 20
48.8211924742
 30
0.0
 10
-54.0287567433
 20
48.808901051
 30
0.0
 10
-54.0287333744
 20
48.8038742573
 30
0.0
 10
-54.02971556
 20
48.802499389
 30
0.0
  0
SPLINE
  5
399
100
AcDbEntity
  8
RACCORDO
100
AcDbSpline
 62
250
  6
CONTINUOUS
 70
0
 71
3
 72
9
 73
5
 74
0
 42
0.0000001
 43
0.0000001
 44
0.0000000001
 40
0.0
 40
0.0
 40
0.0
 40
0.0
 40
0.5500821771
 40
1.0
 40
1.0
 40
1.0
 40
1.0
 10
-53.9602682198
 20
49.090962758
 30
0.0
 10
-53.9440403969
 20
49.1004974762
 30
0.0
 10
-53.9161722923
 20
49.1221858697
 30
0.0
 10
-53.9029266922
 20
49.1565076142
 30
0.0
 10
-53.9029273891
 20
49.1719020028
 30
0.0
  0
SPLINE
  5
39A
100
AcDbEntity
  8
RACCORDO
100
AcDbSpline
 62
250
  6
CONTINUOUS
 70
0
 71
3
 72
9
 73
5
 74
0
 42
0.0000001
 43
0.0000001
 44
0.0000000001
 40
0.0
 40
0.0
 40
0.0
 40
0.0
 40
0.5500764553
 40
1.0
 40
1.0
 40
1.0
 40
1.0
 10
-53.9602682198
 20
49.3714572595
 30
0.0
 10
-53.9440438962
 20
49.3809899218
 30
0.0
 10
-53.9161819262
 20
49.402672916
 30
0.0
 10
-53.9029317595
 20
49.4369830098
 30
0.0
 10
-53.9029273917
 20
49.4523744341
 30
0.0
  0
SPLINE
  5
39B
100
AcDbEntity
  8
RACCORDO
100
AcDbSpline
 62
250
  6
CONTINUOUS
 70
0
 71
3
 72
10
 73
6
 74
0
 42
0.0000001
 43
0.0000001
 44
0.0000000001
 40
0.0
 40
0.0
 40
0.0
 40
0.0
 40
0.2510715645
 40
0.5155165424
 40
1.0
 40
1.0
 40
1.0
 40
1.0
 10
-54.1250359138
 20
49.5137823835
 30
0.0
 10
-54.1208791806
 20
49.5380666687
 30
0.0
 10
-54.1210829104
 20
49.5897101355
 30
0.0
 10
-54.1475983931
 20
49.6843307036
 30
0.0
 10
-54.1957729216
 20
49.7482762173
 30
0.0
 10
-54.2370768198
 20
49.7718183218
 30
0.0
  0
SPLINE
  5
39C
100
AcDbEntity
  8
RACCORDO
100
AcDbSpline
 62
250
  6
CONTINUOUS
 70
0
 71
3
 72
9
 73
5
 74
0
 42
0.0000001
 43
0.0000001
 44
0.0000000001
 40
0.0
 40
0.0
 40
0.0
 40
0.0
 40
0.5487416309
 40
1.0
 40
1.0
 40
1.0
 40
1.0
 10
-53.1770908283
 20
46.7731802952
 30
0.0
 10
-53.1769510624
 20
46.754436977
 30
0.0
 10
-53.1813250181
 20
46.7194544106
 30
0.0
 10
-53.2038703596
 20
46.6905325302
 30
0.0
 10
-53.2170412358
 20
46.682525032
 30
0.0
  0
SPLINE
  5
39D
100
AcDbEntity
  8
RACCORDO
100
AcDbSpline
 62
250
  6
CONTINUOUS
 70
0
 71
3
 72
9
 73
5
 74
0
 42
0.0000001
 43
0.0000001
 44
0.0000000001
 40
0.0
 40
0.0
 40
0.0
 40
0.0
 40
0.6850900124
 40
1.0
 40
1.0
 40
1.0
 40
1.0
 10
-52.8631408428
 20
47.0789924034
 30
0.0
 10
-52.8567728616
 20
47.0721090325
 30
0.0
 10
-52.8486224014
 20
47.063281699
 30
0.0
 10
-52.8409748365
 20
47.0476252688
 30
0.0
 10
-52.8434548571
 20
47.0440998486
 30
0.0
  0
SPLINE
  5
39E
100
AcDbEntity
  8
RACCORDO
100
AcDbSpline
 62
250
  6
CONTINUOUS
 70
0
 71
3
 72
9
 73
5
 74
0
 42
0.0000001
 43
0.0000001
 44
0.0000000001
 40
0.0
 40
0.0
 40
0.0
 40
0.0
 40
0.6851664348
 40
1.0
 40
1.0
 40
1.0
 40
1.0
 10
-52.3252326019
 20
47.8432359714
 30
0.0
 10
-52.3188632964
 20
47.8363511689
 30
0.0
 10
-52.310711318
 20
47.8275269408
 30
0.0
 10
-52.3030658325
 20
47.8118610265
 30
0.0
 10
-52.3055496771
 20
47.8083390709
 30
0.0
  0
SPLINE
  5
39F
100
AcDbEntity
  8
RACCORDO
100
AcDbSpline
 62
250
  6
CONTINUOUS
 70
0
 71
3
 72
9
 73
5
 74
0
 42
0.0000001
 43
0.0000001
 44
0.0000000001
 40
0.0
 40
0.0
 40
0.0
 40
0.0
 40
0.5493426898
 40
1.0
 40
1.0
 40
1.0
 40
1.0
 10
-52.2363534558
 20
48.0970209995
 30
0.0
 10
-52.2204381772
 20
48.10653678
 30
0.0
 10
-52.1931244694
 20
48.1281508282
 30
0.0
 10
-52.1802289044
 20
48.162026447
 30
0.0
 10
-52.1802302642
 20
48.1772384067
 30
0.0
  0
SPLINE
  5
3A0
100
AcDbEntity
  8
RACCORDO
100
AcDbSpline
 62
250
  6
CONTINUOUS
 70
0
 71
3
 72
9
 73
5
 74
0
 42
0.0000001
 43
0.0000001
 44
0.0000000001
 40
0.0
 40
0.0
 40
0.0
 40
0.0
 40
0.5493367522
 40
1.0
 40
1.0
 40
1.0
 40
1.0
 10
-52.2363534558
 20
48.377515501
 30
0.0
 10
-52.2204418622
 20
48.3870290784
 30
0.0
 10
-52.193134587
 20
48.4086373386
 30
0.0
 10
-52.180234212
 20
48.4425007112
 30
0.0
 10
-52.1802302662
 20
48.4577095131
 30
0.0
  0
SPLINE
  5
3A1
100
AcDbEntity
  8
RACCORDO
100
AcDbSpline
 62
250
  6
CONTINUOUS
 70
0
 71
3
 72
10
 73
6
 74
0
 42
0.0000001
 43
0.0000001
 44
0.0000000001
 40
0.0
 40
0.0
 40
0.0
 40
0.0
 40
0.2508076981
 40
0.5149539274
 40
1.0
 40
1.0
 40
1.0
 40
1.0
 10
-52.3996703641
 20
48.5190029596
 30
0.0
 10
-52.3955585563
 20
48.5432642465
 30
0.0
 10
-52.3958888592
 20
48.5948502269
 30
0.0
 10
-52.422809011
 20
48.6893646694
 30
0.0
 10
-52.4714550204
 20
48.7529804584
 30
0.0
 10
-52.5129291404
 20
48.7763170603
 30
0.0
  0
SPLINE
  5
3A2
100
AcDbEntity
  8
RACCORDO
100
AcDbSpline
 62
250
  6
CONTINUOUS
 70
0
 71
3
 72
9
 73
5
 74
0
 42
0.0000001
 43
0.0000001
 44
0.0000000001
 40
0.0
 40
0.0
 40
0.0
 40
0.0
 40
0.5487416309
 40
1.0
 40
1.0
 40
1.0
 40
1.0
 10
-53.1770908283
 20
25.3000120156
 30
0.0
 10
-53.1769510624
 20
25.2812686974
 30
0.0
 10
-53.1813250181
 20
25.2462861309
 30
0.0
 10
-53.2038703596
 20
25.2173642505
 30
0.0
 10
-53.2170412358
 20
25.2093567524
 30
0.0
  0
SPLINE
  5
3A3
100
AcDbEntity
  8
RACCORDO
100
AcDbSpline
 62
250
  6
CONTINUOUS
 70
0
 71
3
 72
9
 73
5
 74
0
 42
0.0000001
 43
0.0000001
 44
0.0000000001
 40
0.0
 40
0.0
 40
0.0
 40
0.0
 40
0.6850900124
 40
1.0
 40
1.0
 40
1.0
 40
1.0
 10
-52.8631408428
 20
25.6058241238
 30
0.0
 10
-52.8567728616
 20
25.5989407529
 30
0.0
 10
-52.8486224014
 20
25.5901134194
 30
0.0
 10
-52.8409748365
 20
25.5744569892
 30
0.0
 10
-52.8434548571
 20
25.5709315689
 30
0.0
  0
SPLINE
  5
3A4
100
AcDbEntity
  8
RACCORDO
100
AcDbSpline
 62
250
  6
CONTINUOUS
 70
0
 71
3
 72
9
 73
5
 74
0
 42
0.0000001
 43
0.0000001
 44
0.0000000001
 40
0.0
 40
0.0
 40
0.0
 40
0.0
 40
0.4760789037
 40
1.0
 40
1.0
 40
1.0
 40
1.0
 10
-52.8261174797
 20
27.4454881053
 30
0.0
 10
-52.811952353
 20
27.4499380405
 30
0.0
 10
-52.7795331775
 20
27.4518098954
 30
0.0
 10
-52.7497636565
 20
27.4400003906
 30
0.0
 10
-52.7356595369
 20
27.4317505201
 30
0.0
  0
SPLINE
  5
3A5
100
AcDbEntity
  8
RACCORDO
100
AcDbSpline
 62
250
  6
CONTINUOUS
 70
0
 71
3
 72
9
 73
5
 74
0
 42
0.0000001
 43
0.0000001
 44
0.0000000001
 40
0.0
 40
0.0
 40
0.0
 40
0.0
 40
0.6851664348
 40
1.0
 40
1.0
 40
1.0
 40
1.0
 10
-52.3252326019
 20
26.3700676918
 30
0.0
 10
-52.3188632964
 20
26.3631828892
 30
0.0
 10
-52.310711318
 20
26.3543586611
 30
0.0
 10
-52.3030658325
 20
26.3386927468
 30
0.0
 10
-52.3055496771
 20
26.3351707912
 30
0.0
  0
SPLINE
  5
3A6
100
AcDbEntity
  8
RACCORDO
100
AcDbSpline
 62
250
  6
CONTINUOUS
 70
0
 71
3
 72
9
 73
5
 74
0
 42
0.0000001
 43
0.0000001
 44
0.0000000001
 40
0.0
 40
0.0
 40
0.0
 40
0.0
 40
0.5493426898
 40
1.0
 40
1.0
 40
1.0
 40
1.0
 10
-52.2363534558
 20
26.6238527199
 30
0.0
 10
-52.2204381772
 20
26.6333685004
 30
0.0
 10
-52.1931244694
 20
26.6549825485
 30
0.0
 10
-52.1802289044
 20
26.6888581673
 30
0.0
 10
-52.1802302642
 20
26.704070127
 30
0.0
  0
SPLINE
  5
3A7
100
AcDbEntity
  8
RACCORDO
100
AcDbSpline
 62
250
  6
CONTINUOUS
 70
0
 71
3
 72
9
 73
5
 74
0
 42
0.0000001
 43
0.0000001
 44
0.0000000001
 40
0.0
 40
0.0
 40
0.0
 40
0.0
 40
0.5493367522
 40
1.0
 40
1.0
 40
1.0
 40
1.0
 10
-52.2363534558
 20
26.9043472214
 30
0.0
 10
-52.2204418622
 20
26.9138607988
 30
0.0
 10
-52.193134587
 20
26.9354690589
 30
0.0
 10
-52.180234212
 20
26.9693324315
 30
0.0
 10
-52.1802302662
 20
26.9845412334
 30
0.0
  0
SPLINE
  5
3A8
100
AcDbEntity
  8
RACCORDO
100
AcDbSpline
 62
250
  6
CONTINUOUS
 70
0
 71
3
 72
10
 73
6
 74
0
 42
0.0000001
 43
0.0000001
 44
0.0000000001
 40
0.0
 40
0.0
 40
0.0
 40
0.0
 40
0.2508076981
 40
0.5149539274
 40
1.0
 40
1.0
 40
1.0
 40
1.0
 10
-52.3996703641
 20
27.0458346799
 30
0.0
 10
-52.3955585563
 20
27.0700959669
 30
0.0
 10
-52.3958888592
 20
27.1216819472
 30
0.0
 10
-52.422809011
 20
27.2161963897
 30
0.0
 10
-52.4714550204
 20
27.2798121788
 30
0.0
 10
-52.5129291404
 20
27.3031487806
 30
0.0
  0
SPLINE
  5
3A9
100
AcDbEntity
  8
RACCORDO
100
AcDbSpline
 62
250
  6
CONTINUOUS
 70
0
 71
3
 72
10
 73
6
 74
0
 42
0.0000001
 43
0.0000001
 44
0.0000000001
 40
0.0
 40
0.0
 40
0.0
 40
0.0
 40
0.6810296868
 40
0.8791641691
 40
1.0
 40
1.0
 40
1.0
 40
1.0
 10
-54.049936902
 20
27.3644653185
 30
0.0
 10
-54.0434544344
 20
27.3574894011
 30
0.0
 10
-54.0352989609
 20
27.3480241945
 30
0.0
 10
-54.0287567433
 20
27.3357327713
 30
0.0
 10
-54.0287333744
 20
27.3307059776
 30
0.0
 10
-54.02971556
 20
27.3293311093
 30
0.0
  0
SPLINE
  5
3AA
100
AcDbEntity
  8
RACCORDO
100
AcDbSpline
 62
250
  6
CONTINUOUS
 70
0
 71
3
 72
9
 73
5
 74
0
 42
0.0000001
 43
0.0000001
 44
0.0000000001
 40
0.0
 40
0.0
 40
0.0
 40
0.0
 40
0.5500821771
 40
1.0
 40
1.0
 40
1.0
 40
1.0
 10
-53.9602682198
 20
27.6177944783
 30
0.0
 10
-53.9440403969
 20
27.6273291966
 30
0.0
 10
-53.9161722923
 20
27.64901759
 30
0.0
 10
-53.9029266922
 20
27.6833393345
 30
0.0
 10
-53.9029273891
 20
27.6987337231
 30
0.0
  0
SPLINE
  5
3AB
100
AcDbEntity
  8
RACCORDO
100
AcDbSpline
 62
250
  6
CONTINUOUS
 70
0
 71
3
 72
9
 73
5
 74
0
 42
0.0000001
 43
0.0000001
 44
0.0000000001
 40
0.0
 40
0.0
 40
0.0
 40
0.0
 40
0.5500764553
 40
1.0
 40
1.0
 40
1.0
 40
1.0
 10
-53.9602682198
 20
27.8982889798
 30
0.0
 10
-53.9440438962
 20
27.9078216422
 30
0.0
 10
-53.9161819262
 20
27.9295046364
 30
0.0
 10
-53.9029317595
 20
27.9638147301
 30
0.0
 10
-53.9029273917
 20
27.9792061544
 30
0.0
  0
SPLINE
  5
3AC
100
AcDbEntity
  8
RACCORDO
100
AcDbSpline
 62
250
  6
CONTINUOUS
 70
0
 71
3
 72
10
 73
6
 74
0
 42
0.0000001
 43
0.0000001
 44
0.0000000001
 40
0.0
 40
0.0
 40
0.0
 40
0.0
 40
0.2510715645
 40
0.5155165424
 40
1.0
 40
1.0
 40
1.0
 40
1.0
 10
-54.1250359138
 20
28.0406141039
 30
0.0
 10
-54.1208791806
 20
28.0648983891
 30
0.0
 10
-54.1210829104
 20
28.1165418558
 30
0.0
 10
-54.1475983931
 20
28.2111624239
 30
0.0
 10
-54.1957729216
 20
28.2751079376
 30
0.0
 10
-54.2370768198
 20
28.2986500421
 30
0.0
  0
SPLINE
  5
3AD
100
AcDbEntity
  8
RACCORDO
100
AcDbSpline
 62
7
  6
CONTINUOUS
 70
0
 71
3
 72
9
 73
5
 74
0
 42
0.0000001
 43
0.0000001
 44
0.0000000001
 40
0.0
 40
0.0
 40
0.0
 40
0.0
 40
0.2831516702
 40
1.0
 40
1.0
 40
1.0
 40
1.0
 10
-53.0965151269
 20
24.6030792514
 30
0.0
 10
-53.0968548529
 20
24.6038300911
 30
0.0
 10
-53.0981767673
 20
24.6064115944
 30
0.0
 10
-53.1002082626
 20
24.6087233451
 30
0.0
 10
-53.1020154338
 20
24.6097660431
 30
0.0
  0
SPLINE
  5
3AE
100
AcDbEntity
  8
RACCORDO
100
AcDbSpline
 62
250
  6
CONTINUOUS
 70
0
 71
3
 72
8
 73
4
 74
0
 42
0.0000001
 43
0.0000001
 44
0.0000000001
 40
0.0
 40
0.0
 40
0.0
 40
0.0
 40
1.0
 40
1.0
 40
1.0
 40
1.0
 10
-52.6087314535
 20
24.4888831306
 30
0.0
 10
-52.6197557477
 20
24.4952709055
 30
0.0
 10
-52.6318451195
 20
24.5000966767
 30
0.0
 10
-52.6442488346
 20
24.5030098509
 30
0.0
  0
SPLINE
  5
3AF
100
AcDbEntity
  8
RACCORDO
100
AcDbSpline
 62
250
  6
CONTINUOUS
 70
0
 71
3
 72
9
 73
5
 74
0
 42
0.0000001
 43
0.0000001
 44
0.0000000001
 40
0.0
 40
0.0
 40
0.0
 40
0.0
 40
0.570327809
 40
1.0
 40
1.0
 40
1.0
 40
1.0
 10
-52.3996703641
 20
23.3358312673
 30
0.0
 10
-52.3966894223
 20
23.3218071597
 30
0.0
 10
-52.3937071443
 20
23.2962342375
 30
0.0
 10
-52.4050677804
 20
23.2713255012
 30
0.0
 10
-52.4132701511
 20
23.2642974633
 30
0.0
  0
SPLINE
  5
3B0
100
AcDbEntity
  8
RACCORDO
100
AcDbSpline
 62
250
  6
CONTINUOUS
 70
0
 71
3
 72
9
 73
5
 74
0
 42
0.0000001
 43
0.0000001
 44
0.0000000001
 40
0.0
 40
0.0
 40
0.0
 40
0.0
 40
0.5493426898
 40
1.0
 40
1.0
 40
1.0
 40
1.0
 10
-52.2363534558
 20
23.6726138114
 30
0.0
 10
-52.2204381772
 20
23.6821295919
 30
0.0
 10
-52.1931244694
 20
23.7037436401
 30
0.0
 10
-52.1802289044
 20
23.7376192589
 30
0.0
 10
-52.1802302642
 20
23.7528312185
 30
0.0
  0
SPLINE
  5
3B1
100
AcDbEntity
  8
RACCORDO
100
AcDbSpline
 62
250
  6
CONTINUOUS
 70
0
 71
3
 72
9
 73
5
 74
0
 42
0.0000001
 43
0.0000001
 44
0.0000000001
 40
0.0
 40
0.0
 40
0.0
 40
0.0
 40
0.5493362849
 40
1.0
 40
1.0
 40
1.0
 40
1.0
 10
-52.2363534558
 20
23.9531083129
 30
0.0
 10
-52.2204421509
 20
23.9626217174
 30
0.0
 10
-52.1931353795
 20
23.9842295238
 30
0.0
 10
-52.1802346281
 20
24.0180919369
 30
0.0
 10
-52.1802302667
 20
24.0333004914
 30
0.0
  0
SPLINE
  5
3B2
100
AcDbEntity
  8
RACCORDO
100
AcDbSpline
 62
250
  6
CONTINUOUS
 70
0
 71
3
 72
9
 73
5
 74
0
 42
0.0000001
 43
0.0000001
 44
0.0000000001
 40
0.0
 40
0.0
 40
0.0
 40
0.0
 40
0.4564339079
 40
1.0
 40
1.0
 40
1.0
 40
1.0
 10
-52.8631408428
 20
45.6947900422
 30
0.0
 10
-52.911710888
 20
45.7057142886
 30
0.0
 10
-53.0248194699
 20
45.7003410252
 30
0.0
 10
-53.1259753846
 20
45.655215247
 30
0.0
 10
-53.1770908283
 20
45.6251793608
 30
0.0
  0
SPLINE
  5
3B3
100
AcDbEntity
  8
RACCORDO
100
AcDbSpline
 62
250
  6
CONTINUOUS
 70
0
 71
3
 72
11
 73
7
 74
0
 42
0.0000001
 43
0.0000001
 44
0.0000000001
 40
0.0
 40
0.0
 40
0.0
 40
0.0
 40
0.2958306922
 40
0.5526380143
 40
0.7802681957
 40
1.0
 40
1.0
 40
1.0
 40
1.0
 10
-52.2363534558
 20
45.4262765926
 30
0.0
 10
-52.2363540258
 20
45.4446015026
 30
0.0
 10
-52.2395600429
 20
45.479018946
 30
0.0
 10
-52.2566026244
 20
45.5250339433
 30
0.0
 10
-52.2857625454
 20
45.5590053704
 30
0.0
 10
-52.3119536497
 20
45.5707912252
 30
0.0
 10
-52.3252326019
 20
45.5737795423
 30
0.0
  0
SPLINE
  5
3B4
100
AcDbEntity
  8
RACCORDO
100
AcDbSpline
 62
250
  6
CONTINUOUS
 70
0
 71
3
 72
11
 73
7
 74
0
 42
0.0000001
 43
0.0000001
 44
0.0000000001
 40
0.0
 40
0.0
 40
0.0
 40
0.0
 40
0.2486687986
 40
0.5112417825
 40
0.7678437306
 40
1.0
 40
1.0
 40
1.0
 40
1.0
 10
-52.3996703641
 20
44.8089995469
 30
0.0
 10
-52.3755264328
 20
44.8297268087
 30
0.0
 10
-52.3310763529
 20
44.8785348114
 30
0.0
 10
-52.2797802165
 20
44.9629704165
 30
0.0
 10
-52.2457628543
 20
45.0534732437
 30
0.0
 10
-52.2363547829
 20
45.116074523
 30
0.0
 10
-52.2363534558
 20
45.1457820911
 30
0.0
  0
SPLINE
  5
3B5
100
AcDbEntity
  8
RACCORDO
100
AcDbSpline
 62
250
  6
CONTINUOUS
 70
0
 71
3
 72
12
 73
8
 74
0
 42
0.0000001
 43
0.0000001
 44
0.0000000001
 40
0.0
 40
0.0
 40
0.0
 40
0.0
 40
0.2884366745
 40
0.5260471283
 40
0.6364770592
 40
0.7488975717
 40
1.0
 40
1.0
 40
1.0
 40
1.0
 10
-52.2363534558
 20
48.377515501
 30
0.0
 10
-52.2363544057
 20
48.4025619037
 30
0.0
 10
-52.241823095
 20
48.4488386479
 30
0.0
 10
-52.2718108118
 20
48.4984378451
 30
0.0
 10
-52.3060770091
 20
48.5202682759
 30
0.0
 10
-52.3463073615
 20
48.5312141316
 30
0.0
 10
-52.3790095785
 20
48.525971992
 30
0.0
 10
-52.3996703641
 20
48.5190029596
 30
0.0
  0
SPLINE
  5
3B6
100
AcDbEntity
  8
RACCORDO
100
AcDbSpline
 62
250
  6
CONTINUOUS
 70
0
 71
3
 72
9
 73
5
 74
0
 42
0.0000001
 43
0.0000001
 44
0.0000000001
 40
0.0
 40
0.0
 40
0.0
 40
0.0
 40
0.5252628782
 40
1.0
 40
1.0
 40
1.0
 40
1.0
 10
-52.2865202216
 20
47.9076354943
 30
0.0
 10
-52.2708865946
 20
47.9384212432
 30
0.0
 10
-52.246705231
 20
48.0000416242
 30
0.0
 10
-52.2363546186
 20
48.0658144282
 30
0.0
 10
-52.2363534558
 20
48.0970209995
 30
0.0
  0
SPLINE
  5
3B7
100
AcDbEntity
  8
RACCORDO
100
AcDbSpline
 62
250
  6
CONTINUOUS
 70
0
 71
3
 72
9
 73
5
 74
0
 42
0.0000001
 43
0.0000001
 44
0.0000000001
 40
0.0
 40
0.0
 40
0.0
 40
0.0
 40
0.2340777523
 40
1.0
 40
1.0
 40
1.0
 40
1.0
 10
-53.1770908283
 20
46.7731802952
 30
0.0
 10
-53.1564157612
 20
46.7857546588
 30
0.0
 10
-53.0706721623
 20
46.8436998047
 30
0.0
 10
-52.9952448211
 20
46.9161481475
 30
0.0
 10
-52.9434490843
 20
46.9760368928
 30
0.0
  0
SPLINE
  5
3B8
100
AcDbEntity
  8
RACCORDO
100
AcDbSpline
 62
250
  6
CONTINUOUS
 70
0
 71
3
 72
9
 73
5
 74
0
 42
0.0000001
 43
0.0000001
 44
0.0000000001
 40
0.0
 40
0.0
 40
0.0
 40
0.0
 40
0.4564339079
 40
1.0
 40
1.0
 40
1.0
 40
1.0
 10
-52.8631408428
 20
24.2216217625
 30
0.0
 10
-52.911710888
 20
24.232546009
 30
0.0
 10
-53.0248194699
 20
24.2271727456
 30
0.0
 10
-53.1259753846
 20
24.1820469673
 30
0.0
 10
-53.1770908283
 20
24.1520110811
 30
0.0
  0
SPLINE
  5
3B9
100
AcDbEntity
  8
RACCORDO
100
AcDbSpline
 62
250
  6
CONTINUOUS
 70
0
 71
3
 72
11
 73
7
 74
0
 42
0.0000001
 43
0.0000001
 44
0.0000000001
 40
0.0
 40
0.0
 40
0.0
 40
0.0
 40
0.2958306922
 40
0.5526380143
 40
0.7802681957
 40
1.0
 40
1.0
 40
1.0
 40
1.0
 10
-52.2363534558
 20
23.9531083129
 30
0.0
 10
-52.2363540258
 20
23.971433223
 30
0.0
 10
-52.2395600429
 20
24.0058506664
 30
0.0
 10
-52.2566026244
 20
24.0518656636
 30
0.0
 10
-52.2857625454
 20
24.0858370908
 30
0.0
 10
-52.3119536497
 20
24.0976229455
 30
0.0
 10
-52.3252326019
 20
24.1006112626
 30
0.0
  0
SPLINE
  5
3BA
100
AcDbEntity
  8
RACCORDO
100
AcDbSpline
 62
250
  6
CONTINUOUS
 70
0
 71
3
 72
11
 73
7
 74
0
 42
0.0000001
 43
0.0000001
 44
0.0000000001
 40
0.0
 40
0.0
 40
0.0
 40
0.0
 40
0.2486687986
 40
0.5112417825
 40
0.7678437306
 40
1.0
 40
1.0
 40
1.0
 40
1.0
 10
-52.3996703641
 20
23.3358312673
 30
0.0
 10
-52.3755264328
 20
23.3565585291
 30
0.0
 10
-52.3310763529
 20
23.4053665318
 30
0.0
 10
-52.2797802165
 20
23.4898021368
 30
0.0
 10
-52.2457628543
 20
23.580304964
 30
0.0
 10
-52.2363547829
 20
23.6429062433
 30
0.0
 10
-52.2363534558
 20
23.6726138114
 30
0.0
  0
SPLINE
  5
3BB
100
AcDbEntity
  8
RACCORDO
100
AcDbSpline
 62
250
  6
CONTINUOUS
 70
0
 71
3
 72
12
 73
8
 74
0
 42
0.0000001
 43
0.0000001
 44
0.0000000001
 40
0.0
 40
0.0
 40
0.0
 40
0.0
 40
0.2884366745
 40
0.5260471283
 40
0.6364770592
 40
0.7488975717
 40
1.0
 40
1.0
 40
1.0
 40
1.0
 10
-52.2363534558
 20
26.9043472214
 30
0.0
 10
-52.2363544057
 20
26.9293936241
 30
0.0
 10
-52.241823095
 20
26.9756703683
 30
0.0
 10
-52.2718108118
 20
27.0252695655
 30
0.0
 10
-52.3060770091
 20
27.0470999963
 30
0.0
 10
-52.3463073615
 20
27.0580458519
 30
0.0
 10
-52.3790095785
 20
27.0528037124
 30
0.0
 10
-52.3996703641
 20
27.0458346799
 30
0.0
  0
SPLINE
  5
3BC
100
AcDbEntity
  8
RACCORDO
100
AcDbSpline
 62
250
  6
CONTINUOUS
 70
0
 71
3
 72
9
 73
5
 74
0
 42
0.0000001
 43
0.0000001
 44
0.0000000001
 40
0.0
 40
0.0
 40
0.0
 40
0.0
 40
0.5252628782
 40
1.0
 40
1.0
 40
1.0
 40
1.0
 10
-52.2865202216
 20
26.4344672147
 30
0.0
 10
-52.2708865946
 20
26.4652529635
 30
0.0
 10
-52.246705231
 20
26.5268733446
 30
0.0
 10
-52.2363546186
 20
26.5926461486
 30
0.0
 10
-52.2363534558
 20
26.6238527199
 30
0.0
  0
SPLINE
  5
3BD
100
AcDbEntity
  8
RACCORDO
100
AcDbSpline
 62
250
  6
CONTINUOUS
 70
0
 71
3
 72
9
 73
5
 74
0
 42
0.0000001
 43
0.0000001
 44
0.0000000001
 40
0.0
 40
0.0
 40
0.0
 40
0.0
 40
0.2340777523
 40
1.0
 40
1.0
 40
1.0
 40
1.0
 10
-53.1770908283
 20
25.3000120156
 30
0.0
 10
-53.1564157612
 20
25.3125863791
 30
0.0
 10
-53.0706721623
 20
25.3705315251
 30
0.0
 10
-52.9952448211
 20
25.4429798678
 30
0.0
 10
-52.9434490843
 20
25.5028686132
 30
0.0
  0
SPLINE
  5
3BE
100
AcDbEntity
  8
RACCORDO
100
AcDbSpline
 62
250
  6
CONTINUOUS
 70
0
 71
3
 72
9
 73
5
 74
0
 42
0.0000001
 43
0.0000001
 44
0.0000000001
 40
0.0
 40
0.0
 40
0.0
 40
0.0
 40
0.506292358
 40
1.0
 40
1.0
 40
1.0
 40
1.0
 10
-52.3252326019
 20
24.1006112626
 30
0.0
 10
-52.3141547745
 20
24.1258325843
 30
0.0
 10
-52.3007003175
 20
24.1797307778
 30
0.0
 10
-52.3058472711
 20
24.2352008366
 30
0.0
 10
-52.3133423923
 20
24.2609962097
 30
0.0
  0
SPLINE
  5
3BF
100
AcDbEntity
  8
RACCORDO
100
AcDbSpline
 62
250
  6
CONTINUOUS
 70
0
 71
3
 72
9
 73
5
 74
0
 42
0.0000001
 43
0.0000001
 44
0.0000000001
 40
0.0
 40
0.0
 40
0.0
 40
0.0
 40
0.5158066174
 40
1.0
 40
1.0
 40
1.0
 40
1.0
 10
-52.3133423923
 20
24.2609962097
 30
0.0
 10
-52.3186430806
 20
24.2792391747
 30
0.0
 10
-52.3338430065
 20
24.31345848
 30
0.0
 10
-52.359304378
 20
24.3412192081
 30
0.0
 10
-52.3735681559
 20
24.3519226961
 30
0.0
  0
SPLINE
  5
3C0
100
AcDbEntity
  8
RACCORDO
100
AcDbSpline
 62
250
  6
CONTINUOUS
 70
0
 71
3
 72
11
 73
7
 74
0
 42
0.0000001
 43
0.0000001
 44
0.0000000001
 40
0.0
 40
0.0
 40
0.0
 40
0.0
 40
0.2667310296
 40
0.5280856995
 40
0.7733419461
 40
1.0
 40
1.0
 40
1.0
 40
1.0
 10
-52.8631408428
 20
24.2216217625
 30
0.0
 10
-52.8527477736
 20
24.2452840682
 30
0.0
 10
-52.8396310513
 20
24.2957813671
 30
0.0
 10
-52.8442299023
 20
24.3718409048
 30
0.0
 10
-52.8724817496
 20
24.438732431
 30
0.0
 10
-52.9068410352
 20
24.4715132641
 30
0.0
 10
-52.9258928453
 20
24.4824371665
 30
0.0
  0
SPLINE
  5
3C1
100
AcDbEntity
  8
RACCORDO
100
AcDbSpline
 62
250
  6
CONTINUOUS
 70
0
 71
3
 72
11
 73
7
 74
0
 42
0.0000001
 43
0.0000001
 44
0.0000000001
 40
0.0
 40
0.0
 40
0.0
 40
0.0
 40
0.2372268473
 40
0.4994453217
 40
0.7619661536
 40
1.0
 40
1.0
 40
1.0
 40
1.0
 10
-53.1770908283
 20
24.1520110811
 30
0.0
 10
-53.1769192003
 20
24.1752324753
 30
0.0
 10
-53.1854056443
 20
24.2242290492
 30
0.0
 10
-53.2159121302
 20
24.2929341548
 30
0.0
 10
-53.2608215825
 20
24.3533170342
 30
0.0
 10
-53.2993749037
 20
24.3848787896
 30
0.0
 10
-53.3197246698
 20
24.3962288907
 30
0.0
  0
SPLINE
  5
3C2
100
AcDbEntity
  8
RACCORDO
100
AcDbSpline
 62
250
  6
CONTINUOUS
 70
0
 71
3
 72
9
 73
5
 74
0
 42
0.0000001
 43
0.0000001
 44
0.0000000001
 40
0.0
 40
0.0
 40
0.0
 40
0.0
 40
0.456727053
 40
1.0
 40
1.0
 40
1.0
 40
1.0
 10
-52.9258928453
 20
24.4824371665
 30
0.0
 10
-52.9868023064
 20
24.4962145646
 30
0.0
 10
-53.1285744092
 20
24.4898171982
 30
0.0
 10
-53.2555665643
 20
24.4336654519
 30
0.0
 10
-53.3197246698
 20
24.3962288907
 30
0.0
  0
SPLINE
  5
3C3
100
AcDbEntity
  8
RACCORDO
100
AcDbSpline
 62
250
  6
CONTINUOUS
 70
0
 71
3
 72
9
 73
5
 74
0
 42
0.0000001
 43
0.0000001
 44
0.0000000001
 40
0.0
 40
0.0
 40
0.0
 40
0.0
 40
0.456727053
 40
1.0
 40
1.0
 40
1.0
 40
1.0
 10
-52.9258928453
 20
45.9556054461
 30
0.0
 10
-52.9868023064
 20
45.9693828442
 30
0.0
 10
-53.1285744092
 20
45.9629854778
 30
0.0
 10
-53.2555665643
 20
45.9068337316
 30
0.0
 10
-53.3197246698
 20
45.8693971703
 30
0.0
  0
SPLINE
  5
3C4
100
AcDbEntity
  8
RACCORDO
100
AcDbSpline
 62
250
  6
CONTINUOUS
 70
0
 71
3
 72
9
 73
5
 74
0
 42
0.0000001
 43
0.0000001
 44
0.0000000001
 40
0.0
 40
0.0
 40
0.0
 40
0.0
 40
0.5312807658
 40
1.0
 40
1.0
 40
1.0
 40
1.0
 10
-54.4598072163
 20
28.4272517816
 30
0.0
 10
-54.42945606
 20
28.4367240841
 30
0.0
 10
-54.3689908005
 20
28.4469191063
 30
0.0
 10
-54.3087944557
 20
28.4304911563
 30
0.0
 10
-54.2845011621
 20
28.416466617
 30
0.0
  0
SPLINE
  5
3C5
100
AcDbEntity
  8
RACCORDO
100
AcDbSpline
 62
250
  6
CONTINUOUS
 70
0
 71
3
 72
9
 73
5
 74
0
 42
0.0000001
 43
0.0000001
 44
0.0000000001
 40
0.0
 40
0.0
 40
0.0
 40
0.0
 40
0.5315068298
 40
1.0
 40
1.0
 40
1.0
 40
1.0
 10
-52.7356595369
 20
27.4317505201
 30
0.0
 10
-52.7054904301
 20
27.4413056182
 30
0.0
 10
-52.6453621006
 20
27.4516997406
 30
0.0
 10
-52.5854196736
 20
27.4354361581
 30
0.0
 10
-52.5612620367
 20
27.4214899434
 30
0.0
  0
SPLINE
  5
3C6
100
AcDbEntity
  8
RACCORDO
100
AcDbSpline
 62
250
  6
CONTINUOUS
 70
0
 71
3
 72
9
 73
5
 74
0
 42
0.0000001
 43
0.0000001
 44
0.0000000001
 40
0.0
 40
0.0
 40
0.0
 40
0.0
 40
0.5315068298
 40
1.0
 40
1.0
 40
1.0
 40
1.0
 10
-52.7356595369
 20
48.9049187997
 30
0.0
 10
-52.7054904301
 20
48.9144738979
 30
0.0
 10
-52.6453621006
 20
48.9248680203
 30
0.0
 10
-52.5854196736
 20
48.9086044378
 30
0.0
 10
-52.5612620367
 20
48.8946582231
 30
0.0
  0
SPLINE
  5
3C7
100
AcDbEntity
  8
RACCORDO
100
AcDbSpline
 62
250
  6
CONTINUOUS
 70
0
 71
3
 72
9
 73
5
 74
0
 42
0.0000001
 43
0.0000001
 44
0.0000000001
 40
0.0
 40
0.0
 40
0.0
 40
0.0
 40
0.5312807658
 40
1.0
 40
1.0
 40
1.0
 40
1.0
 10
-54.4598072163
 20
49.9004200612
 30
0.0
 10
-54.42945606
 20
49.9098923638
 30
0.0
 10
-54.3689908005
 20
49.920087386
 30
0.0
 10
-54.3087944557
 20
49.903659436
 30
0.0
 10
-54.2845011621
 20
49.8896348966
 30
0.0
  0
SPLINE
  5
3C8
100
AcDbEntity
  8
RACCORDO
100
AcDbSpline
 62
250
  6
CONTINUOUS
 70
0
 71
3
 72
12
 73
8
 74
0
 42
0.0000001
 43
0.0000001
 44
0.0000000001
 40
0.0
 40
0.0
 40
0.0
 40
0.0
 40
0.2871167553
 40
0.5246001006
 40
0.6353677505
 40
0.748237083
 40
1.0
 40
1.0
 40
1.0
 40
1.0
 10
-53.9602682198
 20
49.3714572595
 30
0.0
 10
-53.960269179
 20
49.3965281178
 30
0.0
 10
-53.9658263496
 20
49.4429511076
 30
0.0
 10
-53.9961099632
 20
49.492616855
 30
0.0
 10
-54.03062139
 20
49.5145696276
 30
0.0
 10
-54.0711587355
 20
49.5257109183
 30
0.0
 10
-54.1041548484
 20
49.5206575434
 30
0.0
 10
-54.1250359138
 20
49.5137823835
 30
0.0
  0
SPLINE
  5
3C9
100
AcDbEntity
  8
RACCORDO
100
AcDbSpline
 62
250
  6
CONTINUOUS
 70
0
 71
3
 72
9
 73
5
 74
0
 42
0.0000001
 43
0.0000001
 44
0.0000000001
 40
0.0
 40
0.0
 40
0.0
 40
0.0
 40
0.5252606645
 40
1.0
 40
1.0
 40
1.0
 40
1.0
 10
-54.0108811001
 20
48.9018336459
 30
0.0
 10
-53.9951134284
 20
48.9325296512
 30
0.0
 10
-53.970708998
 20
48.9940339751
 30
0.0
 10
-53.9602693921
 20
49.059773039
 30
0.0
 10
-53.9602682198
 20
49.090962758
 30
0.0
  0
SPLINE
  5
3CA
100
AcDbEntity
  8
RACCORDO
100
AcDbSpline
 62
250
  6
CONTINUOUS
 70
0
 71
3
 72
12
 73
8
 74
0
 42
0.0000001
 43
0.0000001
 44
0.0000000001
 40
0.0
 40
0.0
 40
0.0
 40
0.0
 40
0.2871167553
 40
0.5246001006
 40
0.6353677505
 40
0.748237083
 40
1.0
 40
1.0
 40
1.0
 40
1.0
 10
-53.9602682198
 20
27.8982889798
 30
0.0
 10
-53.960269179
 20
27.9233598382
 30
0.0
 10
-53.9658263496
 20
27.9697828279
 30
0.0
 10
-53.9961099632
 20
28.0194485753
 30
0.0
 10
-54.03062139
 20
28.0414013479
 30
0.0
 10
-54.0711587355
 20
28.0525426386
 30
0.0
 10
-54.1041548484
 20
28.0474892638
 30
0.0
 10
-54.1250359138
 20
28.0406141039
 30
0.0
  0
SPLINE
  5
3CB
100
AcDbEntity
  8
RACCORDO
100
AcDbSpline
 62
250
  6
CONTINUOUS
 70
0
 71
3
 72
9
 73
5
 74
0
 42
0.0000001
 43
0.0000001
 44
0.0000000001
 40
0.0
 40
0.0
 40
0.0
 40
0.0
 40
0.5252606645
 40
1.0
 40
1.0
 40
1.0
 40
1.0
 10
-54.0108811001
 20
27.4286653662
 30
0.0
 10
-53.9951134284
 20
27.4593613716
 30
0.0
 10
-53.970708998
 20
27.5208656955
 30
0.0
 10
-53.9602693921
 20
27.5866047594
 30
0.0
 10
-53.9602682198
 20
27.6177944783
 30
0.0
  0
SPLINE
  5
3CC
100
AcDbEntity
  8
0
100
AcDbSpline
 62
7
  6
CONTINUOUS
 70
0
 71
3
 72
18
 73
14
 74
0
 42
0.0000001
 43
0.0000001
 44
0.0000000001
 40
0.0
 40
0.0
 40
0.0
 40
0.0
 40
0.2757305455
 40
0.508931711
 40
0.6961586834
 40
0.8346807212
 40
0.885809373
 40
0.9252768313
 40
0.9545750318
 40
0.9752537676
 40
0.9960902625
 40
0.9985877581
 40
1.0
 40
1.0
 40
1.0
 40
1.0
 10
53.7410832893
 20
-54.7551605391
 30
0.0
 10
53.7410832893
 20
-54.7698441633
 30
0.0
 10
53.7400090158
 20
-54.7969680278
 30
0.0
 10
53.735032981
 20
-54.8337675667
 30
0.0
 10
53.728013661
 20
-54.8627475612
 30
0.0
 10
53.7209495282
 20
-54.8816183908
 30
0.0
 10
53.7155648991
 20
-54.8925409673
 30
0.0
 10
53.7122927242
 20
-54.8981022688
 30
0.0
 10
53.7097495452
 20
-54.9019486403
 30
0.0
 10
53.7069736958
 20
-54.9050873395
 30
0.0
 10
53.7062797115
 20
-54.9062404874
 30
0.0
 10
53.7043733466
 20
-54.9075666349
 30
0.0
 10
53.7046365523
 20
-54.907357883
 30
0.0
 10
53.7047016824
 20
-54.9073202778
 30
0.0
  0
SPLINE
  5
3CD
100
AcDbEntity
  8
0
100
AcDbSpline
 62
7
  6
CONTINUOUS
 70
0
 71
3
 72
11
 73
7
 74
0
 42
0.0000001
 43
0.0000001
 44
0.0000000001
 40
0.0
 40
0.0
 40
0.0
 40
0.0
 40
0.2372212891
 40
0.5000061068
 40
0.7627876004
 40
1.0
 40
1.0
 40
1.0
 40
1.0
 10
73.8577508321
 20
-5.1043045707
 30
0.0
 10
74.0083199545
 20
-5.1912412949
 30
0.0
 10
74.2932816359
 20
-5.4310742268
 30
0.0
 10
74.6258835346
 20
-5.8855813218
 30
0.0
 10
74.8531954422
 20
-6.4008702153
 30
0.0
 10
74.9184110039
 20
-6.767563344
 30
0.0
 10
74.9184110039
 20
-6.9414218759
 30
0.0
  0
SPLINE
  5
3CE
100
AcDbEntity
  8
0
100
AcDbSpline
 62
7
  6
CONTINUOUS
 70
0
 71
3
 72
13
 73
9
 74
0
 42
0.0000001
 43
0.0000001
 44
0.0000000001
 40
0.0
 40
0.0
 40
0.0
 40
0.0
 40
0.1052299534
 40
0.2277459704
 40
0.500005826
 40
0.7722644296
 40
0.89477703
 40
1.0
 40
1.0
 40
1.0
 40
1.0
 10
53.2546799382
 20
-11.0888275745
 30
0.0
 10
53.2852759108
 20
-11.1064933057
 30
0.0
 10
53.3479462248
 20
-11.1509590535
 30
0.0
 10
53.4703244114
 20
-11.2664422312
 30
0.0
 10
53.6032655768
 20
-11.4492236909
 30
0.0
 10
53.695090204
 20
-11.65574297
 30
0.0
 10
53.7339115696
 20
-11.8194634415
 30
0.0
 10
53.7410832893
 20
-11.8959671108
 30
0.0
 10
53.7410832893
 20
-11.9312945213
 30
0.0
  0
SPLINE
  5
3CF
100
AcDbEntity
  8
0
100
AcDbSpline
 62
7
  6
CONTINUOUS
 70
0
 71
3
 72
18
 73
14
 74
0
 42
0.0000001
 43
0.0000001
 44
0.0000000001
 40
0.0
 40
0.0
 40
0.0
 40
0.0
 40
0.0014203383
 40
0.003915344
 40
0.0247599629
 40
0.0454469736
 40
0.0747510477
 40
0.1142176083
 40
0.1653423278
 40
0.3038688483
 40
0.4910969256
 40
0.7242820513
 40
1.0
 40
1.0
 40
1.0
 40
1.0
 10
-57.8050259389
 20
52.9936294488
 30
0.0
 10
-57.8050914623
 20
52.9935916165
 30
0.0
 10
-57.8054049055
 20
52.9934675335
 30
0.0
 10
-57.8033038678
 20
52.9944563504
 30
0.0
 10
-57.8019550224
 20
52.9944806663
 30
0.0
 10
-57.7978473464
 20
52.9953159982
 30
0.0
 10
-57.7932422553
 20
52.9955957744
 30
0.0
 10
-57.7867880683
 20
52.9956489493
 30
0.0
 10
-57.7746328232
 20
52.994849587
 30
0.0
 10
-57.7547521056
 20
52.991530928
 30
0.0
 10
-57.7261370084
 20
52.9831166704
 30
0.0
 10
-57.6917707479
 20
52.969022132
 30
0.0
 10
-57.6677381686
 20
52.9563864559
 30
0.0
 10
-57.6550186909
 20
52.9490423889
 30
0.0
  0
SPLINE
  5
3D0
100
AcDbEntity
  8
0
100
AcDbSpline
 62
7
  6
CONTINUOUS
 70
0
 71
3
 72
11
 73
7
 74
0
 42
0.0000001
 43
0.0000001
 44
0.0000000001
 40
0.0
 40
0.0
 40
0.0
 40
0.0
 40
0.2898086083
 40
0.549045172
 40
0.7822281915
 40
1.0
 40
1.0
 40
1.0
 40
1.0
 10
74.9184110039
 20
-76.3413954033
 30
0.0
 10
74.9184110039
 20
-76.4174176546
 30
0.0
 10
74.9069337007
 20
-76.561940845
 30
0.0
 10
74.8483347592
 20
-76.760489194
 30
0.0
 10
74.7498518356
 20
-76.9216261846
 30
0.0
 10
74.6572564336
 20
-76.9994330685
 30
0.0
 10
74.6077849629
 20
-77.0279972542
 30
0.0
  0
SPLINE
  5
3D1
100
AcDbEntity
  8
0
100
AcDbSpline
 62
7
  6
CONTINUOUS
 70
0
 71
3
 72
11
 73
7
 74
0
 42
0.0000001
 43
0.0000001
 44
0.0000000001
 40
0.0
 40
0.0
 40
0.0
 40
0.0
 40
0.2479656618
 40
0.495642674
 40
0.7449217347
 40
1.0
 40
1.0
 40
1.0
 40
1.0
 10
71.4965172351
 20
-78.8244089056
 30
0.0
 10
71.4215879342
 20
-78.8676721449
 30
0.0
 10
71.2570322999
 20
-78.9308375103
 30
0.0
 10
70.9941890596
 20
-78.9475375228
 30
0.0
 10
70.7346840081
 20
-78.893600311
 30
0.0
 10
70.5735474746
 20
-78.8193719224
 30
0.0
 10
70.4964689148
 20
-78.774867728
 30
0.0
  0
SPLINE
  5
3D2
100
AcDbEntity
  8
0
100
AcDbSpline
 62
7
  6
CONTINUOUS
 70
0
 71
3
 72
11
 73
7
 74
0
 42
0.0000001
 43
0.0000001
 44
0.0000000001
 40
0.0
 40
0.0
 40
0.0
 40
0.0
 40
0.2433433252
 40
0.5000090078
 40
0.7566696625
 40
1.0
 40
1.0
 40
1.0
 40
1.0
 10
-74.813974619
 20
5.1255612009
 30
0.0
 10
-74.9536173372
 20
5.2061891562
 30
0.0
 10
-75.2136438473
 20
5.41996829
 30
0.0
 10
-75.5135010488
 20
5.826872785
 30
0.0
 10
-75.71595227
 20
6.2900037653
 30
0.0
 10
-75.7710693202
 20
6.6220722853
 30
0.0
 10
-75.7710693202
 20
6.7833117982
 30
0.0
  0
SPLINE
  5
3D3
100
AcDbEntity
  8
0
100
AcDbSpline
 62
7
  6
CONTINUOUS
 70
0
 71
3
 72
11
 73
7
 74
0
 42
0.0000001
 43
0.0000001
 44
0.0000000001
 40
0.0
 40
0.0
 40
0.0
 40
0.0
 40
0.2550753357
 40
0.5043532252
 40
0.752029578
 40
1.0
 40
1.0
 40
1.0
 40
1.0
 10
-75.7710693202
 20
76.1832853256
 30
0.0
 10
-75.7710693202
 20
76.2722781899
 30
0.0
 10
-75.75478151
 20
76.4489183617
 30
0.0
 10
-75.6717480469
 20
76.7005934761
 30
0.0
 10
-75.5258817102
 20
76.9198485127
 30
0.0
 10
-75.3889209298
 20
77.0307688032
 30
0.0
 10
-75.3139987792
 20
77.074027914
 30
0.0
  0
SPLINE
  5
3D4
100
AcDbEntity
  8
0
100
AcDbSpline
 62
7
  6
CONTINUOUS
 70
0
 71
3
 72
11
 73
7
 74
0
 42
0.0000001
 43
0.0000001
 44
0.0000000001
 40
0.0
 40
0.0
 40
0.0
 40
0.0
 40
0.2177664644
 40
0.4509472482
 40
0.7101858585
 40
1.0
 40
1.0
 40
1.0
 40
1.0
 10
-72.2027268325
 20
78.8704326838
 30
0.0
 10
-72.1532491924
 20
78.8990004316
 30
0.0
 10
-72.0395544588
 20
78.9402963571
 30
0.0
 10
-71.8507371057
 20
78.9450167776
 30
0.0
 10
-71.6494590811
 20
78.8964793105
 30
0.0
 10
-71.5185399255
 20
78.8341437198
 30
0.0
 10
-71.4526927017
 20
78.7961243581
 30
0.0
  0
SPLINE
  5
3D5
100
AcDbEntity
  8
0
100
AcDbSpline
 62
7
  6
CONTINUOUS
 70
0
 71
3
 72
11
 73
7
 74
0
 42
0.0000001
 43
0.0000001
 44
0.0000000001
 40
0.0
 40
0.0
 40
0.0
 40
0.0
 40
0.2372134916
 40
0.4999938932
 40
0.7627776188
 40
1.0
 40
1.0
 40
1.0
 40
1.0
 10
-57.2928794085
 20
10.2625684484
 30
0.0
 10
-57.2928794085
 20
10.1930246653
 30
0.0
 10
-57.2667942766
 20
10.0463471062
 30
0.0
 10
-57.1758690366
 20
9.8402318712
 30
0.0
 10
-57.0428287948
 20
9.6584287814
 30
0.0
 10
-56.9288433095
 20
9.5624964011
 30
0.0
 10
-56.8686153398
 20
9.5277215263
 30
0.0
  0
SPLINE
  5
3D6
100
AcDbEntity
  8
0
100
AcDbSpline
 62
250
  6
CONTINUOUS
 70
0
 71
3
 72
11
 73
7
 74
0
 42
0.0000001
 43
0.0000001
 44
0.0000000001
 40
0.0
 40
0.0
 40
0.0
 40
0.0
 40
0.2177671212
 40
0.4509439337
 40
0.7101951387
 40
1.0
 40
1.0
 40
1.0
 40
1.0
 10
53.7047016823
 20
-54.9073202778
 30
0.0
 10
53.6849105183
 20
-54.9187474546
 30
0.0
 10
53.6394325387
 20
-54.9352646771
 30
0.0
 10
53.5639044538
 20
-54.937154576
 30
0.0
 10
53.48339366
 20
-54.9177362855
 30
0.0
 10
53.4310253055
 20
-54.8928028711
 30
0.0
 10
53.4046871863
 20
-54.8775955712
 30
0.0
  0
SPLINE
  5
3D7
100
AcDbEntity
  8
0
100
AcDbSpline
 62
250
  6
CONTINUOUS
 70
0
 71
3
 72
15
 73
11
 74
0
 42
0.0000001
 43
0.0000001
 44
0.0000000001
 40
0.0
 40
0.0
 40
0.0
 40
0.0
 40
0.1449084121
 40
0.2745313907
 40
0.3911252219
 40
0.5000110974
 40
0.6088949574
 40
0.7254834304
 40
0.8550991884
 40
1.0
 40
1.0
 40
1.0
 40
1.0
 10
-74.9175159296
 20
76.3873437124
 30
0.0
 10
-74.9614112083
 20
76.4126882963
 30
0.0
 10
-75.0486921568
 20
76.4542394754
 30
0.0
 10
-75.1828428415
 20
76.4866143763
 30
0.0
 10
-75.3087991843
 20
76.4834243889
 30
0.0
 10
-75.420907634
 20
76.4427756961
 30
0.0
 10
-75.5121721337
 20
76.3660228327
 30
0.0
 10
-75.5779199464
 20
76.2585463623
 30
0.0
 10
-75.6169636293
 20
76.1261898587
 30
0.0
 10
-75.6246227107
 20
76.0298320889
 30
0.0
 10
-75.6246227107
 20
75.979148029
 30
0.0
  0
SPLINE
  5
3D8
100
AcDbEntity
  8
0
100
AcDbSpline
 62
250
  6
CONTINUOUS
 70
0
 71
3
 72
11
 73
7
 74
0
 42
0.0000001
 43
0.0000001
 44
0.0000000001
 40
0.0
 40
0.0
 40
0.0
 40
0.0
 40
0.237211872
 40
0.4999938941
 40
0.7627792379
 40
1.0
 40
1.0
 40
1.0
 40
1.0
 10
71.1000343855
 20
-8.7378300865
 30
0.0
 10
71.1000343855
 20
-8.6219246558
 30
0.0
 10
71.0565574465
 20
-8.3774625666
 30
0.0
 10
70.9050161193
 20
-8.0339363566
 30
0.0
 10
70.6832813041
 20
-7.7309314384
 30
0.0
 10
70.4933067967
 20
-7.5710429041
 30
0.0
 10
70.3929276043
 20
-7.5130852164
 30
0.0
  0
SPLINE
  5
3D9
100
AcDbEntity
  8
0
100
AcDbSpline
 62
250
  6
CONTINUOUS
 70
0
 71
3
 72
15
 73
11
 74
0
 42
0.0000001
 43
0.0000001
 44
0.0000000001
 40
0.0
 40
0.0
 40
0.0
 40
0.0
 40
0.1449084121
 40
0.2745313907
 40
0.3911252219
 40
0.5000110974
 40
0.6088949574
 40
0.7254834304
 40
0.8550991884
 40
1.0
 40
1.0
 40
1.0
 40
1.0
 10
70.3929276043
 20
-78.5459992974
 30
0.0
 10
70.4368228831
 20
-78.5713438812
 30
0.0
 10
70.5241038315
 20
-78.6128950603
 30
0.0
 10
70.6582545163
 20
-78.6452699613
 30
0.0
 10
70.784210859
 20
-78.6420799739
 30
0.0
 10
70.8963193087
 20
-78.6014312811
 30
0.0
 10
70.9875838084
 20
-78.5246784176
 30
0.0
 10
71.0533316211
 20
-78.4172019472
 30
0.0
 10
71.092375304
 20
-78.2848454437
 30
0.0
 10
71.1000343855
 20
-78.1884876739
 30
0.0
 10
71.1000343855
 20
-78.1378036139
 30
0.0
  0
SPLINE
  5
3DA
100
AcDbEntity
  8
0
100
AcDbSpline
 62
250
  6
CONTINUOUS
 70
0
 71
3
 72
11
 73
7
 74
0
 42
0.0000001
 43
0.0000001
 44
0.0000000001
 40
0.0
 40
0.0
 40
0.0
 40
0.0
 40
0.237211872
 40
0.4999938941
 40
0.7627792379
 40
1.0
 40
1.0
 40
1.0
 40
1.0
 10
-75.6246227107
 20
6.5791745016
 30
0.0
 10
-75.6246227107
 20
6.4632690709
 30
0.0
 10
-75.5811457718
 20
6.2188069817
 30
0.0
 10
-75.4296044446
 20
5.8752807717
 30
0.0
 10
-75.2078696294
 20
5.5722758534
 30
0.0
 10
-75.017895122
 20
5.4123873191
 30
0.0
 10
-74.9175159296
 20
5.3544296315
 30
0.0
  0
SPLINE
  5
3DB
100
AcDbEntity
  8
0
100
AcDbSpline
 62
250
  6
CONTINUOUS
 70
0
 71
3
 72
11
 73
7
 74
0
 42
0.0000001
 43
0.0000001
 44
0.0000000001
 40
0.0
 40
0.0
 40
0.0
 40
0.0
 40
0.2177718081
 40
0.450954831
 40
0.7101913958
 40
1.0
 40
1.0
 40
1.0
 40
1.0
 10
71.4965152177
 20
-78.8244054117
 30
0.0
 10
71.5459866756
 20
-78.7958412193
 30
0.0
 10
71.6385820506
 20
-78.7180343288
 30
0.0
 10
71.7370649432
 20
-78.5568973489
 30
0.0
 10
71.7956638667
 20
-78.3583490241
 30
0.0
 10
71.8071411667
 20
-78.2138258541
 30
0.0
 10
71.8071411666
 20
-78.1378036139
 30
0.0
  0
SPLINE
  5
3DC
100
AcDbEntity
  8
0
100
AcDbSpline
 62
250
  6
CONTINUOUS
 70
0
 71
3
 72
15
 73
11
 74
0
 42
0.0000001
 43
0.0000001
 44
0.0000000001
 40
0.0
 40
0.0
 40
0.0
 40
0.0
 40
0.1448957007
 40
0.2745178341
 40
0.3911045571
 40
0.4999889295
 40
0.6088753302
 40
0.7254674115
 40
0.8550967174
 40
1.0
 40
1.0
 40
1.0
 40
1.0
 10
-58.3535395803
 20
52.7189873321
 30
0.0
 10
-58.3535395803
 20
52.7646014991
 30
0.0
 10
-58.3466449986
 20
52.851323662
 30
0.0
 10
-58.3115101675
 20
52.970446356
 30
0.0
 10
-58.2523342423
 20
53.0671755994
 30
0.0
 10
-58.1701975899
 20
53.1362550274
 30
0.0
 10
-58.0692990737
 20
53.1728366978
 30
0.0
 10
-57.955936566
 20
53.1757099582
 30
0.0
 10
-57.83520162
 20
53.1465677474
 30
0.0
 10
-57.7566479353
 20
53.1091728263
 30
0.0
 10
-57.7171434772
 20
53.0863634473
 30
0.0
  0
SPLINE
  5
3DD
100
AcDbEntity
  8
0
100
AcDbSpline
 62
250
  6
CONTINUOUS
 70
0
 71
3
 72
11
 73
7
 74
0
 42
0.0000001
 43
0.0000001
 44
0.0000000001
 40
0.0
 40
0.0
 40
0.0
 40
0.0
 40
0.2372214625
 40
0.5000061395
 40
0.7627874959
 40
1.0
 40
1.0
 40
1.0
 40
1.0
 10
-57.7171434772
 20
8.7928509312
 30
0.0
 10
-57.8074850818
 20
8.8450130415
 30
0.0
 10
-57.978463377
 20
8.9889115124
 30
0.0
 10
-58.1780241312
 20
9.261616438
 30
0.0
 10
-58.3144120166
 20
9.5707897561
 30
0.0
 10
-58.3535395803
 20
9.7908060741
 30
0.0
 10
-58.3535395803
 20
9.8951213144
 30
0.0
  0
SPLINE
  5
3DE
100
AcDbEntity
  8
0
100
AcDbSpline
 62
250
  6
CONTINUOUS
 70
0
 71
3
 72
11
 73
7
 74
0
 42
0.0000001
 43
0.0000001
 44
0.0000000001
 40
0.0
 40
0.0
 40
0.0
 40
0.0
 40
0.2372383085
 40
0.5
 40
0.7627616915
 40
1.0
 40
1.0
 40
1.0
 40
1.0
 10
-58.3535395803
 20
9.8951213144
 30
0.0
 10
-58.3234233827
 20
9.8777325993
 30
0.0
 10
-58.253387622
 20
9.8523570698
 30
0.0
 10
-58.1414075459
 20
9.8401992318
 30
0.0
 10
-58.0294274698
 20
9.8523570698
 30
0.0
 10
-57.9593917091
 20
9.8777325993
 30
0.0
 10
-57.9292755116
 20
9.8951213144
 30
0.0
  0
SPLINE
  5
3DF
100
AcDbEntity
  8
0
100
AcDbSpline
 62
250
  6
CONTINUOUS
 70
0
 71
3
 72
11
 73
7
 74
0
 42
0.0000001
 43
0.0000001
 44
0.0000000001
 40
0.0
 40
0.0
 40
0.0
 40
0.0
 40
0.2372324595
 40
0.4999938932
 40
0.7627586504
 40
1.0
 40
1.0
 40
1.0
 40
1.0
 10
-57.7171434772
 20
8.7928509312
 30
0.0
 10
-57.7171434772
 20
8.827625594
 30
0.0
 10
-57.7040996057
 20
8.9009642815
 30
0.0
 10
-57.6586379344
 20
9.0040190137
 30
0.0
 10
-57.5921198379
 20
9.0949182945
 30
0.0
 10
-57.5351278276
 20
9.1428855692
 30
0.0
 10
-57.5050114428
 20
9.1602743923
 30
0.0
  0
SPLINE
  5
3E0
100
AcDbEntity
  8
0
100
AcDbSpline
 62
250
  6
CONTINUOUS
 70
0
 71
3
 72
11
 73
7
 74
0
 42
0.0000001
 43
0.0000001
 44
0.0000000001
 40
0.0
 40
0.0
 40
0.0
 40
0.0
 40
0.2372324595
 40
0.4999938932
 40
0.7627586504
 40
1.0
 40
1.0
 40
1.0
 40
1.0
 10
53.1925551519
 20
-55.2450190322
 30
0.0
 10
53.1925551519
 20
-55.2102443695
 30
0.0
 10
53.2055990234
 20
-55.136905682
 30
0.0
 10
53.2510606947
 20
-55.0338509498
 30
0.0
 10
53.3175787913
 20
-54.942951669
 30
0.0
 10
53.3745708015
 20
-54.8949843943
 30
0.0
 10
53.4046871863
 20
-54.8775955712
 30
0.0
  0
SPLINE
  5
3E1
100
AcDbEntity
  8
0
100
AcDbSpline
 62
250
  6
CONTINUOUS
 70
0
 71
3
 72
11
 73
7
 74
0
 42
0.0000001
 43
0.0000001
 44
0.0000000001
 40
0.0
 40
0.0
 40
0.0
 40
0.0
 40
0.2896952569
 40
0.5490778583
 40
0.7822096781
 40
1.0
 40
1.0
 40
1.0
 40
1.0
 10
53.828951255
 20
-54.8776429171
 30
0.0
 10
53.8157875241
 20
-54.8700423438
 30
0.0
 10
53.7919049188
 20
-54.8535920014
 30
0.0
 10
53.7633619921
 20
-54.823592849
 30
0.0
 10
53.7453061412
 20
-54.7904064764
 30
0.0
 10
53.7410832893
 20
-54.7665880739
 30
0.0
 10
53.7410832893
 20
-54.7551605391
 30
0.0
  0
SPLINE
  5
3E2
100
AcDbEntity
  8
0
100
AcDbSpline
 62
250
  6
CONTINUOUS
 70
0
 71
3
 72
11
 73
7
 74
0
 42
0.0000001
 43
0.0000001
 44
0.0000000001
 40
0.0
 40
0.0
 40
0.0
 40
0.0
 40
0.2896952569
 40
0.5490778583
 40
0.7822096781
 40
1.0
 40
1.0
 40
1.0
 40
1.0
 10
53.828951255
 20
-12.0537768993
 30
0.0
 10
53.8157875241
 20
-12.0461763261
 30
0.0
 10
53.7919049188
 20
-12.0297259836
 30
0.0
 10
53.7633619921
 20
-11.9997268312
 30
0.0
 10
53.7453061412
 20
-11.9665404586
 30
0.0
 10
53.7410832893
 20
-11.9427220561
 30
0.0
 10
53.7410832893
 20
-11.9312945213
 30
0.0
  0
SPLINE
  5
3E3
100
AcDbEntity
  8
0
100
AcDbSpline
 62
250
  6
CONTINUOUS
 70
0
 71
3
 72
15
 73
11
 74
0
 42
0.0000001
 43
0.0000001
 44
0.0000000001
 40
0.0
 40
0.0
 40
0.0
 40
0.0
 40
0.1448957007
 40
0.2745178341
 40
0.3911045571
 40
0.4999889295
 40
0.6088753302
 40
0.7254674115
 40
0.8550967174
 40
1.0
 40
1.0
 40
1.0
 40
1.0
 10
53.828951255
 20
-54.8776429171
 30
0.0
 10
53.828951255
 20
-54.9232570841
 30
0.0
 10
53.8220566734
 20
-55.0099792469
 30
0.0
 10
53.7869218422
 20
-55.129101941
 30
0.0
 10
53.727745917
 20
-55.2258311843
 30
0.0
 10
53.6456092646
 20
-55.2949106123
 30
0.0
 10
53.5447107484
 20
-55.3314922828
 30
0.0
 10
53.4313482407
 20
-55.3343655432
 30
0.0
 10
53.3106132948
 20
-55.3052233323
 30
0.0
 10
53.23205961
 20
-55.2678284112
 30
0.0
 10
53.1925551519
 20
-55.2450190322
 30
0.0
  0
SPLINE
  5
3E4
100
AcDbEntity
  8
0
100
AcDbSpline
 62
250
  6
CONTINUOUS
 70
0
 71
3
 72
11
 73
7
 74
0
 42
0.0000001
 43
0.0000001
 44
0.0000000001
 40
0.0
 40
0.0
 40
0.0
 40
0.0
 40
0.2897008281
 40
0.5490847291
 40
0.7822142041
 40
1.0
 40
1.0
 40
1.0
 40
1.0
 10
53.1925551519
 20
-10.9515065162
 30
0.0
 10
53.1925551519
 20
-10.966705159
 30
0.0
 10
53.1948590099
 20
-10.9956097714
 30
0.0
 10
53.2065644048
 20
-11.0353235571
 30
0.0
 10
53.2262725025
 20
-11.0675498094
 30
0.0
 10
53.2447851132
 20
-11.0831144192
 30
0.0
 10
53.2546799382
 20
-11.0888275745
 30
0.0
  0
SPLINE
  5
3E5
100
AcDbEntity
  8
0
100
AcDbSpline
 62
250
  6
CONTINUOUS
 70
0
 71
3
 72
11
 73
7
 74
0
 42
0.0000001
 43
0.0000001
 44
0.0000000001
 40
0.0
 40
0.0
 40
0.0
 40
0.0
 40
0.2897008281
 40
0.5490847291
 40
0.7822142041
 40
1.0
 40
1.0
 40
1.0
 40
1.0
 10
-57.7171434772
 20
53.0863634473
 30
0.0
 10
-57.7171434772
 20
53.0711648044
 30
0.0
 10
-57.7148396192
 20
53.042260192
 30
0.0
 10
-57.7031342243
 20
53.0025464063
 30
0.0
 10
-57.6834261266
 20
52.9703201541
 30
0.0
 10
-57.6649135159
 20
52.9547555442
 30
0.0
 10
-57.6550186909
 20
52.9490423889
 30
0.0
  0
SPLINE
  5
3E6
100
AcDbEntity
  8
0
100
AcDbSpline
 62
250
  6
CONTINUOUS
 70
0
 71
3
 72
11
 73
7
 74
0
 42
0.0000001
 43
0.0000001
 44
0.0000000001
 40
0.0
 40
0.0
 40
0.0
 40
0.0
 40
0.2372383085
 40
0.5
 40
0.7627616915
 40
1.0
 40
1.0
 40
1.0
 40
1.0
 10
-58.3535395803
 20
52.7189873321
 30
0.0
 10
-58.3234233827
 20
52.7015986171
 30
0.0
 10
-58.253387622
 20
52.6762230876
 30
0.0
 10
-58.1414075459
 20
52.6640652496
 30
0.0
 10
-58.0294274698
 20
52.6762230876
 30
0.0
 10
-57.9593917091
 20
52.7015986171
 30
0.0
 10
-57.9292755116
 20
52.7189873321
 30
0.0
  0
SPLINE
  5
3E7
100
AcDbEntity
  8
0
100
AcDbSpline
 62
250
  6
CONTINUOUS
 70
0
 71
3
 72
9
 73
5
 74
0
 42
0.0000001
 43
0.0000001
 44
0.0000000001
 40
0.0
 40
0.0
 40
0.0
 40
0.0
 40
0.2415679929
 40
1.0
 40
1.0
 40
1.0
 40
1.0
 10
53.1925551519
 20
-10.9515065162
 30
0.0
 10
53.2030405392
 20
-10.9575606474
 30
0.0
 10
53.2459038156
 20
-10.9835567271
 30
0.0
 10
53.2866120189
 20
-11.0130520289
 30
0.0
 10
53.3162087076
 20
-11.0369070877
 30
0.0
  0
SPLINE
  5
3E8
100
AcDbEntity
  8
0
100
AcDbSpline
 62
250
  6
CONTINUOUS
 70
0
 71
3
 72
11
 73
7
 74
0
 42
0.0000001
 43
0.0000001
 44
0.0000000001
 40
0.0
 40
0.0
 40
0.0
 40
0.0
 40
0.2482687432
 40
0.5109238557
 40
0.767752278
 40
1.0
 40
1.0
 40
1.0
 40
1.0
 10
53.3162087076
 20
-11.0369070877
 30
0.0
 10
53.3916047563
 20
-11.0976766283
 30
0.0
 10
53.5308797887
 20
-11.2429451214
 30
0.0
 10
53.6920526723
 20
-11.4974198969
 30
0.0
 10
53.7992375905
 20
-11.7722379363
 30
0.0
 10
53.828951255
 20
-11.9631884174
 30
0.0
 10
53.828951255
 20
-12.0537768993
 30
0.0
  0
SPLINE
  5
3E9
100
AcDbEntity
  8
0
100
AcDbSpline
 62
250
  6
CONTINUOUS
 70
0
 71
3
 72
11
 73
7
 74
0
 42
0.0000001
 43
0.0000001
 44
0.0000000001
 40
0.0
 40
0.0
 40
0.0
 40
0.0
 40
0.2372223819
 40
0.5000061071
 40
0.7627865071
 40
1.0
 40
1.0
 40
1.0
 40
1.0
 10
-57.5050114428
 20
9.1602743923
 30
0.0
 10
-57.5652394127
 20
9.1950492673
 30
0.0
 10
-57.6792248981
 20
9.2909816476
 30
0.0
 10
-57.8122651396
 20
9.4727847372
 30
0.0
 10
-57.9031903795
 20
9.6788999719
 30
0.0
 10
-57.9292755116
 20
9.8255775309
 30
0.0
 10
-57.9292755116
 20
9.8951213144
 30
0.0
  0
SPLINE
  5
3EA
100
AcDbEntity
  8
0
100
AcDbSpline
 62
250
  6
CONTINUOUS
 70
0
 71
3
 72
11
 73
7
 74
0
 42
0.0000001
 43
0.0000001
 44
0.0000000001
 40
0.0
 40
0.0
 40
0.0
 40
0.0
 40
0.2898141455
 40
0.5490527546
 40
0.7822335352
 40
1.0
 40
1.0
 40
1.0
 40
1.0
 10
-74.563962539
 20
76.9997161475
 30
0.0
 10
-74.6298097724
 20
77.0377355148
 30
0.0
 10
-74.7607289472
 20
77.1000711127
 30
0.0
 10
-74.9620070017
 20
77.1486085764
 30
0.0
 10
-75.1508243797
 20
77.1438881345
 30
0.0
 10
-75.2645191211
 20
77.1025921822
 30
0.0
 10
-75.3139967618
 20
77.07402442
 30
0.0
  0
SPLINE
  5
3EB
100
AcDbEntity
  8
0
100
AcDbSpline
 62
250
  6
CONTINUOUS
 70
0
 71
3
 72
11
 73
7
 74
0
 42
0.0000001
 43
0.0000001
 44
0.0000000001
 40
0.0
 40
0.0
 40
0.0
 40
0.0
 40
0.2372123995
 40
0.4999938932
 40
0.7627787109
 40
1.0
 40
1.0
 40
1.0
 40
1.0
 10
71.8071411666
 20
-8.7378300865
 30
0.0
 10
71.8071411667
 20
-8.5639715547
 30
0.0
 10
71.7419256049
 20
-8.1972784259
 30
0.0
 10
71.5146136974
 20
-7.6819895324
 30
0.0
 10
71.1820117987
 20
-7.2274824374
 30
0.0
 10
70.8970501173
 20
-6.9876495055
 30
0.0
 10
70.7464809949
 20
-6.9007127814
 30
0.0
  0
SPLINE
  5
3EC
100
AcDbEntity
  8
0
100
AcDbSpline
 62
250
  6
CONTINUOUS
 70
0
 71
3
 72
11
 73
7
 74
0
 42
0.0000001
 43
0.0000001
 44
0.0000000001
 40
0.0
 40
0.0
 40
0.0
 40
0.0
 40
0.2897993089
 40
0.5490484838
 40
0.7822275305
 40
1.0
 40
1.0
 40
1.0
 40
1.0
 10
-57.9292755116
 20
52.7189873321
 30
0.0
 10
-57.9292755115
 20
52.7493953331
 30
0.0
 10
-57.9246835339
 20
52.8072047822
 30
0.0
 10
-57.9012470419
 20
52.8866253915
 30
0.0
 10
-57.8618518286
 20
52.9510803121
 30
0.0
 10
-57.8248146302
 20
52.9822036997
 30
0.0
 10
-57.8050259389
 20
52.9936294488
 30
0.0
  0
SPLINE
  5
3ED
100
AcDbEntity
  8
0
100
AcDbSpline
 62
250
  6
CONTINUOUS
 70
0
 71
3
 72
11
 73
7
 74
0
 42
0.0000001
 43
0.0000001
 44
0.0000000001
 40
0.0
 40
0.0
 40
0.0
 40
0.0
 40
0.2372200919
 40
0.4999938933
 40
0.7627710182
 40
1.0
 40
1.0
 40
1.0
 40
1.0
 10
70.3929276043
 20
-7.5130852164
 30
0.0
 10
70.3929276043
 20
-7.4551304722
 30
0.0
 10
70.4146649962
 20
-7.3328988913
 30
0.0
 10
70.4904386932
 20
-7.1611394809
 30
0.0
 10
70.6013013843
 20
-7.0096362418
 30
0.0
 10
70.6962896417
 20
-6.9296926396
 30
0.0
 10
70.7464809949
 20
-6.9007127814
 30
0.0
  0
SPLINE
  5
3EE
100
AcDbEntity
  8
0
100
AcDbSpline
 62
250
  6
CONTINUOUS
 70
0
 71
3
 72
11
 73
7
 74
0
 42
0.0000001
 43
0.0000001
 44
0.0000000001
 40
0.0
 40
0.0
 40
0.0
 40
0.0
 40
0.2372259409
 40
0.5
 40
0.7627740591
 40
1.0
 40
1.0
 40
1.0
 40
1.0
 10
71.1000343855
 20
-8.7378300865
 30
0.0
 10
71.1502254266
 20
-8.7668097646
 30
0.0
 10
71.2669508741
 20
-8.8091046047
 30
0.0
 10
71.4535877761
 20
-8.8293647533
 30
0.0
 10
71.640224678
 20
-8.8091046047
 30
0.0
 10
71.7569501255
 20
-8.7668097646
 30
0.0
 10
71.8071411666
 20
-8.7378300865
 30
0.0
  0
SPLINE
  5
3EF
100
AcDbEntity
  8
0
100
AcDbSpline
 62
250
  6
CONTINUOUS
 70
0
 71
3
 72
11
 73
7
 74
0
 42
0.0000001
 43
0.0000001
 44
0.0000000001
 40
0.0
 40
0.0
 40
0.0
 40
0.0
 40
0.2372259409
 40
0.5
 40
0.7627740591
 40
1.0
 40
1.0
 40
1.0
 40
1.0
 10
71.1000343855
 20
-78.1378036139
 30
0.0
 10
71.1502254266
 20
-78.166783292
 30
0.0
 10
71.2669508741
 20
-78.2090781321
 30
0.0
 10
71.4535877761
 20
-78.2293382807
 30
0.0
 10
71.640224678
 20
-78.2090781321
 30
0.0
 10
71.7569501255
 20
-78.166783292
 30
0.0
 10
71.8071411666
 20
-78.1378036139
 30
0.0
  0
SPLINE
  5
3F0
100
AcDbEntity
  8
0
100
AcDbSpline
 62
250
  6
CONTINUOUS
 70
0
 71
3
 72
11
 73
7
 74
0
 42
0.0000001
 43
0.0000001
 44
0.0000000001
 40
0.0
 40
0.0
 40
0.0
 40
0.0
 40
0.2897723599
 40
0.5490642322
 40
0.7822230543
 40
1.0
 40
1.0
 40
1.0
 40
1.0
 10
70.3929276043
 20
-78.5459992974
 30
0.0
 10
70.3929276043
 20
-78.5713367433
 30
0.0
 10
70.3967580983
 20
-78.6195112754
 30
0.0
 10
70.4162809082
 20
-78.6856974157
 30
0.0
 10
70.4491196102
 20
-78.7394059187
 30
0.0
 10
70.4799792931
 20
-78.7653441331
 30
0.0
 10
70.4964700828
 20
-78.7748657051
 30
0.0
  0
SPLINE
  5
3F1
100
AcDbEntity
  8
0
100
AcDbSpline
 62
250
  6
CONTINUOUS
 70
0
 71
3
 72
11
 73
7
 74
0
 42
0.0000001
 43
0.0000001
 44
0.0000000001
 40
0.0
 40
0.0
 40
0.0
 40
0.0
 40
0.2897723599
 40
0.5490642322
 40
0.7822230543
 40
1.0
 40
1.0
 40
1.0
 40
1.0
 10
-74.9175159296
 20
5.3544296315
 30
0.0
 10
-74.9175159296
 20
5.3290921856
 30
0.0
 10
-74.9136854355
 20
5.2809176535
 30
0.0
 10
-74.8941626257
 20
5.2147315132
 30
0.0
 10
-74.8613239237
 20
5.1610230101
 30
0.0
 10
-74.8304642407
 20
5.1350847957
 30
0.0
 10
-74.8139734511
 20
5.1255632238
 30
0.0
  0
SPLINE
  5
3F2
100
AcDbEntity
  8
0
100
AcDbSpline
 62
250
  6
CONTINUOUS
 70
0
 71
3
 72
11
 73
7
 74
0
 42
0.0000001
 43
0.0000001
 44
0.0000000001
 40
0.0
 40
0.0
 40
0.0
 40
0.0
 40
0.2897667745
 40
0.5490573594
 40
0.7822185358
 40
1.0
 40
1.0
 40
1.0
 40
1.0
 10
-75.6246227107
 20
6.5791745016
 30
0.0
 10
-75.6465677825
 20
6.591845311
 30
0.0
 10
-75.6863769146
 20
6.6192546103
 30
0.0
 10
-75.7339385125
 20
6.6692634139
 30
0.0
 10
-75.7640340181
 20
6.7245660352
 30
0.0
 10
-75.7710669843
 20
6.7642665914
 30
0.0
 10
-75.7710669843
 20
6.7833117982
 30
0.0
  0
SPLINE
  5
3F3
100
AcDbEntity
  8
0
100
AcDbSpline
 62
250
  6
CONTINUOUS
 70
0
 71
3
 72
11
 73
7
 74
0
 42
0.0000001
 43
0.0000001
 44
0.0000000001
 40
0.0
 40
0.0
 40
0.0
 40
0.0
 40
0.2897667745
 40
0.5490573594
 40
0.7822185358
 40
1.0
 40
1.0
 40
1.0
 40
1.0
 10
-75.6246227107
 20
75.979148029
 30
0.0
 10
-75.6465677825
 20
75.9918188383
 30
0.0
 10
-75.6863769146
 20
76.0192281377
 30
0.0
 10
-75.7339385125
 20
76.0692369413
 30
0.0
 10
-75.7640340181
 20
76.1245395626
 30
0.0
 10
-75.7710669843
 20
76.1642401187
 30
0.0
 10
-75.7710669843
 20
76.1832853256
 30
0.0
  0
SPLINE
  5
3F4
100
AcDbEntity
  8
0
100
AcDbSpline
 62
250
  6
CONTINUOUS
 70
0
 71
3
 72
11
 73
7
 74
0
 42
0.0000001
 43
0.0000001
 44
0.0000000001
 40
0.0
 40
0.0
 40
0.0
 40
0.0
 40
0.2372200919
 40
0.4999938933
 40
0.7627710182
 40
1.0
 40
1.0
 40
1.0
 40
1.0
 10
-74.9175159296
 20
76.3873437124
 30
0.0
 10
-74.9175159296
 20
76.4452984566
 30
0.0
 10
-74.8957785376
 20
76.5675300375
 30
0.0
 10
-74.8200048406
 20
76.739289448
 30
0.0
 10
-74.7091421495
 20
76.8907926871
 30
0.0
 10
-74.6141538921
 20
76.9707362892
 30
0.0
 10
-74.563962539
 20
76.9997161475
 30
0.0
  0
ELLIPSE
  5
3F5
100
AcDbEntity
  8
RACCORDO
100
AcDbEllipse
 62
7
  6
CONTINUOUS
 10
-53.7984192347
 20
46.5630263929
 30
0.0
 11
0.2758078635
 21
-0.0609777515
 31
0.0
 40
0.2088113763
 41
-0.9866670507
 42
-0.2145955968
  0
ELLIPSE
  5
3F6
100
AcDbEntity
  8
RACCORDO
100
AcDbEllipse
 62
7
  6
CONTINUOUS
 10
-53.7984192347
 20
25.0898581133
 30
0.0
 11
0.2758078635
 21
-0.0609777515
 31
0.0
 40
0.2088113763
 41
-0.9866670507
 42
-0.2145955968
  0
ELLIPSE
  5
3F7
100
AcDbEntity
  8
RACCORDO
100
AcDbEllipse
 62
7
  6
CONTINUOUS
 10
-54.610270947
 20
24.1422343075
 30
0.0
 11
0.487138911
 21
0.8734102324
 31
0.0
 40
0.5671693725
 41
0.2534204135
 42
0.6461194952
  0
ELLIPSE
  5
3F8
100
AcDbEntity
  8
RACCORDO
100
AcDbEllipse
 62
7
  6
CONTINUOUS
 10
-54.610270947
 20
45.6154025872
 30
0.0
 11
0.487138911
 21
0.8734102324
 31
0.0
 40
0.5671693725
 41
0.2534204135
 42
0.6461194952
  0
ELLIPSE
  5
3F9
100
AcDbEntity
  8
RACCORDO
100
AcDbEllipse
 62
7
  6
CONTINUOUS
 10
-54.610270947
 20
23.5959856258
 30
0.0
 11
0.487138911
 21
0.8734102324
 31
0.0
 40
0.5671693725
 41
-2.2336737706
 42
-1.8409746889
  0
ELLIPSE
  5
3FA
100
AcDbEntity
  8
RACCORDO
100
AcDbEllipse
 62
7
  6
CONTINUOUS
 10
-54.610270947
 20
45.0691539054
 30
0.0
 11
0.487138911
 21
0.8734102324
 31
0.0
 40
0.5671693725
 41
-2.2336737706
 42
-1.8409746889
  0
ELLIPSE
  5
3FB
100
AcDbEntity
  8
RACCORDO
100
AcDbEllipse
 62
7
  6
CONTINUOUS
 10
-53.7984192347
 20
45.4248187515
 30
0.0
 11
0.2467240346
 21
0.2959232061
 31
0.0
 40
0.4188007473
 41
-1.4982967879
 42
0.0723472399
  0
ELLIPSE
  5
3FC
100
AcDbEntity
  8
RACCORDO
100
AcDbEllipse
 62
7
  6
CONTINUOUS
 10
-53.7984192347
 20
23.9516504718
 30
0.0
 11
0.2467240346
 21
0.2959232061
 31
0.0
 40
0.4188007473
 41
-1.4982967879
 42
0.0723472399
  0
ELLIPSE
  5
3FD
100
AcDbEntity
  8
RACCORDO
100
AcDbEllipse
 62
7
  6
CONTINUOUS
 10
-55.8070797373
 20
26.0453786275
 30
0.0
 11
0.4935308613
 21
0.8697499888
 31
0.0
 40
0.5722717666
 41
0.2575598763
 42
0.650258958
  0
ELLIPSE
  5
3FE
100
AcDbEntity
  8
RACCORDO
100
AcDbEllipse
 62
7
  6
CONTINUOUS
 10
-55.8070797373
 20
47.5185469072
 30
0.0
 11
0.4935308613
 21
0.8697499888
 31
0.0
 40
0.5722717666
 41
0.2575598763
 42
0.650258958
  0
ENDSEC
  0
SECTION
  2
OBJECTS
  0
DICTIONARY
  5
C
100
AcDbDictionary
280
0
281
1
  3
ACAD_GROUP
350
D
  3
ACAD_MLINESTYLE
350
17
  3
ACAD_LAYOUT
350
1A
  3
ACAD_PLOTSETTINGS
350
19
  3
ACAD_PLOTSTYLENAME
350
E
  0
DICTIONARY
  5
D
102
{ACAD_REACTORS
330
C
102
}
100
AcDbDictionary
280
0
281
1
  0
ACDBDICTIONARYWDFLT
  5
E
102
{ACAD_REACTORS
330
C
102
}
100
AcDbDictionary
281
1
  3
Normal
350
F
100
AcDbDictionaryWithDefault
340
F
  0
DICTIONARY
  5
17
102
{ACAD_REACTORS
330
C
102
}
100
AcDbDictionary
280
0
281
1
  3
Standard
350
18
  0
DICTIONARY
  5
19
102
{ACAD_REACTORS
330
C
102
}
100
AcDbDictionary
281
1
  0
DICTIONARY
  5
1A
102
{ACAD_REACTORS
330
C
102
}
100
AcDbDictionary
281
1
  3
Model
350
3FF
  3
Layout1
350
400
  0
ACDBPLACEHOLDER
  5
F
102
{ACAD_REACTORS
330
E
102
}
  0
MLINESTYLE
  5
18
102
{ACAD_REACTORS
330
17
102
}
100
AcDbMlineStyle
  2
STANDARD
 70
0
  3

 62
256
 51
90.0
 52
90.0
 71
2
 49
0.5
 62
256
  6
BYLAYER
 49
-0.5
 62
256
  6
BYLAYER
  0
LAYOUT
  5
3FF
102
{ACAD_REACTORS
330
1A
102
}
100
AcDbPlotSettings
  1

  2
none_device
  4

  6

 40
0.0
 41
0.0
 42
0.0
 43
0.0
 44
210.0
 45
297.0
 46
0.0
 47
0.0
 48
0.0
 49
0.0
140
0.0
141
0.0
142
1.0
143
1.0
 70
1024
 72
1
 73
0
 74
0
  7

 75
0
147
1.0
148
0.0
149
0.0
100
AcDbLayout
  1
Model
 70
0
 71
0
 10
0.0
 20
0.0
 11
210.0
 21
297.0
 12
0.0
 22
0.0
 32
0.0
 14
0.0
 24
0.0
 34
0.0
 15
0.0
 25
0.0
 35
0.0
146
0.0
 13
0.0
 23
0.0
 33
0.0
 16
1.0
 26
0.0
 36
0.0
 17
0.0
 27
1.0
 37
0.0
 76
0
330
213
345
0
346
0
  0
LAYOUT
  5
400
102
{ACAD_REACTORS
330
1A
102
}
100
AcDbPlotSettings
  1

  2
none_device
  4

  6

 40
0.0
 41
0.0
 42
0.0
 43
0.0
 44
210.0
 45
297.0
 46
0.0
 47
0.0
 48
0.0
 49
0.0
140
0.0
141
0.0
142
1.0
143
1.0
 70
0
 72
1
 73
0
 74
0
  7

 75
0
147
1.0
148
0.0
149
0.0
100
AcDbLayout
  1
Layout1
 70
0
 71
1
 10
0.0
 20
0.0
 11
210.0
 21
297.0
 12
0.0
 22
0.0
 32
0.0
 14
0.0
 24
0.0
 34
0.0
 15
0.0
 25
0.0
 35
0.0
146
0.0
 13
0.0
 23
0.0
 33
0.0
 16
1.0
 26
0.0
 36
0.0
 17
0.0
 27
1.0
 37
0.0
 76
0
330
214
345
0
346
0
  0
ENDSEC
  0
EOF
