  0
SECTION
  2
HEADER
  9
$ACADVER
  1
AC1024
  9
$DWGCODEPAGE
  3
ANSI_1252
  9
$EXTMAX
 10
297.0
 20
210.0
 30
0.0
  9
$EXTMIN
 10
0.0
 20
0.0
 30
0.0
  9
$LIMMIN
 10
0.0
 20
0.0
  9
$LIMMAX
 10
297.0
 20
210.0
  9
$VIEWCTR
 10
148.5
 20
105.0
  9
$VIEWSIZE
 40
210.0
  9
$CLAYER
  8
0
  9
$LTSCALE
 40
16.335
  9
$CELTYPE
  6
BYLAYER
  9
$DIMSCALE
 40
1.0
  9
$DIMASZ
 40
3.0
  9
$DIMEXO
 40
0.5
  9
$DIMDLI
 40
11.286
  9
$DIMEXE
 40
1.5
  9
$DIMCEN
 40
2.673
  9
$DIMLFAC
 40
1.0
  9
$DIMBLK
  1
_FILLED
  9
$DIMALT
 70
0
  9
$DIMALTF
 40
0.0393700787
  9
$DIMTXT
 40
3.0
  9
$DIMTOL
 70
1
  9
$DIMLIM
 70
0
  9
$DIMTFAC
 40
1.0
  9
$DIMTP
 40
0.01
  9
$DIMTM
 40
0.01
  9
$DIMGAP
 40
0.625
  9
$DIMDSEP
 70
44
  9
$AUNITS
 70
0
  9
$PDMODE
 70
3
  9
$PDSIZE
 40
3.0
  9
$HANDSEED
  5
3E4
  9
$TILEMODE
 70
1
  9
$MEASUREMENT
 70
1
  9
$INSUNITS
 70
4
  0
ENDSEC
  0
SECTION
  2
CLASSES
  0
CLASS
  1
ACDBDICTIONARYWDFLT
  2
AcDbDictionaryWithDefault
  3
AutoCAD 2000
 90
0
 91
1
280
0
281
0
  0
CLASS
  1
ACDBPLACEHOLDER
  2
AcDbPlaceHolder
  3
AutoCAD 2000
 90
0
 91
1
280
0
281
0
  0
CLASS
  1
LAYOUT
  2
AcDbLayout
  3
AutoCAD 2000
 90
0
 91
0
280
0
281
0
  0
ENDSEC
  0
SECTION
  2
TABLES
  0
TABLE
  2
VPORT
  5
8
100
AcDbSymbolTable
 70
2
  0
VPORT
  5
1F4
100
AcDbSymbolTableRecord
100
AcDbViewportTableRecord
  2
*ACTIVE
 70
0
 10
0.0
 20
0.0
 11
1.0
 21
1.0
 12
148.5
 22
105.0
 13
0.0
 23
0.0
 14
1.0
 24
1.0
 15
0.0
 25
0.0
 16
0.0
 26
0.0
 36
1.0
 17
0.0
 27
0.0
 37
0.0
 40
210.0
 41
1.4142857143
 42
50.0
 43
0.0
 44
0.0
 50
0.0
 51
0.0
 71
0
 72
100
 73
1
 74
1
 75
0
 76
0
 77
0
 78
0
  0
ENDTAB
  0
TABLE
  2
LTYPE
  5
5
100
AcDbSymbolTable
 70
6
  0
LTYPE
  5
14
100
AcDbSymbolTableRecord
100
AcDbLinetypeTableRecord
  2
BYBLOCK
 70
0
  3

 72
65
 73
0
 40
0.0
  0
LTYPE
  5
15
100
AcDbSymbolTableRecord
100
AcDbLinetypeTableRecord
  2
BYLAYER
 70
0
  3

 72
65
 73
0
 40
0.0
  0
LTYPE
  5
16
100
AcDbSymbolTableRecord
100
AcDbLinetypeTableRecord
  2
CONTINUOUS
 70
64
  3
Solid line
 72
65
 73
0
 40
0.0
  0
LTYPE
  5
1F5
100
AcDbSymbolTableRecord
100
AcDbLinetypeTableRecord
  2
CENTER
 70
64
  3
____ _ ____ _ ____ _ ____ _ ____ _ ____ _ ____
 72
65
 73
4
 40
0.6
 49
0.375
 74
0
 49
-0.075
 74
0
 49
0.075
 74
0
 49
-0.075
 74
0
  0
LTYPE
  5
1F6
100
AcDbSymbolTableRecord
100
AcDbLinetypeTableRecord
  2
HIDDEN
 70
64
  3
- - - - - - - - - - - - - - - - - - - -
 72
65
 73
2
 40
0.2
 49
0.1
 74
0
 49
-0.1
 74
0
  0
LTYPE
  5
1F7
100
AcDbSymbolTableRecord
100
AcDbLinetypeTableRecord
  2
PHANTOM
 70
64
  3
_____ _ _ _____ _ _ _____ _ _ _____
 72
65
 73
6
 40
0.8
 49
0.45
 74
0
 49
-0.05
 74
0
 49
0.1
 74
0
 49
-0.05
 74
0
 49
0.1
 74
0
 49
-0.05
 74
0
  0
LTYPE
  5
1F8
100
AcDbSymbolTableRecord
100
AcDbLinetypeTableRecord
  2
DOT
 70
64
  3
. . . . . . . . . . . . . . . . . . . .
 72
65
 73
2
 40
0.2
 49
0.1
 74
0
 49
-0.1
 74
0
  0
LTYPE
  5
1F9
100
AcDbSymbolTableRecord
100
AcDbLinetypeTableRecord
  2
DASHED
 70
64
  3
- - - - - - - - - - - - - - - - - - - -
 72
65
 73
2
 40
0.2
 49
0.1
 74
0
 49
-0.1
 74
0
  0
ENDTAB
  0
TABLE
  2
LAYER
  5
2
100
AcDbSymbolTable
 70
36
  0
LAYER
  5
10
100
AcDbSymbolTableRecord
100
AcDbLayerTableRecord
  2
0
 70
0
 62
7
  6
CONTINUOUS
370
-3
390
F
  0
LAYER
  5
1FA
100
AcDbSymbolTableRecord
100
AcDbLayerTableRecord
  2
DEFAULT_1
 70
0
 62
7
  6
CENTER
370
-3
390
F
  0
LAYER
  5
1FB
100
AcDbSymbolTableRecord
100
AcDbLayerTableRecord
  2
DEFAULT_2
 70
0
 62
7
  6
HIDDEN
370
-3
390
F
  0
LAYER
  5
1FC
100
AcDbSymbolTableRecord
100
AcDbLayerTableRecord
  2
DEFAULT_3
 70
0
 62
7
  6
PHANTOM
370
-3
390
F
  0
LAYER
  5
1FD
100
AcDbSymbolTableRecord
100
AcDbLayerTableRecord
  2
ASSI
 70
0
 62
7
  6
CONTINUOUS
370
-3
390
F
  0
LAYER
  5
1FE
100
AcDbSymbolTableRecord
100
AcDbLayerTableRecord
  2
COORDINATE
 70
0
 62
7
  6
CONTINUOUS
370
-3
390
F
  0
LAYER
  5
1FF
100
AcDbSymbolTableRecord
100
AcDbLayerTableRecord
  2
COPY_PUBLISH
 70
0
 62
7
  6
CONTINUOUS
370
-3
390
F
  0
LAYER
  5
200
100
AcDbSymbolTableRecord
100
AcDbLayerTableRecord
  2
COSMETICI
 70
0
 62
7
  6
CONTINUOUS
370
-3
390
F
  0
LAYER
  5
201
100
AcDbSymbolTableRecord
100
AcDbLayerTableRecord
  2
CURVE
 70
0
 62
7
  6
CONTINUOUS
370
-3
390
F
  0
LAYER
  5
202
100
AcDbSymbolTableRecord
100
AcDbLayerTableRecord
  2
DRAFT
 70
0
 62
7
  6
CONTINUOUS
370
-3
390
F
  0
LAYER
  5
203
100
AcDbSymbolTableRecord
100
AcDbLayerTableRecord
  2
IMPORT_IGES
 70
0
 62
7
  6
CONTINUOUS
370
-3
390
F
  0
LAYER
  5
204
100
AcDbSymbolTableRecord
100
AcDbLayerTableRecord
  2
INTF_1
 70
0
 62
7
  6
CONTINUOUS
370
-3
390
F
  0
LAYER
  5
205
100
AcDbSymbolTableRecord
100
AcDbLayerTableRecord
  2
INTF_11
 70
0
 62
7
  6
CONTINUOUS
370
-3
390
F
  0
LAYER
  5
206
100
AcDbSymbolTableRecord
100
AcDbLayerTableRecord
  2
INTF_2
 70
0
 62
7
  6
CONTINUOUS
370
-3
390
F
  0
LAYER
  5
207
100
AcDbSymbolTableRecord
100
AcDbLayerTableRecord
  2
NONE
 70
0
 62
7
  6
CONTINUOUS
370
-3
390
F
  0
LAYER
  5
208
100
AcDbSymbolTableRecord
100
AcDbLayerTableRecord
  2
NOTE
 70
0
 62
7
  6
CONTINUOUS
370
-3
390
F
  0
LAYER
  5
209
100
AcDbSymbolTableRecord
100
AcDbLayerTableRecord
  2
PIANI
 70
0
 62
7
  6
CONTINUOUS
370
-3
390
F
  0
LAYER
  5
20A
100
AcDbSymbolTableRecord
100
AcDbLayerTableRecord
  2
PUNTI
 70
0
 62
7
  6
CONTINUOUS
370
-3
390
F
  0
LAYER
  5
20B
100
AcDbSymbolTableRecord
100
AcDbLayerTableRecord
  2
RACCORDO
 70
0
 62
7
  6
CONTINUOUS
370
-3
390
F
  0
LAYER
  5
20C
100
AcDbSymbolTableRecord
100
AcDbLayerTableRecord
  2
SIMBOLI
 70
0
 62
7
  6
CONTINUOUS
370
-3
390
F
  0
LAYER
  5
20D
100
AcDbSymbolTableRecord
100
AcDbLayerTableRecord
  2
SMUSSO
 70
0
 62
7
  6
CONTINUOUS
370
-3
390
F
  0
LAYER
  5
20E
100
AcDbSymbolTableRecord
100
AcDbLayerTableRecord
  2
SUPERFICI
 70
0
 62
7
  6
CONTINUOUS
370
-3
390
F
  0
LAYER
  5
20F
100
AcDbSymbolTableRecord
100
AcDbLayerTableRecord
  2
TRASH
 70
0
 62
7
  6
CONTINUOUS
370
-3
390
F
  0
ENDTAB
  0
TABLE
  2
STYLE
  5
3
100
AcDbSymbolTable
 70
1
  0
STYLE
  5
11
100
AcDbSymbolTableRecord
100
AcDbTextStyleTableRecord
  2
STANDARD
 70
0
 40
0.0
 41
0.8
 50
0.0
 71
0
 42
0.2
  3
txt
  4

  0
STYLE
  5
210
100
AcDbSymbolTableRecord
100
AcDbTextStyleTableRecord
  2
TEXTSTYLE_1
 70
0
 40
0.0
 41
0.8
 50
0.0
 71
0
 42
0.2
  3
gdt
  4

  0
ENDTAB
  0
TABLE
  2
VIEW
  5
6
100
AcDbSymbolTable
 70
0
  0
ENDTAB
  0
TABLE
  2
UCS
  5
7
100
AcDbSymbolTable
 70
0
  0
ENDTAB
  0
TABLE
  2
APPID
  5
9
100
AcDbSymbolTable
 70
1
  0
APPID
  5
211
100
AcDbSymbolTableRecord
100
AcDbRegAppTableRecord
  2
ACAD
 70
0
  0
ENDTAB
  0
TABLE
  2
BLOCK_RECORD
  5
1
100
AcDbSymbolTable
 70
0
  0
BLOCK_RECORD
  5
212
100
AcDbSymbolTableRecord
100
AcDbBlockTableRecord
  2
*Model_Space
  0
BLOCK_RECORD
  5
213
100
AcDbSymbolTableRecord
100
AcDbBlockTableRecord
  2
*Paper_Space
  0
BLOCK_RECORD
  5
214
100
AcDbSymbolTableRecord
100
AcDbBlockTableRecord
  2
_FILLED
  0
ENDTAB
  0
TABLE
  2
DIMSTYLE
  5
A
100
AcDbSymbolTable
 70
1
100
AcDbDimStyleTable
 71
0
  0
DIMSTYLE
105
215
100
AcDbSymbolTableRecord
100
AcDbDimStyleTableRecord
  2
STANDARD
 70
0
  3

  4

 40
1.0
 41
3.0
 42
0.5
 43
0.38
 44
1.5
 45
0.0
 46
0.0
 47
0.01
 48
0.01
140
3.0
141
0.09
142
0.0
143
25.4
144
1.0
145
0.0
146
1.0
147
0.625
 71
1
 72
0
 73
0
 74
0
 75
0
 76
0
 77
1
 78
8
 79
2
170
0
171
1
172
0
173
0
174
0
175
0
176
0
177
0
178
0
270
2
179
2
271
2
272
2
273
2
274
2
275
0
280
0
281
0
282
0
283
1
284
8
285
0
286
0
287
3
288
0
340
11
278
44
341
214
342
214
343
214
344
214
  0
ENDTAB
  0
ENDSEC
  0
SECTION
  2
BLOCKS
  0
BLOCK
  5
20
100
AcDbEntity
  8
0
100
AcDbBlockBegin
  2
*Model_Space
 70
0
 10
0.0
 20
0.0
 30
0.0
  3
*Model_Space
  1

  0
ENDBLK
  5
21
100
AcDbEntity
  8
0
100
AcDbBlockEnd
  0
BLOCK
  5
1C
100
AcDbEntity
  8
0
100
AcDbBlockBegin
  2
*Paper_Space
 70
0
 10
0.0
 20
0.0
 30
0.0
  3
*Paper_Space
  1

  0
ENDBLK
  5
1D
100
AcDbEntity
  8
0
100
AcDbBlockEnd
  0
BLOCK
  5
216
100
AcDbEntity
  8
0
100
AcDbBlockBegin
  2
_FILLED
 70
64
 10
0.0
 20
0.0
  3
_FILLED
  1

  0
SOLID
  5
217
100
AcDbEntity
  8
0
  6
BYBLOCK
 62
0
100
AcDbTrace
 10
0.0
 20
0.0
 11
-1.0
 21
0.3166666667
 12
-1.0
 22
-0.3166666667
 13
-1.0
 23
-0.3166666667
  0
ENDBLK
  5
218
100
AcDbEntity
  8
0
  6
BYBLOCK
 62
0
100
AcDbBlockEnd
  0
ENDSEC
  0
SECTION
  2
ENTITIES
  0
LWPOLYLINE
  5
219
100
AcDbEntity
  8
RACCORDO
100
AcDbPolyline
 62
7
  6
CONTINUOUS
 90
18
 70
0
 10
-75.593903706
 20
76.7451361396
 10
-75.629290986
 20
76.7187880626
 10
-75.66986346
 20
76.6847679236
 10
-75.7088789441
 20
76.6476222465
 10
-75.7460797572
 20
76.6074128772
 10
-75.7811682476
 20
76.5643091958
 10
-75.8139689944
 20
76.5183909864
 10
-75.8443236401
 20
76.4697336506
 10
-75.8720335097
 20
76.4185245837
 10
-75.8969916463
 20
76.364853385
 10
-75.9190921652
 20
76.3088205513
 10
-75.9382080891
 20
76.2506219348
 10
-75.9542761191
 20
76.1903507963
 10
-75.9672442648
 20
76.1280691351
 10
-75.9770458643
 20
76.0639010486
 10
-75.9836346717
 20
75.997934731
 10
-75.9869697548
 20
75.9302352458
 10
-75.9874003338
 20
75.895182092
  0
LINE
  5
21A
100
AcDbEntity
  8
RACCORDO
100
AcDbLine
 62
7
  6
CONTINUOUS
 10
-75.594261421
 20
76.7448867377
 11
-74.5644591049
 21
77.4710146184
  0
LINE
  5
21B
100
AcDbEntity
  8
RACCORDO
100
AcDbLine
 62
250
  6
CONTINUOUS
 10
-74.799766173
 20
76.6998205151
 11
-73.7771590208
 21
77.420874986
  0
LINE
  5
21C
100
AcDbEntity
  8
RACCORDO
100
AcDbLine
 62
250
  6
CONTINUOUS
 10
-73.5377731844
 20
77.3081745379
 11
-73.5600855428
 21
77.2955394803
  0
LINE
  5
21D
100
AcDbEntity
  8
RACCORDO
100
AcDbLine
 62
7
  6
CONTINUOUS
 10
-70.0960324789
 20
78.9889794618
 11
-73.3267328913
 21
77.2516133295
  0
LINE
  5
21E
100
AcDbEntity
  8
RACCORDO
100
AcDbLine
 62
250
  6
CONTINUOUS
 10
-69.7532579887
 20
78.9502981283
 11
-73.1267478305
 21
77.1361444618
  0
LWPOLYLINE
  5
21F
100
AcDbEntity
  8
RACCORDO
100
AcDbPolyline
 62
250
  6
CONTINUOUS
 90
10
 70
0
 10
-73.5380940122
 20
77.3083520781
 10
-73.525905976
 20
77.314867917
 10
-73.5138331542
 20
77.3200378419
 10
-73.5019704534
 20
77.3238212109
 10
-73.4904111286
 20
77.326188282
 10
-73.4792460498
 20
77.3271204469
 10
-73.4685629878
 20
77.3266103774
 10
-73.4584459243
 20
77.3246620831
 10
-73.4489743914
 20
77.3212908796
 10
-73.4443267232
 20
77.3189824933
  0
LWPOLYLINE
  5
220
100
AcDbEntity
  8
RACCORDO
100
AcDbPolyline
 62
250
  6
CONTINUOUS
 90
9
 70
0
 10
-73.5067731407
 20
77.2907418201
 10
-73.4943564568
 20
77.2970289421
 10
-73.482054949
 20
77.3019930266
 10
-73.469963805
 20
77.3055956622
 10
-73.4581765848
 20
77.3078089722
 10
-73.4467844967
 20
77.3086158304
 10
-73.4358756914
 20
77.3080099937
 10
-73.4255345801
 20
77.3059961501
 10
-73.4158411811
 20
77.3025898826
  0
LWPOLYLINE
  5
221
100
AcDbEntity
  8
RACCORDO
100
AcDbPolyline
 62
250
  6
CONTINUOUS
 90
13
 70
0
 10
-70.0960324789
 20
78.9889794618
 10
-70.0816473511
 20
78.9960900539
 10
-70.057144306
 20
79.0055779175
 10
-70.031294875
 20
79.0124655953
 10
-70.0041918654
 20
79.0166975822
 10
-69.9759415497
 20
79.0182278297
 10
-69.946546374
 20
79.0170128112
 10
-69.9160530669
 20
79.012989643
 10
-69.8846376239
 20
79.0061176081
 10
-69.8525031622
 20
78.9963946735
 10
-69.8198122068
 20
78.9838376921
 10
-69.7866814465
 20
78.9684607236
 10
-69.7532579887
 20
78.9502981283
  0
LWPOLYLINE
  5
222
100
AcDbEntity
  8
RACCORDO
100
AcDbPolyline
 62
250
  6
CONTINUOUS
 90
12
 70
0
 10
-75.1348160088
 20
5.1952658536
 10
-75.1338921822
 20
5.1663069209
 10
-75.1311255305
 20
5.138566138
 10
-75.1265305119
 20
5.1121884767
 10
-75.1201311398
 20
5.0873117856
 10
-75.1119608571
 20
5.0640660691
 10
-75.1020623612
 20
5.042572808
 10
-75.0904873811
 20
5.0229443253
 10
-75.0772964073
 20
5.0052831983
 10
-75.0625583751
 20
4.9896817234
 10
-75.0463503047
 20
4.976221433
 10
-75.0312746983
 20
4.9663974231
  0
LWPOLYLINE
  5
223
100
AcDbEntity
  8
RACCORDO
100
AcDbPolyline
 62
7
  6
CONTINUOUS
 90
27
 70
0
 10
-75.9874002558
 20
6.6226310824
 10
-75.9853242359
 20
6.5443398325
 10
-75.9793692405
 20
6.4673741478
 10
-75.9696939847
 20
6.3903454176
 10
-75.9564394188
 20
6.3133662441
 10
-75.9397330085
 20
6.2365326481
 10
-75.9196868331
 20
6.1599669698
 10
-75.8964132852
 20
6.0838052888
 10
-75.8700219553
 20
6.008218714
 10
-75.8406127232
 20
5.9333528107
 10
-75.808282537
 20
5.8593524147
 10
-75.7731457462
 20
5.7864221029
 10
-75.7353041684
 20
5.7147195073
 10
-75.6948431882
 20
5.6443931259
 10
-75.6518769202
 20
5.575638774
 10
-75.6064935347
 20
5.5086073704
 10
-75.5587779233
 20
5.4434622007
 10
-75.508845064
 20
5.380396864
 10
-75.4567713898
 20
5.319567924
 10
-75.4026336456
 20
5.2611334926
 10
-75.3465189655
 20
5.205269059
 10
-75.2884881093
 20
5.1521401952
 10
-75.2285918249
 20
5.1019061921
 10
-75.166845061
 20
5.054723291
 10
-75.1032725182
 20
5.0107701693
 10
-75.0379537283
 20
4.9702778842
 10
70.1689628929
 20
-78.8703999757
  0
LWPOLYLINE
  5
224
100
AcDbEntity
  8
RACCORDO
100
AcDbPolyline
 62
250
  6
CONTINUOUS
 90
31
 70
0
 10
-75.8409537247
 20
6.4183322535
 10
-75.8399068492
 20
6.374514257
 10
-75.8369945242
 20
6.3301619193
 10
-75.8322167496
 20
6.2852752405
 10
-75.8255549757
 20
6.2398084463
 10
-75.8170277522
 20
6.1938073109
 10
-75.8066907288
 20
6.1474091572
 10
-75.7945221296
 20
6.1005188698
 10
-75.7805437303
 20
6.053231564
 10
-75.7648765085
 20
6.0059699086
 10
-75.7475113593
 20
5.958753295
 10
-75.7284573875
 20
5.9115623317
 10
-75.7078628847
 20
5.8647615126
 10
-75.6857139547
 20
5.8183487901
 10
-75.6620244936
 20
5.7723262118
 10
-75.6369844818
 20
5.7270644139
 10
-75.6105801663
 20
5.682566426
 10
-75.5828253001
 20
5.6388292184
 10
-75.5539511224
 20
5.5962143388
 10
-75.5240105921
 20
5.5547930928
 10
-75.4929507502
 20
5.5144941746
 10
-75.4608439585
 20
5.4754652149
 10
-75.4276345532
 20
5.4376341891
 10
-75.393378198
 20
5.4010731217
 10
-75.3583142455
 20
5.3661457165
 10
-75.3223978014
 20
5.3328380135
 10
-75.2856737599
 20
5.3011639727
 10
-75.2485161564
 20
5.271529178
 10
-75.2110496692
 20
5.2440688238
 10
-75.17314962
 20
5.2186477157
 10
-75.1348160088
 20
5.1952658536
  0
LINE
  5
225
100
AcDbEntity
  8
RACCORDO
100
AcDbLine
 62
7
  6
CONTINUOUS
 10
-75.9874003341
 20
75.8951923039
 11
-75.9874003341
 21
6.6224695383
  0
LINE
  5
226
100
AcDbEntity
  8
RACCORDO
100
AcDbLine
 62
250
  6
CONTINUOUS
 10
-75.8409537247
 20
75.6910550073
 11
-75.8409537247
 21
6.4183322535
  0
LWPOLYLINE
  5
227
100
AcDbEntity
  8
RACCORDO
100
AcDbPolyline
 62
250
  6
CONTINUOUS
 90
22
 70
0
 10
-75.1348160088
 20
76.0986912727
 10
-75.1338921975
 20
76.1287167969
 10
-75.1311255844
 20
76.1596522333
 10
-75.1265306231
 20
76.1913359187
 10
-75.1201313218
 20
76.2236022796
 10
-75.1119611184
 20
76.256282696
 10
-75.1020627055
 20
76.2892063831
 10
-75.0904878073
 20
76.322201285
 10
-75.0772969096
 20
76.3550949723
 10
-75.0625589443
 20
76.3877155423
 10
-75.0463509278
 20
76.4198925213
 10
-75.0287575594
 20
76.4514577524
 10
-75.0098707803
 20
76.4822462727
 10
-74.9897892896
 20
76.5120971811
 10
-74.9686180306
 20
76.5408544752
 10
-74.9464676448
 20
76.5683678646
 10
-74.9234538881
 20
76.5944935629
 10
-74.8996970291
 20
76.6190950351
 10
-74.8753212238
 20
76.6420437083
 10
-74.8504538606
 20
76.66321965
 10
-74.8252248949
 20
76.6825121939
 10
-74.799766173
 20
76.6998205151
  0
LWPOLYLINE
  5
228
100
AcDbEntity
  8
RACCORDO
100
AcDbPolyline
 62
7
  6
CONTINUOUS
 90
11
 70
0
 10
-54.2682224248
 20
48.650025898
 10
-54.2544122736
 20
48.6703683113
 10
-54.23808425
 20
48.6972923439
 10
-54.2232288801
 20
48.7253079633
 10
-54.2100432714
 20
48.7541022642
 10
-54.1985811334
 20
48.7836397683
 10
-54.1889362733
 20
48.8138461372
 10
-54.1812861893
 20
48.8443932543
 10
-54.1757245115
 20
48.8751763877
 10
-54.1723506953
 20
48.9062365846
 10
-54.1713103299
 20
48.9350087359
  0
LINE
  5
229
100
AcDbEntity
  8
RACCORDO
100
AcDbLine
 62
250
  6
CONTINUOUS
 10
-54.2884393592
 20
48.6851656353
 11
-54.6720286409
 21
48.146922533
  0
LINE
  5
22A
100
AcDbEntity
  8
RACCORDO
100
AcDbLine
 62
7
  6
CONTINUOUS
 10
-54.2682183222
 20
48.6500316446
 11
-54.6402412203
 21
48.128018209
  0
LINE
  5
22B
100
AcDbEntity
  8
RACCORDO
100
AcDbLine
 62
250
  6
CONTINUOUS
 10
-58.1166766108
 20
52.8526023882
 11
-58.1102708359
 21
52.8562363085
  0
LINE
  5
22C
100
AcDbEntity
  8
RACCORDO
100
AcDbLine
 62
7
  6
CONTINUOUS
 10
-58.1102708359
 20
52.8562363085
 11
-58.1101940439
 21
52.8562776306
  0
LINE
  5
22D
100
AcDbEntity
  8
RACCORDO
100
AcDbLine
 62
250
  6
CONTINUOUS
 10
-58.2165537395
 20
52.6258187134
 11
-57.9377259593
 21
52.7757632704
  0
LWPOLYLINE
  5
22E
100
AcDbEntity
  8
RACCORDO
100
AcDbPolyline
 62
250
  6
CONTINUOUS
 90
7
 70
0
 10
-54.2682183222
 20
48.6500316446
 10
-54.2673467722
 20
48.6528054546
 10
-54.2680900217
 20
48.6570326722
 10
-54.2706077741
 20
48.6624473109
 10
-54.2748726199
 20
48.668990424
 10
-54.2808381296
 20
48.6765907793
 10
-54.2884393592
 20
48.6851656353
  0
LWPOLYLINE
  5
22F
100
AcDbEntity
  8
RACCORDO
100
AcDbPolyline
 62
250
  6
CONTINUOUS
 90
3
 70
0
 10
-52.4100603197
 20
47.9534290227
 10
-52.4058445903
 20
47.9652001481
 10
-52.4037709123
 20
47.9771605278
  0
LINE
  5
230
100
AcDbEntity
  8
RACCORDO
100
AcDbLine
 62
250
  6
CONTINUOUS
 10
-56.4042008598
 20
36.5510009821
 11
-56.4111969823
 21
36.5330793016
  0
LWPOLYLINE
  5
231
100
AcDbEntity
  8
RACCORDO
100
AcDbPolyline
 62
250
  6
CONTINUOUS
 90
9
 70
0
 10
-52.4887714154
 20
47.7192436017
 10
-52.4824914408
 20
47.7335746797
 10
-52.4769688646
 20
47.7479935643
 10
-52.4721902934
 20
47.762548543
 10
-52.4681691206
 20
47.7771913283
 10
-52.4650176072
 20
47.7916241678
 10
-52.4627731736
 20
47.8057478106
 10
-52.4613983994
 20
47.8196615075
 10
-52.4608932847
 20
47.8333652586
  0
LWPOLYLINE
  5
232
100
AcDbEntity
  8
RACCORDO
100
AcDbPolyline
 62
250
  6
CONTINUOUS
 90
6
 70
0
 10
-54.2551732987
 20
48.7429369045
 10
-54.2607965541
 20
48.7311292535
 10
-54.2669380369
 20
48.7194294043
 10
-54.2735869169
 20
48.7079003461
 10
-54.2807540244
 20
48.6964790898
 10
-54.2884393592
 20
48.6851656353
  0
LWPOLYLINE
  5
233
100
AcDbEntity
  8
RACCORDO
100
AcDbPolyline
 62
250
  6
CONTINUOUS
 90
4
 70
0
 10
-52.5116751892
 20
47.6777964778
 10
-52.5033632896
 20
47.6913545008
 10
-52.4957367073
 20
47.7051532209
 10
-52.4887714154
 20
47.7192436017
  0
LINE
  5
234
100
AcDbEntity
  8
RACCORDO
100
AcDbLine
 62
250
  6
CONTINUOUS
 10
-52.5206724062
 20
47.664479152
 11
-52.5116751892
 21
47.6777964778
  0
LWPOLYLINE
  5
235
100
AcDbEntity
  8
RACCORDO
100
AcDbPolyline
 62
7
  6
CONTINUOUS
 90
11
 70
0
 10
-52.5004552917
 20
47.6293396666
 10
-52.4893989684
 20
47.6454658431
 10
-52.4726023899
 20
47.6726247939
 10
-52.4572899464
 20
47.7009530291
 10
-52.4436869726
 20
47.7301128736
 10
-52.431846359
 20
47.7600596591
 10
-52.4218706987
 20
47.7907251777
 10
-52.4139390797
 20
47.821780712
 10
-52.4081619473
 20
47.8531140811
 10
-52.4046440107
 20
47.8847512407
 10
-52.4035433763
 20
47.9143194944
  0
LINE
  5
236
100
AcDbEntity
  8
RACCORDO
100
AcDbLine
 62
250
  6
CONTINUOUS
 10
-53.0900938062
 20
46.8654809645
 11
-52.5206724062
 21
47.664479152
  0
LINE
  5
237
100
AcDbEntity
  8
RACCORDO
100
AcDbLine
 62
7
  6
CONTINUOUS
 10
-53.0698727692
 20
46.8303469736
 11
-52.500451364
 21
47.6293451685
  0
LWPOLYLINE
  5
238
100
AcDbEntity
  8
RACCORDO
100
AcDbPolyline
 62
250
  6
CONTINUOUS
 90
3
 70
0
 10
-53.1435542744
 20
46.7957346219
 10
-53.1168791603
 20
46.8295364652
 10
-53.0900938062
 20
46.8654809645
  0
LINE
  5
239
100
AcDbEntity
  8
RACCORDO
100
AcDbLine
 62
7
  6
CONTINUOUS
 10
-53.8889153905
 20
45.1347091414
 11
-54.6248907416
 21
44.2074056258
  0
LWPOLYLINE
  5
23A
100
AcDbEntity
  8
RACCORDO
100
AcDbPolyline
 62
7
  6
CONTINUOUS
 90
5
 70
0
 10
-56.5788760632
 20
41.3075011172
 10
-56.5414019775
 20
41.3499053852
 10
-56.4881008041
 20
41.4063403463
 10
-56.4340268353
 20
41.4598267378
 10
-56.3788599626
 20
41.5106847908
  0
LWPOLYLINE
  5
23B
100
AcDbEntity
  8
RACCORDO
100
AcDbPolyline
 62
250
  6
CONTINUOUS
 90
4
 70
0
 10
-56.475001612
 20
41.4788461307
 10
-56.5263017688
 20
41.425621685
 10
-56.5765343965
 20
41.3703190664
 10
-56.5788760632
 20
41.3675866077
  0
LWPOLYLINE
  5
23C
100
AcDbEntity
  8
RACCORDO
100
AcDbPolyline
 62
250
  6
CONTINUOUS
 90
8
 70
0
 10
-56.3788488714
 20
41.5107004973
 10
-56.3756298962
 20
41.5139594273
 10
-56.3705972302
 20
41.5214147095
 10
-56.3671063784
 20
41.5303862393
 10
-56.3651954915
 20
41.5407760084
 10
-56.3648854602
 20
41.552470511
 10
-56.3661796846
 20
41.5653419814
 10
-56.3690640366
 20
41.5792497938
  0
LWPOLYLINE
  5
23D
100
AcDbEntity
  8
RACCORDO
100
AcDbPolyline
 62
250
  6
CONTINUOUS
 90
8
 70
0
 10
-52.575765241
 20
44.8908771407
 10
-52.5725459547
 20
44.8941364292
 10
-52.5675133818
 20
44.9015917732
 10
-52.5640226232
 20
44.9105633301
 10
-52.5621118181
 20
44.9209530787
 10
-52.5618018437
 20
44.932647503
 10
-52.5630960865
 20
44.9455188323
 10
-52.5659804061
 20
44.9594264372
  0
LWPOLYLINE
  5
23E
100
AcDbEntity
  8
RACCORDO
100
AcDbPolyline
 62
250
  6
CONTINUOUS
 90
3
 70
0
 10
-56.3690640366
 20
41.5792497938
 10
-56.4225890346
 20
41.5300555003
 10
-56.475001612
 20
41.4788461307
  0
LINE
  5
23F
100
AcDbEntity
  8
RACCORDO
100
AcDbLine
 62
250
  6
CONTINUOUS
 10
-56.6050920064
 20
36.7781982706
 11
-56.6150456544
 21
36.7691189233
  0
LWPOLYLINE
  5
240
100
AcDbEntity
  8
RACCORDO
100
AcDbPolyline
 62
7
  6
CONTINUOUS
 90
17
 70
0
 10
-52.575780423
 20
44.8908636548
 10
-52.5697846803
 20
44.8962871145
 10
-52.5506236179
 20
44.914945357
 10
-52.532291108
 20
44.9348635744
 10
-52.5149124749
 20
44.9558918081
 10
-52.4985048283
 20
44.9779933172
 10
-52.4831087918
 20
45.0011213014
 10
-52.4688747272
 20
45.0250621594
 10
-52.4558328835
 20
45.0497703193
 10
-52.4440378796
 20
45.0751988219
 10
-52.4336235368
 20
45.1011056803
 10
-52.4246303475
 20
45.127447815
 10
-52.4171163856
 20
45.1541892161
 10
-52.4111826826
 20
45.1811288917
 10
-52.4068965935
 20
45.2081964962
 10
-52.4043203945
 20
45.2354032301
 10
-52.4035433758
 20
45.2602155587
  0
LINE
  5
241
100
AcDbEntity
  8
RACCORDO
100
AcDbLine
 62
250
  6
CONTINUOUS
 10
-52.5659804061
 20
44.9594264372
 11
-56.3690640366
 21
41.5792497938
  0
LINE
  5
242
100
AcDbEntity
  8
RACCORDO
100
AcDbLine
 62
7
  6
CONTINUOUS
 10
-52.575765241
 20
44.8908771407
 11
-56.3788488714
 21
41.5107004973
  0
LINE
  5
243
100
AcDbEntity
  8
RACCORDO
100
AcDbLine
 62
7
  6
CONTINUOUS
 10
-54.6248907416
 20
44.2074056258
 11
-56.5788760632
 21
42.759860319
  0
LINE
  5
244
100
AcDbEntity
  8
RACCORDO
100
AcDbLine
 62
250
  6
CONTINUOUS
 10
-54.2148611555
 20
48.9314148239
 11
-54.2286602377
 21
48.9224145739
  0
LWPOLYLINE
  5
245
100
AcDbEntity
  8
RACCORDO
100
AcDbPolyline
 62
250
  6
CONTINUOUS
 90
6
 70
0
 10
-52.4608932847
 20
47.9017280905
 10
-52.4470941944
 20
47.9107283482
 10
-52.434990222
 20
47.9205080588
 10
-52.4247125126
 20
47.9309612597
 10
-52.416372424
 20
47.941974691
 10
-52.4100603197
 20
47.9534290227
  0
LWPOLYLINE
  5
246
100
AcDbEntity
  8
RACCORDO
100
AcDbPolyline
 62
250
  6
CONTINUOUS
 90
8
 70
0
 10
-52.4608932847
 20
47.8333652586
 10
-52.4470942026
 20
47.8423655086
 10
-52.4349902349
 20
47.852145212
 10
-52.4247125272
 20
47.8625984064
 10
-52.4163724377
 20
47.8736118323
 10
-52.4100603307
 20
47.8850661602
 10
-52.4058445972
 20
47.8968372831
 10
-52.4037709145
 20
47.9087976621
  0
LINE
  5
247
100
AcDbEntity
  8
RACCORDO
100
AcDbLine
 62
250
  6
CONTINUOUS
 10
-52.4470942026
 20
45.2566266064
 11
-52.4608932847
 21
45.2476263563
  0
LWPOLYLINE
  5
248
100
AcDbEntity
  8
RACCORDO
100
AcDbPolyline
 62
250
  6
CONTINUOUS
 90
11
 70
0
 10
-53.401939668
 20
46.5642286549
 10
-53.3764277017
 20
46.5803767347
 10
-53.3509346994
 20
46.597913926
 10
-53.3254606612
 20
46.616840229
 10
-53.3001128288
 20
46.636988753
 10
-53.2747839605
 20
46.6585263886
 10
-53.2491523308
 20
46.6819538074
 10
-53.2230465243
 20
46.707353609
 10
-53.1966379564
 20
46.7346431937
 10
-53.1701191486
 20
46.7640754344
 10
-53.1435542744
 20
46.7957346219
  0
LWPOLYLINE
  5
249
100
AcDbEntity
  8
RACCORDO
100
AcDbPolyline
 62
7
  6
CONTINUOUS
 90
12
 70
0
 10
-53.4407240235
 20
46.474252986
 10
-53.4150660022
 20
46.4903960084
 10
-53.3750034095
 20
46.5178130679
 10
-53.3357513169
 20
46.5473616794
 10
-53.2973757786
 20
46.5789240209
 10
-53.2599353805
 20
46.6123838047
 10
-53.223506148
 20
46.6476142191
 10
-53.1881534296
 20
46.6844938232
 10
-53.1539283114
 20
46.7229205383
 10
-53.120902235
 20
46.762768739
 10
-53.0891530714
 20
46.8038920717
 10
-53.0698699698
 20
46.8303509064
  0
LINE
  5
24A
100
AcDbEntity
  8
RACCORDO
100
AcDbLine
 62
250
  6
CONTINUOUS
 10
-53.8889153905
 20
46.2682029724
 11
-53.401939668
 21
46.5642286549
  0
LINE
  5
24B
100
AcDbEntity
  8
RACCORDO
100
AcDbLine
 62
7
  6
CONTINUOUS
 10
-53.763866035
 20
46.2778195025
 11
-53.4407013606
 21
46.4742667562
  0
LINE
  5
24C
100
AcDbEntity
  8
RACCORDO
100
AcDbLine
 62
250
  6
CONTINUOUS
 10
-53.7922248407
 20
45.5147018415
 11
-53.5421216149
 21
45.6565657923
  0
LINE
  5
24D
100
AcDbEntity
  8
RACCORDO
100
AcDbLine
 62
250
  6
CONTINUOUS
 10
-53.8889153905
 20
45.1347091414
 11
-53.401939668
 21
45.4109322876
  0
LWPOLYLINE
  5
24E
100
AcDbEntity
  8
RACCORDO
100
AcDbPolyline
 62
250
  6
CONTINUOUS
 90
13
 70
0
 10
-53.401939668
 20
45.4109322876
 10
-53.3744038727
 20
45.4257548281
 10
-53.347080836
 20
45.4389071775
 10
-53.3199705579
 20
45.4503893357
 10
-53.2930319745
 20
45.4602218981
 10
-53.2663061498
 20
45.4683842693
 10
-53.2399162755
 20
45.4748146636
 10
-53.2138583994
 20
45.4795209879
 10
-53.1881364736
 20
45.4824953353
 10
-53.1628855466
 20
45.4836522
 10
-53.1381506344
 20
45.4829630801
 10
-53.1138867209
 20
45.4804564775
 10
-53.0900938062
 20
45.4761323923
  0
LWPOLYLINE
  5
24F
100
AcDbEntity
  8
RACCORDO
100
AcDbPolyline
 62
250
  6
CONTINUOUS
 90
13
 70
0
 10
-53.5421216149
 20
45.6565657923
 10
-53.5077785786
 20
45.6749994191
 10
-53.4735370481
 20
45.6914186853
 10
-53.4394798256
 20
45.7057829408
 10
-53.4057215894
 20
45.7180461985
 10
-53.3723113019
 20
45.7281918904
 10
-53.3392357732
 20
45.7362128654
 10
-53.3065815738
 20
45.742069871
 10
-53.274431865
 20
45.7457292638
 10
-53.2427778164
 20
45.7471618923
 10
-53.2116809258
 20
45.7463218194
 10
-53.1812663543
 20
45.743168587
 10
-53.1516279385
 20
45.7376696338
  0
LINE
  5
250
100
AcDbEntity
  8
RACCORDO
100
AcDbLine
 62
7
  6
CONTINUOUS
 10
-56.5788760632
 20
47.9290754782
 11
-55.8733956292
 21
48.2353958974
  0
LWPOLYLINE
  5
251
100
AcDbEntity
  8
RACCORDO
100
AcDbPolyline
 62
250
  6
CONTINUOUS
 90
11
 70
0
 10
53.4272137979
 20
-55.1719175731
 10
53.4087592294
 20
-55.1768662137
 10
53.3892463088
 20
-55.1799212129
 10
53.3688035646
 20
-55.1809990066
 10
53.3475631334
 20
-55.1800500971
 10
53.3255643431
 20
-55.1770352752
 10
53.3029401625
 20
-55.171935366
 10
53.2799926751
 20
-55.1648161292
 10
53.2569015362
 20
-55.1557615684
 10
53.2337080584
 20
-55.1448123701
 10
53.2105195191
 20
-55.1320361312
  0
LINE
  5
252
100
AcDbEntity
  8
RACCORDO
100
AcDbLine
 62
250
  6
CONTINUOUS
 10
-58.6370832849
 20
9.6148512362
 11
-58.6370832849
 21
52.627937671
  0
LINE
  5
253
100
AcDbEntity
  8
RACCORDO
100
AcDbLine
 62
250
  6
CONTINUOUS
 10
-58.2165537395
 20
9.6127322786
 11
-58.2165537395
 21
52.6258187134
  0
LINE
  5
254
100
AcDbEntity
  8
RACCORDO
100
AcDbLine
 62
7
  6
CONTINUOUS
 10
-57.5652824642
 20
9.9887669037
 11
-57.5652824642
 21
52.5607190641
  0
LWPOLYLINE
  5
255
100
AcDbEntity
  8
RACCORDO
100
AcDbPolyline
 62
250
  6
CONTINUOUS
 90
13
 70
0
 10
-58.2165536304
 20
52.625818772
 10
-58.2160592601
 20
52.6515500029
 10
-58.2140724264
 20
52.6763985905
 10
-58.2105931566
 20
52.700252011
 10
-58.205622959
 20
52.7230252814
 10
-58.1991757675
 20
52.7445846928
 10
-58.1912941501
 20
52.7647638207
 10
-58.1820236816
 20
52.7834674349
 10
-58.1714044075
 20
52.8006359508
 10
-58.1594976895
 20
52.8161857905
 10
-58.1463788922
 20
52.8300458402
 10
-58.1320971562
 20
52.8421893162
 10
-58.1166766108
 20
52.8526023882
  0
LWPOLYLINE
  5
256
100
AcDbEntity
  8
RACCORDO
100
AcDbPolyline
 62
250
  6
CONTINUOUS
 90
25
 70
0
 10
-58.6370832849
 20
52.627937671
 10
-58.6358975109
 20
52.6696025688
 10
-58.6323693932
 20
52.7094880864
 10
-58.626498932
 20
52.7475942236
 10
-58.6182348552
 20
52.7841095066
 10
-58.6076284347
 20
52.8188454094
 10
-58.5948334872
 20
52.8512363534
 10
-58.5798134079
 20
52.8812076472
 10
-58.5626048014
 20
52.9088339823
 10
-58.5434712982
 20
52.933773855
 10
-58.5224207064
 20
52.9559706514
 10
-58.4994452177
 20
52.9754809854
 10
-58.4747850386
 20
52.9921331953
 10
-58.448496572
 20
53.005926937
 10
-58.420523415
 20
53.0168625544
 10
-58.390936565
 20
53.0247694174
 10
-58.3596111765
 20
53.0296652904
 10
-58.3266720951
 20
53.0315324088
 10
-58.2925648549
 20
53.0301468487
 10
-58.2571711946
 20
53.0253834096
 10
-58.2206093755
 20
53.0173672919
 10
-58.1836797163
 20
53.0062501725
 10
-58.1466489898
 20
52.9920826105
 10
-58.1092504233
 20
52.9748140469
 10
-58.0714840166
 20
52.9544444816
  0
LWPOLYLINE
  5
257
100
AcDbEntity
  8
RACCORDO
100
AcDbPolyline
 62
250
  6
CONTINUOUS
 90
19
 70
0
 10
-58.0714840166
 20
8.6352045678
 10
-58.0706946069
 20
8.6567719242
 10
-58.0683322557
 20
8.6790903321
 10
-58.0644145497
 20
8.7019936824
 10
-58.0589706512
 20
8.7253115125
 10
-58.0520410811
 20
8.7488702773
 10
-58.0436774168
 20
8.7724946399
 10
-58.0339419093
 20
8.7960087744
 10
-58.0229070188
 20
8.8192376766
 10
-58.0106548746
 20
8.8420084687
 10
-57.9972766665
 20
8.8641516792
 10
-57.9828719641
 20
8.8855025094
 10
-57.9675479737
 20
8.9059020609
 10
-57.9514187459
 20
8.9251985121
 10
-57.9346043231
 20
8.9432482518
 10
-57.9172298435
 20
8.9599169509
 10
-57.8994246153
 20
8.975080556
 10
-57.8813211549
 20
8.988626213
 10
-57.8630541968
 20
9.0004531108
  0
LWPOLYLINE
  5
258
100
AcDbEntity
  8
RACCORDO
100
AcDbPolyline
 62
250
  6
CONTINUOUS
 90
7
 70
0
 10
-56.5788760632
 20
36.8353540969
 10
-56.5791501051
 20
36.8293110361
 10
-56.5809876021
 20
36.8186182548
 10
-56.5845385201
 20
36.8080703581
 10
-56.5897721256
 20
36.7977586742
 10
-56.5966431151
 20
36.7877724885
 10
-56.6050920064
 20
36.7781982706
  0
LWPOLYLINE
  5
259
100
AcDbEntity
  8
RACCORDO
100
AcDbPolyline
 62
250
  6
CONTINUOUS
 90
8
 70
0
 10
-56.5788760632
 20
28.569193406
 10
-56.5791501563
 20
28.5631497809
 10
-56.5809877355
 20
28.5524570381
 10
-56.5845387148
 20
28.5419092058
 10
-56.5897723481
 20
28.5315976115
 10
-56.5966433206
 20
28.5216115374
 10
-56.6050921405
 20
28.512037447
 10
-56.6150456544
 20
28.5029582368
  0
LWPOLYLINE
  5
25A
100
AcDbEntity
  8
RACCORDO
100
AcDbPolyline
 62
250
  6
CONTINUOUS
 90
8
 70
0
 10
-56.3750273911
 20
29.1414181214
 10
-56.3753006477
 20
29.135383719
 10
-56.3771371938
 20
29.124689125
 10
-56.3806875736
 20
29.1141397848
 10
-56.385921072
 20
29.1038266938
 10
-56.3927924512
 20
29.0938390584
 10
-56.4012421486
 20
29.0842635003
 10
-56.4111969823
 20
29.0751829522
  0
LWPOLYLINE
  5
25B
100
AcDbEntity
  8
RACCORDO
100
AcDbPolyline
 62
250
  6
CONTINUOUS
 90
8
 70
0
 10
-56.3750274107
 20
36.5992633735
 10
-56.3753006525
 20
36.5932800157
 10
-56.3771372049
 20
36.5825854307
 10
-56.3806875882
 20
36.5720360994
 10
-56.3859210873
 20
36.5617230175
 10
-56.3927924643
 20
36.5517353912
 10
-56.4012421565
 20
36.5421598416
 10
-56.4111969823
 20
36.5330793016
  0
LWPOLYLINE
  5
25C
100
AcDbEntity
  8
RACCORDO
100
AcDbPolyline
 62
250
  6
CONTINUOUS
 90
7
 70
0
 10
-57.2718204497
 20
10.2655141274
 10
-57.2725815501
 20
10.2554496312
 10
-57.2748589672
 20
10.2454617445
 10
-57.2786353652
 20
10.2356264772
 10
-57.2838820011
 20
10.2260186796
 10
-57.2905589417
 20
10.2167114726
 10
-57.298615369
 20
10.207775688
  0
LWPOLYLINE
  5
25D
100
AcDbEntity
  8
RACCORDO
100
AcDbPolyline
 62
250
  6
CONTINUOUS
 90
16
 70
0
 10
-56.3690640366
 20
46.9092210196
 10
-56.3661796769
 20
46.9283184475
 10
-56.3648854568
 20
46.9480915067
 10
-56.3651955018
 20
46.9683241487
 10
-56.3671064085
 20
46.9887953043
 10
-56.3705972828
 20
47.0092813076
 10
-56.3756299713
 20
47.0295583401
 10
-56.3821494742
 20
47.0494048587
 10
-56.3900845492
 20
47.0686040309
 10
-56.3993484952
 20
47.0869461108
 10
-56.4098400886
 20
47.1042307034
 10
-56.4214446954
 20
47.1202689719
 10
-56.4340355337
 20
47.1348857098
 10
-56.4474750425
 20
47.1479212299
 10
-56.4616163814
 20
47.1592331133
 10
-56.4763050467
 20
47.1686977778
  0
LWPOLYLINE
  5
25E
100
AcDbEntity
  8
RACCORDO
100
AcDbPolyline
 62
250
  6
CONTINUOUS
 90
16
 70
0
 10
-56.3690640366
 20
25.43605274
 10
-56.3661796684
 20
25.4551502466
 10
-56.3648854532
 20
25.4749233756
 10
-56.365195513
 20
25.4951560749
 10
-56.3671064411
 20
25.5156272723
 10
-56.3705973398
 20
25.5361133008
 10
-56.3756300527
 20
25.5563903431
 10
-56.3821495767
 20
25.5762368561
 10
-56.3900846669
 20
25.5954360084
 10
-56.3993486212
 20
25.6137780586
 10
-56.4098402143
 20
25.6310626134
 10
-56.421444811
 20
25.6471008388
 10
-56.4340356311
 20
25.6617175338
 10
-56.4474751147
 20
25.6747530141
 10
-56.4616164209
 20
25.6860648621
 10
-56.4763050467
 20
25.6955294982
  0
LWPOLYLINE
  5
25F
100
AcDbEntity
  8
RACCORDO
100
AcDbPolyline
 62
250
  6
CONTINUOUS
 90
16
 70
0
 10
-52.5659804061
 20
47.9980765122
 10
-52.5630960865
 20
48.0171735666
 10
-52.5618018437
 20
48.0369462952
 10
-52.5621118181
 20
48.0571786654
 10
-52.5640226232
 20
48.0776496228
 10
-52.5675133818
 20
48.0981355062
 10
-52.5725459547
 20
48.1184124916
 10
-52.5790653572
 20
48.1382590369
 10
-52.5870003597
 20
48.1574583033
 10
-52.5962642661
 20
48.1758005238
 10
-52.606755861
 20
48.1930852954
 10
-52.6183605157
 20
48.2091237685
 10
-52.6309514401
 20
48.2237407103
 10
-52.6443910686
 20
48.2367764194
 10
-52.658532563
 20
48.2480884704
 10
-52.6732214162
 20
48.2575532704
  0
LWPOLYLINE
  5
260
100
AcDbEntity
  8
RACCORDO
100
AcDbPolyline
 62
250
  6
CONTINUOUS
 90
7
 70
0
 10
-56.5934719665
 20
28.6486914515
 10
-56.5990261907
 20
28.6272102549
 10
-56.6037982108
 20
28.6058038169
 10
-56.6077958423
 20
28.5844737867
 10
-56.6109284644
 20
28.5634965728
 10
-56.6131658704
 20
28.5429643113
 10
-56.614538267
 20
28.5227848659
  0
LWPOLYLINE
  5
261
100
AcDbEntity
  8
RACCORDO
100
AcDbPolyline
 62
250
  6
CONTINUOUS
 90
7
 70
0
 10
-54.2682183222
 20
27.1768633649
 10
-54.2673467722
 20
27.179637175
 10
-54.2680900217
 20
27.1838643926
 10
-54.2706077741
 20
27.1892790313
 10
-54.2748726199
 20
27.1958221443
 10
-54.2808381296
 20
27.2034224997
 10
-54.2884393592
 20
27.2119973557
  0
LWPOLYLINE
  5
262
100
AcDbEntity
  8
RACCORDO
100
AcDbPolyline
 62
250
  6
CONTINUOUS
 90
3
 70
0
 10
-56.58015442
 20
28.691611608
 10
-56.5871433537
 20
28.6702490561
 10
-56.5934719665
 20
28.6486914515
  0
LWPOLYLINE
  5
263
100
AcDbEntity
  8
RACCORDO
100
AcDbPolyline
 62
250
  6
CONTINUOUS
 90
3
 70
0
 10
-52.4100603197
 20
26.4802607431
 10
-52.4058445903
 20
26.4920318685
 10
-52.4037709123
 20
26.5039922482
  0
LWPOLYLINE
  5
264
100
AcDbEntity
  8
RACCORDO
100
AcDbPolyline
 62
250
  6
CONTINUOUS
 90
4
 70
0
 10
-56.5553397607
 20
28.7542574882
 10
-56.5642716347
 20
28.7335705807
 10
-56.5725431878
 20
28.7126886206
 10
-56.58015442
 20
28.691611608
  0
LWPOLYLINE
  5
265
100
AcDbEntity
  8
RACCORDO
100
AcDbPolyline
 62
250
  6
CONTINUOUS
 90
9
 70
0
 10
-52.4887714154
 20
26.246075322
 10
-52.4824914408
 20
26.2604064
 10
-52.4769688646
 20
26.2748252846
 10
-52.4721902934
 20
26.2893802633
 10
-52.4681691206
 20
26.3040230487
 10
-52.4650176072
 20
26.3184558882
 10
-52.4627731736
 20
26.332579531
 10
-52.4613983994
 20
26.3464932279
 10
-52.4608932847
 20
26.3601969789
  0
LINE
  5
266
100
AcDbEntity
  8
RACCORDO
100
AcDbLine
 62
250
  6
CONTINUOUS
 10
-56.4111969823
 20
29.0751829522
 11
-56.5553397607
 21
28.7542574882
  0
LINE
  5
267
100
AcDbEntity
  8
RACCORDO
100
AcDbLine
 62
7
  6
CONTINUOUS
 10
-56.3925849132
 20
29.0594745905
 11
-56.5367276937
 21
28.7385491218
  0
LWPOLYLINE
  5
268
100
AcDbEntity
  8
RACCORDO
100
AcDbPolyline
 62
250
  6
CONTINUOUS
 90
6
 70
0
 10
-54.2551732987
 20
27.2697686249
 10
-54.2607965541
 20
27.2579609738
 10
-54.2669380369
 20
27.2462611247
 10
-54.2735869169
 20
27.2347320665
 10
-54.2807540244
 20
27.2233108101
 10
-54.2884393592
 20
27.2119973557
  0
LWPOLYLINE
  5
269
100
AcDbEntity
  8
RACCORDO
100
AcDbPolyline
 62
250
  6
CONTINUOUS
 90
4
 70
0
 10
-52.5116751892
 20
26.2046281982
 10
-52.5033632896
 20
26.2181862211
 10
-52.4957367073
 20
26.2319849413
 10
-52.4887714154
 20
26.246075322
  0
LINE
  5
26A
100
AcDbEntity
  8
RACCORDO
100
AcDbLine
 62
250
  6
CONTINUOUS
 10
-52.5206724062
 20
26.1913108723
 11
-52.5116751892
 21
26.2046281982
  0
LWPOLYLINE
  5
26B
100
AcDbEntity
  8
RACCORDO
100
AcDbPolyline
 62
7
  6
CONTINUOUS
 90
11
 70
0
 10
-54.2682224248
 20
27.1768576184
 10
-54.2544122736
 20
27.1972000317
 10
-54.23808425
 20
27.2241240643
 10
-54.2232288801
 20
27.2521396836
 10
-54.2100432714
 20
27.2809339846
 10
-54.1985811334
 20
27.3104714886
 10
-54.1889362733
 20
27.3406778575
 10
-54.1812861893
 20
27.3712249747
 10
-54.1757245115
 20
27.4020081081
 10
-54.1723506953
 20
27.4330683049
 10
-54.1713103299
 20
27.4618404563
  0
LWPOLYLINE
  5
26C
100
AcDbEntity
  8
RACCORDO
100
AcDbPolyline
 62
7
  6
CONTINUOUS
 90
11
 70
0
 10
-52.5004552917
 20
26.1561713869
 10
-52.4893989684
 20
26.1722975634
 10
-52.4726023899
 20
26.1994565143
 10
-52.4572899464
 20
26.2277847495
 10
-52.4436869726
 20
26.256944594
 10
-52.431846359
 20
26.2868913795
 10
-52.4218706987
 20
26.3175568981
 10
-52.4139390797
 20
26.3486124323
 10
-52.4081619473
 20
26.3799458014
 10
-52.4046440107
 20
26.411582961
 10
-52.4035433763
 20
26.4411512147
  0
LINE
  5
26D
100
AcDbEntity
  8
RACCORDO
100
AcDbLine
 62
250
  6
CONTINUOUS
 10
-54.2884393592
 20
27.2119973557
 11
-54.6720286409
 21
26.6737542533
  0
LINE
  5
26E
100
AcDbEntity
  8
RACCORDO
100
AcDbLine
 62
7
  6
CONTINUOUS
 10
-54.2682183222
 20
27.1768633649
 11
-54.6402412203
 21
26.6548499293
  0
LINE
  5
26F
100
AcDbEntity
  8
RACCORDO
100
AcDbLine
 62
250
  6
CONTINUOUS
 10
-53.0900938062
 20
25.3923126848
 11
-52.5206724062
 21
26.1913108723
  0
LINE
  5
270
100
AcDbEntity
  8
RACCORDO
100
AcDbLine
 62
7
  6
CONTINUOUS
 10
-53.0698727692
 20
25.357178694
 11
-52.500451364
 21
26.1561768889
  0
LINE
  5
271
100
AcDbEntity
  8
RACCORDO
100
AcDbLine
 62
7
  6
CONTINUOUS
 10
-56.5788760632
 20
45.4820588061
 11
-54.6248907416
 21
46.3306563255
  0
LINE
  5
272
100
AcDbEntity
  8
RACCORDO
100
AcDbLine
 62
250
  6
CONTINUOUS
 10
-56.5788760632
 20
48.6661441533
 11
-54.4409883692
 21
49.2782397537
  0
LINE
  5
273
100
AcDbEntity
  8
RACCORDO
100
AcDbLine
 62
250
  6
CONTINUOUS
 10
-56.5788760632
 20
48.3759633732
 11
-54.3337473591
 21
49.0187629955
  0
LINE
  5
274
100
AcDbEntity
  8
RACCORDO
100
AcDbLine
 62
250
  6
CONTINUOUS
 10
-52.6732214162
 20
48.2575532704
 11
-56.4763050467
 21
47.1686977778
  0
LINE
  5
275
100
AcDbEntity
  8
RACCORDO
100
AcDbLine
 62
250
  6
CONTINUOUS
 10
-52.5659804061
 20
47.9980765122
 11
-56.3690640366
 21
46.9092210196
  0
LWPOLYLINE
  5
276
100
AcDbEntity
  8
RACCORDO
100
AcDbPolyline
 62
250
  6
CONTINUOUS
 90
28
 70
0
 10
-57.298615369
 20
10.207775688
 10
-57.2966058996
 20
10.1805553257
 10
-57.2933970671
 20
10.1527140904
 10
-57.2889863763
 20
10.1243444754
 10
-57.2833650094
 20
10.0955444473
 10
-57.2765506947
 20
10.0664027523
 10
-57.2685884112
 20
10.0369986839
 10
-57.2594919545
 20
10.007395949
 10
-57.2492827739
 20
9.9777175795
 10
-57.2380374619
 20
9.9481296062
 10
-57.2258269237
 20
9.9187728722
 10
-57.2126735857
 20
9.8896785525
 10
-57.1985877152
 20
9.8608461528
 10
-57.1836282797
 20
9.8324021313
 10
-57.1678256336
 20
9.8043836501
 10
-57.1511140567
 20
9.7766716376
 10
-57.1335303003
 20
9.7493986823
 10
-57.1150984835
 20
9.7226203698
 10
-57.0956791904
 20
9.6961478978
 10
-57.0751600718
 20
9.6699618209
 10
-57.0536700759
 20
9.6443641011
 10
-57.0314330594
 20
9.6196565684
 10
-57.0085088893
 20
9.5959184944
 10
-56.9849649707
 20
9.5732988155
 10
-56.9610960159
 20
9.5521250052
 10
-56.9370798407
 20
9.5325194313
 10
-56.9129490764
 20
9.5144530545
 10
-56.8888077478
 20
9.4979680676
  0
LWPOLYLINE
  5
277
100
AcDbEntity
  8
RACCORDO
100
AcDbPolyline
 62
250
  6
CONTINUOUS
 90
10
 70
0
 10
-58.0714840166
 20
52.9544444816
 10
-58.0706946178
 20
52.9337888564
 10
-58.0683322965
 20
52.914198539
 10
-58.0644146344
 20
52.895819331
 10
-58.0589707887
 20
52.87878802
 10
-58.0520412754
 20
52.8632313619
 10
-58.0436776676
 20
52.8492651375
 10
-58.0339422116
 20
52.8369932908
 10
-58.0229073637
 20
52.8265071553
 10
-58.0093813796
 20
52.8171362158
  0
LWPOLYLINE
  5
278
100
AcDbEntity
  8
RACCORDO
100
AcDbPolyline
 62
250
  6
CONTINUOUS
 90
19
 70
0
 10
-52.4608932847
 20
26.4285598109
 10
-52.4613466424
 20
26.4405611015
 10
-52.4624838163
 20
26.4518280386
 10
-52.4643048064
 20
26.462360622
 10
-52.466823821
 20
26.4721516817
 10
-52.4700266517
 20
26.4812083878
 10
-52.4738706739
 20
26.4895522508
 10
-52.4783657103
 20
26.4972269385
 10
-52.483501938
 20
26.5041887831
 10
-52.4892072637
 20
26.5103282918
 10
-52.4954474789
 20
26.5156322267
 10
-52.502256792
 20
26.5201138256
 10
-52.5096657347
 20
26.5237033097
 10
-52.5177138273
 20
26.5264314195
 10
-52.5263615494
 20
26.5282674144
 10
-52.5355208713
 20
26.5290492933
 10
-52.5451624498
 20
26.5287230558
 10
-52.5553156281
 20
26.5273427022
 10
-52.5659804061
 20
26.5249082325
  0
LWPOLYLINE
  5
279
100
AcDbEntity
  8
RACCORDO
100
AcDbPolyline
 62
250
  6
CONTINUOUS
 90
19
 70
0
 10
-52.4608932847
 20
47.9017280905
 10
-52.4613466424
 20
47.9137293812
 10
-52.4624838163
 20
47.9249963182
 10
-52.4643048064
 20
47.9355289017
 10
-52.466823821
 20
47.9453199614
 10
-52.4700266517
 20
47.9543766675
 10
-52.4738706739
 20
47.9627205305
 10
-52.4783657103
 20
47.9703952181
 10
-52.483501938
 20
47.9773570627
 10
-52.4892072637
 20
47.9834965714
 10
-52.4954474789
 20
47.9888005063
 10
-52.502256792
 20
47.9932821053
 10
-52.5096657347
 20
47.9968715893
 10
-52.5177138273
 20
47.9995996992
 10
-52.5263615494
 20
48.0014356941
 10
-52.5355208713
 20
48.002217573
 10
-52.5451624498
 20
48.0018913354
 10
-52.5553156281
 20
48.0005109818
 10
-52.5659804061
 20
47.9980765122
  0
LWPOLYLINE
  5
27A
100
AcDbEntity
  8
RACCORDO
100
AcDbPolyline
 62
250
  6
CONTINUOUS
 90
13
 70
0
 10
-56.6150456544
 20
36.7691189233
 10
-56.614476982
 20
36.7501872608
 10
-56.6131412353
 20
36.7324944894
 10
-56.6110384142
 20
36.7160406092
 10
-56.608179859
 20
36.7009344258
 10
-56.6045542294
 20
36.6870671336
 10
-56.6001275049
 20
36.6741123156
 10
-56.5949378403
 20
36.6619095561
 10
-56.5889470807
 20
36.6506192709
 10
-56.5820067415
 20
36.6403962902
 10
-56.5740673276
 20
36.6312922243
 10
-56.565178334
 20
36.6232554629
 10
-56.5553397607
 20
36.6162860062
  0
LWPOLYLINE
  5
27B
100
AcDbEntity
  8
RACCORDO
100
AcDbPolyline
 62
7
  6
CONTINUOUS
 90
14
 70
0
 10
-54.1713103284
 20
27.5301748275
 10
-54.1715376553
 20
27.5434054866
 10
-54.173423016
 20
27.5701095283
 10
-54.1772030188
 20
27.5960983797
 10
-54.1828790788
 20
27.6213221394
 10
-54.1904503629
 20
27.6457087082
 10
-54.1998960632
 20
27.6691405214
 10
-54.2111639681
 20
27.6914522437
 10
-54.2241861452
 20
27.7125021305
 10
-54.2388787839
 20
27.7321663042
 10
-54.255097728
 20
27.7502752772
 10
-54.2726810183
 20
27.7666909793
 10
-54.2914851229
 20
27.7813336692
 10
-54.3123868574
 20
27.7947383398
  0
LWPOLYLINE
  5
27C
100
AcDbEntity
  8
RACCORDO
100
AcDbPolyline
 62
7
  6
CONTINUOUS
 90
14
 70
0
 10
-54.1713103284
 20
49.0033431072
 10
-54.1715376553
 20
49.0165737663
 10
-54.173423016
 20
49.0432778079
 10
-54.1772030188
 20
49.0692666594
 10
-54.1828790788
 20
49.0944904191
 10
-54.1904503629
 20
49.1188769879
 10
-54.1998960632
 20
49.142308801
 10
-54.2111639681
 20
49.1646205234
 10
-54.2241861452
 20
49.1856704102
 10
-54.2388787839
 20
49.2053345839
 10
-54.255097728
 20
49.2234435568
 10
-54.2726810183
 20
49.239859259
 10
-54.2914851229
 20
49.2545019489
 10
-54.3123868574
 20
49.2679066194
  0
LWPOLYLINE
  5
27D
100
AcDbEntity
  8
RACCORDO
100
AcDbPolyline
 62
7
  6
CONTINUOUS
 90
15
 70
0
 10
-52.4035433755
 20
23.8553861679
 10
-52.4037480339
 20
23.8679495148
 10
-52.4055671664
 20
23.8944937367
 10
-52.4092576189
 20
23.9203396114
 10
-52.4148147142
 20
23.945411438
 10
-52.4222270393
 20
23.9696298491
 10
-52.431474516
 20
23.9928967841
 10
-52.4425113381
 20
24.0150690141
 10
-52.4552619858
 20
24.0360010753
 10
-52.4696525432
 20
24.0555832889
 10
-52.4855841959
 20
24.0736889088
 10
-52.5029233851
 20
24.090187933
 10
-52.5215290044
 20
24.1049787793
 10
-52.5412536202
 20
24.1179770888
 10
-52.5445763718
 20
24.1199279054
  0
LWPOLYLINE
  5
27E
100
AcDbEntity
  8
RACCORDO
100
AcDbPolyline
 62
7
  6
CONTINUOUS
 90
15
 70
0
 10
-52.4035433755
 20
45.3285544476
 10
-52.4037480339
 20
45.3411177944
 10
-52.4055671664
 20
45.3676620163
 10
-52.4092576189
 20
45.393507891
 10
-52.4148147142
 20
45.4185797177
 10
-52.4222270393
 20
45.4427981288
 10
-52.431474516
 20
45.4660650637
 10
-52.4425113382
 20
45.4882372937
 10
-52.4552619858
 20
45.509169355
 10
-52.4696525432
 20
45.5287515685
 10
-52.4855841959
 20
45.5468571885
 10
-52.5029233851
 20
45.5633562126
 10
-52.5215290044
 20
45.5781470589
 10
-52.5412536202
 20
45.5911453685
 10
-52.5445763718
 20
45.593096185
  0
LWPOLYLINE
  5
27F
100
AcDbEntity
  8
RACCORDO
100
AcDbPolyline
 62
250
  6
CONTINUOUS
 90
34
 70
0
 10
-56.6150458821
 20
10.9501835437
 10
-56.614612335
 20
10.9227071314
 10
-56.6133784353
 20
10.8936113708
 10
-56.6112395895
 20
10.8628787288
 10
-56.608095036
 20
10.8306028056
 10
-56.6038195365
 20
10.7966831328
 10
-56.5982314087
 20
10.7608075726
 10
-56.5911706736
 20
10.7229102351
 10
-56.5825219638
 20
10.6831167215
 10
-56.5721360297
 20
10.6414150624
 10
-56.5598464963
 20
10.5978017494
 10
-56.545535772
 20
10.552476639
 10
-56.529141
 20
10.5057350177
 10
-56.5104497386
 20
10.4574421561
 10
-56.4894260202
 20
10.4079625142
 10
-56.4664144943
 20
10.3583723078
 10
-56.4414558209
 20
10.3088716079
 10
-56.4145945376
 20
10.2596664316
 10
-56.3864085715
 20
10.2118314748
 10
-56.3571132883
 20
10.1655983738
 10
-56.3268239279
 20
10.1210112385
 10
-56.2961143869
 20
10.0787462706
 10
-56.2653446688
 20
10.0390628355
 10
-56.2344983655
 20
10.0017039659
 10
-56.2036002646
 20
9.9665134801
 10
-56.1730587253
 20
9.93376809
 10
-56.1427109109
 20
9.9031121146
 10
-56.1116738694
 20
9.8735875785
 10
-56.0801035366
 20
9.8453647698
 10
-56.0480414086
 20
9.8185071575
 10
-56.0143818972
 20
9.7922173288
 10
-55.9788487969
 20
9.766489865
 10
-55.9420173989
 20
9.7419268472
 10
-55.9041019937
 20
9.7188169432
  0
LWPOLYLINE
  5
280
100
AcDbEntity
  8
RACCORDO
100
AcDbPolyline
 62
7
  6
CONTINUOUS
 90
15
 70
0
 10
-52.4035433748
 20
26.5094935754
 10
-52.4035826697
 20
26.5150039642
 10
-52.4048838192
 20
26.5413971555
 10
-52.4080211145
 20
26.5671779411
 10
-52.413003566
 20
26.5922939531
 10
-52.4198491147
 20
26.6166836554
 10
-52.4285515014
 20
26.6402263624
 10
-52.4390627618
 20
26.6627339151
 10
-52.4513291949
 20
26.6840676277
 10
-52.4652834883
 20
26.7041076506
 10
-52.4807815571
 20
26.7226641621
 10
-52.4976735099
 20
26.7395988549
 10
-52.5158254451
 20
26.7548276519
 10
-52.5350571041
 20
26.7682604924
 10
-52.544672502
 20
26.7740829808
  0
LWPOLYLINE
  5
281
100
AcDbEntity
  8
RACCORDO
100
AcDbPolyline
 62
7
  6
CONTINUOUS
 90
15
 70
0
 10
-52.4035433748
 20
47.982661855
 10
-52.4035826697
 20
47.9881722439
 10
-52.4048838192
 20
48.0145654352
 10
-52.4080211145
 20
48.0403462207
 10
-52.413003566
 20
48.0654622327
 10
-52.4198491147
 20
48.089851935
 10
-52.4285515014
 20
48.1133946421
 10
-52.4390627618
 20
48.1359021947
 10
-52.4513291949
 20
48.1572359073
 10
-52.4652834883
 20
48.1772759303
 10
-52.4807815571
 20
48.1958324417
 10
-52.4976735099
 20
48.2127671346
 10
-52.5158254451
 20
48.2279959316
 10
-52.5350571041
 20
48.2414287721
 10
-52.544672502
 20
48.2472512605
  0
LINE
  5
282
100
AcDbEntity
  8
RACCORDO
100
AcDbLine
 62
250
  6
CONTINUOUS
 10
-57.298615369
 20
52.4067488254
 11
-57.298615369
 21
10.207775688
  0
LINE
  5
283
100
AcDbEntity
  8
RACCORDO
100
AcDbLine
 62
7
  6
CONTINUOUS
 10
-57.2718204497
 20
52.3912777749
 11
-57.2718204497
 21
10.2655144212
  0
LINE
  5
284
100
AcDbEntity
  8
RACCORDO
100
AcDbLine
 62
250
  6
CONTINUOUS
 10
-56.6150454617
 20
52.0120641281
 11
-56.6150456544
 21
36.7691189233
  0
LINE
  5
285
100
AcDbEntity
  8
RACCORDO
100
AcDbLine
 62
250
  6
CONTINUOUS
 10
-56.6150456544
 20
28.5029582368
 11
-56.6150454325
 21
10.9501839132
  0
LINE
  5
286
100
AcDbEntity
  8
RACCORDO
100
AcDbLine
 62
7
  6
CONTINUOUS
 10
-56.5788760632
 20
51.9911803708
 11
-56.5788760632
 21
36.8353540969
  0
LINE
  5
287
100
AcDbEntity
  8
RACCORDO
100
AcDbLine
 62
7
  6
CONTINUOUS
 10
-56.5788760775
 20
28.5692369897
 11
-56.5788760632
 21
11.0189505604
  0
LINE
  5
288
100
AcDbEntity
  8
RACCORDO
100
AcDbLine
 62
250
  6
CONTINUOUS
 10
-56.4111969823
 20
36.5330793016
 11
-56.4111969823
 21
29.0751829522
  0
LINE
  5
289
100
AcDbEntity
  8
RACCORDO
100
AcDbLine
 62
7
  6
CONTINUOUS
 10
-56.3750273911
 20
36.5993144708
 11
-56.3750273911
 21
29.1414181214
  0
LINE
  5
28A
100
AcDbEntity
  8
RACCORDO
100
AcDbLine
 62
250
  6
CONTINUOUS
 10
-54.2286602377
 20
48.9224145739
 11
-54.2286602377
 21
48.8540517419
  0
LINE
  5
28B
100
AcDbEntity
  8
RACCORDO
100
AcDbLine
 62
250
  6
CONTINUOUS
 10
-54.2286602377
 20
27.4492462942
 11
-54.2286602377
 21
27.3808834622
  0
LINE
  5
28C
100
AcDbEntity
  8
RACCORDO
100
AcDbLine
 62
7
  6
CONTINUOUS
 10
-54.1713103275
 20
49.0033538188
 11
-54.1713103275
 21
48.9349909909
  0
LINE
  5
28D
100
AcDbEntity
  8
RACCORDO
100
AcDbLine
 62
7
  6
CONTINUOUS
 10
-54.1713103275
 20
27.5301855392
 11
-54.1713103275
 21
27.4618227112
  0
LINE
  5
28E
100
AcDbEntity
  8
RACCORDO
100
AcDbLine
 62
250
  6
CONTINUOUS
 10
-52.4608932847
 20
45.2476263563
 11
-52.4608932847
 21
45.1792635244
  0
LINE
  5
28F
100
AcDbEntity
  8
RACCORDO
100
AcDbLine
 62
250
  6
CONTINUOUS
 10
-52.4608932847
 20
23.7744580767
 11
-52.4608932847
 21
23.7060952447
  0
LINE
  5
290
100
AcDbEntity
  8
RACCORDO
100
AcDbLine
 62
250
  6
CONTINUOUS
 10
-52.4608932847
 20
26.3601969789
 11
-52.4608932847
 21
26.4285598109
  0
LINE
  5
291
100
AcDbEntity
  8
RACCORDO
100
AcDbLine
 62
250
  6
CONTINUOUS
 10
-52.4608932847
 20
47.8333652586
 11
-52.4608932847
 21
47.9017280905
  0
LINE
  5
292
100
AcDbEntity
  8
RACCORDO
100
AcDbLine
 62
7
  6
CONTINUOUS
 10
-52.4035433746
 20
45.3285656013
 11
-52.4035433746
 21
45.2602027774
  0
LINE
  5
293
100
AcDbEntity
  8
RACCORDO
100
AcDbLine
 62
7
  6
CONTINUOUS
 10
-52.4035433746
 20
23.8553973216
 11
-52.4035433746
 21
23.7870344978
  0
LINE
  5
294
100
AcDbEntity
  8
RACCORDO
100
AcDbLine
 62
7
  6
CONTINUOUS
 10
-52.4035433746
 20
26.4411362239
 11
-52.4035433746
 21
26.5094990631
  0
LINE
  5
295
100
AcDbEntity
  8
RACCORDO
100
AcDbLine
 62
7
  6
CONTINUOUS
 10
-52.4035433746
 20
47.9143045035
 11
-52.4035433746
 21
47.9826673428
  0
LINE
  5
296
100
AcDbEntity
  8
RACCORDO
100
AcDbLine
 62
250
  6
CONTINUOUS
 10
-56.3750273911
 20
36.5993144708
 11
-56.3750274107
 21
36.5992633735
  0
LINE
  5
297
100
AcDbEntity
  8
RACCORDO
100
AcDbLine
 62
7
  6
CONTINUOUS
 10
-56.5788760632
 20
11.0189505604
 11
-56.5788761587
 21
11.018837728
  0
LWPOLYLINE
  5
298
100
AcDbEntity
  8
RACCORDO
100
AcDbPolyline
 62
7
  6
CONTINUOUS
 90
13
 70
0
 10
-56.5788760775
 20
28.5692369896
 10
-56.5787686042
 20
28.5759445014
 10
-56.5781985337
 20
28.5867126281
 10
-56.577064552
 20
28.5987344853
 10
-56.5753080753
 20
28.6118597868
 10
-56.5728963415
 20
28.625891011
 10
-56.5698049389
 20
28.6406852644
 10
-56.56601944
 20
28.6561214813
 10
-56.5615407019
 20
28.6720503284
 10
-56.5563834542
 20
28.6883134728
 10
-56.5505660212
 20
28.704784114
 10
-56.5441013755
 20
28.7213569268
 10
-56.5367279792
 20
28.7385484867
  0
LINE
  5
299
100
AcDbEntity
  8
RACCORDO
100
AcDbLine
 62
250
  6
CONTINUOUS
 10
-56.614538267
 20
28.5227848659
 11
-56.6150456544
 21
28.5029582368
  0
LWPOLYLINE
  5
29A
100
AcDbEntity
  8
RACCORDO
100
AcDbPolyline
 62
250
  6
CONTINUOUS
 90
11
 70
0
 10
-54.2286602377
 20
48.8540517419
 10
-54.2289461183
 20
48.8436631329
 10
-54.2297549603
 20
48.8331043105
 10
-54.2310867638
 20
48.8223752746
 10
-54.2329400106
 20
48.8114672543
 10
-54.2353162189
 20
48.8003890205
 10
-54.2382199427
 20
48.789166886
 10
-54.2416449659
 20
48.7777887097
 10
-54.2455975046
 20
48.7662666326
 10
-54.2501007608
 20
48.75466339
 10
-54.2551732987
 20
48.7429369045
  0
LWPOLYLINE
  5
29B
100
AcDbEntity
  8
RACCORDO
100
AcDbPolyline
 62
250
  6
CONTINUOUS
 90
11
 70
0
 10
-54.2286602377
 20
27.3808834622
 10
-54.2289461183
 20
27.3704948533
 10
-54.2297549603
 20
27.3599360308
 10
-54.2310867638
 20
27.3492069949
 10
-54.2329400106
 20
27.3382989746
 10
-54.2353162189
 20
27.3272207409
 10
-54.2382199427
 20
27.3159986063
 10
-54.2416449659
 20
27.30462043
 10
-54.2455975046
 20
27.293098353
 10
-54.2501007608
 20
27.2814951104
 10
-54.2551732987
 20
27.2697686249
  0
LWPOLYLINE
  5
29C
100
AcDbEntity
  8
RACCORDO
100
AcDbPolyline
 62
250
  6
CONTINUOUS
 90
9
 70
0
 10
-53.401939668
 20
46.5642286549
 10
-53.4024652633
 20
46.547757691
 10
-53.4045476825
 20
46.5323537319
 10
-53.4081641207
 20
46.5181855162
 10
-53.4132749695
 20
46.5054082465
 10
-53.4198242501
 20
46.4941618914
 10
-53.4277402255
 20
46.484569651
 10
-53.4369361885
 20
46.4767366049
 10
-53.4407013606
 20
46.4742667562
  0
LWPOLYLINE
  5
29D
100
AcDbEntity
  8
RACCORDO
100
AcDbPolyline
 62
250
  6
CONTINUOUS
 90
9
 70
0
 10
-53.401939668
 20
25.0910603752
 10
-53.4024652633
 20
25.0745894113
 10
-53.4045476825
 20
25.0591854523
 10
-53.4081641207
 20
25.0450172366
 10
-53.4132749695
 20
25.0322399669
 10
-53.4198242501
 20
25.0209936117
 10
-53.4277402255
 20
25.0114013714
 10
-53.4369361885
 20
25.0035683252
 10
-53.4407013606
 20
25.0010984765
  0
LWPOLYLINE
  5
29E
100
AcDbEntity
  8
RACCORDO
100
AcDbPolyline
 62
250
  6
CONTINUOUS
 90
19
 70
0
 10
-52.4608932847
 20
45.1792635244
 10
-52.4612849461
 20
45.1669908061
 10
-52.4624063738
 20
45.1544787276
 10
-52.4642575679
 20
45.1417272891
 10
-52.4668562332
 20
45.1286657459
 10
-52.4701846648
 20
45.1153648425
 10
-52.4741897481
 20
45.1020368127
 10
-52.4788820048
 20
45.0886818778
 10
-52.4842509132
 20
45.0752998163
 10
-52.4902117929
 20
45.0621021978
 10
-52.4967738764
 20
45.0490918297
 10
-52.5039279313
 20
45.0362659044
 10
-52.51156158
 20
45.0238275685
 10
-52.5196829109
 20
45.011782196
 10
-52.5282838356
 20
45.0001244129
 10
-52.5372277117
 20
44.989041243
 10
-52.5464689917
 20
44.9785950278
 10
-52.5560532232
 20
44.9687234258
 10
-52.5659804061
 20
44.9594264372
  0
LWPOLYLINE
  5
29F
100
AcDbEntity
  8
RACCORDO
100
AcDbPolyline
 62
250
  6
CONTINUOUS
 90
19
 70
0
 10
-52.4608932847
 20
23.7060952447
 10
-52.4612849461
 20
23.6938225264
 10
-52.4624063738
 20
23.681310448
 10
-52.4642575679
 20
23.6685590094
 10
-52.4668562332
 20
23.6554974662
 10
-52.4701846648
 20
23.6421965629
 10
-52.4741897481
 20
23.628868533
 10
-52.4788820048
 20
23.6155135981
 10
-52.4842509132
 20
23.6021315367
 10
-52.4902117929
 20
23.5889339181
 10
-52.4967738764
 20
23.57592355
 10
-52.5039279313
 20
23.5630976248
 10
-52.51156158
 20
23.5506592888
 10
-52.5196829109
 20
23.5386139164
 10
-52.5282838356
 20
23.5269561332
 10
-52.5372277117
 20
23.5158729633
 10
-52.5464689917
 20
23.5054267481
 10
-52.5560532232
 20
23.4955551462
 10
-52.5659804061
 20
23.4862581576
  0
LWPOLYLINE
  5
2A0
100
AcDbEntity
  8
RACCORDO
100
AcDbPolyline
 62
250
  6
CONTINUOUS
 90
8
 70
0
 10
-54.1713103284
 20
49.0033431072
 10
-54.1715378674
 20
48.9978469774
 10
-54.1736115502
 20
48.9858865984
 10
-54.1778272837
 20
48.9741154755
 10
-54.1841393907
 20
48.9626611476
 10
-54.1924794802
 20
48.9516477217
 10
-54.2027571878
 20
48.9411945273
 10
-54.2148611555
 20
48.9314148239
  0
LWPOLYLINE
  5
2A1
100
AcDbEntity
  8
RACCORDO
100
AcDbPolyline
 62
250
  6
CONTINUOUS
 90
9
 70
0
 10
-54.1713103275
 20
48.9349909909
 10
-54.17153788
 20
48.9294839973
 10
-54.1736115893
 20
48.9175236227
 10
-54.1778273451
 20
48.9057525114
 10
-54.184139467
 20
48.8942982018
 10
-54.1924795604
 20
48.8832847998
 10
-54.2027572581
 20
48.8728316336
 10
-54.2148611996
 20
48.8630519609
 10
-54.2286602377
 20
48.8540517419
  0
LWPOLYLINE
  5
2A2
100
AcDbEntity
  8
RACCORDO
100
AcDbPolyline
 62
250
  6
CONTINUOUS
 90
8
 70
0
 10
-54.1713103284
 20
27.5301748275
 10
-54.1715378674
 20
27.5246786977
 10
-54.1736115502
 20
27.5127183188
 10
-54.1778272837
 20
27.5009471958
 10
-54.1841393907
 20
27.489492868
 10
-54.1924794802
 20
27.478479442
 10
-54.2027571878
 20
27.4680262476
 10
-54.2148611555
 20
27.4582465442
  0
LWPOLYLINE
  5
2A3
100
AcDbEntity
  8
RACCORDO
100
AcDbPolyline
 62
250
  6
CONTINUOUS
 90
9
 70
0
 10
-54.1713103275
 20
27.4618227112
 10
-54.17153788
 20
27.4563157176
 10
-54.1736115893
 20
27.444355343
 10
-54.1778273451
 20
27.4325842318
 10
-54.184139467
 20
27.4211299221
 10
-54.1924795604
 20
27.4101165201
 10
-54.2027572581
 20
27.399663354
 10
-54.2148611996
 20
27.3898836813
 10
-54.2286602377
 20
27.3808834622
  0
LINE
  5
2A4
100
AcDbEntity
  8
RACCORDO
100
AcDbLine
 62
250
  6
CONTINUOUS
 10
-52.4037709123
 20
47.9771605278
 11
-52.4035433748
 21
47.982661855
  0
LWPOLYLINE
  5
2A5
100
AcDbEntity
  8
RACCORDO
100
AcDbPolyline
 62
250
  6
CONTINUOUS
 90
8
 70
0
 10
-52.4035433755
 20
45.3285544476
 10
-52.4037709145
 20
45.3230587599
 10
-52.4058445972
 20
45.3110983809
 10
-52.4100603307
 20
45.2993272579
 10
-52.4163724377
 20
45.2878729301
 10
-52.4247125272
 20
45.2768595042
 10
-52.4349902349
 20
45.2664063098
 10
-52.4470942026
 20
45.2566266064
  0
LWPOLYLINE
  5
2A6
100
AcDbEntity
  8
RACCORDO
100
AcDbPolyline
 62
250
  6
CONTINUOUS
 90
9
 70
0
 10
-52.4035433746
 20
45.2602027774
 10
-52.4037709474
 20
45.2546955384
 10
-52.4058446995
 20
45.2427351709
 10
-52.4100604913
 20
45.2309640788
 10
-52.4163726371
 20
45.2195097988
 10
-52.4247127368
 20
45.2084964358
 10
-52.4349904184
 20
45.1980433156
 10
-52.4470943177
 20
45.1882636929
 10
-52.4608932847
 20
45.1792635244
  0
LINE
  5
2A7
100
AcDbEntity
  8
RACCORDO
100
AcDbLine
 62
250
  6
CONTINUOUS
 10
-52.4037709123
 20
26.5039922482
 11
-52.4035433748
 21
26.5094935754
  0
LWPOLYLINE
  5
2A8
100
AcDbEntity
  8
RACCORDO
100
AcDbPolyline
 62
250
  6
CONTINUOUS
 90
8
 70
0
 10
-52.4035433755
 20
23.8553861679
 10
-52.4037709145
 20
23.8498904802
 10
-52.4058445972
 20
23.8379301013
 10
-52.4100603307
 20
23.8261589783
 10
-52.4163724377
 20
23.8147046505
 10
-52.4247125272
 20
23.8036912245
 10
-52.4349902349
 20
23.7932380301
 10
-52.4470942026
 20
23.7834583267
  0
LWPOLYLINE
  5
2A9
100
AcDbEntity
  8
RACCORDO
100
AcDbPolyline
 62
250
  6
CONTINUOUS
 90
9
 70
0
 10
-52.4035433746
 20
23.7870344978
 10
-52.4037709474
 20
23.7815272587
 10
-52.4058446995
 20
23.7695668913
 10
-52.4100604913
 20
23.7577957991
 10
-52.4163726371
 20
23.7463415192
 10
-52.4247127368
 20
23.7353281561
 10
-52.4349904184
 20
23.724875036
 10
-52.4470943177
 20
23.7150954132
 10
-52.4608932847
 20
23.7060952447
  0
LWPOLYLINE
  5
2AA
100
AcDbEntity
  8
RACCORDO
100
AcDbPolyline
 62
250
  6
CONTINUOUS
 90
8
 70
0
 10
-56.5788761587
 20
11.018837728
 10
-56.5791500472
 20
11.0129081342
 10
-56.5809874653
 20
11.0022152473
 10
-56.5845383338
 20
10.9916672421
 10
-56.5897719129
 20
10.9813554577
 10
-56.596642891
 20
10.9713691832
 10
-56.6050917811
 20
10.9617948857
 10
-56.6150454325
 20
10.9527154678
  0
LWPOLYLINE
  5
2AB
100
AcDbEntity
  8
RACCORDO
100
AcDbPolyline
 62
250
  6
CONTINUOUS
 90
16
 70
0
 10
-52.5659804061
 20
26.5249082325
 10
-52.5630960865
 20
26.544005287
 10
-52.5618018437
 20
26.5637780155
 10
-52.5621118181
 20
26.5840103857
 10
-52.5640226232
 20
26.6044813431
 10
-52.5675133818
 20
26.6249672266
 10
-52.5725459547
 20
26.6452442119
 10
-52.5790653572
 20
26.6650907573
 10
-52.5870003597
 20
26.6842900237
 10
-52.5962642661
 20
26.7026322442
 10
-52.606755861
 20
26.7199170158
 10
-52.6183605157
 20
26.7359554889
 10
-52.6309514401
 20
26.7505724307
 10
-52.6443910686
 20
26.7636081397
 10
-52.658532563
 20
26.7749201907
 10
-52.6732214162
 20
26.7843849907
  0
LWPOLYLINE
  5
2AC
100
AcDbEntity
  8
RACCORDO
100
AcDbPolyline
 62
250
  6
CONTINUOUS
 90
3
 70
0
 10
-53.1435542744
 20
25.3225663422
 10
-53.1168791603
 20
25.3563681856
 10
-53.0900938062
 20
25.3923126848
  0
LINE
  5
2AD
100
AcDbEntity
  8
RACCORDO
100
AcDbLine
 62
7
  6
CONTINUOUS
 10
-53.8889153905
 20
23.6615408617
 11
-54.6248907416
 21
22.7342373462
  0
LWPOLYLINE
  5
2AE
100
AcDbEntity
  8
RACCORDO
100
AcDbPolyline
 62
7
  6
CONTINUOUS
 90
5
 70
0
 10
-56.5788760632
 20
19.8343313552
 10
-56.5414598069
 20
19.8766738447
 10
-56.4881406322
 20
19.9331315602
 10
-56.4340505534
 20
19.9866360976
 10
-56.3788599352
 20
20.0375166651
  0
LWPOLYLINE
  5
2AF
100
AcDbEntity
  8
RACCORDO
100
AcDbPolyline
 62
250
  6
CONTINUOUS
 90
4
 70
0
 10
-56.4759182945
 20
20.0047154026
 10
-56.5274360226
 20
19.9512396494
 10
-56.5776751781
 20
19.8958815875
 10
-56.5788760632
 20
19.8944782838
  0
LWPOLYLINE
  5
2B0
100
AcDbEntity
  8
RACCORDO
100
AcDbPolyline
 62
250
  6
CONTINUOUS
 90
8
 70
0
 10
-56.3788488714
 20
20.0375322177
 10
-56.3756298695
 20
20.0407911785
 10
-56.3705972115
 20
20.0482464661
 10
-56.3671063677
 20
20.0572179981
 10
-56.3651954878
 20
20.0676077655
 10
-56.3648854614
 20
20.0793022614
 10
-56.3661796874
 20
20.0921737196
 10
-56.3690640366
 20
20.1060815141
  0
LWPOLYLINE
  5
2B1
100
AcDbEntity
  8
RACCORDO
100
AcDbPolyline
 62
250
  6
CONTINUOUS
 90
8
 70
0
 10
-52.575765241
 20
23.4177088611
 10
-52.5725459547
 20
23.4209681496
 10
-52.5675133818
 20
23.4284234935
 10
-52.5640226232
 20
23.4373950504
 10
-52.5621118181
 20
23.4477847991
 10
-52.5618018437
 20
23.4594792234
 10
-52.5630960865
 20
23.4723505526
 10
-52.5659804061
 20
23.4862581576
  0
LWPOLYLINE
  5
2B2
100
AcDbEntity
  8
RACCORDO
100
AcDbPolyline
 62
250
  6
CONTINUOUS
 90
3
 70
0
 10
-56.3690640366
 20
20.1060815141
 10
-56.4231276325
 20
20.0563293575
 10
-56.4759182945
 20
20.0047154026
  0
LWPOLYLINE
  5
2B3
100
AcDbEntity
  8
RACCORDO
100
AcDbPolyline
 62
7
  6
CONTINUOUS
 90
17
 70
0
 10
-52.575780423
 20
23.4176953752
 10
-52.5697846803
 20
23.4231188349
 10
-52.5506236179
 20
23.4417770773
 10
-52.532291108
 20
23.4616952948
 10
-52.5149124749
 20
23.4827235284
 10
-52.4985048283
 20
23.5048250375
 10
-52.4831087918
 20
23.5279530218
 10
-52.4688747272
 20
23.5518938797
 10
-52.4558328835
 20
23.5766020396
 10
-52.4440378796
 20
23.6020305423
 10
-52.4336235368
 20
23.6279374007
 10
-52.4246303475
 20
23.6542795354
 10
-52.4171163856
 20
23.6810209365
 10
-52.4111826826
 20
23.7079606121
 10
-52.4068965935
 20
23.7350282166
 10
-52.4043203945
 20
23.7622349504
 10
-52.4035433758
 20
23.787047279
  0
LINE
  5
2B4
100
AcDbEntity
  8
RACCORDO
100
AcDbLine
 62
250
  6
CONTINUOUS
 10
-52.5659804061
 20
23.4862581576
 11
-56.3690640366
 21
20.1060815141
  0
LINE
  5
2B5
100
AcDbEntity
  8
RACCORDO
100
AcDbLine
 62
7
  6
CONTINUOUS
 10
-52.575765241
 20
23.4177088611
 11
-56.3788488714
 21
20.0375322177
  0
LINE
  5
2B6
100
AcDbEntity
  8
RACCORDO
100
AcDbLine
 62
7
  6
CONTINUOUS
 10
-54.6248907416
 20
22.7342373462
 11
-56.5788760632
 21
21.2866920394
  0
LINE
  5
2B7
100
AcDbEntity
  8
RACCORDO
100
AcDbLine
 62
250
  6
CONTINUOUS
 10
-54.2148611555
 20
27.4582465442
 11
-54.2286602377
 21
27.4492462942
  0
LWPOLYLINE
  5
2B8
100
AcDbEntity
  8
RACCORDO
100
AcDbPolyline
 62
250
  6
CONTINUOUS
 90
6
 70
0
 10
-52.4608932847
 20
26.4285598109
 10
-52.4470941944
 20
26.4375600686
 10
-52.434990222
 20
26.4473397792
 10
-52.4247125126
 20
26.4577929801
 10
-52.416372424
 20
26.4688064113
 10
-52.4100603197
 20
26.4802607431
  0
LWPOLYLINE
  5
2B9
100
AcDbEntity
  8
RACCORDO
100
AcDbPolyline
 62
250
  6
CONTINUOUS
 90
8
 70
0
 10
-52.4608932847
 20
26.3601969789
 10
-52.4470942026
 20
26.3691972289
 10
-52.4349902349
 20
26.3789769323
 10
-52.4247125272
 20
26.3894301267
 10
-52.4163724377
 20
26.4004435527
 10
-52.4100603307
 20
26.4118978805
 10
-52.4058445972
 20
26.4236690035
 10
-52.4037709145
 20
26.4356293824
  0
LINE
  5
2BA
100
AcDbEntity
  8
RACCORDO
100
AcDbLine
 62
7
  6
CONTINUOUS
 10
-56.6150454325
 20
10.9501839132
 11
-57.2718204497
 21
10.4088562941
  0
LINE
  5
2BB
100
AcDbEntity
  8
RACCORDO
100
AcDbLine
 62
250
  6
CONTINUOUS
 10
-52.4470942026
 20
23.7834583267
 11
-52.4608932847
 21
23.7744580767
  0
LWPOLYLINE
  5
2BC
100
AcDbEntity
  8
RACCORDO
100
AcDbPolyline
 62
250
  6
CONTINUOUS
 90
11
 70
0
 10
-53.401939668
 20
25.0910603752
 10
-53.3764277017
 20
25.107208455
 10
-53.3509346994
 20
25.1247456464
 10
-53.3254606612
 20
25.1436719494
 10
-53.3001128288
 20
25.1638204734
 10
-53.2747839605
 20
25.185358109
 10
-53.2491523308
 20
25.2087855278
 10
-53.2230465243
 20
25.2341853293
 10
-53.1966379564
 20
25.2614749141
 10
-53.1701191486
 20
25.2909071547
 10
-53.1435542744
 20
25.3225663422
  0
LWPOLYLINE
  5
2BD
100
AcDbEntity
  8
RACCORDO
100
AcDbPolyline
 62
7
  6
CONTINUOUS
 90
12
 70
0
 10
-53.4407240235
 20
25.0010847063
 10
-53.4150660022
 20
25.0172277287
 10
-53.3750034095
 20
25.0446447883
 10
-53.3357513169
 20
25.0741933998
 10
-53.2973757786
 20
25.1057557413
 10
-53.2599353805
 20
25.1392155251
 10
-53.223506148
 20
25.1744459395
 10
-53.1881534296
 20
25.2113255436
 10
-53.1539283114
 20
25.2497522587
 10
-53.120902235
 20
25.2896004594
 10
-53.0891530714
 20
25.330723792
 10
-53.0698699698
 20
25.3571826268
  0
LINE
  5
2BE
100
AcDbEntity
  8
RACCORDO
100
AcDbLine
 62
250
  6
CONTINUOUS
 10
-53.8889153905
 20
24.7950346927
 11
-53.401939668
 21
25.0910603752
  0
LINE
  5
2BF
100
AcDbEntity
  8
RACCORDO
100
AcDbLine
 62
7
  6
CONTINUOUS
 10
-53.763866035
 20
24.8046512228
 11
-53.4407013606
 21
25.0010984765
  0
LINE
  5
2C0
100
AcDbEntity
  8
RACCORDO
100
AcDbLine
 62
250
  6
CONTINUOUS
 10
-53.7922248407
 20
24.0415335618
 11
-53.5421216149
 21
24.1833975126
  0
LINE
  5
2C1
100
AcDbEntity
  8
RACCORDO
100
AcDbLine
 62
250
  6
CONTINUOUS
 10
-53.8889153905
 20
23.6615408617
 11
-53.401939668
 21
23.937764008
  0
LWPOLYLINE
  5
2C2
100
AcDbEntity
  8
RACCORDO
100
AcDbPolyline
 62
250
  6
CONTINUOUS
 90
13
 70
0
 10
-53.401939668
 20
23.937764008
 10
-53.3744038727
 20
23.9525865485
 10
-53.347080836
 20
23.9657388978
 10
-53.3199705579
 20
23.9772210561
 10
-53.2930319745
 20
23.9870536184
 10
-53.2663061498
 20
23.9952159896
 10
-53.2399162755
 20
24.001646384
 10
-53.2138583994
 20
24.0063527082
 10
-53.1881364736
 20
24.0093270556
 10
-53.1628855466
 20
24.0104839203
 10
-53.1381506344
 20
24.0097948004
 10
-53.1138867209
 20
24.0072881979
 10
-53.0900938062
 20
24.0029641126
  0
LWPOLYLINE
  5
2C3
100
AcDbEntity
  8
RACCORDO
100
AcDbPolyline
 62
250
  6
CONTINUOUS
 90
13
 70
0
 10
-53.5421216149
 20
24.1833975126
 10
-53.5077785786
 20
24.2018311395
 10
-53.4735370481
 20
24.2182504056
 10
-53.4394798256
 20
24.2326146611
 10
-53.4057215894
 20
24.2448779188
 10
-53.3723113019
 20
24.2550236107
 10
-53.3392357732
 20
24.2630445857
 10
-53.3065815738
 20
24.2689015913
 10
-53.274431865
 20
24.2725609842
 10
-53.2427778164
 20
24.2739936126
 10
-53.2116809258
 20
24.2731535397
 10
-53.1812663543
 20
24.2700003073
 10
-53.1516279385
 20
24.2645013541
  0
LINE
  5
2C4
100
AcDbEntity
  8
RACCORDO
100
AcDbLine
 62
7
  6
CONTINUOUS
 10
-56.5788760632
 20
26.4559071985
 11
-55.8733956292
 21
26.7622276177
  0
LINE
  5
2C5
100
AcDbEntity
  8
RACCORDO
100
AcDbLine
 62
7
  6
CONTINUOUS
 10
-56.5788760632
 20
24.0088905265
 11
-54.6248907416
 21
24.8574880459
  0
LWPOLYLINE
  5
2C6
100
AcDbEntity
  8
RACCORDO
100
AcDbPolyline
 62
250
  6
CONTINUOUS
 90
9
 70
0
 10
-56.5456395998
 20
36.7625415982
 10
-56.5409903979
 20
36.7451015399
 10
-56.5379996163
 20
36.7270790105
 10
-56.536695092
 20
36.708641756
 10
-56.5370889669
 20
36.6899613825
 10
-56.5391775748
 20
36.6712117588
 10
-56.5429414761
 20
36.6525673982
 10
-56.5483456379
 20
36.6342018344
 10
-56.5553397607
 20
36.6162860062
  0
LWPOLYLINE
  5
2C7
100
AcDbEntity
  8
RACCORDO
100
AcDbPolyline
 62
250
  6
CONTINUOUS
 90
9
 70
0
 10
-52.5079810305
 20
24.0339064146
 10
-52.5034297449
 20
24.0145620787
 10
-52.500619143
 20
23.9945588378
 10
-52.4995798201
 20
23.9741144592
 10
-52.5003230879
 20
23.9534515117
 10
-52.5028408522
 20
23.9327949441
 10
-52.5071057004
 20
23.9123696345
 10
-52.5130712004
 20
23.8923979424
 10
-52.5206724062
 20
23.8730972887
  0
LWPOLYLINE
  5
2C8
100
AcDbEntity
  8
RACCORDO
100
AcDbPolyline
 62
250
  6
CONTINUOUS
 90
6
 70
0
 10
-56.5367276937
 20
28.7385491218
 10
-56.5370889487
 20
28.7403156774
 10
-56.5391775373
 20
28.742746656
 10
-56.5429414326
 20
28.7459012677
 10
-56.5483456057
 20
28.7497501526
 10
-56.5553397607
 20
28.7542574882
  0
LWPOLYLINE
  5
2C9
100
AcDbEntity
  8
RACCORDO
100
AcDbPolyline
 62
250
  6
CONTINUOUS
 90
6
 70
0
 10
-56.3925849132
 20
29.0594745905
 10
-56.3929445875
 20
29.0612385226
 10
-56.3950319772
 20
29.0636694694
 10
-56.398795753
 20
29.0668245186
 10
-56.4042008682
 20
29.0706742979
 10
-56.4111969823
 20
29.0751829522
  0
LINE
  5
2CA
100
AcDbEntity
  8
RACCORDO
100
AcDbLine
 62
250
  6
CONTINUOUS
 10
-57.298615369
 20
10.207775688
 11
-57.5652824642
 21
10.0537945569
  0
LINE
  5
2CB
100
AcDbEntity
  8
RACCORDO
100
AcDbLine
 62
250
  6
CONTINUOUS
 10
-58.2165537395
 20
9.6127322786
 11
-57.5652824642
 21
9.9887669037
  0
LINE
  5
2CC
100
AcDbEntity
  8
RACCORDO
100
AcDbLine
 62
250
  6
CONTINUOUS
 10
-57.8630541968
 20
9.0004531108
 11
-57.2117829215
 21
9.376487736
  0
LINE
  5
2CD
100
AcDbEntity
  8
RACCORDO
100
AcDbLine
 62
250
  6
CONTINUOUS
 10
-56.8888077478
 20
9.4979680676
 11
-57.1554841773
 21
9.3439815466
  0
LINE
  5
2CE
100
AcDbEntity
  8
RACCORDO
100
AcDbLine
 62
250
  6
CONTINUOUS
 10
-56.5788760632
 20
27.1929758736
 11
-54.4409883692
 21
27.805071474
  0
LINE
  5
2CF
100
AcDbEntity
  8
RACCORDO
100
AcDbLine
 62
250
  6
CONTINUOUS
 10
-56.5788760632
 20
26.9027950936
 11
-54.3337473591
 21
27.5455947158
  0
LINE
  5
2D0
100
AcDbEntity
  8
RACCORDO
100
AcDbLine
 62
250
  6
CONTINUOUS
 10
-52.6732214162
 20
26.7843849907
 11
-56.4763050467
 21
25.6955294982
  0
LINE
  5
2D1
100
AcDbEntity
  8
RACCORDO
100
AcDbLine
 62
250
  6
CONTINUOUS
 10
-52.5659804061
 20
26.5249082325
 11
-56.3690640366
 21
25.43605274
  0
LWPOLYLINE
  5
2D2
100
AcDbEntity
  8
RACCORDO
100
AcDbPolyline
 62
7
  6
CONTINUOUS
 90
9
 70
0
 10
-56.5771520635
 20
36.8117763604
 10
-56.5768413371
 20
36.8109628026
 10
-56.5766298714
 20
36.8103438945
 10
-56.5768380622
 20
36.8111593601
 10
-56.5772969172
 20
36.8134136547
 10
-56.5778397057
 20
36.8169648962
 10
-56.578347639
 20
36.8217524168
 10
-56.5787237593
 20
36.8277897146
 10
-56.5788758554
 20
36.8350677116
  0
LWPOLYLINE
  5
2D3
100
AcDbEntity
  8
RACCORDO
100
AcDbPolyline
 62
250
  6
CONTINUOUS
 90
9
 70
0
 10
-56.4077804849
 20
36.6960746904
 10
-56.4015103535
 20
36.6793772016
 10
-56.3968560883
 20
36.6619341249
 10
-56.3938609968
 20
36.6439075799
 10
-56.3925530555
 20
36.6254651995
 10
-56.3929445811
 20
36.6067789343
 10
-56.3950319656
 20
36.5880231469
 10
-56.3987957407
 20
36.5693726323
 10
-56.4042008598
 20
36.5510009821
  0
LWPOLYLINE
  5
2D4
100
AcDbEntity
  8
RACCORDO
100
AcDbPolyline
 62
250
  6
CONTINUOUS
 90
9
 70
0
 10
-52.5079810305
 20
45.5070746942
 10
-52.5034297449
 20
45.4877303584
 10
-52.500619143
 20
45.4677271174
 10
-52.4995798201
 20
45.4472827388
 10
-52.5003230879
 20
45.4266197914
 10
-52.5028408522
 20
45.4059632238
 10
-52.5071057004
 20
45.3855379141
 10
-52.5130712004
 20
45.365566222
 10
-52.5206724062
 20
45.3462655683
  0
LWPOLYLINE
  5
2D5
100
AcDbEntity
  8
RACCORDO
100
AcDbPolyline
 62
250
  6
CONTINUOUS
 90
10
 70
0
 10
-0.8817030196
 20
35.3579365384
 10
-0.8692863284
 20
35.3642236531
 10
-0.8569848144
 20
35.3691877321
 10
-0.8448936655
 20
35.3727903639
 10
-0.8331064416
 20
35.3750036718
 10
-0.8217143512
 20
35.3758105293
 10
-0.8108055449
 20
35.3752046932
 10
-0.8004644339
 20
35.3731908513
 10
-0.7907710367
 20
35.3697845865
 10
-0.7841663305
 20
35.3664445695
  0
LINE
  5
2D6
100
AcDbEntity
  8
RACCORDO
100
AcDbLine
 62
7
  6
CONTINUOUS
 10
-55.904101454
 20
9.7188172162
 11
-56.7013012588
 21
9.4206503569
  0
LWPOLYLINE
  5
2D7
100
AcDbEntity
  8
RACCORDO
100
AcDbPolyline
 62
250
  6
CONTINUOUS
 90
22
 70
0
 10
70.771559288
 20
-78.2338952737
 10
70.7980250518
 20
-78.2481094623
 10
70.8262001599
 20
-78.2611825565
 10
70.8559373705
 20
-78.2730462369
 10
70.8870812784
 20
-78.2836385045
 10
70.919469127
 20
-78.2929040047
 10
70.952931659
 20
-78.3007943163
 10
70.9872940007
 20
-78.3072682049
 10
71.0223765762
 20
-78.3122918384
 10
71.0579960457
 20
-78.3158389635
 10
71.0939662635
 20
-78.317891043
 10
71.1300992509
 20
-78.3184373529
 10
71.1662061788
 20
-78.3174750383
 10
71.202098354
 20
-78.315009128
 10
71.2375882057
 20
-78.3110525089
 10
71.2724902658
 20
-78.305625858
 10
71.3066221376
 20
-78.2987575348
 10
71.3398054497
 20
-78.2904834327
 10
71.3718667876
 20
-78.280846792
 10
71.4026386004
 20
-78.2698979731
 10
71.431960076
 20
-78.257694194
 10
71.4596779818
 20
-78.2442992313
  0
LWPOLYLINE
  5
2D8
100
AcDbEntity
  8
RACCORDO
100
AcDbPolyline
 62
250
  6
CONTINUOUS
 90
31
 70
0
 10
70.0654215721
 20
-78.6415315392
 10
70.1028468044
 20
-78.6619316105
 10
70.1398019897
 20
-78.6799063164
 10
70.1762871281
 20
-78.6954556569
 10
70.2123325866
 20
-78.7085757467
 10
70.247907998
 20
-78.7192704712
 10
70.2829222612
 20
-78.7275514859
 10
70.3174468619
 20
-78.7334349222
 10
70.3514103142
 20
-78.7369046488
 10
70.3845070591
 20
-78.7379239278
 10
70.4167157495
 20
-78.7364699209
 10
70.4480577326
 20
-78.7325654664
 10
70.47829149
 20
-78.7262423417
 10
70.5074118463
 20
-78.7174815129
 10
70.535423977
 20
-78.7063020138
 10
70.5621018907
 20
-78.6927927232
 10
70.5874360865
 20
-78.6769322753
 10
70.6114360653
 20
-78.6587420359
 10
70.6339043385
 20
-78.6383749807
 10
70.6548056335
 20
-78.6158718938
 10
70.6741752229
 20
-78.5911919913
 10
70.691921435
 20
-78.5643658964
 10
70.7080788125
 20
-78.5353492808
 10
70.7226128127
 20
-78.504186473
 10
70.7353281367
 20
-78.4710410812
 10
70.7462144253
 20
-78.4358552865
 10
70.7552820376
 20
-78.3986869079
 10
70.7623667522
 20
-78.3598730107
 10
70.7674138285
 20
-78.3195259502
 10
70.7704780071
 20
-78.2775333712
 10
70.771559288
 20
-78.2338952737
  0
LWPOLYLINE
  5
2D9
100
AcDbEntity
  8
RACCORDO
100
AcDbPolyline
 62
7
  6
CONTINUOUS
 90
18
 70
0
 10
70.168953009
 20
-78.8703942684
 10
70.1970289962
 20
-78.8861856118
 10
70.2574724699
 20
-78.9173772619
 10
70.318045416
 20
-78.9448652359
 10
70.378670277
 20
-78.9686527401
 10
70.4392477604
 20
-78.988736616
 10
70.4996367209
 20
-79.0051119772
 10
70.5597572595
 20
-79.017792425
 10
70.6194965774
 20
-79.0267873723
 10
70.6786204281
 20
-79.0321080576
 10
70.7369876991
 20
-79.033794687
 10
70.7944666898
 20
-79.0318953317
 10
70.8507950904
 20
-79.0264899514
 10
70.9058269192
 20
-79.0176773464
 10
70.9594036235
 20
-79.0055690514
 10
71.0112279124
 20
-78.9903395534
 10
71.061116323
 20
-78.9721831553
 10
71.1019044909
 20
-78.9545974373
  0
LINE
  5
2DA
100
AcDbEntity
  8
RACCORDO
100
AcDbLine
 62
250
  6
CONTINUOUS
 10
-75.1348160088
 20
5.1952658536
 11
70.0654215721
 21
-78.6415315392
  0
LWPOLYLINE
  5
2DB
100
AcDbEntity
  8
RACCORDO
100
AcDbPolyline
 62
250
  6
CONTINUOUS
 90
12
 70
0
 10
-75.8409537247
 20
6.4183322535
 10
-75.8655716639
 20
6.4336131372
 10
-75.8882133441
 20
6.4498809751
 10
-75.9087604376
 20
6.4670507555
 10
-75.9271055623
 20
6.4850327533
 10
-75.9431528427
 20
6.503732998
 10
-75.9568184111
 20
6.523053765
 10
-75.9680308468
 20
6.5428940871
 10
-75.9767315482
 20
6.5631502811
 10
-75.9828750398
 20
6.583716489
 10
-75.9864292104
 20
6.6044852338
 10
-75.9874003341
 20
6.6224695383
  0
LWPOLYLINE
  5
2DC
100
AcDbEntity
  8
RACCORDO
100
AcDbPolyline
 62
250
  6
CONTINUOUS
 90
6
 70
0
 10
-54.8171205737
 20
9.3481070684
 10
-54.8157710892
 20
9.3469121372
 10
-54.8147087692
 20
9.3438876354
 10
-54.8138575661
 20
9.3390493095
 10
-54.8132254007
 20
9.3324422089
 10
-54.8128181607
 20
9.3241278691
  0
LWPOLYLINE
  5
2DD
100
AcDbEntity
  8
RACCORDO
100
AcDbPolyline
 62
250
  6
CONTINUOUS
 90
6
 70
0
 10
-55.1878312518
 20
9.3858451003
 10
-55.1864802607
 20
9.3846474422
 10
-55.1854185219
 20
9.3816218634
 10
-55.1845677659
 20
9.3767836503
 10
-55.1839359112
 20
9.3701778348
 10
-55.1835288388
 20
9.361865901
  0
LWPOLYLINE
  5
2DE
100
AcDbEntity
  8
RACCORDO
100
AcDbPolyline
 62
250
  6
CONTINUOUS
 90
4
 70
0
 10
-52.5314922182
 20
24.0859295553
 10
-52.5220890592
 20
24.0697854542
 10
-52.5142234541
 20
24.0523812493
 10
-52.5079810305
 20
24.0339064146
  0
LWPOLYLINE
  5
2DF
100
AcDbEntity
  8
RACCORDO
100
AcDbPolyline
 62
250
  6
CONTINUOUS
 90
3
 70
0
 10
-56.5597251403
 20
36.7950319361
 10
-56.5519039492
 20
36.7792368611
 10
-56.5456395998
 20
36.7625415982
  0
LINE
  5
2E0
100
AcDbEntity
  8
RACCORDO
100
AcDbLine
 62
250
  6
CONTINUOUS
 10
53.0020895799
 20
-55.497284748
 11
-58.0714840166
 21
8.6352045678
  0
LINE
  5
2E1
100
AcDbEntity
  8
RACCORDO
100
AcDbLine
 62
250
  6
CONTINUOUS
 10
53.2105193998
 20
-55.132036205
 11
-57.8630541968
 21
9.0004531108
  0
LWPOLYLINE
  5
2E2
100
AcDbEntity
  8
RACCORDO
100
AcDbPolyline
 62
250
  6
CONTINUOUS
 90
25
 70
0
 10
-57.8630540877
 20
9.0004531738
 10
-57.8860558439
 20
9.0143049046
 10
-57.9089974553
 20
9.0298452037
 10
-57.9317848583
 20
9.0470197281
 10
-57.9543510038
 20
9.0657880227
 10
-57.976572163
 20
9.086062559
 10
-57.998272921
 20
9.1076929035
 10
-58.0193472631
 20
9.1305652212
 10
-58.0397274985
 20
9.154594189
 10
-58.0593062351
 20
9.1796469481
 10
-58.0779834335
 20
9.2055787163
 10
-58.0957128768
 20
9.2323060676
 10
-58.1124695366
 20
9.25978669
 10
-58.1281555946
 20
9.2878556735
 10
-58.142735315
 20
9.3164472931
 10
-58.1562492827
 20
9.3456799836
 10
-58.1686524854
 20
9.3755461345
 10
-58.1798082815
 20
9.4058161907
 10
-58.1896077288
 20
9.4362743813
 10
-58.1979972044
 20
9.4668504365
 10
-58.2048936108
 20
9.4973381748
 10
-58.2102028424
 20
9.5273215747
 10
-58.2139078147
 20
9.5565827952
 10
-58.2160231062
 20
9.5850918931
 10
-58.2165536159
 20
9.6127323499
  0
LWPOLYLINE
  5
2E3
100
AcDbEntity
  8
RACCORDO
100
AcDbPolyline
 62
250
  6
CONTINUOUS
 90
25
 70
0
 10
-58.0714840166
 20
8.6352045678
 10
-58.1081609834
 20
8.6577505586
 10
-58.144468197
 20
8.6827876767
 10
-58.1804056573
 20
8.7103159222
 10
-58.2161622767
 20
8.7405035727
 10
-58.2515491428
 20
8.7731823506
 10
-58.285999519
 20
8.8078474229
 10
-58.3194670225
 20
8.8445142749
 10
-58.3519980361
 20
8.8831674214
 10
-58.3831649714
 20
8.9232555739
 10
-58.4129148935
 20
8.9647391528
 10
-58.4413007374
 20
9.0076577377
 10
-58.4680537199
 20
9.0515787792
 10
-58.4931453392
 20
9.0964206943
 10
-58.5166040971
 20
9.1422650661
 10
-58.5382467166
 20
9.1889240943
 10
-58.5581510116
 20
9.2365868624
 10
-58.5762391682
 20
9.285064287
 10
-58.5920944675
 20
9.3336013179
 10
-58.6056676159
 20
9.3823060457
 10
-58.617007907
 20
9.4310703798
 10
-58.6258465032
 20
9.4788149981
 10
-58.632093792
 20
9.5251801266
 10
-58.6358393859
 20
9.5705255393
 10
-58.6370832849
 20
9.6148512362
  0
LWPOLYLINE
  5
2E4
100
AcDbEntity
  8
RACCORDO
100
AcDbPolyline
 62
250
  6
CONTINUOUS
 90
7
 70
0
 10
-53.0900938062
 20
25.3923126848
 10
-53.0824925766
 20
25.3837378288
 10
-53.0765270669
 20
25.3761374735
 10
-53.0722622211
 20
25.3695943604
 10
-53.0697444687
 20
25.3641797217
 10
-53.0690012192
 20
25.3599525041
 10
-53.0698699698
 20
25.3571826268
  0
LWPOLYLINE
  5
2E5
100
AcDbEntity
  8
RACCORDO
100
AcDbPolyline
 62
250
  6
CONTINUOUS
 90
7
 70
0
 10
-52.5206724062
 20
26.1913108723
 10
-52.5130711659
 20
26.182736007
 10
-52.5071056514
 20
26.1751356464
 10
-52.5028408058
 20
26.1685925319
 10
-52.5003230576
 20
26.1631778949
 10
-52.4995798151
 20
26.1589506814
 10
-52.500451364
 20
26.1561768889
  0
LWPOLYLINE
  5
2E6
100
AcDbEntity
  8
RACCORDO
100
AcDbPolyline
 62
7
  6
CONTINUOUS
 90
3
 70
0
 10
-53.3270722053
 20
24.4025671458
 10
-53.3309322381
 20
24.4070356944
 10
-53.3339546522
 20
24.4092057463
  0
LWPOLYLINE
  5
2E7
100
AcDbEntity
  8
RACCORDO
100
AcDbPolyline
 62
250
  6
CONTINUOUS
 90
3
 70
0
 10
-56.5783274236
 20
36.8215618769
 10
-56.5690303769
 20
36.8097798096
 10
-56.5597251403
 20
36.7950319361
  0
LWPOLYLINE
  5
2E8
100
AcDbEntity
  8
RACCORDO
100
AcDbPolyline
 62
250
  6
CONTINUOUS
 90
4
 70
0
 10
-52.5314922182
 20
45.559097835
 10
-52.5220890592
 20
45.5429537339
 10
-52.5142234541
 20
45.5255495289
 10
-52.5079810305
 20
45.5070746942
  0
LWPOLYLINE
  5
2E9
100
AcDbEntity
  8
RACCORDO
100
AcDbPolyline
 62
250
  6
CONTINUOUS
 90
7
 70
0
 10
-56.8254102882
 20
9.4923093548
 10
-56.8345063927
 20
9.4966815479
 10
-56.8442943307
 20
9.4997022707
 10
-56.8546996101
 20
9.5013485338
 10
-56.8656430405
 20
9.5016078079
 10
-56.8770413357
 20
9.50047812
 10
-56.8888077478
 20
9.4979680676
  0
LWPOLYLINE
  5
2EA
100
AcDbEntity
  8
RACCORDO
100
AcDbPolyline
 62
250
  6
CONTINUOUS
 90
8
 70
0
 10
-55.8265242796
 20
9.715796971
 10
-55.8318577479
 20
9.7185594519
 10
-55.8420361507
 20
9.7223135127
 10
-55.8529457801
 20
9.7245112651
 10
-55.8644921746
 20
9.7251336798
 10
-55.8765753594
 20
9.7241753678
 10
-55.8890907118
 20
9.7216446264
 10
-55.9019298673
 20
9.7175633682
  0
LWPOLYLINE
  5
2EB
100
AcDbEntity
  8
RACCORDO
100
AcDbPolyline
 62
250
  6
CONTINUOUS
 90
8
 70
0
 10
-55.3202231857
 20
9.4234650835
 10
-55.3255883381
 20
9.4262458564
 10
-55.3357667068
 20
9.4299999338
 10
-55.3466763346
 20
9.4321977142
 10
-55.3582227694
 20
9.4328201538
 10
-55.3703060421
 20
9.4318618473
 10
-55.3828215315
 20
9.4293310767
 10
-55.3956608731
 20
9.4252497397
  0
LWPOLYLINE
  5
2EC
100
AcDbEntity
  8
RACCORDO
100
AcDbPolyline
 62
250
  6
CONTINUOUS
 90
8
 70
0
 10
-54.7373708894
 20
9.3223376804
 10
-54.7427380068
 20
9.3251204632
 10
-54.7529174687
 20
9.3288762212
 10
-54.7638280606
 20
9.3310751451
 10
-54.7753756257
 20
9.3316983463
 10
-54.7874602951
 20
9.3307404073
 10
-54.7999772761
 20
9.3282096086
 10
-54.8128181607
 20
9.3241278691
  0
LWPOLYLINE
  5
2ED
100
AcDbEntity
  8
RACCORDO
100
AcDbPolyline
 62
250
  6
CONTINUOUS
 90
19
 70
0
 10
-58.6370832849
 20
9.6148512362
 10
-58.6180102761
 20
9.6047502979
 10
-58.597500421
 20
9.595636114
 10
-58.5757063646
 20
9.587576517
 10
-58.5527903099
 20
9.5806314907
 10
-58.5289228099
 20
9.5748527237
 10
-58.5042814992
 20
9.5702832244
 10
-58.4790497713
 20
9.5669570015
 10
-58.4534154139
 20
9.5648988105
 10
-58.4275692112
 20
9.5641239696
 10
-58.4017035244
 20
9.5646382455
 10
-58.3760108593
 20
9.5664378107
 10
-58.3506824342
 20
9.5695092718
 10
-58.3259067565
 20
9.5738297696
 10
-58.3018682197
 20
9.5793671485
 10
-58.2787457313
 20
9.5860801965
 10
-58.2567113808
 20
9.5939189516
 10
-58.2359291595
 20
9.6028250736
 10
-58.2165537395
 20
9.6127322786
  0
LWPOLYLINE
  5
2EE
100
AcDbEntity
  8
RACCORDO
100
AcDbPolyline
 62
250
  6
CONTINUOUS
 90
8
 70
0
 10
-55.3956608731
 20
9.4252497397
 10
-55.3802158616
 20
9.4169484603
 10
-55.3645037521
 20
9.4092582658
 10
-55.3485245446
 20
9.4021791564
 10
-55.3323507045
 20
9.3957618533
 10
-55.3159097665
 20
9.3899556352
 10
-55.2989843346
 20
9.384608338
 10
-55.2816239337
 20
9.3796689318
  0
LINE
  5
2EF
100
AcDbEntity
  8
RACCORDO
100
AcDbLine
 62
7
  6
CONTINUOUS
 10
-57.2117829215
 20
9.376487736
 11
53.4798208826
 21
-54.5354570089
  0
LINE
  5
2F0
100
AcDbEntity
  8
RACCORDO
100
AcDbLine
 62
250
  6
CONTINUOUS
 10
-56.8888077478
 20
9.4979680676
 11
53.4798208826
 21
-54.2274948598
  0
LINE
  5
2F1
100
AcDbEntity
  8
RACCORDO
100
AcDbLine
 62
7
  6
CONTINUOUS
 10
-56.8254054562
 20
9.4923065651
 11
53.4798208826
 21
-54.1965486737
  0
LINE
  5
2F2
100
AcDbEntity
  8
RACCORDO
100
AcDbLine
 62
250
  6
CONTINUOUS
 10
-55.904101454
 20
9.7188172162
 11
-55.3956608731
 21
9.4252497397
  0
LINE
  5
2F3
100
AcDbEntity
  8
RACCORDO
100
AcDbLine
 62
7
  6
CONTINUOUS
 10
-55.8265242796
 20
9.715796971
 11
-55.3202136013
 21
9.4234595507
  0
LINE
  5
2F4
100
AcDbEntity
  8
RACCORDO
100
AcDbLine
 62
250
  6
CONTINUOUS
 10
-54.8128181607
 20
9.3241278691
 11
53.4798208826
 21
-53.202684689
  0
LINE
  5
2F5
100
AcDbEntity
  8
RACCORDO
100
AcDbLine
 62
7
  6
CONTINUOUS
 10
-54.7373708894
 20
9.3223376804
 11
53.4798208826
 21
-53.1609125688
  0
LWPOLYLINE
  5
2F6
100
AcDbEntity
  8
RACCORDO
100
AcDbPolyline
 62
7
  6
CONTINUOUS
 90
28
 70
0
 10
-56.8254593719
 20
9.4923376618
 10
-56.8305736464
 20
9.4953264598
 10
-56.855759149
 20
9.5110578724
 10
-56.8812903461
 20
9.5287187089
 10
-56.9069952589
 20
9.5482595188
 10
-56.9327121832
 20
9.5696190178
 10
-56.9582962458
 20
9.5927258965
 10
-56.9836058213
 20
9.6174983203
 10
-57.0085117656
 20
9.6438529467
 10
-57.0328729272
 20
9.6716737204
 10
-57.0565578084
 20
9.700839908
 10
-57.079462459
 20
9.7312515642
 10
-57.1014641268
 20
9.7627643631
 10
-57.1224491961
 20
9.7952288243
 10
-57.1423372491
 20
9.8285313479
 10
-57.1610291156
 20
9.8625076897
 10
-57.1784338823
 20
9.896987915
 10
-57.1944926455
 20
9.9318438794
 10
-57.2091363101
 20
9.9669030156
 10
-57.2223034079
 20
10.0019862638
 10
-57.2339587881
 20
10.0369511841
 10
-57.2440679401
 20
10.0716266292
 10
-57.2526036247
 20
10.1058329923
 10
-57.2595583933
 20
10.1394127753
 10
-57.2649357023
 20
10.1722059508
 10
-57.2687491114
 20
10.2040535349
 10
-57.2710281974
 20
10.2347811068
 10
-57.2718204746
 20
10.2654568678
  0
LWPOLYLINE
  5
2F7
100
AcDbEntity
  8
RACCORDO
100
AcDbPolyline
 62
7
  6
CONTINUOUS
 90
29
 70
0
 10
-55.8265261697
 20
9.7157936951
 10
-55.8620730456
 20
9.7372909406
 10
-55.9043094307
 20
9.7653525556
 10
-55.946466265
 20
9.796141885
 10
-55.9883470353
 20
9.8295835433
 10
-56.0298561529
 20
9.8656359792
 10
-56.0708652943
 20
9.9041893014
 10
-56.1111854907
 20
9.9450607823
 10
-56.1506550765
 20
9.9881105174
 10
-56.1890794809
 20
10.0331586904
 10
-56.2263147136
 20
10.0800406533
 10
-56.2622875046
 20
10.128662282
 10
-56.2968569936
 20
10.1788325685
 10
-56.3298753027
 20
10.2303419398
 10
-56.3612547821
 20
10.2830727401
 10
-56.3908754919
 20
10.3368338538
 10
-56.418614667
 20
10.3913976759
 10
-56.4443889691
 20
10.4465909038
 10
-56.4680999143
 20
10.5021923734
 10
-56.4896530093
 20
10.5579703762
 10
-56.508977304
 20
10.6137284127
 10
-56.5260161383
 20
10.6692571812
 10
-56.5407205974
 20
10.7243238632
 10
-56.553051186
 20
10.7786792583
 10
-56.5629666117
 20
10.8320458105
 10
-56.5704488443
 20
10.8842293922
 10
-56.5755374324
 20
10.9351375875
 10
-56.5783021067
 20
10.9846127952
 10
-56.5788799406
 20
11.0188377306
  0
LWPOLYLINE
  5
2F8
100
AcDbEntity
  8
RACCORDO
100
AcDbPolyline
 62
250
  6
CONTINUOUS
 90
10
 70
0
 10
53.5676888482
 20
-55.1707779374
 10
53.5501945208
 20
-55.1597653414
 10
53.5344092307
 20
-55.1479231289
 10
53.520450457
 20
-55.1353394391
 10
53.5084220839
 20
-55.1221079297
 10
53.4984136278
 20
-55.1083270788
 10
53.490499571
 20
-55.0940994518
 10
53.484738809
 20
-55.0795309398
 10
53.4811742104
 20
-55.0647299703
 10
53.4798208866
 20
-55.0483238263
  0
LINE
  5
2F9
100
AcDbEntity
  8
DRAFT
100
AcDbLine
 62
7
  6
CONTINUOUS
 10
-56.5788760632
 20
23.8498517037
 11
-54.6248907416
 21
22.7342373462
  0
LINE
  5
2FA
100
AcDbEntity
  8
RACCORDO
100
AcDbLine
 62
7
  6
CONTINUOUS
 10
-54.9341346769
 20
24.7231863019
 11
-53.7922248407
 21
24.0415335618
  0
LWPOLYLINE
  5
2FB
100
AcDbEntity
  8
RACCORDO
100
AcDbPolyline
 62
250
  6
CONTINUOUS
 90
16
 70
0
 10
-53.5421216149
 20
24.1833975126
 10
-53.5272254193
 20
24.1740330776
 10
-53.5125194577
 20
24.1629671157
 10
-53.4981648232
 20
24.1503208535
 10
-53.4843187558
 20
24.1362328237
 10
-53.4711329314
 20
24.1208573595
 10
-53.4587517988
 20
24.1043629075
 10
-53.447310979
 20
24.0869301594
 10
-53.4369357895
 20
24.068750081
 10
-53.42773988
 20
24.0500218361
 10
-53.4198239734
 20
24.0309505808
 10
-53.4132747688
 20
24.011745222
 10
-53.4081639956
 20
23.9926161418
 10
-53.404547623
 20
23.9737728787
 10
-53.4024652488
 20
23.9554218318
 10
-53.401939668
 20
23.937764008
  0
LWPOLYLINE
  5
2FC
100
AcDbEntity
  8
RACCORDO
100
AcDbPolyline
 62
250
  6
CONTINUOUS
 90
16
 70
0
 10
-53.1516279385
 20
24.2645013541
 10
-53.1372479411
 20
24.2549904193
 10
-53.1239075662
 20
24.2436169349
 10
-53.1117520445
 20
24.2305047191
 10
-53.1009137078
 20
24.2157965188
 10
-53.0915105484
 20
24.1996524558
 10
-53.0836449342
 20
24.1822482833
 10
-53.0774024947
 20
24.1637734729
 10
-53.0728511887
 20
24.1444291517
 10
-53.0700405642
 20
24.1244259129
 10
-53.0690012192
 20
24.1039815228
 10
-53.0697444687
 20
24.0833185506
 10
-53.0722622211
 20
24.0626619449
 10
-53.0765270669
 20
24.0422365851
 10
-53.0824925766
 20
24.0222648331
 10
-53.0900938062
 20
24.0029641126
  0
LWPOLYLINE
  5
2FD
100
AcDbEntity
  8
RACCORDO
100
AcDbPolyline
 62
250
  6
CONTINUOUS
 90
5
 70
0
 10
-52.5822065385
 20
24.1346345301
 10
-52.5678265042
 20
24.1251235671
 10
-52.5544861022
 20
24.1137500485
 10
-52.5423305632
 20
24.1006377949
 10
-52.5314922182
 20
24.0859295553
  0
LWPOLYLINE
  5
2FE
100
AcDbEntity
  8
RACCORDO
100
AcDbPolyline
 62
250
  6
CONTINUOUS
 90
7
 70
0
 10
-53.0900938062
 20
46.8654809645
 10
-53.0824925766
 20
46.8569061085
 10
-53.0765270669
 20
46.8493057531
 10
-53.0722622211
 20
46.8427626401
 10
-53.0697444687
 20
46.8373480013
 10
-53.0690012192
 20
46.8331207837
 10
-53.0698699698
 20
46.8303509064
  0
LWPOLYLINE
  5
2FF
100
AcDbEntity
  8
RACCORDO
100
AcDbPolyline
 62
250
  6
CONTINUOUS
 90
7
 70
0
 10
-52.5206724062
 20
47.664479152
 10
-52.5130711659
 20
47.6559042867
 10
-52.5071056514
 20
47.6483039261
 10
-52.5028408058
 20
47.6417608115
 10
-52.5003230576
 20
47.6363461745
 10
-52.4995798151
 20
47.6321189611
 10
-52.500451364
 20
47.6293451685
  0
LWPOLYLINE
  5
300
100
AcDbEntity
  8
RACCORDO
100
AcDbPolyline
 62
7
  6
CONTINUOUS
 90
3
 70
0
 10
-53.3270722053
 20
45.8757354255
 10
-53.3309322381
 20
45.880203974
 10
-53.3339546522
 20
45.8823740259
  0
LWPOLYLINE
  5
301
100
AcDbEntity
  8
RACCORDO
100
AcDbPolyline
 62
250
  6
CONTINUOUS
 90
4
 70
0
 10
-55.2816239337
 20
9.3796689318
 10
-55.263779039
 20
9.3751884465
 10
-55.2450836792
 20
9.3711678082
 10
-55.2254158641
 20
9.3676073255
  0
LINE
  5
302
100
AcDbEntity
  8
RACCORDO
100
AcDbLine
 62
7
  6
CONTINUOUS
 10
-54.6603531651
 20
26.6690957116
 11
-54.6649354774
 21
26.6713331117
  0
LWPOLYLINE
  5
303
100
AcDbEntity
  8
RACCORDO
100
AcDbPolyline
 62
250
  6
CONTINUOUS
 90
8
 70
0
 10
-52.5446608329
 20
26.7740788057
 10
-52.5600962798
 20
26.78168888
 10
-52.5762607848
 20
26.7872362224
 10
-52.5935936895
 20
26.7908807617
 10
-52.6120342556
 20
26.7925123198
 10
-52.631510361
 20
26.7920310419
 10
-52.6519387974
 20
26.7893475762
 10
-52.6732214162
 20
26.7843849907
  0
LWPOLYLINE
  5
304
100
AcDbEntity
  8
RACCORDO
100
AcDbPolyline
 62
250
  6
CONTINUOUS
 90
3
 70
0
 10
-52.8547297091
 20
24.2919859933
 10
-52.8698202062
 20
24.2994909526
 10
-52.8856294936
 20
24.3049481179
  0
LWPOLYLINE
  5
305
100
AcDbEntity
  8
RACCORDO
100
AcDbPolyline
 62
250
  6
CONTINUOUS
 90
7
 70
0
 10
-52.9465423425
 20
26.942197068
 10
-52.9613765752
 20
26.9497785278
 10
-52.9764356041
 20
26.955326493
 10
-52.9915548976
 20
26.9587803476
 10
-53.0065692656
 20
26.9601023557
 10
-53.0213146646
 20
26.9592780733
 10
-53.0343298189
 20
26.9566789931
  0
LWPOLYLINE
  5
306
100
AcDbEntity
  8
RACCORDO
100
AcDbPolyline
 62
250
  6
CONTINUOUS
 90
4
 70
0
 10
-52.8167870109
 20
24.2770993425
 10
-52.8246606578
 20
24.2813037624
 10
-52.8391980057
 20
24.2874396337
 10
-52.8547297091
 20
24.2919859933
  0
LWPOLYLINE
  5
307
100
AcDbEntity
  8
RACCORDO
100
AcDbPolyline
 62
7
  6
CONTINUOUS
 90
6
 70
0
 10
-52.8167432432
 20
24.2770725066
 10
-52.8268535982
 20
24.2826243532
 10
-52.844758442
 20
24.2911355861
 10
-52.863286015
 20
24.2983224396
 10
-52.8823318592
 20
24.3041419427
 10
-52.8902481329
 20
24.3061208006
  0
LWPOLYLINE
  5
308
100
AcDbEntity
  8
RACCORDO
100
AcDbPolyline
 62
7
  6
CONTINUOUS
 90
12
 70
0
 10
-54.5844047033
 20
27.9517973431
 10
-54.59396803
 20
27.9570710828
 10
-54.6134822735
 20
27.9663374518
 10
-54.6338926393
 20
27.9740785988
 10
-54.6550688205
 20
27.9802015568
 10
-54.6768492217
 20
27.9846311096
 10
-54.6991113542
 20
27.9873218579
 10
-54.7217225045
 20
27.9882402917
 10
-54.7445213315
 20
27.987374338
 10
-54.7673850719
 20
27.9847373362
 10
-54.7902123898
 20
27.980348885
 10
-54.8020951954
 20
27.9773659042
  0
LWPOLYLINE
  5
309
100
AcDbEntity
  8
RACCORDO
100
AcDbPolyline
 62
7
  6
CONTINUOUS
 90
12
 70
0
 10
-52.8166445175
 20
26.9311153226
 10
-52.823285242
 20
26.9348306078
 10
-52.8424406652
 20
26.9442287008
 10
-52.8624978683
 20
26.9521529149
 10
-52.8833340689
 20
26.9585080246
 10
-52.9047959011
 20
26.9632162975
 10
-52.9267666064
 20
26.9662289492
 10
-52.9491145827
 20
26.9675079387
 10
-52.9716785952
 20
26.9670343044
 10
-52.9943370786
 20
26.9648164589
 10
-53.0169892609
 20
26.96087134
 10
-53.0343298189
 20
26.9566789931
  0
LINE
  5
30A
100
AcDbEntity
  8
RACCORDO
100
AcDbLine
 62
250
  6
CONTINUOUS
 10
-54.5870746668
 20
27.9533070733
 11
-54.5845544461
 21
27.9518878384
  0
LINE
  5
30B
100
AcDbEntity
  8
RACCORDO
100
AcDbLine
 62
250
  6
CONTINUOUS
 10
-56.5788760632
 20
25.7547527176
 11
-56.4763050467
 21
25.6955294982
  0
LINE
  5
30C
100
AcDbEntity
  8
RACCORDO
100
AcDbLine
 62
250
  6
CONTINUOUS
 10
-53.5421216149
 20
24.1833975126
 11
-54.6732393318
 21
24.8364907061
  0
LINE
  5
30D
100
AcDbEntity
  8
RACCORDO
100
AcDbLine
 62
250
  6
CONTINUOUS
 10
-53.1516279385
 20
24.2645013541
 11
-54.1017611159
 21
24.8130963428
  0
LINE
  5
30E
100
AcDbEntity
  8
RACCORDO
100
AcDbLine
 62
250
  6
CONTINUOUS
 10
-53.3270722053
 20
24.4025671458
 11
-54.0271128584
 21
24.8067618453
  0
LINE
  5
30F
100
AcDbEntity
  8
RACCORDO
100
AcDbLine
 62
7
  6
CONTINUOUS
 10
-53.334068048
 20
24.409239328
 11
-54.0217672493
 21
24.806308228
  0
LINE
  5
310
100
AcDbEntity
  8
RACCORDO
100
AcDbLine
 62
250
  6
CONTINUOUS
 10
-52.5822065385
 20
24.1346345301
 11
-52.8547297091
 21
24.2919859933
  0
LINE
  5
311
100
AcDbEntity
  8
RACCORDO
100
AcDbLine
 62
7
  6
CONTINUOUS
 10
-52.5445937075
 20
24.1199383405
 11
-52.8167870065
 21
24.2770993399
  0
LINE
  5
312
100
AcDbEntity
  8
RACCORDO
100
AcDbLine
 62
250
  6
CONTINUOUS
 10
-55.8733956292
 20
26.7622276177
 11
-55.1947876914
 21
26.3704078994
  0
LINE
  5
313
100
AcDbEntity
  8
RACCORDO
100
AcDbLine
 62
250
  6
CONTINUOUS
 10
-55.821600134
 20
26.7721800035
 11
-55.1478264265
 21
26.3831515092
  0
LINE
  5
314
100
AcDbEntity
  8
RACCORDO
100
AcDbLine
 62
250
  6
CONTINUOUS
 10
-54.6811601722
 20
26.6752877953
 11
-54.4861682503
 21
26.5627019034
  0
LINE
  5
315
100
AcDbEntity
  8
RACCORDO
100
AcDbLine
 62
7
  6
CONTINUOUS
 10
-54.6603167869
 20
26.6691571673
 11
-54.4792120566
 21
26.5645895659
  0
LINE
  5
316
100
AcDbEntity
  8
RACCORDO
100
AcDbLine
 62
250
  6
CONTINUOUS
 10
-52.6732214162
 20
26.7843849907
 11
-52.9465423425
 21
26.942197068
  0
LINE
  5
317
100
AcDbEntity
  8
RACCORDO
100
AcDbLine
 62
250
  6
CONTINUOUS
 10
-54.4409883692
 20
27.805071474
 11
-54.7143092955
 21
27.9628835514
  0
LINE
  5
318
100
AcDbEntity
  8
RACCORDO
100
AcDbLine
 62
7
  6
CONTINUOUS
 10
-52.5445936299
 20
26.7740400298
 11
-52.816787163
 21
26.9312011644
  0
LINE
  5
319
100
AcDbEntity
  8
RACCORDO
100
AcDbLine
 62
7
  6
CONTINUOUS
 10
-54.3123605407
 20
27.7947264888
 11
-54.5845541386
 21
27.9518876608
  0
LWPOLYLINE
  5
31A
100
AcDbEntity
  8
RACCORDO
100
AcDbPolyline
 62
250
  6
CONTINUOUS
 90
16
 70
0
 10
-54.4409883692
 20
27.805071474
 10
-54.4262994153
 20
27.7956066
 10
-54.4121578399
 20
27.7842944593
 10
-54.3987181512
 20
27.7712586516
 10
-54.3861271867
 20
27.7566416071
 10
-54.3745225132
 20
27.7406030349
 10
-54.3640309224
 20
27.7233181789
 10
-54.3547670401
 20
27.7049758952
 10
-54.3468320773
 20
27.685776591
 10
-54.3403127264
 20
27.6659300405
 10
-54.3352802107
 20
27.6456530854
 10
-54.3317895079
 20
27.6251672668
 10
-54.3298787504
 20
27.6046964088
 10
-54.3295688079
 20
27.5844641693
 10
-54.3308630598
 20
27.5646915966
 10
-54.3337473591
 20
27.5455947158
  0
LWPOLYLINE
  5
31B
100
AcDbEntity
  8
RACCORDO
100
AcDbPolyline
 62
250
  6
CONTINUOUS
 90
7
 70
0
 10
-56.4750273911
 20
36.7725195514
 10
-56.4608002153
 20
36.7632338946
 10
-56.4476266055
 20
36.7524220379
 10
-56.4356305092
 20
36.7401822479
 10
-56.4249236079
 20
36.7266240382
 10
-56.4156095175
 20
36.7118736419
 10
-56.4077804849
 20
36.6960746904
  0
LINE
  5
31C
100
AcDbEntity
  8
RACCORDO
100
AcDbLine
 62
250
  6
CONTINUOUS
 10
-55.1835288388
 20
9.361865901
 11
-54.8128181607
 21
9.3241278691
  0
LINE
  5
31D
100
AcDbEntity
  8
RACCORDO
100
AcDbLine
 62
7
  6
CONTINUOUS
 10
-55.1878312518
 20
9.3858451003
 11
-54.8171205737
 21
9.3481070684
  0
LWPOLYLINE
  5
31E
100
AcDbEntity
  8
RACCORDO
100
AcDbPolyline
 62
7
  6
CONTINUOUS
 90
14
 70
0
 10
-55.187831594
 20
9.3858451351
 10
-55.1988036019
 20
9.3870996739
 10
-55.2124745959
 20
9.3890532808
 10
-55.2258794589
 20
9.3913989974
 10
-55.2389030366
 20
9.3940979944
 10
-55.2514250249
 20
9.3971054788
 10
-55.2632990922
 20
9.4003605807
 10
-55.2744525434
 20
9.4038090303
 10
-55.2847963425
 20
9.4073865259
 10
-55.2941827971
 20
9.4109940491
 10
-55.3025704156
 20
9.4145558613
 10
-55.3099285293
 20
9.4179976996
 10
-55.3161742573
 20
9.4212078062
 10
-55.3202231857
 20
9.4234650835
  0
LINE
  5
31F
100
AcDbEntity
  8
RACCORDO
100
AcDbLine
 62
250
  6
CONTINUOUS
 10
-55.2048975839
 20
9.3645066898
 11
-55.1835288388
 21
9.361865901
  0
LINE
  5
320
100
AcDbEntity
  8
RACCORDO
100
AcDbLine
 62
250
  6
CONTINUOUS
 10
-55.2254158641
 20
9.3676073255
 11
-55.2048975839
 21
9.3645066898
  0
LINE
  5
321
100
AcDbEntity
  8
RACCORDO
100
AcDbLine
 62
7
  6
CONTINUOUS
 10
-54.6649354774
 20
26.6713331117
 11
-54.6720286409
 21
26.6737542533
  0
LWPOLYLINE
  5
322
100
AcDbEntity
  8
RACCORDO
100
AcDbPolyline
 62
250
  6
CONTINUOUS
 90
8
 70
0
 10
-52.8207623204
 20
26.9334076635
 10
-52.8362654427
 20
26.9404601373
 10
-52.8527451618
 20
26.9456114609
 10
-52.8701131891
 20
26.9488324146
 10
-52.888275542
 20
26.9501039487
 10
-52.907135028
 20
26.9494181541
 10
-52.9265918551
 20
26.9467780898
 10
-52.9465423425
 20
26.942197068
  0
LINE
  5
323
100
AcDbEntity
  8
RACCORDO
100
AcDbLine
 62
250
  6
CONTINUOUS
 10
-56.5553397607
 20
36.6162860062
 11
-56.4111969823
 21
36.5330793016
  0
LINE
  5
324
100
AcDbEntity
  8
RACCORDO
100
AcDbLine
 62
7
  6
CONTINUOUS
 10
-56.5801265405
 20
36.8331882437
 11
-56.4750273911
 21
36.7725195514
  0
LINE
  5
325
100
AcDbEntity
  8
RACCORDO
100
AcDbLine
 62
250
  6
CONTINUOUS
 10
-53.0900938062
 20
24.0029641126
 11
-52.5206724062
 21
23.8730972887
  0
LINE
  5
326
100
AcDbEntity
  8
RACCORDO
100
AcDbLine
 62
250
  6
CONTINUOUS
 10
-53.1516279385
 20
24.2645013541
 11
-52.5822065385
 21
24.1346345301
  0
LINE
  5
327
100
AcDbEntity
  8
RACCORDO
100
AcDbLine
 62
250
  6
CONTINUOUS
 10
-52.8547297091
 20
24.2919859933
 11
-53.3270722053
 21
24.4025671458
  0
LINE
  5
328
100
AcDbEntity
  8
RACCORDO
100
AcDbLine
 62
7
  6
CONTINUOUS
 10
-52.8902559103
 20
24.3061226216
 11
-53.3338937879
 21
24.409983672
  0
LWPOLYLINE
  5
329
100
AcDbEntity
  8
RACCORDO
100
AcDbPolyline
 62
250
  6
CONTINUOUS
 90
4
 70
0
 10
-52.5822065385
 20
24.1346345301
 10
-52.5681699774
 20
24.1306397327
 10
-52.5548414629
 20
24.125272825
 10
-52.5445947656
 20
24.1199389514
  0
LWPOLYLINE
  5
32A
100
AcDbEntity
  8
RACCORDO
100
AcDbPolyline
 62
250
  6
CONTINUOUS
 90
16
 70
0
 10
-52.5206724062
 20
23.8730972887
 10
-52.5136487973
 20
23.8710888977
 10
-52.5070215392
 20
23.8684272532
 10
-52.5007906317
 20
23.8651123551
 10
-52.4949484114
 20
23.8611446126
 10
-52.4895025418
 20
23.8565236165
 10
-52.4844760137
 20
23.8512481391
 10
-52.4798541546
 20
23.8453236752
 10
-52.4756516369
 20
23.8387447299
 10
-52.4719354692
 20
23.8314935913
 10
-52.4686943781
 20
23.8235412885
 10
-52.4659396371
 20
23.8149167923
 10
-52.4637720743
 20
23.805689303
 10
-52.4622252994
 20
23.7958818873
 10
-52.4612657029
 20
23.7854714786
 10
-52.4608932847
 20
23.7744580767
  0
LWPOLYLINE
  5
32B
100
AcDbEntity
  8
RACCORDO
100
AcDbPolyline
 62
250
  6
CONTINUOUS
 90
4
 70
0
 10
-52.8167870109
 20
45.7502676221
 10
-52.8246606578
 20
45.7544720421
 10
-52.8391980057
 20
45.7606079133
 10
-52.8547297091
 20
45.765154273
  0
LWPOLYLINE
  5
32C
100
AcDbEntity
  8
RACCORDO
100
AcDbPolyline
 62
7
  6
CONTINUOUS
 90
6
 70
0
 10
-52.8167432432
 20
45.7502407863
 10
-52.8268535982
 20
45.7557926328
 10
-52.844758442
 20
45.7643038658
 10
-52.863286015
 20
45.7714907193
 10
-52.8823318592
 20
45.7773102224
 10
-52.8902481329
 20
45.7792890803
  0
LINE
  5
32D
100
AcDbEntity
  8
DRAFT
100
AcDbLine
 62
7
  6
CONTINUOUS
 10
-56.5788760632
 20
45.3230199833
 11
-54.6248907416
 21
44.2074056258
  0
LINE
  5
32E
100
AcDbEntity
  8
RACCORDO
100
AcDbLine
 62
250
  6
CONTINUOUS
 10
-56.5788760632
 20
47.2279209973
 11
-56.4763050467
 21
47.1686977778
  0
LINE
  5
32F
100
AcDbEntity
  8
RACCORDO
100
AcDbLine
 62
250
  6
CONTINUOUS
 10
-53.5421216149
 20
45.6565657923
 11
-54.6732393318
 21
46.3096589858
  0
LINE
  5
330
100
AcDbEntity
  8
RACCORDO
100
AcDbLine
 62
250
  6
CONTINUOUS
 10
-53.1516279385
 20
45.7376696338
 11
-54.1017611159
 21
46.2862646224
  0
LINE
  5
331
100
AcDbEntity
  8
RACCORDO
100
AcDbLine
 62
250
  6
CONTINUOUS
 10
-53.3270722053
 20
45.8757354255
 11
-54.0271128584
 21
46.279930125
  0
LINE
  5
332
100
AcDbEntity
  8
RACCORDO
100
AcDbLine
 62
7
  6
CONTINUOUS
 10
-53.334068048
 20
45.8824076077
 11
-54.0217672493
 21
46.2794765076
  0
LINE
  5
333
100
AcDbEntity
  8
RACCORDO
100
AcDbLine
 62
250
  6
CONTINUOUS
 10
-52.5822065385
 20
45.6078028098
 11
-52.8547297091
 21
45.765154273
  0
LINE
  5
334
100
AcDbEntity
  8
RACCORDO
100
AcDbLine
 62
7
  6
CONTINUOUS
 10
-52.5445937075
 20
45.5931066201
 11
-52.8167870065
 21
45.7502676196
  0
LINE
  5
335
100
AcDbEntity
  8
RACCORDO
100
AcDbLine
 62
250
  6
CONTINUOUS
 10
-55.8733956292
 20
48.2353958974
 11
-55.1947876914
 21
47.843576179
  0
LINE
  5
336
100
AcDbEntity
  8
RACCORDO
100
AcDbLine
 62
250
  6
CONTINUOUS
 10
-55.821600134
 20
48.2453482832
 11
-55.1478264265
 21
47.8563197889
  0
LINE
  5
337
100
AcDbEntity
  8
RACCORDO
100
AcDbLine
 62
250
  6
CONTINUOUS
 10
-54.6811601722
 20
48.1484560749
 11
-54.4861682503
 21
48.0358701831
  0
LINE
  5
338
100
AcDbEntity
  8
RACCORDO
100
AcDbLine
 62
7
  6
CONTINUOUS
 10
-54.6603167869
 20
48.142325447
 11
-54.4792120566
 21
48.0377578455
  0
LINE
  5
339
100
AcDbEntity
  8
RACCORDO
100
AcDbLine
 62
250
  6
CONTINUOUS
 10
-52.6732214162
 20
48.2575532704
 11
-52.9465423425
 21
48.4153653477
  0
LINE
  5
33A
100
AcDbEntity
  8
RACCORDO
100
AcDbLine
 62
250
  6
CONTINUOUS
 10
-54.4409883692
 20
49.2782397537
 11
-54.7143092955
 21
49.436051831
  0
LINE
  5
33B
100
AcDbEntity
  8
RACCORDO
100
AcDbLine
 62
7
  6
CONTINUOUS
 10
-52.5445936299
 20
48.2472083095
 11
-52.816787163
 21
48.4043694441
  0
LINE
  5
33C
100
AcDbEntity
  8
RACCORDO
100
AcDbLine
 62
7
  6
CONTINUOUS
 10
-54.3123605407
 20
49.2678947685
 11
-54.5845541386
 21
49.4250559405
  0
LINE
  5
33D
100
AcDbEntity
  8
RACCORDO
100
AcDbLine
 62
7
  6
CONTINUOUS
 10
-54.9341346769
 20
46.1963545815
 11
-53.7922248407
 21
45.5147018415
  0
LWPOLYLINE
  5
33E
100
AcDbEntity
  8
RACCORDO
100
AcDbPolyline
 62
250
  6
CONTINUOUS
 90
16
 70
0
 10
-53.5421216149
 20
45.6565657923
 10
-53.5272254193
 20
45.6472013573
 10
-53.5125194577
 20
45.6361353953
 10
-53.4981648232
 20
45.6234891331
 10
-53.4843187558
 20
45.6094011033
 10
-53.4711329314
 20
45.5940256392
 10
-53.4587517988
 20
45.5775311871
 10
-53.447310979
 20
45.560098439
 10
-53.4369357895
 20
45.5419183607
 10
-53.42773988
 20
45.5231901158
 10
-53.4198239734
 20
45.5041188604
 10
-53.4132747688
 20
45.4849135016
 10
-53.4081639956
 20
45.4657844215
 10
-53.404547623
 20
45.4469411584
 10
-53.4024652488
 20
45.4285901114
 10
-53.401939668
 20
45.4109322876
  0
LWPOLYLINE
  5
33F
100
AcDbEntity
  8
RACCORDO
100
AcDbPolyline
 62
250
  6
CONTINUOUS
 90
16
 70
0
 10
-54.4409883692
 20
49.2782397537
 10
-54.4262994153
 20
49.2687748796
 10
-54.4121578399
 20
49.2574627389
 10
-54.3987181512
 20
49.2444269312
 10
-54.3861271867
 20
49.2298098868
 10
-54.3745225132
 20
49.2137713145
 10
-54.3640309224
 20
49.1964864585
 10
-54.3547670401
 20
49.1781441749
 10
-54.3468320773
 20
49.1589448707
 10
-54.3403127264
 20
49.1390983201
 10
-54.3352802107
 20
49.1188213651
 10
-54.3317895079
 20
49.0983355465
 10
-54.3298787504
 20
49.0778646884
 10
-54.3295688079
 20
49.0576324489
 10
-54.3308630598
 20
49.0378598762
 10
-54.3337473591
 20
49.0187629955
  0
LWPOLYLINE
  5
340
100
AcDbEntity
  8
RACCORDO
100
AcDbPolyline
 62
250
  6
CONTINUOUS
 90
16
 70
0
 10
-53.1516279385
 20
45.7376696338
 10
-53.1372479411
 20
45.7281586989
 10
-53.1239075662
 20
45.7167852145
 10
-53.1117520445
 20
45.7036729987
 10
-53.1009137078
 20
45.6889647985
 10
-53.0915105484
 20
45.6728207355
 10
-53.0836449342
 20
45.655416563
 10
-53.0774024947
 20
45.6369417526
 10
-53.0728511887
 20
45.6175974314
 10
-53.0700405642
 20
45.5975941925
 10
-53.0690012192
 20
45.5771498024
 10
-53.0697444687
 20
45.5564868302
 10
-53.0722622211
 20
45.5358302245
 10
-53.0765270669
 20
45.5154048648
 10
-53.0824925766
 20
45.4954331128
 10
-53.0900938062
 20
45.4761323923
  0
LWPOLYLINE
  5
341
100
AcDbEntity
  8
RACCORDO
100
AcDbPolyline
 62
250
  6
CONTINUOUS
 90
5
 70
0
 10
-52.5822065385
 20
45.6078028098
 10
-52.5678265042
 20
45.5982918468
 10
-52.5544861022
 20
45.5869183281
 10
-52.5423305632
 20
45.5738060746
 10
-52.5314922182
 20
45.559097835
  0
LINE
  5
342
100
AcDbEntity
  8
RACCORDO
100
AcDbLine
 62
7
  6
CONTINUOUS
 10
-54.6248907416
 20
24.8574880459
 11
-53.8889153905
 21
24.7950346927
  0
LINE
  5
343
100
AcDbEntity
  8
RACCORDO
100
AcDbLine
 62
7
  6
CONTINUOUS
 10
-55.821600134
 20
26.7721800035
 11
-54.6811601722
 21
26.6752877953
  0
LWPOLYLINE
  5
344
100
AcDbEntity
  8
RACCORDO
100
AcDbPolyline
 62
250
  6
CONTINUOUS
 90
8
 70
0
 10
-52.8207623204
 20
48.4065759432
 10
-52.8362654427
 20
48.4136284169
 10
-52.8527451618
 20
48.4187797405
 10
-52.8701131891
 20
48.4220006943
 10
-52.888275542
 20
48.4232722283
 10
-52.907135028
 20
48.4225864338
 10
-52.9265918551
 20
48.4199463695
 10
-52.9465423425
 20
48.4153653477
  0
LINE
  5
345
100
AcDbEntity
  8
RACCORDO
100
AcDbLine
 62
7
  6
CONTINUOUS
 10
-54.6603531651
 20
48.1422639913
 11
-54.6649354774
 21
48.1445013914
  0
LWPOLYLINE
  5
346
100
AcDbEntity
  8
RACCORDO
100
AcDbPolyline
 62
250
  6
CONTINUOUS
 90
8
 70
0
 10
-52.5446608329
 20
48.2472470854
 10
-52.5600962798
 20
48.2548571597
 10
-52.5762607848
 20
48.2604045021
 10
-52.5935936895
 20
48.2640490414
 10
-52.6120342556
 20
48.2656805994
 10
-52.631510361
 20
48.2651993215
 10
-52.6519387974
 20
48.2625158559
 10
-52.6732214162
 20
48.2575532704
  0
LWPOLYLINE
  5
347
100
AcDbEntity
  8
RACCORDO
100
AcDbPolyline
 62
250
  6
CONTINUOUS
 90
3
 70
0
 10
-52.8547297091
 20
45.765154273
 10
-52.8698202062
 20
45.7726592323
 10
-52.8856294936
 20
45.7781163976
  0
LWPOLYLINE
  5
348
100
AcDbEntity
  8
RACCORDO
100
AcDbPolyline
 62
250
  6
CONTINUOUS
 90
7
 70
0
 10
-52.9465423425
 20
48.4153653477
 10
-52.9613765752
 20
48.4229468075
 10
-52.9764356041
 20
48.4284947726
 10
-52.9915548976
 20
48.4319486273
 10
-53.0065692656
 20
48.4332706354
 10
-53.0213146646
 20
48.4324463529
 10
-53.0343298189
 20
48.4298472728
  0
LWPOLYLINE
  5
349
100
AcDbEntity
  8
RACCORDO
100
AcDbPolyline
 62
250
  6
CONTINUOUS
 90
19
 70
0
 10
-58.6370832849
 20
52.627937671
 10
-58.6180101379
 20
52.6178366656
 10
-58.5975001455
 20
52.608722437
 10
-58.5757059597
 20
52.600662816
 10
-58.5527897896
 20
52.5937177841
 10
-58.5289221934
 20
52.587939027
 10
-58.5042808081
 20
52.5833695498
 10
-58.479049031
 20
52.580043358
 10
-58.4534146514
 20
52.5779852034
 10
-58.4275684517
 20
52.5772104006
 10
-58.4017027934
 20
52.5777247131
 10
-58.3760101813
 20
52.5795243102
 10
-58.3506818276
 20
52.5825957962
 10
-58.3259062378
 20
52.5869163092
 10
-58.3018678023
 20
52.5924536918
 10
-58.2787454201
 20
52.5991667317
 10
-58.2567111761
 20
52.6070054665
 10
-58.2359290598
 20
52.6159115552
 10
-58.2165537395
 20
52.6258187134
  0
LWPOLYLINE
  5
34A
100
AcDbEntity
  8
RACCORDO
100
AcDbPolyline
 62
7
  6
CONTINUOUS
 90
12
 70
0
 10
-54.5844047033
 20
49.4249656227
 10
-54.59396803
 20
49.4302393625
 10
-54.6134822735
 20
49.4395057314
 10
-54.6338926393
 20
49.4472468785
 10
-54.6550688205
 20
49.4533698364
 10
-54.6768492217
 20
49.4577993892
 10
-54.6991113542
 20
49.4604901375
 10
-54.7217225045
 20
49.4614085714
 10
-54.7445213315
 20
49.4605426176
 10
-54.7673850719
 20
49.4579056159
 10
-54.7902123898
 20
49.4535171646
 10
-54.8020951954
 20
49.4505341839
  0
LWPOLYLINE
  5
34B
100
AcDbEntity
  8
RACCORDO
100
AcDbPolyline
 62
7
  6
CONTINUOUS
 90
12
 70
0
 10
-52.8166445175
 20
48.4042836023
 10
-52.823285242
 20
48.4079988874
 10
-52.8424406652
 20
48.4173969804
 10
-52.8624978683
 20
48.4253211945
 10
-52.8833340689
 20
48.4316763043
 10
-52.9047959011
 20
48.4363845771
 10
-52.9267666064
 20
48.4393972288
 10
-52.9491145827
 20
48.4406762183
 10
-52.9716785952
 20
48.4402025841
 10
-52.9943370786
 20
48.4379847385
 10
-53.0169892609
 20
48.4340396197
 10
-53.0343298189
 20
48.4298472728
  0
LINE
  5
34C
100
AcDbEntity
  8
RACCORDO
100
AcDbLine
 62
250
  6
CONTINUOUS
 10
-54.5870746668
 20
49.426475353
 11
-54.5845544461
 21
49.425056118
  0
LINE
  5
34D
100
AcDbEntity
  8
RACCORDO
100
AcDbLine
 62
7
  6
CONTINUOUS
 10
-58.0093592303
 20
52.8171234233
 11
53.0642143662
 21
-11.3153658926
  0
LINE
  5
34E
100
AcDbEntity
  8
RACCORDO
100
AcDbLine
 62
250
  6
CONTINUOUS
 10
-58.0714840166
 20
52.9544444816
 11
53.0020895799
 21
-11.1780448342
  0
LWPOLYLINE
  5
34F
100
AcDbEntity
  8
RACCORDO
100
AcDbPolyline
 62
7
  6
CONTINUOUS
 90
27
 70
0
 10
53.0642337429
 20
-11.3153770775
 10
53.0754836671
 20
-11.3220862637
 10
53.0965397124
 20
-11.3357560932
 10
53.1188420968
 20
-11.3517709183
 10
53.1420129394
 20
-11.3700556867
 10
53.1658452558
 20
-11.390614806
 10
53.1901508857
 20
-11.4134460456
 10
53.2145948001
 20
-11.4383750378
 10
53.2389754437
 20
-11.465313591
 10
53.2630986354
 20
-11.4941580313
 10
53.2866724702
 20
-11.5246495654
 10
53.3095169568
 20
-11.5566223625
 10
53.3314626511
 20
-11.5898982502
 10
53.3522754838
 20
-11.6241573628
 10
53.3718197764
 20
-11.6591845925
 10
53.3899732896
 20
-11.6947571002
 10
53.4065710218
 20
-11.7305145979
 10
53.4215386616
 20
-11.7662217942
 10
53.4348175745
 20
-11.801639841
 10
53.4463234385
 20
-11.8363870304
 10
53.4560578261
 20
-11.8702409245
 10
53.464039424
 20
-11.9029802999
 10
53.4702778103
 20
-11.934226583
 10
53.4748591837
 20
-11.9638104464
 10
53.4778848798
 20
-11.9915509778
 10
53.4794712374
 20
-12.0170819125
 10
53.479820887
 20
-12.0351793321
  0
LWPOLYLINE
  5
350
100
AcDbEntity
  8
RACCORDO
100
AcDbPolyline
 62
250
  6
CONTINUOUS
 90
5
 70
0
 10
53.0020895799
 20
-11.1780448342
 10
53.0387665467
 20
-11.200590825
 10
53.0750737603
 20
-11.2256279432
 10
53.1110112206
 20
-11.2531561887
 10
53.1467678399
 20
-11.2833438392
  0
LWPOLYLINE
  5
351
100
AcDbEntity
  8
RACCORDO
100
AcDbPolyline
 62
250
  6
CONTINUOUS
 90
11
 70
0
 10
53.5676888482
 20
-12.1576915026
 10
53.550194637
 20
-12.1466789864
 10
53.5344094244
 20
-12.1348368531
 10
53.5204506923
 20
-12.1222532381
 10
53.5084223289
 20
-12.1090217953
 10
53.4984138556
 20
-12.0952409999
 10
53.4904997605
 20
-12.0810134159
 10
53.4847389447
 20
-12.0664449325
 10
53.481174283
 20
-12.0516439758
 10
53.4798323056
 20
-12.0367207023
 10
53.4798208826
 20
-12.0352091246
  0
LWPOLYLINE
  5
352
100
AcDbEntity
  8
RACCORDO
100
AcDbPolyline
 62
250
  6
CONTINUOUS
 90
4
 70
0
 10
-52.5822065385
 20
45.6078028098
 10
-52.5681699774
 20
45.6038080124
 10
-52.5548414629
 20
45.5984411046
 10
-52.5445947656
 20
45.593107231
  0
LWPOLYLINE
  5
353
100
AcDbEntity
  8
RACCORDO
100
AcDbPolyline
 62
250
  6
CONTINUOUS
 90
16
 70
0
 10
-52.5206724062
 20
45.3462655683
 10
-52.5136487973
 20
45.3442571774
 10
-52.5070215392
 20
45.3415955328
 10
-52.5007906317
 20
45.3382806347
 10
-52.4949484114
 20
45.3343128922
 10
-52.4895025418
 20
45.3296918961
 10
-52.4844760137
 20
45.3244164188
 10
-52.4798541546
 20
45.3184919548
 10
-52.4756516369
 20
45.3119130096
 10
-52.4719354692
 20
45.3046618709
 10
-52.4686943781
 20
45.2967095681
 10
-52.4659396371
 20
45.2880850719
 10
-52.4637720743
 20
45.2788575826
 10
-52.4622252994
 20
45.269050167
 10
-52.4612657029
 20
45.2586397582
 10
-52.4608932847
 20
45.2476263563
  0
LINE
  5
354
100
AcDbEntity
  8
RACCORDO
100
AcDbLine
 62
7
  6
CONTINUOUS
 10
-54.6649354774
 20
48.1445013914
 11
-54.6720286409
 21
48.146922533
  0
LWPOLYLINE
  5
355
100
AcDbEntity
  8
RACCORDO
100
AcDbPolyline
 62
7
  6
CONTINUOUS
 90
5
 70
0
 10
-58.0656011739
 20
52.8438046134
 10
-58.0520909666
 20
52.8385300299
 10
-58.0377055634
 20
52.8320820495
 10
-58.0225180992
 20
52.8244228748
 10
-58.0093813796
 20
52.8171362158
  0
LINE
  5
356
100
AcDbEntity
  8
RACCORDO
100
AcDbLine
 62
250
  6
CONTINUOUS
 10
71.8677195597
 20
-6.5827471459
 11
71.875208876
 21
-6.5866991522
  0
LWPOLYLINE
  5
357
100
AcDbEntity
  8
RACCORDO
100
AcDbPolyline
 62
250
  6
CONTINUOUS
 90
22
 70
0
 10
70.771559288
 20
-8.9611725199
 10
70.7980248535
 20
-8.9753866074
 10
70.8261997632
 20
-8.9884596279
 10
70.8559367822
 20
-9.0003232604
 10
70.8870805121
 20
-9.010915504
 10
70.9194682017
 20
-9.0201810013
 10
70.9529305977
 20
-9.0280713281
 10
70.9872928313
 20
-9.034545247
 10
71.0223753293
 20
-9.0395689223
 10
71.0579947522
 20
-9.0431160969
 10
71.0939649562
 20
-9.0451682303
 10
71.130097963
 20
-9.0457145947
 10
71.1662049396
 20
-9.0447523319
 10
71.2020971923
 20
-9.0422864676
 10
71.2375871484
 20
-9.0383298856
 10
71.2724893327
 20
-9.0329032608
 10
71.3066213463
 20
-9.0260349506
 10
71.339804814
 20
-9.0177608464
 10
71.371866313
 20
-9.0081241881
 10
71.4026382872
 20
-8.9971753361
 10
71.4319599223
 20
-8.9849715072
 10
71.4596779818
 20
-8.9715764775
  0
LINE
  5
358
100
AcDbEntity
  8
RACCORDO
100
AcDbLine
 62
250
  6
CONTINUOUS
 10
70.0654215721
 20
-7.7381061201
 11
-75.1348160088
 21
76.0986912727
  0
LINE
  5
359
100
AcDbEntity
  8
RACCORDO
100
AcDbLine
 62
250
  6
CONTINUOUS
 10
70.4004714079
 20
-7.1369768777
 11
-74.799766173
 21
76.6998205151
  0
LINE
  5
35A
100
AcDbEntity
  8
RACCORDO
100
AcDbLine
 62
7
  6
CONTINUOUS
 10
71.5361917088
 20
-6.4812325213
 11
-73.7771590208
 21
77.420874986
  0
LINE
  5
35B
100
AcDbEntity
  8
RACCORDO
100
AcDbLine
 62
250
  6
CONTINUOUS
 10
71.7433671009
 20
-6.5748687436
 11
-73.5067731407
 21
77.2907418201
  0
LWPOLYLINE
  5
35C
100
AcDbEntity
  8
RACCORDO
100
AcDbPolyline
 62
250
  6
CONTINUOUS
 90
12
 70
0
 10
-75.8409537247
 20
75.6910550073
 10
-75.8655718354
 20
75.7063360076
 10
-75.88821364
 20
75.7226039619
 10
-75.9087608134
 20
75.7397738546
 10
-75.9271059772
 20
75.7577559567
 10
-75.9431532603
 20
75.7764562946
 10
-75.9568188004
 20
75.7957771411
 10
-75.9680311821
 20
75.8156175266
 10
-75.97673181
 20
75.835873766
 10
-75.982875215
 20
75.8564400013
 10
-75.986429292
 20
75.8772087542
 10
-75.9874003338
 20
75.8951820921
  0
LWPOLYLINE
  5
35D
100
AcDbEntity
  8
RACCORDO
100
AcDbPolyline
 62
250
  6
CONTINUOUS
 90
21
 70
0
 10
53.1467678399
 20
-11.2833438392
 10
53.1821547061
 20
-11.316022617
 10
53.2166050823
 20
-11.3506876893
 10
53.2500725858
 20
-11.3873545413
 10
53.2826035993
 20
-11.4260076878
 10
53.3137705347
 20
-11.4660958403
 10
53.3435204568
 20
-11.5075794192
 10
53.3719063006
 20
-11.5504980041
 10
53.3986592832
 20
-11.5944190457
 10
53.4237509024
 20
-11.6392609608
 10
53.4472096604
 20
-11.6851053325
 10
53.4688522799
 20
-11.7317643607
 10
53.4887565749
 20
-11.7794271289
 10
53.5068447314
 20
-11.8279045535
 10
53.5227000307
 20
-11.8764415844
 10
53.5362731791
 20
-11.9251463122
 10
53.5476134702
 20
-11.9739106463
 10
53.5564520665
 20
-12.0216552646
 10
53.5626993553
 20
-12.068020393
 10
53.5664449492
 20
-12.1133658057
 10
53.5676888482
 20
-12.1576915026
  0
LWPOLYLINE
  5
35E
100
AcDbEntity
  8
RACCORDO
100
AcDbPolyline
 62
250
  6
CONTINUOUS
 90
9
 70
0
 10
71.7738521852
 20
-6.5929446045
 10
71.7866857357
 20
-6.5868014789
 10
71.7993989954
 20
-6.5820013387
 10
71.8118920231
 20
-6.5785819183
 10
71.8240666086
 20
-6.5765700983
 10
71.8358270453
 20
-6.5759816937
 10
71.847080882
 20
-6.5768213297
 10
71.8577396503
 20
-6.5790824055
 10
71.8677195597
 20
-6.5827471459
  0
LINE
  5
35F
100
AcDbEntity
  8
RACCORDO
100
AcDbLine
 62
250
  6
CONTINUOUS
 10
-53.0900938062
 20
45.4761323923
 11
-52.5206724062
 21
45.3462655683
  0
LINE
  5
360
100
AcDbEntity
  8
RACCORDO
100
AcDbLine
 62
250
  6
CONTINUOUS
 10
-53.1516279385
 20
45.7376696338
 11
-52.5822065385
 21
45.6078028098
  0
LINE
  5
361
100
AcDbEntity
  8
RACCORDO
100
AcDbLine
 62
250
  6
CONTINUOUS
 10
-52.8547297091
 20
45.765154273
 11
-53.3270722053
 21
45.8757354255
  0
LINE
  5
362
100
AcDbEntity
  8
RACCORDO
100
AcDbLine
 62
7
  6
CONTINUOUS
 10
-52.8902559103
 20
45.7792909013
 11
-53.3338937879
 21
45.8831519517
  0
LINE
  5
363
100
AcDbEntity
  8
RACCORDO
100
AcDbLine
 62
250
  6
CONTINUOUS
 10
-73.4158411811
 20
77.3025898826
 11
-73.4092364772
 21
77.299249866
  0
LWPOLYLINE
  5
364
100
AcDbEntity
  8
RACCORDO
100
AcDbPolyline
 62
7
  6
CONTINUOUS
 90
6
 70
0
 10
-73.4439985306
 20
77.3188010678
 10
-73.4981113049
 20
77.3467280045
 10
-73.5542694978
 20
77.3719479068
 10
-73.6098099669
 20
77.3930444926
 10
-73.6646139549
 20
77.4099891189
 10
-73.7185717189
 20
77.4228010908
  0
LWPOLYLINE
  5
365
100
AcDbEntity
  8
RACCORDO
100
AcDbPolyline
 62
250
  6
CONTINUOUS
 90
9
 70
0
 10
75.5342493615
 20
-4.8720633816
 10
75.5299587504
 20
-4.8698003192
 10
75.5186741642
 20
-4.8655492982
 10
75.5064861315
 20
-4.863224502
 10
75.4935252364
 20
-4.8628508479
 10
75.4799303515
 20
-4.8644323462
 10
75.4658471391
 20
-4.8679520565
 10
75.4514264899
 20
-4.8733722724
 10
75.436822913
 20
-4.8806349241
  0
LWPOLYLINE
  5
366
100
AcDbEntity
  8
RACCORDO
100
AcDbPolyline
 62
250
  6
CONTINUOUS
 90
18
 70
0
 10
-74.799766173
 20
76.6998205151
 10
-74.8565551333
 20
76.7297668873
 10
-74.9128798628
 20
76.756143859
 10
-74.9685863825
 20
76.7789284764
 10
-75.0234260334
 20
76.7980797845
 10
-75.0773595409
 20
76.8136374407
 10
-75.1305423265
 20
76.825659712
 10
-75.1829359866
 20
76.8341232943
 10
-75.2342811897
 20
76.8389707355
 10
-75.2843954616
 20
76.8401776687
 10
-75.3331241148
 20
76.8377456988
 10
-75.3803555115
 20
76.8316871195
 10
-75.4259801831
 20
76.8220149933
 10
-75.4698798262
 20
76.8087530807
 10
-75.5119293142
 20
76.7919384219
 10
-75.552015136
 20
76.7716153862
 10
-75.5900335195
 20
76.7478354175
 10
-75.5939202451
 20
76.7451270923
  0
LWPOLYLINE
  5
367
100
AcDbEntity
  8
RACCORDO
100
AcDbPolyline
 62
250
  6
CONTINUOUS
 90
9
 70
0
 10
-69.6557213294
 20
78.9588061766
 10
-69.6601226045
 20
78.9611329514
 10
-69.6714072013
 20
78.9653838835
 10
-69.6835952169
 20
78.9677085974
 10
-69.6965560654
 20
78.9680821852
 10
-69.71015088
 20
78.9665006444
 10
-69.724234002
 20
78.96298092
 10
-69.7386545402
 20
78.9575607234
 10
-69.7532579887
 20
78.9502981283
  0
LWPOLYLINE
  5
368
100
AcDbEntity
  8
RACCORDO
100
AcDbPolyline
 62
250
  6
CONTINUOUS
 90
13
 70
0
 10
-73.5479956462
 20
77.3137682756
 10
-73.5582717914
 20
77.3192616069
 10
-73.5686003254
 20
77.324651132
 10
-73.5788787564
 20
77.3298816912
 10
-73.5892064258
 20
77.3350042397
 10
-73.5998837255
 20
77.3401616837
 10
-73.6110043904
 20
77.3453815822
 10
-73.6224684819
 20
77.3505985781
 10
-73.6342844997
 20
77.3558015822
 10
-73.6464430765
 20
77.3609684378
 10
-73.6589445932
 20
77.3660799132
 10
-73.6718111149
 20
77.3711256855
 10
-73.6850455325
 20
77.3760850033
  0
LWPOLYLINE
  5
369
100
AcDbEntity
  8
RACCORDO
100
AcDbPolyline
 62
7
  6
CONTINUOUS
 90
16
 70
0
 10
-69.6557213295
 20
78.9588061767
 10
-69.684567819
 20
78.9745119138
 10
-69.7170858353
 20
78.9899810009
 10
-69.7495753894
 20
79.003110096
 10
-69.7819775296
 20
79.0139001412
 10
-69.8142174947
 20
79.022352531
 10
-69.8461858435
 20
79.0284712958
 10
-69.8778161087
 20
79.0322721547
 10
-69.9090181837
 20
79.0337691223
 10
-69.9396130423
 20
79.032994142
 10
-69.9695017792
 20
79.0299985448
 10
-69.9985728468
 20
79.0248412193
 10
-70.0266059325
 20
79.0176261869
 10
-70.0534633495
 20
79.008483389
 10
-70.0790946864
 20
78.997529359
 10
-70.0962073835
 20
78.9888848038
  0
LWPOLYLINE
  5
36A
100
AcDbEntity
  8
RACCORDO
100
AcDbPolyline
 62
250
  6
CONTINUOUS
 90
31
 70
0
 10
-75.1348160088
 20
76.0986912727
 10
-75.1722412411
 20
76.119091344
 10
-75.2091964265
 20
76.13706605
 10
-75.2456815648
 20
76.1526153905
 10
-75.2817270233
 20
76.1657354803
 10
-75.3173024348
 20
76.1764302047
 10
-75.3523166979
 20
76.1847112195
 10
-75.3868412986
 20
76.1905946558
 10
-75.4208047509
 20
76.1940643824
 10
-75.4539014958
 20
76.1950836614
 10
-75.4861101863
 20
76.1936296545
 10
-75.5174521693
 20
76.1897252
 10
-75.5476859267
 20
76.1834020752
 10
-75.576806283
 20
76.1746412464
 10
-75.6048184137
 20
76.1634617474
 10
-75.6314963275
 20
76.1499524568
 10
-75.6568305233
 20
76.1340920089
 10
-75.6808305021
 20
76.1159017694
 10
-75.7032987752
 20
76.0955347142
 10
-75.7242000702
 20
76.0730316274
 10
-75.7435696596
 20
76.0483517248
 10
-75.7613158717
 20
76.0215256299
 10
-75.7774732492
 20
75.9925090144
 10
-75.7920072494
 20
75.9613462066
 10
-75.8047225734
 20
75.9282008148
 10
-75.815608862
 20
75.8930150201
 10
-75.8246764743
 20
75.8558466415
 10
-75.8317611889
 20
75.8170327443
 10
-75.8368082652
 20
75.7766856838
 10
-75.8398724438
 20
75.7346931048
 10
-75.8409537247
 20
75.6910550073
  0
LINE
  5
36B
100
AcDbEntity
  8
RACCORDO
100
AcDbLine
 62
250
  6
CONTINUOUS
 10
-73.534483171
 20
77.3063655246
 11
-73.5479956462
 21
77.3137682756
  0
LINE
  5
36C
100
AcDbEntity
  8
RACCORDO
100
AcDbLine
 62
250
  6
CONTINUOUS
 10
-73.5277567868
 20
77.3026358419
 11
-73.534483171
 21
77.3063655246
  0
LINE
  5
36D
100
AcDbEntity
  8
RACCORDO
100
AcDbLine
 62
250
  6
CONTINUOUS
 10
-73.5208081215
 20
77.2987433383
 11
-73.5277567868
 21
77.3026358419
  0
LWPOLYLINE
  5
36E
100
AcDbEntity
  8
RACCORDO
100
AcDbPolyline
 62
7
  6
CONTINUOUS
 90
4
 70
0
 10
-73.4148359945
 20
77.302468069
 10
-73.4260852256
 20
77.3088488457
 10
-73.4380928195
 20
77.3155469742
 10
-73.4443268011
 20
77.3189823514
  0
LINE
  5
36F
100
AcDbEntity
  8
RACCORDO
100
AcDbLine
 62
250
  6
CONTINUOUS
 10
-73.5138000037
 20
77.2947716913
 11
-73.5208081215
 21
77.2987433383
  0
LINE
  5
370
100
AcDbEntity
  8
RACCORDO
100
AcDbLine
 62
250
  6
CONTINUOUS
 10
-73.5067731407
 20
77.2907418201
 11
-73.5138000037
 21
77.2947716913
  0
LINE
  5
371
100
AcDbEntity
  8
RACCORDO
100
AcDbLine
 62
250
  6
CONTINUOUS
 10
-69.7532579887
 20
78.9502981283
 11
75.436822913
 21
-4.8806349241
  0
LINE
  5
372
100
AcDbEntity
  8
RACCORDO
100
AcDbLine
 62
7
  6
CONTINUOUS
 10
-69.6557212997
 20
78.9588061595
 11
75.5343595995
 21
-4.8721268915
  0
LINE
  5
373
100
AcDbEntity
  8
RACCORDO
100
AcDbLine
 62
250
  6
CONTINUOUS
 10
71.7500207851
 20
-6.5787347874
 11
71.7433671009
 21
-6.5748687436
  0
LINE
  5
374
100
AcDbEntity
  8
RACCORDO
100
AcDbLine
 62
250
  6
CONTINUOUS
 10
71.7567590237
 20
-6.5826967865
 11
71.7500207851
 21
-6.5787347874
  0
LINE
  5
375
100
AcDbEntity
  8
RACCORDO
100
AcDbLine
 62
250
  6
CONTINUOUS
 10
71.7635448768
 20
-6.5867321983
 11
71.7567590237
 21
-6.5826967865
  0
LINE
  5
376
100
AcDbEntity
  8
RACCORDO
100
AcDbLine
 62
250
  6
CONTINUOUS
 10
71.7702305851
 20
-6.5907508521
 11
71.7635448768
 21
-6.5867321983
  0
LWPOLYLINE
  5
377
100
AcDbEntity
  8
RACCORDO
100
AcDbPolyline
 62
7
  6
CONTINUOUS
 90
5
 70
0
 10
71.875208876
 20
-6.5866991522
 10
71.8700584606
 20
-6.583581489
 10
71.85879199
 20
-6.57683823
 10
71.8480693675
 20
-6.5705225422
 10
-73.4148359945
 20
77.302468069
  0
LWPOLYLINE
  5
378
100
AcDbEntity
  8
RACCORDO
100
AcDbPolyline
 62
250
  6
CONTINUOUS
 90
4
 70
0
 10
75.436822913
 20
-4.8806349241
 10
75.4691748352
 20
-4.9003513012
 10
75.5013286143
 20
-4.9223713721
 10
75.5331482131
 20
-4.9465916681
  0
LINE
  5
379
100
AcDbEntity
  8
RACCORDO
100
AcDbLine
 62
7
  6
CONTINUOUS
 10
71.9237866043
 20
-6.6178110084
 11
71.8752165788
 21
-6.5867036417
  0
LINE
  5
37A
100
AcDbEntity
  8
RACCORDO
100
AcDbLine
 62
250
  6
CONTINUOUS
 10
72.6174658931
 20
-8.0544946134
 11
72.5768978489
 21
-8.0790599274
  0
LINE
  5
37B
100
AcDbEntity
  8
RACCORDO
100
AcDbLine
 62
250
  6
CONTINUOUS
 10
70.4004714079
 20
-7.1369768777
 11
71.5361917088
 21
-6.4812325213
  0
LINE
  5
37C
100
AcDbEntity
  8
RACCORDO
100
AcDbLine
 62
250
  6
CONTINUOUS
 10
75.436822913
 20
-4.8806349241
 11
72.1316587181
 21
-6.7890018593
  0
LINE
  5
37D
100
AcDbEntity
  8
RACCORDO
100
AcDbLine
 62
250
  6
CONTINUOUS
 10
75.9317222728
 20
-5.737825759
 11
72.6265314628
 21
-7.6462080615
  0
LINE
  5
37E
100
AcDbEntity
  8
RACCORDO
100
AcDbLine
 62
250
  6
CONTINUOUS
 10
71.4596779818
 20
-8.9715764775
 11
72.5953982827
 21
-8.3158321211
  0
LINE
  5
37F
100
AcDbEntity
  8
RACCORDO
100
AcDbLine
 62
250
  6
CONTINUOUS
 10
71.7735451199
 20
-6.5927595305
 11
71.7319661305
 21
-6.6156243997
  0
LWPOLYLINE
  5
380
100
AcDbEntity
  8
RACCORDO
100
AcDbPolyline
 62
250
  6
CONTINUOUS
 90
10
 70
0
 10
71.7433671009
 20
-6.5748687436
 10
71.7557837633
 20
-6.5685816568
 10
71.7680852501
 20
-6.5636175967
 10
71.7801763746
 20
-6.5600149743
 10
71.7919635774
 20
-6.5578016662
 10
71.8033556511
 20
-6.5569947985
 10
71.8142644456
 20
-6.5576006148
 10
71.8246055504
 20
-6.5596144272
 10
71.8342989478
 20
-6.5630206533
 10
71.840902036
 20
-6.5663596997
  0
LINE
  5
381
100
AcDbEntity
  8
RACCORDO
100
AcDbLine
 62
250
  6
CONTINUOUS
 10
-52.9465423425
 20
26.942197068
 11
-56.5788760632
 21
25.9565114455
  0
LINE
  5
382
100
AcDbEntity
  8
RACCORDO
100
AcDbLine
 62
7
  6
CONTINUOUS
 10
-53.0343299904
 20
26.9566789466
 11
-56.5788760632
 21
25.9948157558
  0
LINE
  5
383
100
AcDbEntity
  8
RACCORDO
100
AcDbLine
 62
250
  6
CONTINUOUS
 10
-56.5788760632
 20
27.4569067341
 11
-54.7143092955
 21
27.9628835514
  0
LINE
  5
384
100
AcDbEntity
  8
RACCORDO
100
AcDbLine
 62
7
  6
CONTINUOUS
 10
-56.5788760632
 20
27.4952110444
 11
-54.8020969472
 21
27.9773654288
  0
LWPOLYLINE
  5
385
100
AcDbEntity
  8
RACCORDO
100
AcDbPolyline
 62
250
  6
CONTINUOUS
 90
6
 70
0
 10
-56.3690640366
 20
25.43605274
 10
-56.4218745341
 20
25.4224451499
 10
-56.4737984271
 20
25.4121159424
 10
-56.5248357153
 20
25.4050651174
 10
-56.5751052098
 20
25.4012800699
 10
-56.5788760632
 20
25.4012413812
  0
LWPOLYLINE
  5
386
100
AcDbEntity
  8
RACCORDO
100
AcDbPolyline
 62
250
  6
CONTINUOUS
 90
4
 70
0
 10
-56.4763050467
 20
25.6955294982
 10
-56.525811914
 20
25.6828231564
 10
-56.5746397389
 20
25.6733588238
 10
-56.5788760632
 20
25.6728131543
  0
LWPOLYLINE
  5
387
100
AcDbEntity
  8
RACCORDO
100
AcDbPolyline
 62
250
  6
CONTINUOUS
 90
19
 70
0
 10
-54.3337473591
 20
27.5455947158
 10
-54.3238361016
 20
27.5479611451
 10
-54.3142650216
 20
27.5493521532
 10
-54.305034119
 20
27.5497677401
 10
-54.2960976768
 20
27.5491996888
 10
-54.2875014121
 20
27.5476562163
 10
-54.279382476
 20
27.5451619733
 10
-54.2717488261
 20
27.5417020252
 10
-54.2645925047
 20
27.5372913066
 10
-54.2580267906
 20
27.5319992713
 10
-54.252060836
 20
27.5258121937
 10
-54.2466854888
 20
27.5187437993
 10
-54.2419865705
 20
27.5109047191
 10
-54.2379745209
 20
27.5022822304
 10
-54.2346389003
 20
27.492889056
 10
-54.2320342115
 20
27.4828739952
 10
-54.2301786218
 20
27.4722866479
 10
-54.2290539639
 20
27.4610774142
 10
-54.2286602377
 20
27.4492462942
  0
LWPOLYLINE
  5
388
100
AcDbEntity
  8
RACCORDO
100
AcDbPolyline
 62
250
  6
CONTINUOUS
 90
9
 70
0
 10
-54.4409883692
 20
27.805071474
 10
-54.4212456535
 20
27.8097472039
 10
-54.4019847261
 20
27.8124854125
 10
-54.3833091558
 20
27.8132715974
 10
-54.3653195171
 20
27.812101891
 10
-54.3481124395
 20
27.8089824374
 10
-54.331779972
 20
27.8039296333
 10
-54.3164105703
 20
27.7969712615
 10
-54.3123797887
 20
27.7947376002
  0
LWPOLYLINE
  5
389
100
AcDbEntity
  8
RACCORDO
100
AcDbPolyline
 62
250
  6
CONTINUOUS
 90
8
 70
0
 10
-54.7143092955
 20
27.9628835514
 10
-54.6940738692
 20
27.9675165782
 10
-54.6743627308
 20
27.9701506677
 10
-54.6552825458
 20
27.9707767309
 10
-54.6369516053
 20
27.9693986739
 10
-54.6194509847
 20
27.9660312148
 10
-54.6028316983
 20
27.9606820109
 10
-54.5875226375
 20
27.953516742
  0
LWPOLYLINE
  5
38A
100
AcDbEntity
  8
RACCORDO
100
AcDbPolyline
 62
250
  6
CONTINUOUS
 90
7
 70
0
 10
-54.8020951954
 20
27.9773659042
 10
-54.789081838
 20
27.9799645274
 10
-54.7743364115
 20
27.9807888414
 10
-54.7593220061
 20
27.9794668546
 10
-54.7442026674
 20
27.9760130082
 10
-54.729143586
 20
27.9704650359
 10
-54.7143092955
 20
27.9628835514
  0
LINE
  5
38B
100
AcDbEntity
  8
RACCORDO
100
AcDbLine
 62
7
  6
CONTINUOUS
 10
-54.6248907416
 20
46.3306563255
 11
-53.8889153905
 21
46.2682029724
  0
LINE
  5
38C
100
AcDbEntity
  8
RACCORDO
100
AcDbLine
 62
7
  6
CONTINUOUS
 10
-55.821600134
 20
48.2453482832
 11
-54.6811601722
 21
48.1484560749
  0
LWPOLYLINE
  5
38D
100
AcDbEntity
  8
RACCORDO
100
AcDbPolyline
 62
250
  6
CONTINUOUS
 90
13
 70
0
 10
71.9023984433
 20
-6.6815237713
 10
71.8912480784
 20
-6.6729544481
 10
71.8804362959
 20
-6.664808728
 10
71.8698603615
 20
-6.6569957058
 10
71.8595985984
 20
-6.6495601448
 10
71.8495791064
 20
-6.6424364246
 10
71.8394713377
 20
-6.6353861267
 10
71.82927022
 20
-6.6284095347
 10
71.8189835654
 20
-6.6215149831
 10
71.8082980096
 20
-6.6145028221
 10
71.7971095399
 20
-6.6073250094
 10
71.7855245076
 20
-6.600070458
 10
71.7702305851
 20
-6.5907508521
  0
LWPOLYLINE
  5
38E
100
AcDbEntity
  8
RACCORDO
100
AcDbPolyline
 62
250
  6
CONTINUOUS
 90
22
 70
0
 10
75.5331482131
 20
-4.9465916681
 10
75.5644753681
 20
-4.9728798606
 10
75.595205752
 20
-5.0011332898
 10
75.6252845756
 20
-5.0312946715
 10
75.6546124757
 20
-5.0632743574
 10
75.6830334717
 20
-5.096913357
 10
75.7104099519
 20
-5.1320488577
 10
75.7366268506
 20
-5.1685330175
 10
75.7615734457
 20
-5.2062133926
 10
75.7851308039
 20
-5.2449063332
 10
75.8071698729
 20
-5.2843851207
 10
75.8276395771
 20
-5.3245431743
 10
75.8465306411
 20
-5.3653780482
 10
75.8637485867
 20
-5.4067282106
 10
75.8792003918
 20
-5.4484165962
 10
75.8928471369
 20
-5.4904190147
 10
75.9046109949
 20
-5.5326358272
 10
75.9143686964
 20
-5.5747925188
 10
75.9220169123
 20
-5.6165965111
 10
75.9274889677
 20
-5.65781966
 10
75.930738689
 20
-5.6982958478
 10
75.9317222728
 20
-5.737825759
  0
LWPOLYLINE
  5
38F
100
AcDbEntity
  8
RACCORDO
100
AcDbPolyline
 62
250
  6
CONTINUOUS
 90
9
 70
0
 10
72.6174591539
 20
-8.0541363015
 10
72.6291961932
 20
-8.0460896606
 10
72.6397098526
 20
-8.0374756065
 10
72.6489174728
 20
-8.0283618635
 10
72.6567466624
 20
-8.0188200848
 10
72.6631358673
 20
-8.0089252885
 10
72.6680348551
 20
-7.9987552683
 10
72.671405109
 20
-7.9883899817
 10
72.6732201315
 20
-7.9779109215
  0
LWPOLYLINE
  5
390
100
AcDbEntity
  8
RACCORDO
100
AcDbPolyline
 62
250
  6
CONTINUOUS
 90
10
 70
0
 10
72.6178789665
 20
-8.0896307709
 10
72.6295329659
 20
-8.0820138465
 10
72.6399832745
 20
-8.0738350201
 10
72.6491490104
 20
-8.0651575932
 10
72.656959234
 20
-8.0560487265
 10
72.663353497
 20
-8.0465789197
 10
72.6682823102
 20
-8.036821466
 10
72.6717075263
 20
-8.026851885
 10
72.6736026356
 20
-8.0167473382
 10
72.6740109959
 20
-8.0093483521
  0
LWPOLYLINE
  5
391
100
AcDbEntity
  8
RACCORDO
100
AcDbPolyline
 62
250
  6
CONTINUOUS
 90
4
 70
0
 10
-73.6850455325
 20
77.3760850033
 10
-73.6986326281
 20
77.3809291312
 10
-73.7125662094
 20
77.3856328688
 10
-73.7204791899
 20
77.388148762
  0
LWPOLYLINE
  5
392
100
AcDbEntity
  8
RACCORDO
100
AcDbPolyline
 62
250
  6
CONTINUOUS
 90
11
 70
0
 10
53.0020895799
 20
-11.1780448342
 10
53.0028789897
 20
-11.1987006
 10
53.0052413409
 20
-11.218291024
 10
53.009159047
 20
-11.2366703055
 10
53.0146029454
 20
-11.2537016582
 10
53.0215325155
 20
-11.2692583291
 10
53.0298961798
 20
-11.2832245419
 10
53.0396316873
 20
-11.2954963562
 10
53.0506665778
 20
-11.3059824436
 10
53.062918722
 20
-11.3146047666
 10
53.0642143662
 20
-11.3153658926
  0
LINE
  5
393
100
AcDbEntity
  8
RACCORDO
100
AcDbLine
 62
7
  6
CONTINUOUS
 10
53.4798208826
 20
-12.0352091246
 11
53.4798208826
 21
-55.0482955595
  0
LINE
  5
394
100
AcDbEntity
  8
RACCORDO
100
AcDbLine
 62
250
  6
CONTINUOUS
 10
53.5676888482
 20
-12.1576915026
 11
53.5676888482
 21
-55.1707779374
  0
LWPOLYLINE
  5
395
100
AcDbEntity
  8
RACCORDO
100
AcDbPolyline
 62
7
  6
CONTINUOUS
 90
11
 70
0
 10
53.4798208866
 20
-55.0483238263
 10
53.4795712007
 20
-55.0630912735
 10
53.4786186519
 20
-55.0801031115
 10
53.4770160688
 20
-55.0958142474
 10
53.4748326219
 20
-55.1101799432
 10
53.4721783875
 20
-55.1229928005
 10
53.469254328
 20
-55.1339042493
 10
53.4662617491
 20
-55.1428354368
 10
53.4633918004
 20
-55.1498274216
 10
53.4609198174
 20
-55.1548054769
 10
53.4591478661
 20
-55.1577933322
  0
LWPOLYLINE
  5
396
100
AcDbEntity
  8
RACCORDO
100
AcDbPolyline
 62
250
  6
CONTINUOUS
 90
25
 70
0
 10
53.5676888482
 20
-55.1707779374
 10
53.5665030741
 20
-55.2124428353
 10
53.5629749565
 20
-55.2523283528
 10
53.5571044953
 20
-55.29043449
 10
53.5488404184
 20
-55.3269497731
 10
53.538233998
 20
-55.3616856758
 10
53.5254390504
 20
-55.3940766199
 10
53.5104189711
 20
-55.4240479136
 10
53.4932103647
 20
-55.4516742487
 10
53.4740768615
 20
-55.4766141214
 10
53.4530262696
 20
-55.4988109178
 10
53.430050781
 20
-55.5183212519
 10
53.4053906019
 20
-55.5349734617
 10
53.3791021353
 20
-55.5487672034
 10
53.3511289782
 20
-55.5597028209
 10
53.3215421283
 20
-55.5676096838
 10
53.2902167398
 20
-55.5725055568
 10
53.2572776584
 20
-55.5743726753
 10
53.2231704182
 20
-55.5729871151
 10
53.1877767578
 20
-55.568223676
 10
53.1512149387
 20
-55.5602075583
 10
53.1142852795
 20
-55.549090439
 10
53.0772545531
 20
-55.534922877
 10
53.0398559865
 20
-55.5176543133
 10
53.0020895799
 20
-55.497284748
  0
LWPOLYLINE
  5
397
100
AcDbEntity
  8
RACCORDO
100
AcDbPolyline
 62
250
  6
CONTINUOUS
 90
19
 70
0
 10
53.0020895799
 20
-55.497284748
 10
53.0028789787
 20
-55.4757175449
 10
53.0052413
 20
-55.4533992781
 10
53.0091589621
 20
-55.4304960521
 10
53.0146028078
 20
-55.4071783245
 10
53.0215323211
 20
-55.3836196382
 10
53.0298959289
 20
-55.3599953291
 10
53.039631385
 20
-55.3364812218
 10
53.0506662329
 20
-55.3132523205
 10
53.0629183455
 20
-55.2904815069
 10
53.0762965362
 20
-55.2683382532
 10
53.0907012375
 20
-55.2469873613
 10
53.1060252421
 20
-55.2265877355
 10
53.1221545007
 20
-55.2072912005
 10
53.1389689709
 20
-55.1892413714
 10
53.1563435107
 20
-55.1725725843
 10
53.1741488096
 20
-55.1574088971
 10
53.1922523513
 20
-55.1438631658
 10
53.2105193998
 20
-55.132036205
  0
LWPOLYLINE
  5
398
100
AcDbEntity
  8
RACCORDO
100
AcDbPolyline
 62
250
  6
CONTINUOUS
 90
6
 70
0
 10
-56.3690640366
 20
46.9092210196
 10
-56.4226272106
 20
46.8955100404
 10
-56.4750713469
 20
46.8851254029
 10
-56.5263964452
 20
46.878067107
 10
-56.5766533311
 20
46.8743490857
 10
-56.5788760632
 20
46.8743313682
  0
LWPOLYLINE
  5
399
100
AcDbEntity
  8
RACCORDO
100
AcDbPolyline
 62
250
  6
CONTINUOUS
 90
7
 70
0
 10
-54.8020951954
 20
49.4505341839
 10
-54.789081838
 20
49.453132807
 10
-54.7743364115
 20
49.453957121
 10
-54.7593220061
 20
49.4526351342
 10
-54.7442026674
 20
49.4491812879
 10
-54.729143586
 20
49.4436333156
 10
-54.7143092955
 20
49.436051831
  0
LINE
  5
39A
100
AcDbEntity
  8
RACCORDO
100
AcDbLine
 62
250
  6
CONTINUOUS
 10
-52.9465423425
 20
48.4153653477
 11
-56.5788760632
 21
47.4296797251
  0
LINE
  5
39B
100
AcDbEntity
  8
RACCORDO
100
AcDbLine
 62
7
  6
CONTINUOUS
 10
-53.0343299904
 20
48.4298472262
 11
-56.5788760632
 21
47.4679840354
  0
LINE
  5
39C
100
AcDbEntity
  8
RACCORDO
100
AcDbLine
 62
250
  6
CONTINUOUS
 10
-56.5788760632
 20
48.9300750137
 11
-54.7143092955
 21
49.436051831
  0
LINE
  5
39D
100
AcDbEntity
  8
RACCORDO
100
AcDbLine
 62
7
  6
CONTINUOUS
 10
-56.5788760632
 20
48.9683793241
 11
-54.8020969472
 21
49.4505337085
  0
LWPOLYLINE
  5
39E
100
AcDbEntity
  8
RACCORDO
100
AcDbPolyline
 62
250
  6
CONTINUOUS
 90
4
 70
0
 10
-56.4763050467
 20
47.1686977778
 10
-56.5261379809
 20
47.1559181663
 10
-56.575052128
 20
47.1464607014
 10
-56.5788760632
 20
47.1459699364
  0
LWPOLYLINE
  5
39F
100
AcDbEntity
  8
RACCORDO
100
AcDbPolyline
 62
7
  6
CONTINUOUS
 90
10
 70
0
 10
-58.1157806186
 20
52.8539644929
 10
-58.1162197354
 20
52.853853965
 10
-58.1161516235
 20
52.8538478665
 10
-58.1145688488
 20
52.8539812046
 10
-58.1111037437
 20
52.854023574
 10
-58.1055716864
 20
52.8536784209
 10
-58.0981009839
 20
52.8526736997
 10
-58.0888914374
 20
52.8508089606
 10
-58.0780019227
 20
52.847897664
 10
-58.0656011739
 20
52.8438046134
  0
LWPOLYLINE
  5
3A0
100
AcDbEntity
  8
RACCORDO
100
AcDbPolyline
 62
250
  6
CONTINUOUS
 90
19
 70
0
 10
-54.3337473591
 20
49.0187629955
 10
-54.3238361016
 20
49.0211294248
 10
-54.3142650216
 20
49.0225204329
 10
-54.305034119
 20
49.0229360197
 10
-54.2960976768
 20
49.0223679685
 10
-54.2875014121
 20
49.020824496
 10
-54.279382476
 20
49.0183302529
 10
-54.2717488261
 20
49.0148703049
 10
-54.2645925047
 20
49.0104595863
 10
-54.2580267906
 20
49.005167551
 10
-54.252060836
 20
48.9989804733
 10
-54.2466854888
 20
48.9919120789
 10
-54.2419865705
 20
48.9840729988
 10
-54.2379745209
 20
48.9754505101
 10
-54.2346389003
 20
48.9660573357
 10
-54.2320342115
 20
48.9560422749
 10
-54.2301786218
 20
48.9454549276
 10
-54.2290539639
 20
48.9342456939
 10
-54.2286602377
 20
48.9224145739
  0
LWPOLYLINE
  5
3A1
100
AcDbEntity
  8
RACCORDO
100
AcDbPolyline
 62
250
  6
CONTINUOUS
 90
9
 70
0
 10
-54.4409883692
 20
49.2782397537
 10
-54.4212456535
 20
49.2829154836
 10
-54.4019847261
 20
49.2856536922
 10
-54.3833091558
 20
49.2864398771
 10
-54.3653195171
 20
49.2852701707
 10
-54.3481124395
 20
49.282150717
 10
-54.331779972
 20
49.277097913
 10
-54.3164105703
 20
49.2701395412
 10
-54.3123797887
 20
49.2679058799
  0
LWPOLYLINE
  5
3A2
100
AcDbEntity
  8
RACCORDO
100
AcDbPolyline
 62
250
  6
CONTINUOUS
 90
8
 70
0
 10
-54.7143092955
 20
49.436051831
 10
-54.6940738692
 20
49.4406848578
 10
-54.6743627308
 20
49.4433189474
 10
-54.6552825458
 20
49.4439450105
 10
-54.6369516053
 20
49.4425669536
 10
-54.6194509847
 20
49.4391994945
 10
-54.6028316983
 20
49.4338502906
 10
-54.5875226375
 20
49.4266850216
  0
LWPOLYLINE
  5
3A3
100
AcDbEntity
  8
RACCORDO
100
AcDbPolyline
 62
7
  6
CONTINUOUS
 90
3
 70
0
 10
-73.7185717189
 20
77.4228010908
 10
-73.7716036729
 20
77.4315302947
 10
-73.8018086026
 20
77.4342598375
  0
LWPOLYLINE
  5
3A4
100
AcDbEntity
  8
RACCORDO
100
AcDbPolyline
 62
7
  6
CONTINUOUS
 90
25
 70
0
 10
72.6735409358
 20
-7.9694355225
 10
72.671219903
 20
-7.9168601397
 10
72.6658041984
 20
-7.8556609457
 10
72.6574291192
 20
-7.7932216273
 10
72.6460524124
 20
-7.7297120689
 10
72.6316885887
 20
-7.6654788212
 10
72.6143758979
 20
-7.600786062
 10
72.5941785141
 20
-7.5358764802
 10
72.5712117128
 20
-7.471078339
 10
72.5455645784
 20
-7.4065798066
 10
72.5173343298
 20
-7.3425687641
 10
72.4866718357
 20
-7.2793425568
 10
72.4537176408
 20
-7.2171502543
 10
72.4185655681
 20
-7.1561479464
 10
72.3813030604
 20
-7.0964812668
 10
72.3420195786
 20
-7.0383037009
 10
72.3008654451
 20
-6.9818607262
 10
72.2580215181
 20
-6.9274211814
 10
72.2136023312
 20
-6.8751571895
 10
72.1677289632
 20
-6.8252374574
 10
72.120617894
 20
-6.777910422
 10
72.0724442523
 20
-6.7333488107
 10
72.023412389
 20
-6.6917136933
 10
71.9738040049
 20
-6.6531844385
 10
71.9237866043
 20
-6.6178110084
  0
LWPOLYLINE
  5
3A5
100
AcDbEntity
  8
RACCORDO
100
AcDbPolyline
 62
250
  6
CONTINUOUS
 90
31
 70
0
 10
71.4596779818
 20
-8.9715764775
 10
71.4572160028
 20
-8.9067549351
 10
71.4518948657
 20
-8.8406991312
 10
71.4437716875
 20
-8.7736081147
 10
71.4329353396
 20
-8.7057996168
 10
71.4194398071
 20
-8.6373532972
 10
71.4032578345
 20
-8.568093552
 10
71.3843884426
 20
-8.4980532643
 10
71.3629115523
 20
-8.4275624334
 10
71.3388973071
 20
-8.3568811246
 10
71.3124244477
 20
-8.286227961
 10
71.2835594451
 20
-8.2157610202
 10
71.252368352
 20
-8.145650831
 10
71.2189309035
 20
-8.0760776566
 10
71.1833417475
 20
-8.007234643
 10
71.1456960713
 20
-7.9393099667
 10
71.1060903193
 20
-7.872481069
 10
71.0646347192
 20
-7.8069323065
 10
71.0214540525
 20
-7.7428570087
 10
70.9767467859
 20
-7.6805379591
 10
70.9305549455
 20
-7.6200240182
 10
70.8827557328
 20
-7.5611776348
 10
70.833378696
 20
-7.5040971807
 10
70.7826169949
 20
-7.4490681933
 10
70.7305826053
 20
-7.3962621988
 10
70.6773581581
 20
-7.345826364
 10
70.6231250138
 20
-7.2979899803
 10
70.5681555473
 20
-7.2530266806
 10
70.5126428175
 20
-7.2111213309
 10
70.4566962452
 20
-7.1723906039
 10
70.4004714079
 20
-7.1369768777
  0
LWPOLYLINE
  5
3A6
100
AcDbEntity
  8
RACCORDO
100
AcDbPolyline
 62
250
  6
CONTINUOUS
 90
12
 70
0
 10
70.0654215721
 20
-78.6415315392
 10
70.066345387
 20
-78.6704902671
 10
70.0691120034
 20
-78.6982308861
 10
70.0737069677
 20
-78.7246084237
 10
70.0801062716
 20
-78.7494850303
 10
70.0882764773
 20
-78.7727306993
 10
70.0981748921
 20
-78.7942239462
 10
70.1097497918
 20
-78.8138524449
 10
70.1229406907
 20
-78.8315136135
 10
70.1376786567
 20
-78.8471151502
 10
70.1538866736
 20
-78.8605755178
 10
70.168953009
 20
-78.8703942684
  0
LWPOLYLINE
  5
3A7
100
AcDbEntity
  8
RACCORDO
100
AcDbPolyline
 62
250
  6
CONTINUOUS
 90
69
 70
0
 10
72.6172243019
 20
-8.0440070049
 10
72.6168853917
 20
-8.0333414003
 10
72.6164455964
 20
-8.0224975437
 10
72.6159057357
 20
-8.0115715098
 10
72.6152597943
 20
-8.000467307
 10
72.6144857726
 20
-7.9888922464
 10
72.6135641044
 20
-7.9767513729
 10
72.6124876292
 20
-7.9641301707
 10
72.6112433979
 20
-7.9510023665
 10
72.6098184661
 20
-7.9373746499
 10
72.6081968584
 20
-7.923232423
 10
72.6063578402
 20
-7.9085168027
 10
72.6042814689
 20
-7.8932046197
 10
72.6019512556
 20
-7.8773111618
 10
72.5993495407
 20
-7.860834848
 10
72.596457132
 20
-7.8437651084
 10
72.5932559133
 20
-7.8261066344
 10
72.5897303232
 20
-7.8078817313
 10
72.5858676511
 20
-7.7891167557
 10
72.5816438864
 20
-7.7697835805
 10
72.5770244872
 20
-7.7498233455
 10
72.5719957982
 20
-7.7292720296
 10
72.5665280466
 20
-7.708095299
 10
72.5605524547
 20
-7.6861295469
 10
72.5540414233
 20
-7.6633923573
 10
72.5469620006
 20
-7.6398774676
 10
72.5392196549
 20
-7.6153863091
 10
72.530758484
 20
-7.5898905696
 10
72.52154849
 20
-7.5634429871
 10
72.5115188109
 20
-7.535970059
 10
72.5005730842
 20
-7.5073637674
 10
72.4887090805
 20
-7.4777740201
 10
72.4760092212
 20
-7.4475170626
 10
72.4624227387
 20
-7.4165749795
 10
72.4479378763
 20
-7.3850262615
 10
72.4327370949
 20
-7.3533298846
 10
72.416849653
 20
-7.3215806611
 10
72.4002437193
 20
-7.2897511425
 10
72.3830493692
 20
-7.2581094234
 10
72.3652747924
 20
-7.2266783903
 10
72.3469357192
 20
-7.1954984656
 10
72.3282023162
 20
-7.1648497581
 10
72.3090587329
 20
-7.134682415
 10
72.2895749215
 20
-7.1050887589
 10
72.2700841612
 20
-7.0765336882
 10
72.2506694053
 20
-7.0490651238
 10
72.2313375175
 20
-7.0226243033
 10
72.2123367333
 20
-6.9974804487
 10
72.1937996078
 20
-6.9737154588
 10
72.1756869723
 20
-6.951191029
 10
72.1579938171
 20
-6.9298322508
 10
72.1407867087
 20
-6.9096473216
 10
72.1240688051
 20
-6.8905694328
 10
72.1077293463
 20
-6.8724199297
 10
72.0917883222
 20
-6.8551719113
 10
72.0762730232
 20
-6.8388058542
 10
72.0610728378
 20
-6.8231683745
 10
72.0461855335
 20
-6.8082251901
 10
72.0316437953
 20
-6.7939760946
 10
72.0173826158
 20
-6.7803292711
 10
72.0033897637
 20
-6.7672495694
 10
71.9896962605
 20
-6.7547422142
 10
71.9762983823
 20
-6.7427797988
 10
71.9632027127
 20
-6.7313465996
 10
71.9504172997
 20
-6.7204286744
 10
71.9379394552
 20
-6.7100024628
 10
71.925770241
 20
-6.7000494954
 10
71.9139198347
 20
-6.6905599842
 10
71.9023984433
 20
-6.6815237713
  0
LWPOLYLINE
  5
3A8
100
AcDbEntity
  8
RACCORDO
100
AcDbPolyline
 62
250
  6
CONTINUOUS
 90
31
 70
0
 10
70.771559288
 20
-8.9611725199
 10
70.7705124125
 20
-8.9173545234
 10
70.7676000874
 20
-8.8730021857
 10
70.7628223129
 20
-8.8281155069
 10
70.7561605389
 20
-8.7826487127
 10
70.7476333155
 20
-8.7366475774
 10
70.7372962921
 20
-8.6902494236
 10
70.7251276928
 20
-8.6433591362
 10
70.7111492936
 20
-8.5960718305
 10
70.6954820718
 20
-8.548810175
 10
70.6781169226
 20
-8.5015935614
 10
70.6590629508
 20
-8.4544025981
 10
70.638468448
 20
-8.407601779
 10
70.6163195179
 20
-8.3611890566
 10
70.5926300568
 20
-8.3151664783
 10
70.567590045
 20
-8.2699046804
 10
70.5411857296
 20
-8.2254066924
 10
70.5134308634
 20
-8.1816694849
 10
70.4845566856
 20
-8.1390546052
 10
70.4546161554
 20
-8.0976333592
 10
70.4235563135
 20
-8.0573344411
 10
70.3914495217
 20
-8.0183054813
 10
70.3582401165
 20
-7.9804744555
 10
70.3239837613
 20
-7.9439133881
 10
70.2889198088
 20
-7.908985983
 10
70.2530033647
 20
-7.87567828
 10
70.2162793232
 20
-7.8440042392
 10
70.1791217196
 20
-7.8143694444
 10
70.1416552325
 20
-7.7869090903
 10
70.1037551833
 20
-7.7614879822
 10
70.0654215721
 20
-7.7381061201
  0
LINE
  5
3A9
100
AcDbEntity
  8
RACCORDO
100
AcDbLine
 62
250
  6
CONTINUOUS
 10
72.6176163768
 20
-8.0618846989
 11
72.6172243019
 21
-8.0440070049
  0
LINE
  5
3AA
100
AcDbEntity
  8
RACCORDO
100
AcDbLine
 62
250
  6
CONTINUOUS
 10
72.617736666
 20
-8.0695769943
 11
72.6176163768
 21
-8.0618846989
  0
LINE
  5
3AB
100
AcDbEntity
  8
RACCORDO
100
AcDbLine
 62
250
  6
CONTINUOUS
 10
72.6178244966
 20
-8.0775285638
 11
72.617736666
 21
-8.0695769943
  0
LWPOLYLINE
  5
3AC
100
AcDbEntity
  8
RACCORDO
100
AcDbPolyline
 62
7
  6
CONTINUOUS
 90
4
 70
0
 10
72.6739870388
 20
-8.0010327701
 10
72.6738768839
 20
-7.9886821237
 10
72.673668819
 20
-7.9755744664
 10
72.6735409904
 20
-7.9694451817
  0
LINE
  5
3AD
100
AcDbEntity
  8
RACCORDO
100
AcDbLine
 62
250
  6
CONTINUOUS
 10
72.6178708114
 20
-8.0855676633
 11
72.6178244966
 21
-8.0775285638
  0
LINE
  5
3AE
100
AcDbEntity
  8
RACCORDO
100
AcDbLine
 62
250
  6
CONTINUOUS
 10
70.771559288
 20
-78.2338952737
 11
70.771559288
 21
-8.9611725199
  0
LINE
  5
3AF
100
AcDbEntity
  8
RACCORDO
100
AcDbLine
 62
250
  6
CONTINUOUS
 10
71.4596779818
 20
-78.2442992313
 11
71.4596779818
 21
-8.9715764775
  0
LINE
  5
3B0
100
AcDbEntity
  8
RACCORDO
100
AcDbLine
 62
7
  6
CONTINUOUS
 10
72.5953982827
 20
-77.7191624809
 11
72.5953982827
 21
-8.3158321211
  0
LINE
  5
3B1
100
AcDbEntity
  8
RACCORDO
100
AcDbLine
 62
250
  6
CONTINUOUS
 10
72.6176777987
 20
-28.9700242421
 11
72.6178708114
 21
-8.0855676633
  0
LINE
  5
3B2
100
AcDbEntity
  8
RACCORDO
100
AcDbLine
 62
7
  6
CONTINUOUS
 10
72.6740108392
 20
-26.0729816816
 11
72.6739870388
 21
-8.0010327701
  0
LINE
  5
3B3
100
AcDbEntity
  8
RACCORDO
100
AcDbLine
 62
250
  6
CONTINUOUS
 10
72.6178725055
 20
-77.4236589729
 11
72.6176777987
 21
-28.9700242421
  0
LINE
  5
3B4
100
AcDbEntity
  8
RACCORDO
100
AcDbLine
 62
250
  6
CONTINUOUS
 10
72.6178293643
 20
-77.4314252139
 11
72.6178725055
 21
-77.4236589729
  0
LINE
  5
3B5
100
AcDbEntity
  8
RACCORDO
100
AcDbLine
 62
250
  6
CONTINUOUS
 10
72.6177453645
 20
-77.4394140279
 11
72.6178293643
 21
-77.4314252139
  0
LWPOLYLINE
  5
3B6
100
AcDbEntity
  8
RACCORDO
100
AcDbPolyline
 62
250
  6
CONTINUOUS
 90
3
 70
0
 10
72.6175494805
 20
-77.4514607142
 10
72.6176239043
 20
-77.4474466229
 10
72.6177453645
 20
-77.4394140279
  0
LWPOLYLINE
  5
3B7
100
AcDbEntity
  8
RACCORDO
100
AcDbPolyline
 62
250
  6
CONTINUOUS
 90
22
 70
0
 10
70.0654215721
 20
-7.7381061201
 10
70.0663453986
 20
-7.7080803756
 10
70.0691120504
 20
-7.6771447325
 10
70.073707069
 20
-7.645460859
 10
70.080106441
 20
-7.6131943334
 10
70.0882767238
 20
-7.5805137792
 10
70.0981752197
 20
-7.5475899832
 10
70.1097501997
 20
-7.5145950036
 10
70.1229411735
 20
-7.4817012707
 10
70.1376792058
 20
-7.4490806856
 10
70.1538872761
 20
-7.4169037218
 10
70.1714806821
 20
-7.3853385346
 10
70.1903674813
 20
-7.3545500822
 10
70.2104489722
 20
-7.3246992635
 10
70.23162021
 20
-7.2959420776
 10
70.2537705548
 20
-7.268428808
 10
70.2767842499
 20
-7.2423032378
 10
70.3005410269
 20
-7.217701898
 10
70.3249167339
 20
-7.194753354
 10
70.3497839847
 20
-7.1735775339
 10
70.3750128243
 20
-7.1542851013
 10
70.4004714079
 20
-7.1369768777
  0
LINE
  5
3B8
100
AcDbEntity
  8
RACCORDO
100
AcDbLine
 62
250
  6
CONTINUOUS
 10
72.6732201315
 20
-7.9779109215
 11
72.6735411522
 21
-7.969445178
  0
LWPOLYLINE
  5
3B9
100
AcDbEntity
  8
RACCORDO
100
AcDbPolyline
 62
250
  6
CONTINUOUS
 90
3
 70
0
 10
53.4610767638
 20
-55.1565228446
 10
53.4446264075
 20
-55.1651367303
 10
53.4272137979
 20
-55.1719175731
  0
LWPOLYLINE
  5
3BA
100
AcDbEntity
  8
RACCORDO
100
AcDbPolyline
 62
7
  6
CONTINUOUS
 90
23
 70
0
 10
75.9878541782
 20
-5.6577422649
 10
75.9875913518
 20
-5.6387659681
 10
75.9850462632
 20
-5.5951731289
 10
75.9798968021
 20
-5.551319889
 10
75.9722411514
 20
-5.5073263488
 10
75.96217089
 20
-5.4632958393
 10
75.9497713384
 20
-5.4193487685
 10
75.9351199822
 20
-5.3756210641
 10
75.918314118
 20
-5.332289744
 10
75.89943243
 20
-5.2895028437
 10
75.8785551025
 20
-5.2474088442
 10
75.8557950124
 20
-5.2062104522
 10
75.8312320587
 20
-5.1660549241
 10
75.8049562802
 20
-5.1270941295
 10
75.7770937673
 20
-5.0895380746
 10
75.7477310518
 20
-5.0535297843
 10
75.7169582176
 20
-5.0192131153
 10
75.6848921685
 20
-4.9867727988
 10
75.6516129782
 20
-4.9563428428
 10
75.6171818474
 20
-4.9280543882
 10
75.5816537459
 20
-4.9020433963
 10
75.5450870685
 20
-4.878454086
 10
75.5342493615
 20
-4.8720633816
  0
LINE
  5
3BB
100
AcDbEntity
  8
RACCORDO
100
AcDbLine
 62
250
  6
CONTINUOUS
 10
75.9317222728
 20
-5.737825759
 11
75.9317222728
 21
-74.9988209689
  0
LINE
  5
3BC
100
AcDbEntity
  8
RACCORDO
100
AcDbLine
 62
7
  6
CONTINUOUS
 10
75.9878543127
 20
-5.6576083516
 11
75.9878543127
 21
-74.9186035586
  0
LWPOLYLINE
  5
3BD
100
AcDbEntity
  8
RACCORDO
100
AcDbPolyline
 62
7
  6
CONTINUOUS
 90
5
 70
0
 10
72.6735436808
 20
-77.3799867242
 10
72.6736870272
 20
-77.3728600162
 10
72.6738950903
 20
-77.3589617311
 10
72.6739976329
 20
-77.3457779476
 10
72.6740108392
 20
-26.0729816816
  0
LWPOLYLINE
  5
3BE
100
AcDbEntity
  8
RACCORDO
100
AcDbPolyline
 62
250
  6
CONTINUOUS
 90
13
 70
0
 10
75.9317222728
 20
-74.9988209689
 10
75.930824349
 20
-75.0353043373
 10
75.9278322232
 20
-75.0703700792
 10
75.9227674799
 20
-75.103878038
 10
75.9156655837
 20
-75.1356726577
 10
75.9065632747
 20
-75.1656553964
 10
75.8954827666
 20
-75.1937713117
 10
75.8824520134
 20
-75.2199243828
 10
75.8675307116
 20
-75.2439729346
 10
75.8507910531
 20
-75.2657971646
 10
75.8323035385
 20
-75.285305435
 10
75.812144826
 20
-75.302416705
 10
75.7938517199
 20
-75.3149654962
  0
LWPOLYLINE
  5
3BF
100
AcDbEntity
  8
RACCORDO
100
AcDbPolyline
 62
250
  6
CONTINUOUS
 90
9
 70
0
 10
75.9878543127
 20
-74.9186035586
 10
75.9876690362
 20
-74.9235729927
 10
75.9857088993
 20
-74.9354723917
 10
75.9816288692
 20
-74.9471910689
 10
75.9754726524
 20
-74.9586034639
 10
75.967306205
 20
-74.9695872929
 10
75.9572170226
 20
-74.980024867
 10
75.945313199
 20
-74.9898043537
 10
75.9317222728
 20
-74.9988209689
  0
LWPOLYLINE
  5
3C0
100
AcDbEntity
  8
RACCORDO
100
AcDbPolyline
 62
250
  6
CONTINUOUS
 90
9
 70
0
 10
75.9878541782
 20
-5.657742265
 10
75.9876689986
 20
-5.6625782901
 10
75.9857087793
 20
-5.6744776536
 10
75.9816286866
 20
-5.6861962741
 10
75.9754724357
 20
-5.6976085949
 10
75.9673059866
 20
-5.7085923408
 10
75.9572168373
 20
-5.7190298286
 10
75.9453130858
 20
-5.7288092278
 10
75.9317222728
 20
-5.737825759
  0
LINE
  5
3C1
100
AcDbEntity
  8
RACCORDO
100
AcDbLine
 62
250
  6
CONTINUOUS
 10
72.6736026351
 20
-77.3470480008
 11
72.674010995
 21
-77.3396984045
  0
LWPOLYLINE
  5
3C2
100
AcDbEntity
  8
RACCORDO
100
AcDbPolyline
 62
250
  6
CONTINUOUS
 90
10
 70
0
 10
72.6178789532
 20
-42.7547394647
 10
72.6295316754
 20
-42.7471291165
 10
72.6399809951
 20
-42.7389569426
 10
72.6491460565
 20
-42.7302861784
 10
72.6569559414
 20
-42.7211839174
 10
72.6633502177
 20
-42.7117205919
 10
72.6682794073
 20
-42.7019694281
 10
72.6717053685
 20
-42.6920058795
 10
72.6736015917
 20
-42.6819070429
 10
72.6740109931
 20
-42.6745220932
  0
LINE
  5
3C3
100
AcDbEntity
  8
RACCORDO
100
AcDbLine
 62
250
  6
CONTINUOUS
 10
53.2105193998
 20
-55.132036205
 11
53.4798208826
 21
-54.9654961284
  0
LINE
  5
3C4
100
AcDbEntity
  8
RACCORDO
100
AcDbLine
 62
7
  6
CONTINUOUS
 10
53.463318026
 20
-55.1551610551
 11
53.4632483933
 21
-55.1552040935
  0
LINE
  5
3C5
100
AcDbEntity
  8
RACCORDO
100
AcDbLine
 62
250
  6
CONTINUOUS
 10
53.4632483933
 20
-55.1552040935
 11
53.4610767638
 21
-55.1565228446
  0
LWPOLYLINE
  5
3C6
100
AcDbEntity
  8
RACCORDO
100
AcDbPolyline
 62
250
  6
CONTINUOUS
 90
15
 70
0
 10
72.6017807303
 20
-77.6217833515
 10
72.6039082874
 20
-77.6094949158
 10
72.6058234967
 20
-77.5974575336
 10
72.6075339976
 20
-77.585733691
 10
72.6090615612
 20
-77.574288145
 10
72.610435537
 20
-77.5629872436
 10
72.6116568786
 20
-77.551906352
 10
72.6127424894
 20
-77.5409867386
 10
72.6137293076
 20
-77.5298815115
 10
72.6146144441
 20
-77.5185828663
 10
72.6153943716
 20
-77.5070976675
 10
72.6160833866
 20
-77.4950863773
 10
72.6166717952
 20
-77.4824279448
 10
72.6171377008
 20
-77.4692276259
 10
72.6175494805
 20
-77.4514607142
  0
LWPOLYLINE
  5
3C7
100
AcDbEntity
  8
RACCORDO
100
AcDbPolyline
 62
250
  6
CONTINUOUS
 90
4
 70
0
 10
72.5953982827
 20
-77.6535763431
 10
72.5968355771
 20
-77.6470417163
 10
72.5994274514
 20
-77.634305579
 10
72.6017807303
 20
-77.6217833515
  0
LWPOLYLINE
  5
3C8
100
AcDbEntity
  8
RACCORDO
100
AcDbPolyline
 62
7
  6
CONTINUOUS
 90
5
 70
0
 10
72.6414139145
 20
-77.6192333892
 10
72.6542519858
 20
-77.5637812546
 10
72.6638994101
 20
-77.5056662537
 10
72.670326029
 20
-77.4450059219
 10
72.6735500433
 20
-77.3796545299
  0
LWPOLYLINE
  5
3C9
100
AcDbEntity
  8
RACCORDO
100
AcDbPolyline
 62
7
  6
CONTINUOUS
 90
4
 70
0
 10
72.5946675491
 20
-77.7470764368
 10
72.6064613673
 20
-77.7218050758
 10
72.6254565378
 20
-77.6719238492
 10
72.6414139145
 20
-77.6192333892
  0
LWPOLYLINE
  5
3CA
100
AcDbEntity
  8
RACCORDO
100
AcDbPolyline
 62
7
  6
CONTINUOUS
 90
16
 70
0
 10
75.7937112016
 20
-75.3150522198
 10
75.8097303678
 20
-75.3045674914
 10
75.8320280258
 20
-75.2878473785
 10
75.8533729945
 20
-75.2691578446
 10
75.8736391614
 20
-75.2484845041
 10
75.8926442802
 20
-75.2258809312
 10
75.9101861949
 20
-75.2014837977
 10
75.9261579435
 20
-75.1753610002
 10
75.940466085
 20
-75.147572885
 10
75.9529929335
 20
-75.118257322
 10
75.9636794911
 20
-75.0874833943
 10
75.9724785136
 20
-75.0553020572
 10
75.9793315529
 20
-75.0218079896
 10
75.9841984236
 20
-74.9870632059
 10
75.9870481377
 20
-74.9511169642
 10
75.9878543127
 20
-74.9186034852
  0
LWPOLYLINE
  5
3CB
100
AcDbEntity
  8
RACCORDO
100
AcDbPolyline
 62
250
  6
CONTINUOUS
 90
9
 70
0
 10
72.6178789665
 20
-77.4198481427
 10
72.629532964
 20
-77.4122425357
 10
72.6399832714
 20
-77.404074937
 10
72.6491490068
 20
-77.3954085612
 10
72.6569592305
 20
-77.3863104832
 10
72.663353494
 20
-77.3768511194
 10
72.6682823079
 20
-77.3671036821
 10
72.6717075249
 20
-77.3571436133
 10
72.6736026351
 20
-77.3470480008
  0
LWPOLYLINE
  5
3CC
100
AcDbEntity
  8
RACCORDO
100
AcDbPolyline
 62
250
  6
CONTINUOUS
 90
10
 70
0
 10
72.6174590373
 20
-77.4558448372
 10
72.6291960742
 20
-77.4485493091
 10
72.6397097296
 20
-77.4406804632
 10
72.6489173445
 20
-77.4323001649
 10
72.6567465279
 20
-77.4234743012
 10
72.6631357262
 20
-77.4142722619
 10
72.6680347071
 20
-77.4047663945
 10
72.6714049547
 20
-77.3950314351
 10
72.6732199721
 20
-77.3851439208
 10
72.6735436808
 20
-77.3799867242
  0
LINE
  5
3CD
100
AcDbEntity
  8
RACCORDO
100
AcDbLine
 62
250
  6
CONTINUOUS
 10
75.9317222728
 20
-74.9988209689
 11
72.6740328533
 21
-77.0134249723
  0
LINE
  5
3CE
100
AcDbEntity
  8
RACCORDO
100
AcDbLine
 62
7
  6
CONTINUOUS
 10
75.7938517025
 20
-75.314965507
 11
72.6740173849
 21
-77.2443178475
  0
LINE
  5
3CF
100
AcDbEntity
  8
RACCORDO
100
AcDbLine
 62
250
  6
CONTINUOUS
 10
72.6174658332
 20
-77.4554783011
 11
72.5953982827
 21
-77.4684673655
  0
LWPOLYLINE
  5
3D0
100
AcDbEntity
  8
RACCORDO
100
AcDbPolyline
 62
250
  6
CONTINUOUS
 90
17
 70
0
 10
71.1018827077
 20
-78.9546093547
 10
71.1374638399
 20
-78.9363574304
 10
71.175536435
 20
-78.9125461605
 10
71.2115753446
 20
-78.8852626386
 10
71.2454755318
 20
-78.8545883935
 10
71.277091334
 20
-78.8206732135
 10
71.3064014506
 20
-78.7835585375
 10
71.3334636032
 20
-78.743129758
 10
71.3582073717
 20
-78.6993777235
 10
71.3804820549
 20
-78.6524412801
 10
71.4001950952
 20
-78.6023928121
 10
71.417260358
 20
-78.5492848699
 10
71.4315699539
 20
-78.4932671572
 10
71.4430231025
 20
-78.4345910534
 10
71.4515562393
 20
-78.3734509058
 10
71.4571230357
 20
-78.309964217
 10
71.4596779818
 20
-78.2442992313
  0
LINE
  5
3D1
100
AcDbEntity
  8
RACCORDO
100
AcDbLine
 62
250
  6
CONTINUOUS
 10
71.4596779818
 20
-78.2442992313
 11
72.5953982827
 21
-77.7191624809
  0
LINE
  5
3D2
100
AcDbEntity
  8
RACCORDO
100
AcDbLine
 62
7
  6
CONTINUOUS
 10
71.1014978203
 20
-78.9547875176
 11
72.2452095511
 21
-78.425955673
  0
ARC
  5
3D3
100
AcDbEntity
  8
RACCORDO
100
AcDbCircle
 62
7
  6
CONTINUOUS
 10
-54.8373757215
 20
9.1491353895
 40
0.2
100
AcDbArc
 50
59.963390554
 51
84.1875643972
  0
ARC
  5
3D4
100
AcDbEntity
  8
RACCORDO
100
AcDbCircle
 62
7
  6
CONTINUOUS
 10
-56.5750273911
 20
29.1414181214
 40
0.2
100
AcDbArc
 50
335.8126975528
 51
0.0350220707
  0
ARC
  5
3D5
100
AcDbEntity
  8
RACCORDO
100
AcDbCircle
 62
7
  6
CONTINUOUS
 10
-56.5750273911
 20
36.5993144708
 40
0.2
100
AcDbArc
 50
359.9853617098
 51
59.9983429093
  0
ELLIPSE
  5
3D6
100
AcDbEntity
  8
RACCORDO
100
AcDbEllipse
 62
7
  6
CONTINUOUS
 10
-54.0280026087
 20
24.8781397572
 30
0.0
 11
0.2734019431
 21
-0.062379352
 31
0.0
 40
0.2137595908
 41
-0.9890583196
 42
-0.2167580477
  0
ELLIPSE
  5
3D7
100
AcDbEntity
  8
RACCORDO
100
AcDbEllipse
 62
7
  6
CONTINUOUS
 10
-54.0280026087
 20
46.3513080368
 30
0.0
 11
0.2734019431
 21
-0.062379352
 31
0.0
 40
0.2137595908
 41
-0.9890583196
 42
-0.2167580477
  0
ELLIPSE
  5
3D8
100
AcDbEntity
  8
RACCORDO
100
AcDbEllipse
 62
7
  6
CONTINUOUS
 10
-55.8916937294
 20
26.5895794481
 30
0.0
 11
0.0987061723
 21
0.1739499978
 31
0.0
 40
0.5722717666
 41
0.2575598763
 42
0.650258958
  0
ELLIPSE
  5
3D9
100
AcDbEntity
  8
RACCORDO
100
AcDbEllipse
 62
7
  6
CONTINUOUS
 10
-55.8916937294
 20
48.0627477278
 30
0.0
 11
0.0987061723
 21
0.1739499978
 31
0.0
 40
0.5722717666
 41
0.2575598763
 42
0.650258958
  0
ELLIPSE
  5
3DA
100
AcDbEntity
  8
RACCORDO
100
AcDbEllipse
 62
7
  6
CONTINUOUS
 10
-54.0280026087
 20
23.7445010444
 30
0.0
 11
0.244766843
 21
0.2906339027
 31
0.0
 40
0.4216239729
 41
-1.5019444947
 42
0.068699533
  0
ELLIPSE
  5
3DB
100
AcDbEntity
  8
RACCORDO
100
AcDbEllipse
 62
7
  6
CONTINUOUS
 10
-54.0280026087
 20
45.2176693241
 30
0.0
 11
0.244766843
 21
0.2906339027
 31
0.0
 40
0.4216239729
 41
-1.5019444947
 42
0.068699533
  0
ELLIPSE
  5
3DC
100
AcDbEntity
  8
RACCORDO
100
AcDbEllipse
 62
7
  6
CONTINUOUS
 10
-54.7337303687
 20
48.0115056584
 30
0.0
 11
0.0740296292
 21
0.1304624983
 31
0.0
 40
0.5722717666
 41
0.1539946367
 42
0.2575598763
  0
ELLIPSE
  5
3DD
100
AcDbEntity
  8
RACCORDO
100
AcDbEllipse
 62
7
  6
CONTINUOUS
 10
-54.7337303687
 20
26.5383373787
 30
0.0
 11
0.0740296292
 21
0.1304624983
 31
0.0
 40
0.5722717666
 41
0.1539946367
 42
0.2575598763
  0
ELLIPSE
  5
3DE
100
AcDbEntity
  8
RACCORDO
100
AcDbEllipse
 62
7
  6
CONTINUOUS
 10
71.5332825182
 20
-77.1025510141
 30
0.0
 11
-0.752093153
 21
1.3025803154
 31
0.0
 40
0.5757524875
 41
-3.1938070556
 42
-2.3576120761
  0
ELLIPSE
  5
3DF
100
AcDbEntity
  8
RACCORDO
100
AcDbEllipse
 62
7
  6
CONTINUOUS
 10
71.5332825182
 20
-7.7059389259
 30
0.0
 11
-0.7500365396
 21
1.2990170088
 31
0.0
 40
0.5789151826
 41
-2.3548735497
 42
-0.7868162787
  0
ELLIPSE
  5
3E0
100
AcDbEntity
  8
RACCORDO
100
AcDbEllipse
 62
7
  6
CONTINUOUS
 10
-73.7742498302
 20
76.192809121
 30
0.0
 11
-0.752093153
 21
1.3025803154
 31
0.0
 40
0.5757524875
 41
-0.7840766935
 42
0.052214402
  0
ELLIPSE
  5
3E1
100
AcDbEntity
  8
RACCORDO
100
AcDbEllipse
 62
7
  6
CONTINUOUS
 10
-57.2116752175
 20
9.7847228731
 30
0.0
 11
-0.2500120911
 21
0.4330057209
 31
0.0
 40
0.5775075436
 41
0.7855021057
 42
2.355993846
  0
ENDSEC
  0
SECTION
  2
OBJECTS
  0
DICTIONARY
  5
C
100
AcDbDictionary
280
0
281
1
  3
ACAD_GROUP
350
D
  3
ACAD_MLINESTYLE
350
17
  3
ACAD_LAYOUT
350
1A
  3
ACAD_PLOTSETTINGS
350
19
  3
ACAD_PLOTSTYLENAME
350
E
  0
DICTIONARY
  5
D
102
{ACAD_REACTORS
330
C
102
}
100
AcDbDictionary
280
0
281
1
  0
ACDBDICTIONARYWDFLT
  5
E
102
{ACAD_REACTORS
330
C
102
}
100
AcDbDictionary
281
1
  3
Normal
350
F
100
AcDbDictionaryWithDefault
340
F
  0
DICTIONARY
  5
17
102
{ACAD_REACTORS
330
C
102
}
100
AcDbDictionary
280
0
281
1
  3
Standard
350
18
  0
DICTIONARY
  5
19
102
{ACAD_REACTORS
330
C
102
}
100
AcDbDictionary
281
1
  0
DICTIONARY
  5
1A
102
{ACAD_REACTORS
330
C
102
}
100
AcDbDictionary
281
1
  3
Model
350
3E2
  3
Layout1
350
3E3
  0
ACDBPLACEHOLDER
  5
F
102
{ACAD_REACTORS
330
E
102
}
  0
MLINESTYLE
  5
18
102
{ACAD_REACTORS
330
17
102
}
100
AcDbMlineStyle
  2
STANDARD
 70
0
  3

 62
256
 51
90.0
 52
90.0
 71
2
 49
0.5
 62
256
  6
BYLAYER
 49
-0.5
 62
256
  6
BYLAYER
  0
LAYOUT
  5
3E2
102
{ACAD_REACTORS
330
1A
102
}
100
AcDbPlotSettings
  1

  2
none_device
  4
ISO_A4_(297.00_x_210.00_MM)
  6

 40
0.0
 41
0.0
 42
0.0
 43
0.0
 44
297.0
 45
210.0
 46
0.0
 47
0.0
 48
0.0
 49
0.0
140
0.0
141
0.0
142
1.0
143
1.0
 70
1024
 72
1
 73
0
 74
0
  7

 75
0
147
1.0
148
0.0
149
0.0
100
AcDbLayout
  1
Model
 70
0
 71
0
 10
0.0
 20
0.0
 11
297.0
 21
210.0
 12
0.0
 22
0.0
 32
0.0
 14
0.0
 24
0.0
 34
0.0
 15
0.0
 25
0.0
 35
0.0
146
0.0
 13
0.0
 23
0.0
 33
0.0
 16
1.0
 26
0.0
 36
0.0
 17
0.0
 27
1.0
 37
0.0
 76
0
330
212
345
0
346
0
  0
LAYOUT
  5
3E3
102
{ACAD_REACTORS
330
1A
102
}
100
AcDbPlotSettings
  1

  2
none_device
  4
ISO_A4_(297.00_x_210.00_MM)
  6

 40
0.0
 41
0.0
 42
0.0
 43
0.0
 44
297.0
 45
210.0
 46
0.0
 47
0.0
 48
0.0
 49
0.0
140
0.0
141
0.0
142
1.0
143
1.0
 70
0
 72
1
 73
0
 74
0
  7

 75
0
147
1.0
148
0.0
149
0.0
100
AcDbLayout
  1
Layout1
 70
0
 71
1
 10
0.0
 20
0.0
 11
297.0
 21
210.0
 12
0.0
 22
0.0
 32
0.0
 14
0.0
 24
0.0
 34
0.0
 15
0.0
 25
0.0
 35
0.0
146
0.0
 13
0.0
 23
0.0
 33
0.0
 16
1.0
 26
0.0
 36
0.0
 17
0.0
 27
1.0
 37
0.0
 76
0
330
213
345
0
346
0
  0
ENDSEC
  0
EOF
