  0
SECTION
  2
HEADER
  9
$ACADVER
  1
AC1024
  9
$DWGCODEPAGE
  3
ANSI_1252
  9
$EXTMAX
 10
210.0
 20
297.0
 30
0.0
  9
$EXTMIN
 10
0.0
 20
0.0
 30
0.0
  9
$LIMMIN
 10
0.0
 20
0.0
  9
$LIMMAX
 10
210.0
 20
297.0
  9
$VIEWCTR
 10
105.0
 20
148.5
  9
$VIEWSIZE
 40
297.0
  9
$CLAYER
  8
0
  9
$LTSCALE
 40
19.36
  9
$CELTYPE
  6
BYLAYER
  9
$DIMSCALE
 40
1.0
  9
$DIMASZ
 40
3.0
  9
$DIMEXO
 40
0.5
  9
$DIMDLI
 40
13.376
  9
$DIMEXE
 40
1.5
  9
$DIMCEN
 40
3.168
  9
$DIMLFAC
 40
1.0
  9
$DIMBLK
  1
_FILLED
  9
$DIMALT
 70
0
  9
$DIMALTF
 40
0.0393700787
  9
$DIMTXT
 40
3.0
  9
$DIMTOL
 70
1
  9
$DIMLIM
 70
0
  9
$DIMTFAC
 40
1.0
  9
$DIMTP
 40
0.01
  9
$DIMTM
 40
0.01
  9
$DIMGAP
 40
0.625
  9
$DIMDSEP
 70
44
  9
$AUNITS
 70
0
  9
$PDMODE
 70
3
  9
$PDSIZE
 40
3.0
  9
$HANDSEED
  5
382
  9
$TILEMODE
 70
1
  9
$MEASUREMENT
 70
1
  9
$INSUNITS
 70
4
  0
ENDSEC
  0
SECTION
  2
CLASSES
  0
CLASS
  1
ACDBDICTIONARYWDFLT
  2
AcDbDictionaryWithDefault
  3
AutoCAD 2000
 90
0
 91
1
280
0
281
0
  0
CLASS
  1
ACDBPLACEHOLDER
  2
AcDbPlaceHolder
  3
AutoCAD 2000
 90
0
 91
1
280
0
281
0
  0
CLASS
  1
LAYOUT
  2
AcDbLayout
  3
AutoCAD 2000
 90
0
 91
0
280
0
281
0
  0
ENDSEC
  0
SECTION
  2
TABLES
  0
TABLE
  2
VPORT
  5
8
100
AcDbSymbolTable
 70
2
  0
VPORT
  5
1F4
100
AcDbSymbolTableRecord
100
AcDbViewportTableRecord
  2
*ACTIVE
 70
0
 10
0.0
 20
0.0
 11
1.0
 21
1.0
 12
105.0
 22
148.5
 13
0.0
 23
0.0
 14
1.0
 24
1.0
 15
0.0
 25
0.0
 16
0.0
 26
0.0
 36
1.0
 17
0.0
 27
0.0
 37
0.0
 40
297.0
 41
0.7070707071
 42
50.0
 43
0.0
 44
0.0
 50
0.0
 51
0.0
 71
0
 72
100
 73
1
 74
1
 75
0
 76
0
 77
0
 78
0
  0
ENDTAB
  0
TABLE
  2
LTYPE
  5
5
100
AcDbSymbolTable
 70
6
  0
LTYPE
  5
14
100
AcDbSymbolTableRecord
100
AcDbLinetypeTableRecord
  2
BYBLOCK
 70
0
  3

 72
65
 73
0
 40
0.0
  0
LTYPE
  5
15
100
AcDbSymbolTableRecord
100
AcDbLinetypeTableRecord
  2
BYLAYER
 70
0
  3

 72
65
 73
0
 40
0.0
  0
LTYPE
  5
16
100
AcDbSymbolTableRecord
100
AcDbLinetypeTableRecord
  2
CONTINUOUS
 70
64
  3
Solid line
 72
65
 73
0
 40
0.0
  0
LTYPE
  5
1F5
100
AcDbSymbolTableRecord
100
AcDbLinetypeTableRecord
  2
CENTER
 70
64
  3
____ _ ____ _ ____ _ ____ _ ____ _ ____ _ ____
 72
65
 73
4
 40
0.6
 49
0.375
 74
0
 49
-0.075
 74
0
 49
0.075
 74
0
 49
-0.075
 74
0
  0
LTYPE
  5
1F6
100
AcDbSymbolTableRecord
100
AcDbLinetypeTableRecord
  2
HIDDEN
 70
64
  3
- - - - - - - - - - - - - - - - - - - -
 72
65
 73
2
 40
0.2
 49
0.1
 74
0
 49
-0.1
 74
0
  0
LTYPE
  5
1F7
100
AcDbSymbolTableRecord
100
AcDbLinetypeTableRecord
  2
PHANTOM
 70
64
  3
_____ _ _ _____ _ _ _____ _ _ _____
 72
65
 73
6
 40
0.8
 49
0.45
 74
0
 49
-0.05
 74
0
 49
0.1
 74
0
 49
-0.05
 74
0
 49
0.1
 74
0
 49
-0.05
 74
0
  0
LTYPE
  5
1F8
100
AcDbSymbolTableRecord
100
AcDbLinetypeTableRecord
  2
DOT
 70
64
  3
. . . . . . . . . . . . . . . . . . . .
 72
65
 73
2
 40
0.2
 49
0.1
 74
0
 49
-0.1
 74
0
  0
LTYPE
  5
1F9
100
AcDbSymbolTableRecord
100
AcDbLinetypeTableRecord
  2
DASHED
 70
64
  3
- - - - - - - - - - - - - - - - - - - -
 72
65
 73
2
 40
0.2
 49
0.1
 74
0
 49
-0.1
 74
0
  0
ENDTAB
  0
TABLE
  2
LAYER
  5
2
100
AcDbSymbolTable
 70
36
  0
LAYER
  5
10
100
AcDbSymbolTableRecord
100
AcDbLayerTableRecord
  2
0
 70
0
 62
7
  6
CONTINUOUS
370
-3
390
F
  0
LAYER
  5
1FA
100
AcDbSymbolTableRecord
100
AcDbLayerTableRecord
  2
DEFAULT_1
 70
0
 62
7
  6
CENTER
370
-3
390
F
  0
LAYER
  5
1FB
100
AcDbSymbolTableRecord
100
AcDbLayerTableRecord
  2
DEFAULT_2
 70
0
 62
7
  6
HIDDEN
370
-3
390
F
  0
LAYER
  5
1FC
100
AcDbSymbolTableRecord
100
AcDbLayerTableRecord
  2
DEFAULT_3
 70
0
 62
7
  6
PHANTOM
370
-3
390
F
  0
LAYER
  5
1FD
100
AcDbSymbolTableRecord
100
AcDbLayerTableRecord
  2
ASSI
 70
0
 62
7
  6
CONTINUOUS
370
-3
390
F
  0
LAYER
  5
1FE
100
AcDbSymbolTableRecord
100
AcDbLayerTableRecord
  2
COORDINATE
 70
0
 62
7
  6
CONTINUOUS
370
-3
390
F
  0
LAYER
  5
1FF
100
AcDbSymbolTableRecord
100
AcDbLayerTableRecord
  2
COPY_PUBLISH
 70
0
 62
7
  6
CONTINUOUS
370
-3
390
F
  0
LAYER
  5
200
100
AcDbSymbolTableRecord
100
AcDbLayerTableRecord
  2
COSMETICI
 70
0
 62
7
  6
CONTINUOUS
370
-3
390
F
  0
LAYER
  5
201
100
AcDbSymbolTableRecord
100
AcDbLayerTableRecord
  2
CURVE
 70
0
 62
7
  6
CONTINUOUS
370
-3
390
F
  0
LAYER
  5
202
100
AcDbSymbolTableRecord
100
AcDbLayerTableRecord
  2
DRAFT
 70
0
 62
7
  6
CONTINUOUS
370
-3
390
F
  0
LAYER
  5
203
100
AcDbSymbolTableRecord
100
AcDbLayerTableRecord
  2
IMPORT_IGES
 70
0
 62
7
  6
CONTINUOUS
370
-3
390
F
  0
LAYER
  5
204
100
AcDbSymbolTableRecord
100
AcDbLayerTableRecord
  2
INTF_1
 70
0
 62
7
  6
CONTINUOUS
370
-3
390
F
  0
LAYER
  5
205
100
AcDbSymbolTableRecord
100
AcDbLayerTableRecord
  2
INTF_11
 70
0
 62
7
  6
CONTINUOUS
370
-3
390
F
  0
LAYER
  5
206
100
AcDbSymbolTableRecord
100
AcDbLayerTableRecord
  2
INTF_13
 70
0
 62
7
  6
CONTINUOUS
370
-3
390
F
  0
LAYER
  5
207
100
AcDbSymbolTableRecord
100
AcDbLayerTableRecord
  2
INTF_2
 70
0
 62
7
  6
CONTINUOUS
370
-3
390
F
  0
LAYER
  5
208
100
AcDbSymbolTableRecord
100
AcDbLayerTableRecord
  2
NOTE
 70
0
 62
7
  6
CONTINUOUS
370
-3
390
F
  0
LAYER
  5
209
100
AcDbSymbolTableRecord
100
AcDbLayerTableRecord
  2
PIANI
 70
0
 62
7
  6
CONTINUOUS
370
-3
390
F
  0
LAYER
  5
20A
100
AcDbSymbolTableRecord
100
AcDbLayerTableRecord
  2
PUNTI
 70
0
 62
7
  6
CONTINUOUS
370
-3
390
F
  0
LAYER
  5
20B
100
AcDbSymbolTableRecord
100
AcDbLayerTableRecord
  2
RACCORDO
 70
0
 62
7
  6
CONTINUOUS
370
-3
390
F
  0
LAYER
  5
20C
100
AcDbSymbolTableRecord
100
AcDbLayerTableRecord
  2
SIMBOLI
 70
0
 62
7
  6
CONTINUOUS
370
-3
390
F
  0
LAYER
  5
20D
100
AcDbSymbolTableRecord
100
AcDbLayerTableRecord
  2
SMUSSO
 70
0
 62
7
  6
CONTINUOUS
370
-3
390
F
  0
LAYER
  5
20E
100
AcDbSymbolTableRecord
100
AcDbLayerTableRecord
  2
SNAPLINE
 70
0
 62
7
  6
CONTINUOUS
370
-3
390
F
  0
LAYER
  5
20F
100
AcDbSymbolTableRecord
100
AcDbLayerTableRecord
  2
SUPERFICI
 70
0
 62
7
  6
CONTINUOUS
370
-3
390
F
  0
LAYER
  5
210
100
AcDbSymbolTableRecord
100
AcDbLayerTableRecord
  2
TRASH
 70
0
 62
7
  6
CONTINUOUS
370
-3
390
F
  0
ENDTAB
  0
TABLE
  2
STYLE
  5
3
100
AcDbSymbolTable
 70
1
  0
STYLE
  5
11
100
AcDbSymbolTableRecord
100
AcDbTextStyleTableRecord
  2
STANDARD
 70
0
 40
0.0
 41
0.8
 50
0.0
 71
0
 42
0.2
  3
txt
  4

  0
STYLE
  5
211
100
AcDbSymbolTableRecord
100
AcDbTextStyleTableRecord
  2
TEXTSTYLE_1
 70
0
 40
0.0
 41
0.8
 50
0.0
 71
0
 42
0.2
  3
gdt
  4

  0
ENDTAB
  0
TABLE
  2
VIEW
  5
6
100
AcDbSymbolTable
 70
0
  0
ENDTAB
  0
TABLE
  2
UCS
  5
7
100
AcDbSymbolTable
 70
0
  0
ENDTAB
  0
TABLE
  2
APPID
  5
9
100
AcDbSymbolTable
 70
1
  0
APPID
  5
212
100
AcDbSymbolTableRecord
100
AcDbRegAppTableRecord
  2
ACAD
 70
0
  0
ENDTAB
  0
TABLE
  2
BLOCK_RECORD
  5
1
100
AcDbSymbolTable
 70
0
  0
BLOCK_RECORD
  5
213
100
AcDbSymbolTableRecord
100
AcDbBlockTableRecord
  2
*Model_Space
  0
BLOCK_RECORD
  5
214
100
AcDbSymbolTableRecord
100
AcDbBlockTableRecord
  2
*Paper_Space
  0
BLOCK_RECORD
  5
215
100
AcDbSymbolTableRecord
100
AcDbBlockTableRecord
  2
_FILLED
  0
ENDTAB
  0
TABLE
  2
DIMSTYLE
  5
A
100
AcDbSymbolTable
 70
1
100
AcDbDimStyleTable
 71
0
  0
DIMSTYLE
105
216
100
AcDbSymbolTableRecord
100
AcDbDimStyleTableRecord
  2
STANDARD
 70
0
  3

  4

 40
1.0
 41
3.0
 42
0.5
 43
0.38
 44
1.5
 45
0.0
 46
0.0
 47
0.01
 48
0.01
140
3.0
141
0.09
142
0.0
143
25.4
144
1.0
145
0.0
146
1.0
147
0.625
 71
1
 72
0
 73
0
 74
0
 75
0
 76
0
 77
1
 78
8
 79
2
170
0
171
1
172
0
173
0
174
0
175
0
176
0
177
0
178
0
270
2
179
2
271
2
272
2
273
2
274
2
275
0
280
0
281
0
282
0
283
1
284
8
285
0
286
0
287
3
288
0
340
11
278
44
341
215
342
215
343
215
344
215
  0
ENDTAB
  0
ENDSEC
  0
SECTION
  2
BLOCKS
  0
BLOCK
  5
20
100
AcDbEntity
  8
0
100
AcDbBlockBegin
  2
*Model_Space
 70
0
 10
0.0
 20
0.0
 30
0.0
  3
*Model_Space
  1

  0
ENDBLK
  5
21
100
AcDbEntity
  8
0
100
AcDbBlockEnd
  0
BLOCK
  5
1C
100
AcDbEntity
  8
0
100
AcDbBlockBegin
  2
*Paper_Space
 70
0
 10
0.0
 20
0.0
 30
0.0
  3
*Paper_Space
  1

  0
ENDBLK
  5
1D
100
AcDbEntity
  8
0
100
AcDbBlockEnd
  0
BLOCK
  5
217
100
AcDbEntity
  8
0
100
AcDbBlockBegin
  2
_FILLED
 70
64
 10
0.0
 20
0.0
  3
_FILLED
  1

  0
SOLID
  5
218
100
AcDbEntity
  8
0
  6
BYBLOCK
 62
0
100
AcDbTrace
 10
0.0
 20
0.0
 11
-1.0
 21
0.3166666667
 12
-1.0
 22
-0.3166666667
 13
-1.0
 23
-0.3166666667
  0
ENDBLK
  5
219
100
AcDbEntity
  8
0
  6
BYBLOCK
 62
0
100
AcDbBlockEnd
  0
ENDSEC
  0
SECTION
  2
ENTITIES
  0
LINE
  5
21A
100
AcDbEntity
  8
0
100
AcDbLine
 62
7
  6
CONTINUOUS
 10
-52.6604845635
 20
64.6828940065
 11
-50.3977428637
 21
65.9893727052
  0
LINE
  5
21B
100
AcDbEntity
  8
0
100
AcDbLine
 62
250
  6
CONTINUOUS
 10
-51.9104483233
 20
64.60858224
 11
-49.6477066235
 21
65.9150609386
  0
LINE
  5
21C
100
AcDbEntity
  8
RACCORDO
100
AcDbLine
 62
250
  6
CONTINUOUS
 10
-47.9099885594
 20
65.0365554764
 11
-48.0239018939
 21
64.9774964389
  0
LINE
  5
21D
100
AcDbEntity
  8
0
100
AcDbLine
 62
7
  6
CONTINUOUS
 10
-53.1175551045
 20
63.7921514181
 11
-53.1175551045
 21
-5.6078221093
  0
LINE
  5
21E
100
AcDbEntity
  8
0
100
AcDbLine
 62
250
  6
CONTINUOUS
 10
-52.9711084951
 20
63.5880141215
 11
-52.9711084951
 21
-5.8119594059
  0
LINE
  5
21F
100
AcDbEntity
  8
0
100
AcDbLine
 62
250
  6
CONTINUOUS
 10
-33.2958623086
 20
39.1846845633
 11
-32.9595132103
 21
39.3788883172
  0
LINE
  5
220
100
AcDbEntity
  8
RACCORDO
100
AcDbLine
 62
7
  6
CONTINUOUS
 10
-29.2710143965
 20
37.1363770813
 11
-29.8769630242
 21
36.3629500272
  0
LINE
  5
221
100
AcDbEntity
  8
RACCORDO
100
AcDbLine
 62
250
  6
CONTINUOUS
 10
-31.3930944646
 20
33.7012353444
 11
-28.0687066304
 21
36.5549978942
  0
LINE
  5
222
100
AcDbEntity
  8
RACCORDO
100
AcDbLine
 62
7
  6
CONTINUOUS
 10
-31.3930944646
 20
33.641370198
 11
-28.0273414403
 21
36.5306419712
  0
LINE
  5
223
100
AcDbEntity
  8
RACCORDO
100
AcDbLine
 62
7
  6
CONTINUOUS
 10
-30.1336601936
 20
36.1070689592
 11
-31.3160316248
 21
35.2171960069
  0
LINE
  5
224
100
AcDbEntity
  8
RACCORDO
100
AcDbLine
 62
250
  6
CONTINUOUS
 10
-31.4084835892
 20
34.5683731368
 11
-31.4095756524
 21
34.5677038775
  0
LINE
  5
225
100
AcDbEntity
  8
RACCORDO
100
AcDbLine
 62
250
  6
CONTINUOUS
 10
-32.3858848304
 20
33.9759180942
 11
-31.4095756527
 21
34.5677038773
  0
LINE
  5
226
100
AcDbEntity
  8
RACCORDO
100
AcDbLine
 62
250
  6
CONTINUOUS
 10
-29.1741775314
 20
37.1932829376
 11
-29.2710143965
 21
37.1363770813
  0
LINE
  5
227
100
AcDbEntity
  8
RACCORDO
100
AcDbLine
 62
250
  6
CONTINUOUS
 10
-31.4095756527
 20
35.2202792222
 11
-32.3858848304
 21
34.6474443497
  0
LINE
  5
228
100
AcDbEntity
  8
RACCORDO
100
AcDbLine
 62
250
  6
CONTINUOUS
 10
-32.3858848304
 20
34.6474443497
 11
-32.6039746415
 21
34.5235195946
  0
LINE
  5
229
100
AcDbEntity
  8
RACCORDO
100
AcDbLine
 62
250
  6
CONTINUOUS
 10
-32.6039746415
 20
33.8560576854
 11
-32.3858848304
 21
33.9759180942
  0
LINE
  5
22A
100
AcDbEntity
  8
RACCORDO
100
AcDbLine
 62
7
  6
CONTINUOUS
 10
-31.3930944646
 20
37.7141228191
 11
-30.6480878956
 21
38.0443003094
  0
LINE
  5
22B
100
AcDbEntity
  8
0
100
AcDbLine
 62
250
  6
CONTINUOUS
 10
-33.7201263773
 20
-3.6391814545
 11
-33.7201263773
 21
39.1846845633
  0
LINE
  5
22C
100
AcDbEntity
  8
0
100
AcDbLine
 62
250
  6
CONTINUOUS
 10
-33.2958623086
 20
-3.6391814545
 11
-33.2958623086
 21
39.1846845633
  0
LWPOLYLINE
  5
22D
100
AcDbEntity
  8
RACCORDO
100
AcDbPolyline
 62
7
  6
CONTINUOUS
 90
13
 70
0
 10
-29.5169924915
 20
9.403196303
 10
-29.5183465596
 20
9.4389452816
 10
-29.5224015465
 20
9.4736314352
 10
-29.5291295591
 20
9.5070090286
 10
-29.5385291197
 20
9.5390258655
 10
-29.5505957442
 20
9.5695950165
 10
-29.5652836335
 20
9.5985047159
 10
-29.5824635919
 20
9.6254658082
 10
-29.6019796186
 20
9.6502659795
 10
-29.6236698827
 20
9.6727330428
 10
-29.6472593498
 20
9.6926322658
 10
-29.6724659662
 20
9.7098189703
 10
-29.6786322399
 20
9.7134766446
  0
LWPOLYLINE
  5
22E
100
AcDbEntity
  8
RACCORDO
100
AcDbPolyline
 62
7
  6
CONTINUOUS
 90
15
 70
0
 10
-27.794295591
 20
5.4573078582
 10
-27.7947732188
 20
5.4787187197
 10
-27.7971724149
 20
5.5092149232
 10
-27.8015755801
 20
5.5387774669
 10
-27.8079745577
 20
5.567349867
 10
-27.8163622954
 20
5.5948840563
 10
-27.8267222297
 20
5.6212784372
 10
-27.8390005829
 20
5.6463759821
 10
-27.8531317436
 20
5.6700531206
 10
-27.869046361
 20
5.6921980977
 10
-27.8866129515
 20
5.7126454257
 10
-27.9056968482
 20
5.7312813388
 10
-27.9261498393
 20
5.7480070563
 10
-27.9477539545
 20
5.7627023491
 10
-27.9552984863
 20
5.7672087044
  0
LINE
  5
22F
100
AcDbEntity
  8
0
100
AcDbLine
 62
7
  6
CONTINUOUS
 10
-32.6594662055
 20
39.2056449371
 11
-32.6594662055
 21
-3.2717343205
  0
LINE
  5
230
100
AcDbEntity
  8
RACCORDO
100
AcDbLine
 62
250
  6
CONTINUOUS
 10
-32.6426674642
 20
-3.3323225384
 11
-32.6426674642
 21
1.923840156
  0
LINE
  5
231
100
AcDbEntity
  8
RACCORDO
100
AcDbLine
 62
250
  6
CONTINUOUS
 10
-32.6426674642
 20
2.8157370359
 11
-32.6426674642
 21
33.7661809509
  0
LINE
  5
232
100
AcDbEntity
  8
RACCORDO
100
AcDbLine
 62
250
  6
CONTINUOUS
 10
-32.6426674642
 20
34.6580778309
 11
-32.6426674642
 21
39.1959455544
  0
LINE
  5
233
100
AcDbEntity
  8
RACCORDO
100
AcDbLine
 62
7
  6
CONTINUOUS
 10
-32.4243214271
 20
34.7815411552
 11
-32.4243191641
 21
39.0698739825
  0
LINE
  5
234
100
AcDbEntity
  8
RACCORDO
100
AcDbLine
 62
7
  6
CONTINUOUS
 10
-32.4243214271
 20
2.9392003602
 11
-32.424321427
 21
33.8862069068
  0
LINE
  5
235
100
AcDbEntity
  8
RACCORDO
100
AcDbLine
 62
7
  6
CONTINUOUS
 10
-32.4243147568
 20
-3.2062491996
 11
-32.424321427
 21
2.0438661119
  0
LINE
  5
236
100
AcDbEntity
  8
RACCORDO
100
AcDbLine
 62
250
  6
CONTINUOUS
 10
-31.7966085977
 20
-1.79283892
 11
-31.7966085977
 21
-2.971256715
  0
LINE
  5
237
100
AcDbEntity
  8
RACCORDO
100
AcDbLine
 62
7
  6
CONTINUOUS
 10
-31.7404765578
 20
-1.7126215126
 11
-31.7404765578
 21
-2.891039307
  0
LINE
  5
238
100
AcDbEntity
  8
RACCORDO
100
AcDbLine
 62
250
  6
CONTINUOUS
 10
-31.4492265045
 20
38.5068677016
 11
-31.4492265045
 21
35.3565482283
  0
LINE
  5
239
100
AcDbEntity
  8
RACCORDO
100
AcDbLine
 62
250
  6
CONTINUOUS
 10
-31.4492265045
 20
2.6348818862
 11
-31.4492265045
 21
-0.8387101932
  0
LINE
  5
23A
100
AcDbEntity
  8
RACCORDO
100
AcDbLine
 62
250
  6
CONTINUOUS
 10
-31.4492265045
 20
3.5142074333
 11
-31.4492265045
 21
9.1102592205
  0
LINE
  5
23B
100
AcDbEntity
  8
RACCORDO
100
AcDbLine
 62
250
  6
CONTINUOUS
 10
-31.4492265045
 20
12.5517653581
 11
-31.4492265045
 21
34.4772226811
  0
LINE
  5
23C
100
AcDbEntity
  8
RACCORDO
100
AcDbLine
 62
7
  6
CONTINUOUS
 10
-31.3930944646
 20
38.4744577653
 11
-31.3930944646
 21
35.4367656353
  0
LINE
  5
23D
100
AcDbEntity
  8
RACCORDO
100
AcDbLine
 62
7
  6
CONTINUOUS
 10
-31.3930944646
 20
34.5574400885
 11
-31.3930944646
 21
12.6319827655
  0
LINE
  5
23E
100
AcDbEntity
  8
RACCORDO
100
AcDbLine
 62
7
  6
CONTINUOUS
 10
-31.3930944646
 20
9.1904765976
 11
-31.3930944646
 21
3.5944248404
  0
LINE
  5
23F
100
AcDbEntity
  8
RACCORDO
100
AcDbLine
 62
7
  6
CONTINUOUS
 10
-31.3930944646
 20
2.7150992936
 11
-31.3930944646
 21
-0.7584927822
  0
LINE
  5
240
100
AcDbEntity
  8
RACCORDO
100
AcDbLine
 62
7
  6
CONTINUOUS
 10
-30.1315996117
 20
13.0095449017
 11
-30.1315996117
 21
10.2281037786
  0
LINE
  5
241
100
AcDbEntity
  8
RACCORDO
100
AcDbLine
 62
250
  6
CONTINUOUS
 10
-29.5743423902
 20
9.0418015595
 11
-29.5743423902
 21
9.322296061
  0
LINE
  5
242
100
AcDbEntity
  8
RACCORDO
100
AcDbLine
 62
7
  6
CONTINUOUS
 10
-29.51699248
 20
9.1227408045
 11
-29.51699248
 21
9.4032353002
  0
LINE
  5
243
100
AcDbEntity
  8
RACCORDO
100
AcDbLine
 62
250
  6
CONTINUOUS
 10
-27.8504276263
 20
5.0966208926
 11
-27.8504276263
 21
5.3771153941
  0
LINE
  5
244
100
AcDbEntity
  8
RACCORDO
100
AcDbLine
 62
250
  6
CONTINUOUS
 10
-27.8504276263
 20
8.0478598011
 11
-27.8504276263
 21
8.3283543026
  0
LINE
  5
245
100
AcDbEntity
  8
RACCORDO
100
AcDbLine
 62
7
  6
CONTINUOUS
 10
-27.7942955863
 20
5.1768383
 11
-27.7942955863
 21
5.457332801
  0
LINE
  5
246
100
AcDbEntity
  8
RACCORDO
100
AcDbLine
 62
7
  6
CONTINUOUS
 10
-27.7942955863
 20
8.1280772085
 11
-27.7942955863
 21
8.4085717045
  0
LWPOLYLINE
  5
247
100
AcDbEntity
  8
RACCORDO
100
AcDbPolyline
 62
7
  6
CONTINUOUS
 90
23
 70
0
 10
-31.3930944476
 20
9.1904873768
 10
-31.3930555251
 20
9.1938247022
 10
-31.3925572506
 20
9.2033319572
 10
-31.3913609631
 20
9.2143905965
 10
-31.3893572291
 20
9.226753316
 10
-31.3864686948
 20
9.2402501568
 10
-31.3826314834
 20
9.2547306649
 10
-31.3778234617
 20
9.2699586207
 10
-31.3720291111
 20
9.2857614944
 10
-31.3652598642
 20
9.3019374167
 10
-31.3575807573
 20
9.3182147496
 10
-31.3490445482
 20
9.3344175016
 10
-31.3397498891
 20
9.3503236057
 10
-31.3298852446
 20
9.3656066895
 10
-31.3195782606
 20
9.3801055039
 10
-31.3089877962
 20
9.3936546878
 10
-31.2983987511
 20
9.405977907
 10
-31.2879719373
 20
9.4170061278
 10
-31.2778945524
 20
9.4266729931
 10
-31.2685054168
 20
9.4348151377
 10
-31.2600134923
 20
9.4414450353
 10
-31.2524988844
 20
9.4466997049
 10
-31.2507197371
 20
9.4478543188
  0
LWPOLYLINE
  5
248
100
AcDbEntity
  8
RACCORDO
100
AcDbPolyline
 62
7
  6
CONTINUOUS
 90
5
 70
0
 10
-31.3930944701
 20
34.5574672253
 10
-31.3929364439
 20
34.564716597
 10
-31.3924039421
 20
34.5721385105
 10
-31.3916155171
 20
34.5782010526
 10
-31.3912410688
 20
34.5801307661
  0
LWPOLYLINE
  5
249
100
AcDbEntity
  8
RACCORDO
100
AcDbPolyline
 62
7
  6
CONTINUOUS
 90
5
 70
0
 10
-31.3930944701
 20
2.7151264304
 10
-31.3929364439
 20
2.7223758021
 10
-31.3924039421
 20
2.7297977155
 10
-31.3916155172
 20
2.7358602576
 10
-31.3912410688
 20
2.7377899711
  0
LWPOLYLINE
  5
24A
100
AcDbEntity
  8
RACCORDO
100
AcDbPolyline
 62
7
  6
CONTINUOUS
 90
14
 70
0
 10
-31.7404765585
 20
-1.7126115033
 10
-31.73997202
 20
-1.6904230475
 10
-31.7380949697
 20
-1.6633533515
 10
-31.7347675237
 20
-1.6348757754
 10
-31.7299392374
 20
-1.6051662286
 10
-31.723582723
 20
-1.5744208495
 10
-31.7156895344
 20
-1.5428328878
 10
-31.7062623769
 20
-1.510585207
 10
-31.695316288
 20
-1.4778590726
 10
-31.6828752012
 20
-1.4448253564
 10
-31.6689842412
 20
-1.4116830827
 10
-31.6536913775
 20
-1.3786078844
 10
-31.6370362242
 20
-1.3457371929
 10
-31.6238283564
 20
-1.3215711519
  0
LWPOLYLINE
  5
24B
100
AcDbEntity
  8
RACCORDO
100
AcDbPolyline
 62
7
  6
CONTINUOUS
 90
11
 70
0
 10
-27.9196283497
 20
7.7591723364
 10
-27.8954568702
 20
7.7958541585
 10
-27.8752201877
 20
7.8308309755
 10
-27.8568693807
 20
7.8670640746
 10
-27.840614037
 20
7.9042141747
 10
-27.8265506639
 20
7.9421689609
 10
-27.8148141651
 20
7.9807668742
 10
-27.8055953604
 20
8.0196557705
 10
-27.7990191598
 20
8.0586839626
 10
-27.7952189259
 20
8.0977938352
 10
-27.7942956107
 20
8.1281342459
  0
LWPOLYLINE
  5
24C
100
AcDbEntity
  8
RACCORDO
100
AcDbPolyline
 62
7
  6
CONTINUOUS
 90
11
 70
0
 10
-29.6437937188
 20
8.7533332487
 10
-29.6202722235
 20
8.7885031969
 10
-29.6000109655
 20
8.8228897548
 10
-29.5815877597
 20
8.858531955
 10
-29.5652075038
 20
8.8951064858
 10
-29.5509652746
 20
8.9325084249
 10
-29.5389929793
 20
8.9705823303
 10
-29.5294811218
 20
9.0089845732
 10
-29.5225510556
 20
9.0475654792
 10
-29.5183327835
 20
9.0862736068
 10
-29.5169924814
 20
9.1227541836
  0
LINE
  5
24D
100
AcDbEntity
  8
RACCORDO
100
AcDbLine
 62
250
  6
CONTINUOUS
 10
-29.9419261302
 20
8.3985087849
 11
-29.6640110724
 21
8.7884723997
  0
LINE
  5
24E
100
AcDbEntity
  8
RACCORDO
100
AcDbLine
 62
7
  6
CONTINUOUS
 10
-29.8836379786
 20
8.4167896387
 11
-29.6437900359
 21
8.7533384083
  0
LINE
  5
24F
100
AcDbEntity
  8
0
100
AcDbLine
 62
7
  6
CONTINUOUS
 10
-52.1604604034
 20
-7.2655727066
 11
49.380073375
 21
-65.8938043085
  0
LINE
  5
250
100
AcDbEntity
  8
0
100
AcDbLine
 62
250
  6
CONTINUOUS
 10
-52.2640017139
 20
-7.036704276
 11
49.2765320645
 21
-65.6649358779
  0
LWPOLYLINE
  5
251
100
AcDbEntity
  8
RACCORDO
100
AcDbPolyline
 62
7
  6
CONTINUOUS
 90
13
 70
0
 10
-27.7942955989
 20
8.4085306793
 10
-27.7956825543
 20
8.444792928
 10
-27.7997672763
 20
8.4795123285
 10
-27.8065213312
 20
8.5128994425
 10
-27.8159422848
 20
8.5449052851
 10
-27.8280263432
 20
8.5754479809
 10
-27.8427282876
 20
8.6043176123
 10
-27.8599157367
 20
8.6312224013
 10
-27.8794314499
 20
8.6559519763
 10
-27.9011127291
 20
8.6783359928
 10
-27.9246778059
 20
8.6981375453
 10
-27.9498406026
 20
8.715214921
 10
-27.9553969318
 20
8.7185021726
  0
LWPOLYLINE
  5
252
100
AcDbEntity
  8
RACCORDO
100
AcDbPolyline
 62
7
  6
CONTINUOUS
 90
11
 70
0
 10
-31.4799379194
 20
-1.0664421343
 10
-31.4659389957
 20
-1.0403951143
 10
-31.4514411393
 20
-1.0103757352
 10
-31.4383101729
 20
-0.979611779
 10
-31.426675667
 20
-0.9482943264
 10
-31.4165999741
 20
-0.9164724292
 10
-31.4081759178
 20
-0.8842333838
 10
-31.401519287
 20
-0.8517675754
 10
-31.3967224504
 20
-0.819160822
 10
-31.3938820237
 20
-0.7864501993
 10
-31.3930944686
 20
-0.7584696727
  0
LINE
  5
253
100
AcDbEntity
  8
RACCORDO
100
AcDbLine
 62
250
  6
CONTINUOUS
 10
-31.5102740202
 20
-1.0484101395
 11
-31.6541643945
 21
-1.3035390454
  0
LINE
  5
254
100
AcDbEntity
  8
RACCORDO
100
AcDbLine
 62
7
  6
CONTINUOUS
 10
-31.479937961
 20
-1.0664422089
 11
-31.6238283354
 21
-1.3215711148
  0
LINE
  5
255
100
AcDbEntity
  8
RACCORDO
100
AcDbLine
 62
250
  6
CONTINUOUS
 10
-28.4772150132
 20
7.029831205
 11
-27.9393067723
 21
7.794074773
  0
LINE
  5
256
100
AcDbEntity
  8
RACCORDO
100
AcDbLine
 62
7
  6
CONTINUOUS
 10
-28.4575324884
 20
6.9949345868
 11
-27.9196242479
 21
7.7591781543
  0
LINE
  5
257
100
AcDbEntity
  8
RACCORDO
100
AcDbLine
 62
7
  6
CONTINUOUS
 10
-29.2710143965
 20
5.2940362864
 11
-29.8769630242
 21
4.5206092323
  0
LWPOLYLINE
  5
258
100
AcDbEntity
  8
RACCORDO
100
AcDbPolyline
 62
7
  6
CONTINUOUS
 90
17
 70
0
 10
-28.0273900044
 20
4.6882595543
 10
-28.0072185408
 20
4.706400695
 10
-27.9824167129
 20
4.7311055712
 10
-27.9586895592
 20
4.7574920257
 10
-27.9361824124
 20
4.7853774089
 10
-27.914940935
 20
4.8146752559
 10
-27.8950414192
 20
4.8452895839
 10
-27.8766573073
 20
4.876957678
 10
-27.8598548832
 20
4.9095744138
 10
-27.8447213436
 20
4.9430304245
 10
-27.8314084822
 20
4.9770295597
 10
-27.8199859602
 20
5.0114654495
 10
-27.8105298321
 20
5.0462457925
 10
-27.8031530488
 20
5.081139551
 10
-27.7979421758
 20
5.1160359174
 10
-27.7949768758
 20
5.1508797765
 10
-27.7942956013
 20
5.176883057
  0
LINE
  5
259
100
AcDbEntity
  8
RACCORDO
100
AcDbLine
 62
250
  6
CONTINUOUS
 10
-31.3930944646
 20
1.8588945494
 11
-28.0137445345
 21
4.7598383485
  0
LINE
  5
25A
100
AcDbEntity
  8
RACCORDO
100
AcDbLine
 62
250
  6
CONTINUOUS
 10
-30.1315996117
 20
10.2281037786
 11
-31.2145454614
 21
9.5361660551
  0
LINE
  5
25B
100
AcDbEntity
  8
RACCORDO
100
AcDbLine
 62
7
  6
CONTINUOUS
 10
-30.1704548781
 20
10.1380790547
 11
-31.2507294156
 21
9.4478481402
  0
LINE
  5
25C
100
AcDbEntity
  8
RACCORDO
100
AcDbLine
 62
250
  6
CONTINUOUS
 10
-31.3534778873
 20
12.6527528631
 11
-30.2729563603
 21
13.2544565872
  0
LINE
  5
25D
100
AcDbEntity
  8
RACCORDO
100
AcDbLine
 62
250
  6
CONTINUOUS
 10
-31.2145454614
 20
12.4064911591
 11
-30.1315996117
 21
13.0095449017
  0
LINE
  5
25E
100
AcDbEntity
  8
RACCORDO
100
AcDbLine
 62
7
  6
CONTINUOUS
 10
-30.9551948152
 20
13.6045349934
 11
-31.3930944646
 21
13.3858210453
  0
LINE
  5
25F
100
AcDbEntity
  8
RACCORDO
100
AcDbLine
 62
250
  6
CONTINUOUS
 10
-30.8587866865
 20
13.5927076754
 11
-31.3930944646
 21
13.3258415936
  0
LWPOLYLINE
  5
260
100
AcDbEntity
  8
RACCORDO
100
AcDbPolyline
 62
7
  6
CONTINUOUS
 90
13
 70
0
 10
-31.3395688971
 20
3.4201011112
 10
-31.3474737538
 20
3.4346930834
 10
-31.3560605713
 20
3.452041404
 10
-31.3638208724
 20
3.4694489453
 10
-31.370698225
 20
3.4867396828
 10
-31.3766357401
 20
3.503689258
 10
-31.3816287259
 20
3.520163303
 10
-31.3856749895
 20
3.5359907809
 10
-31.3887704071
 20
3.5508931451
 10
-31.3909731659
 20
3.5647425813
 10
-31.3923557365
 20
3.5774148519
 10
-31.3930039541
 20
3.5886588774
 10
-31.393094465
 20
3.5944169144
  0
LWPOLYLINE
  5
261
100
AcDbEntity
  8
RACCORDO
100
AcDbPolyline
 62
7
  6
CONTINUOUS
 90
9
 70
0
 10
-31.3927889956
 20
12.6169528586
 10
-31.3923275508
 20
12.6160241292
 10
-31.391499211
 20
12.6141262285
 10
-31.3913513603
 20
12.6137274889
 10
-31.391639865
 20
12.6148804263
 10
-31.3921364439
 20
12.6175545308
 10
-31.3926532301
 20
12.6217629526
 10
-31.3930143276
 20
12.6274406
 10
-31.3930944663
 20
12.6319982061
  0
LINE
  5
262
100
AcDbEntity
  8
RACCORDO
100
AcDbLine
 62
7
  6
CONTINUOUS
 10
-31.3930944646
 20
1.7990294031
 11
-28.0273414403
 21
4.6883011763
  0
LINE
  5
263
100
AcDbEntity
  8
RACCORDO
100
AcDbLine
 62
7
  6
CONTINUOUS
 10
-30.1336601936
 20
4.2647281643
 11
-31.3160316248
 21
3.374855212
  0
LWPOLYLINE
  5
264
100
AcDbEntity
  8
RACCORDO
100
AcDbPolyline
 62
7
  6
CONTINUOUS
 90
12
 70
0
 10
-28.8311412448
 20
6.633337384
 10
-28.8050888485
 20
6.649752825
 10
-28.76473213
 20
6.6774652649
 10
-28.7251997534
 20
6.7073676134
 10
-28.6865711049
 20
6.7393268223
 10
-28.6489142741
 20
6.7732208598
 10
-28.6122922
 20
6.8089223656
 10
-28.5767653264
 20
6.8463120448
 10
-28.5423843788
 20
6.885285902
 10
-28.5092241025
 20
6.9256998433
 10
-28.477366036
 20
6.9674016599
 10
-28.4575293171
 20
6.9949390984
  0
LINE
  5
265
100
AcDbEntity
  8
RACCORDO
100
AcDbLine
 62
250
  6
CONTINUOUS
 10
-31.4084835892
 20
2.7260323419
 11
-31.4095756524
 21
2.7253630826
  0
LINE
  5
266
100
AcDbEntity
  8
RACCORDO
100
AcDbLine
 62
250
  6
CONTINUOUS
 10
-29.2710143965
 20
6.4321949275
 11
-28.7911649987
 21
6.7240190968
  0
LINE
  5
267
100
AcDbEntity
  8
RACCORDO
100
AcDbLine
 62
7
  6
CONTINUOUS
 10
-29.1457233483
 20
6.4420218031
 11
-28.8311106403
 21
6.6333559853
  0
LINE
  5
268
100
AcDbEntity
  8
RACCORDO
100
AcDbLine
 62
250
  6
CONTINUOUS
 10
-32.3858848303
 20
2.1335772993
 11
-31.4095756527
 21
2.7253630824
  0
LINE
  5
269
100
AcDbEntity
  8
RACCORDO
100
AcDbLine
 62
250
  6
CONTINUOUS
 10
-28.9337988403
 20
5.8202359719
 11
-29.1753731616
 21
5.6782756389
  0
LINE
  5
26A
100
AcDbEntity
  8
RACCORDO
100
AcDbLine
 62
250
  6
CONTINUOUS
 10
-28.7911649987
 20
5.5760181623
 11
-29.2710143965
 21
5.2940362864
  0
LINE
  5
26B
100
AcDbEntity
  8
RACCORDO
100
AcDbLine
 62
250
  6
CONTINUOUS
 10
-31.4095756527
 20
3.3779384273
 11
-32.3858848304
 21
2.8051035548
  0
LINE
  5
26C
100
AcDbEntity
  8
RACCORDO
100
AcDbLine
 62
250
  6
CONTINUOUS
 10
-32.3858848304
 20
2.8051035548
 11
-32.6039746415
 21
2.6811787997
  0
LINE
  5
26D
100
AcDbEntity
  8
RACCORDO
100
AcDbLine
 62
250
  6
CONTINUOUS
 10
-32.6039746415
 20
2.0137168905
 11
-32.3858848303
 21
2.1335772993
  0
LINE
  5
26E
100
AcDbEntity
  8
RACCORDO
100
AcDbLine
 62
7
  6
CONTINUOUS
 10
-31.3930944646
 20
5.8717820242
 11
-30.1336601936
 21
6.4299473668
  0
LINE
  5
26F
100
AcDbEntity
  8
RACCORDO
100
AcDbLine
 62
7
  6
CONTINUOUS
 10
-31.3930944646
 20
8.305084718
 11
-31.3296634067
 21
8.3326265566
  0
LINE
  5
270
100
AcDbEntity
  8
RACCORDO
100
AcDbLine
 62
250
  6
CONTINUOUS
 10
-28.1270033108
 20
8.7271558619
 11
-31.3930944646
 21
7.6252683114
  0
LINE
  5
271
100
AcDbEntity
  8
RACCORDO
100
AcDbLine
 62
250
  6
CONTINUOUS
 10
-28.0137445345
 20
8.4698417611
 11
-31.3930944646
 21
7.3297438761
  0
LINE
  5
272
100
AcDbEntity
  8
RACCORDO
100
AcDbLine
 62
250
  6
CONTINUOUS
 10
-29.8511509903
 20
9.7226571233
 11
-31.3911814435
 21
9.2154982034
  0
LINE
  5
273
100
AcDbEntity
  8
RACCORDO
100
AcDbLine
 62
250
  6
CONTINUOUS
 10
-29.7391100842
 20
9.4646211851
 11
-31.3930944646
 21
8.9199352471
  0
LINE
  5
274
100
AcDbEntity
  8
RACCORDO
100
AcDbLine
 62
7
  6
CONTINUOUS
 10
-31.3930944646
 20
7.9433803332
 11
-28.4401941478
 21
8.8694954622
  0
LINE
  5
275
100
AcDbEntity
  8
RACCORDO
100
AcDbLine
 62
250
  6
CONTINUOUS
 10
-31.3930944646
 20
7.9012714562
 11
-28.3497337073
 21
8.8557576013
  0
LINE
  5
276
100
AcDbEntity
  8
RACCORDO
100
AcDbLine
 62
7
  6
CONTINUOUS
 10
-30.9962357761
 20
9.6104543772
 11
-30.1630094746
 21
9.8654094907
  0
LINE
  5
277
100
AcDbEntity
  8
RACCORDO
100
AcDbLine
 62
250
  6
CONTINUOUS
 10
-31.120644613
 20
9.5309645603
 11
-30.0738813868
 21
9.8512588628
  0
LWPOLYLINE
  5
278
100
AcDbEntity
  8
RACCORDO
100
AcDbPolyline
 62
7
  6
CONTINUOUS
 90
10
 70
0
 10
-29.721143712
 20
-4.2412652086
 10
-29.7290986761
 20
-4.2367508824
 10
-29.7618833553
 20
-4.2197597413
 10
-29.7959232111
 20
-4.2045031023
 10
-29.8310681287
 20
-4.1909250134
 10
-29.867014812
 20
-4.1790341082
 10
-29.9035758045
 20
-4.1688055797
 10
-29.9406199337
 20
-4.1602133921
 10
-29.9777938263
 20
-4.1532913202
 10
-30.0169894666
 20
-4.1477768575
  0
LINE
  5
279
100
AcDbEntity
  8
0
100
AcDbLine
 62
250
  6
CONTINUOUS
 10
30.0962606248
 20
-41.2207867514
 11
-33.0837302742
 21
-4.7414518376
  0
LINE
  5
27A
100
AcDbEntity
  8
0
100
AcDbLine
 62
250
  6
CONTINUOUS
 10
30.3083926592
 20
-40.8533632904
 11
-32.8715982398
 21
-4.3740283765
  0
LINE
  5
27B
100
AcDbEntity
  8
0
100
AcDbLine
 62
7
  6
CONTINUOUS
 10
-32.2352021368
 20
-4.0065812425
 11
30.6447887622
 21
-40.3126999163
  0
LINE
  5
27C
100
AcDbEntity
  8
RACCORDO
100
AcDbLine
 62
7
  6
CONTINUOUS
 10
-31.9309937838
 20
-4.0625360363
 11
30.6447887622
 21
-40.1930086197
  0
LINE
  5
27D
100
AcDbEntity
  8
RACCORDO
100
AcDbLine
 62
250
  6
CONTINUOUS
 10
-31.2780032759
 20
-3.8282365499
 11
-31.0629839868
 21
-3.9523859925
  0
LINE
  5
27E
100
AcDbEntity
  8
RACCORDO
100
AcDbLine
 62
7
  6
CONTINUOUS
 10
-31.2062626264
 20
-3.8312895535
 11
-30.9911740384
 21
-3.9554789532
  0
LINE
  5
27F
100
AcDbEntity
  8
RACCORDO
100
AcDbLine
 62
250
  6
CONTINUOUS
 10
-29.793184608
 20
-4.2380382844
 11
30.6447887622
 21
-39.1341666427
  0
LINE
  5
280
100
AcDbEntity
  8
RACCORDO
100
AcDbLine
 62
7
  6
CONTINUOUS
 10
-29.7213746596
 20
-4.241131245
 11
30.6447887622
 21
-39.095797439
  0
LWPOLYLINE
  5
281
100
AcDbEntity
  8
RACCORDO
100
AcDbPolyline
 62
7
  6
CONTINUOUS
 90
26
 70
0
 10
-31.2062626256
 20
-3.831289554
 10
-31.2207671211
 20
-3.8226553418
 10
-31.2519493829
 20
-3.8023832714
 10
-31.2839750921
 20
-3.779160128
 10
-31.3165566229
 20
-3.7530226296
 10
-31.3493660505
 20
-3.7240854992
 10
-31.3821735069
 20
-3.6924326162
 10
-31.4147479924
 20
-3.6581710247
 10
-31.4468010064
 20
-3.6215005863
 10
-31.478108183
 20
-3.5825969081
 10
-31.508458902
 20
-3.5416436598
 10
-31.5376130624
 20
-3.498896513
 10
-31.5653879495
 20
-3.4545750627
 10
-31.5915999272
 20
-3.4089267835
 10
-31.6160447667
 20
-3.3622797343
 10
-31.6385881186
 20
-3.3148874271
 10
-31.6590952006
 20
-3.267034188
 10
-31.6774112698
 20
-3.2191194091
 10
-31.6934652338
 20
-3.1714150278
 10
-31.7071946153
 20
-3.1242080542
 10
-31.7185260011
 20
-3.0779296809
 10
-31.7274665358
 20
-3.0328377239
 10
-31.7340396035
 20
-2.98917749
 10
-31.738277536
 20
-2.9473718717
 10
-31.7402754567
 20
-2.9077260922
 10
-31.7404766145
 20
-2.8911262589
  0
LINE
  5
282
100
AcDbEntity
  8
0
100
AcDbLine
 62
250
  6
CONTINUOUS
 10
-33.2958623086
 20
-3.6391814545
 11
-32.6594662055
 21
-3.2717343205
  0
LINE
  5
283
100
AcDbEntity
  8
RACCORDO
100
AcDbLine
 62
250
  6
CONTINUOUS
 10
-32.424314524
 20
-3.2062487054
 11
-32.6426674642
 21
-3.3323225384
  0
LINE
  5
284
100
AcDbEntity
  8
0
100
AcDbLine
 62
250
  6
CONTINUOUS
 10
-32.8715982398
 20
-4.3740283765
 11
-32.2352021368
 21
-4.0065812425
  0
LINE
  5
285
100
AcDbEntity
  8
RACCORDO
100
AcDbLine
 62
250
  6
CONTINUOUS
 10
-31.9294220671
 20
-4.0634435259
 11
-32.0330712644
 21
-4.123289075
  0
LINE
  5
286
100
AcDbEntity
  8
RACCORDO
100
AcDbLine
 62
250
  6
CONTINUOUS
 10
-31.3930944646
 20
4.9919097279
 11
-30.1336601936
 21
4.2647281643
  0
LINE
  5
287
100
AcDbEntity
  8
RACCORDO
100
AcDbLine
 62
250
  6
CONTINUOUS
 10
-31.3930944646
 20
5.3960045244
 11
-29.8769630242
 21
4.5206092323
  0
LWPOLYLINE
  5
288
100
AcDbEntity
  8
RACCORDO
100
AcDbPolyline
 62
7
  6
CONTINUOUS
 90
13
 70
0
 10
-31.3395688971
 20
35.2624419061
 10
-31.3474737538
 20
35.2770338783
 10
-31.3560605713
 20
35.2943821989
 10
-31.3638208724
 20
35.3117897402
 10
-31.370698225
 20
35.3290804778
 10
-31.3766357401
 20
35.3460300529
 10
-31.3816287259
 20
35.3625040979
 10
-31.3856749895
 20
35.3783315758
 10
-31.3887704071
 20
35.39323394
 10
-31.3909731659
 20
35.4070833762
 10
-31.3923557365
 20
35.4197556468
 10
-31.3930039541
 20
35.4309996723
 10
-31.393094465
 20
35.4367577093
  0
LINE
  5
289
100
AcDbEntity
  8
RACCORDO
100
AcDbLine
 62
250
  6
CONTINUOUS
 10
-31.7966085977
 20
-2.971256715
 11
-32.3358495512
 21
-3.1647417304
  0
LINE
  5
28A
100
AcDbEntity
  8
RACCORDO
100
AcDbLine
 62
250
  6
CONTINUOUS
 10
-31.2780032759
 20
-3.8282365499
 11
-31.9309937838
 21
-4.0625360363
  0
LINE
  5
28B
100
AcDbEntity
  8
RACCORDO
100
AcDbLine
 62
250
  6
CONTINUOUS
 10
-30.56800924
 20
-4.1048223138
 11
-30.0121255029
 21
-4.170116115
  0
LINE
  5
28C
100
AcDbEntity
  8
RACCORDO
100
AcDbLine
 62
7
  6
CONTINUOUS
 10
-30.5728726303
 20
-4.0824831236
 11
-30.0169889673
 21
-4.1477769161
  0
LWPOLYLINE
  5
28D
100
AcDbEntity
  8
RACCORDO
100
AcDbPolyline
 62
7
  6
CONTINUOUS
 90
15
 70
0
 10
-30.5728741495
 20
-4.082482946
 10
-30.6081369265
 20
-4.0778717595
 10
-30.644961112
 20
-4.0720502257
 10
-30.681175837
 20
-4.0653057965
 10
-30.7166685184
 20
-4.0576866382
 10
-30.7512918556
 20
-4.0492511184
 10
-30.7848832612
 20
-4.0400686665
 10
-30.8173275654
 20
-4.030202948
 10
-30.8484908703
 20
-4.0197287121
 10
-30.878236305
 20
-4.008730537
 10
-30.9064422305
 20
-3.9972970082
 10
-30.9330104912
 20
-3.9855165323
 10
-30.9578388218
 20
-3.9734889502
 10
-30.9807919625
 20
-3.9613454273
 10
-30.9911495154
 20
-3.9554931193
  0
LWPOLYLINE
  5
28E
100
AcDbEntity
  8
RACCORDO
100
AcDbPolyline
 62
7
  6
CONTINUOUS
 90
10
 70
0
 10
-28.1748798341
 20
8.8452280282
 10
-28.1962722067
 20
8.8565109173
 10
-28.224388906
 20
8.8682374048
 10
-28.2540451876
 20
8.8772298094
 10
-28.2849515127
 20
8.8832943637
 10
-28.3167146942
 20
8.8862944262
 10
-28.3490893178
 20
8.8861743448
 10
-28.3818601745
 20
8.8829139205
 10
-28.4147398262
 20
8.8765462188
 10
-28.4401751934
 20
8.8695014046
  0
LWPOLYLINE
  5
28F
100
AcDbEntity
  8
RACCORDO
100
AcDbPolyline
 62
7
  6
CONTINUOUS
 90
10
 70
0
 10
-29.8981191638
 20
9.840204831
 10
-29.9180232817
 20
9.8507776161
 10
-29.9462082114
 20
9.8627295902
 10
-29.9759449315
 20
9.8719440075
 10
-30.006945406
 20
9.8782282657
 10
-30.0388210734
 20
9.881446354
 10
-30.0713262822
 20
9.8815423389
 10
-30.1042458865
 20
9.878495432
 10
-30.1372956316
 20
9.8723368604
 10
-30.1629922592
 20
9.8654147565
  0
LWPOLYLINE
  5
290
100
AcDbEntity
  8
RACCORDO
100
AcDbPolyline
 62
7
  6
CONTINUOUS
 90
5
 70
0
 10
-28.1751400064
 20
5.8941415319
 10
-28.180415981
 20
5.8971217615
 10
-28.2050044175
 20
5.9092679198
 10
-28.2306858437
 20
5.9191804603
 10
-28.2583215682
 20
5.9270244384
  0
LINE
  5
291
100
AcDbEntity
  8
RACCORDO
100
AcDbLine
 62
7
  6
CONTINUOUS
 10
-30.3280298778
 20
6.3438051807
 11
-29.1753731616
 21
5.6782756389
  0
LINE
  5
292
100
AcDbEntity
  8
RACCORDO
100
AcDbLine
 62
250
  6
CONTINUOUS
 10
-28.9337988403
 20
5.8202359719
 11
-30.0454825162
 21
6.4621081938
  0
LINE
  5
293
100
AcDbEntity
  8
RACCORDO
100
AcDbLine
 62
250
  6
CONTINUOUS
 10
-28.5399670158
 20
5.9064442477
 11
-29.4796552634
 21
6.4490084648
  0
LINE
  5
294
100
AcDbEntity
  8
RACCORDO
100
AcDbLine
 62
250
  6
CONTINUOUS
 10
-28.7105892973
 20
6.0270863326
 11
-29.4351165082
 21
6.4454192637
  0
LINE
  5
295
100
AcDbEntity
  8
RACCORDO
100
AcDbLine
 62
7
  6
CONTINUOUS
 10
-28.71608974
 20
6.0337727131
 11
-29.4280503175
 21
6.4448498275
  0
LINE
  5
296
100
AcDbEntity
  8
RACCORDO
100
AcDbLine
 62
250
  6
CONTINUOUS
 10
-28.0020587749
 20
5.7854337478
 11
-28.2228056239
 21
5.9128902118
  0
LINE
  5
297
100
AcDbEntity
  8
RACCORDO
100
AcDbLine
 62
7
  6
CONTINUOUS
 10
-27.9553313875
 20
5.7672301743
 11
-28.1753360472
 21
5.8942581075
  0
LINE
  5
298
100
AcDbEntity
  8
RACCORDO
100
AcDbLine
 62
250
  6
CONTINUOUS
 10
-31.3296634067
 20
8.3326265566
 11
-30.9151341303
 21
8.0932825477
  0
LINE
  5
299
100
AcDbEntity
  8
RACCORDO
100
AcDbLine
 62
250
  6
CONTINUOUS
 10
-31.0706859308
 20
8.3823884857
 11
-30.69146567
 21
8.1634314599
  0
LINE
  5
29A
100
AcDbEntity
  8
RACCORDO
100
AcDbLine
 62
250
  6
CONTINUOUS
 10
-28.1270033108
 20
8.7271558619
 11
-28.3497337073
 21
8.8557576013
  0
LINE
  5
29B
100
AcDbEntity
  8
RACCORDO
100
AcDbLine
 62
250
  6
CONTINUOUS
 10
-29.8511509903
 20
9.7226571233
 11
-30.0738813868
 21
9.8512588628
  0
LINE
  5
29C
100
AcDbEntity
  8
RACCORDO
100
AcDbLine
 62
7
  6
CONTINUOUS
 10
-27.9553309911
 20
8.718468854
 11
-28.1753361811
 21
8.8454970934
  0
LINE
  5
29D
100
AcDbEntity
  8
RACCORDO
100
AcDbLine
 62
7
  6
CONTINUOUS
 10
-29.6785702012
 20
9.7134455766
 11
-29.8985753167
 21
9.840473773
  0
LINE
  5
29E
100
AcDbEntity
  8
RACCORDO
100
AcDbLine
 62
250
  6
CONTINUOUS
 10
-27.9393067723
 20
5.5246183438
 11
-28.4772150132
 21
5.6456288437
  0
LINE
  5
29F
100
AcDbEntity
  8
RACCORDO
100
AcDbLine
 62
250
  6
CONTINUOUS
 10
-28.0020587749
 20
5.7854337478
 11
-28.5399670158
 21
5.9064442477
  0
LINE
  5
2A0
100
AcDbEntity
  8
RACCORDO
100
AcDbLine
 62
250
  6
CONTINUOUS
 10
-28.2228056239
 20
5.9128902118
 11
-28.7105892973
 21
6.0270863326
  0
LINE
  5
2A1
100
AcDbEntity
  8
RACCORDO
100
AcDbLine
 62
7
  6
CONTINUOUS
 10
-28.258331825
 20
5.9270268401
 11
-28.7186941261
 21
6.0348032825
  0
LINE
  5
2A2
100
AcDbEntity
  8
RACCORDO
100
AcDbLine
 62
250
  6
CONTINUOUS
 10
-31.3930944646
 20
12.6756269783
 11
-31.3534778873
 21
12.6527528631
  0
LINE
  5
2A3
100
AcDbEntity
  8
RACCORDO
100
AcDbLine
 62
7
  6
CONTINUOUS
 10
-30.8587866865
 20
13.5927076754
 11
-30.2729563603
 21
13.2544565872
  0
LINE
  5
2A4
100
AcDbEntity
  8
RACCORDO
100
AcDbLine
 62
7
  6
CONTINUOUS
 10
-29.8769630242
 20
6.4810259163
 11
-29.2710143965
 21
6.4321949275
  0
LINE
  5
2A5
100
AcDbEntity
  8
RACCORDO
100
AcDbLine
 62
7
  6
CONTINUOUS
 10
-31.0706859308
 20
8.3823884857
 11
-30.2229676417
 21
8.3103660209
  0
LINE
  5
2A6
100
AcDbEntity
  8
RACCORDO
100
AcDbLine
 62
250
  6
CONTINUOUS
 10
-31.3930944646
 20
36.8342505228
 11
-30.1336601936
 21
36.1070689592
  0
LINE
  5
2A7
100
AcDbEntity
  8
RACCORDO
100
AcDbLine
 62
250
  6
CONTINUOUS
 10
-31.3930944646
 20
37.2383453193
 11
-29.8769630242
 21
36.3629500272
  0
LINE
  5
2A8
100
AcDbEntity
  8
0
100
AcDbLine
 62
7
  6
CONTINUOUS
 10
-33.0216054879
 20
39.4147396201
 11
30.1583854111
 21
2.9354047063
  0
LINE
  5
2A9
100
AcDbEntity
  8
0
100
AcDbLine
 62
250
  6
CONTINUOUS
 10
-33.0837302742
 20
39.5520606784
 11
30.0962606248
 21
3.0727257646
  0
LINE
  5
2AA
100
AcDbEntity
  8
0
100
AcDbLine
 62
250
  6
CONTINUOUS
 10
49.6300854551
 20
5.9803506381
 11
51.8928271549
 21
7.2868293368
  0
LINE
  5
2AB
100
AcDbEntity
  8
RACCORDO
100
AcDbLine
 62
250
  6
CONTINUOUS
 10
52.3530928793
 20
6.8992676479
 11
52.5666761059
 21
7.022588567
  0
LINE
  5
2AC
100
AcDbEntity
  8
RACCORDO
100
AcDbLine
 62
250
  6
CONTINUOUS
 10
52.84793271
 20
6.0422600565
 11
53.0614812373
 21
6.1655609406
  0
LINE
  5
2AD
100
AcDbEntity
  8
0
100
AcDbLine
 62
250
  6
CONTINUOUS
 10
50.6907456269
 20
4.143233333
 11
52.9534873267
 21
5.4497120316
  0
LINE
  5
2AE
100
AcDbEntity
  8
0
100
AcDbLine
 62
7
  6
CONTINUOUS
 10
30.6447887622
 20
2.0929377595
 11
30.6447887622
 21
-40.7309282583
  0
LINE
  5
2AF
100
AcDbEntity
  8
0
100
AcDbLine
 62
250
  6
CONTINUOUS
 10
30.7326567279
 20
1.9704553815
 11
30.7326567279
 21
-40.8534106363
  0
LWPOLYLINE
  5
2B0
100
AcDbEntity
  8
RACCORDO
100
AcDbPolyline
 62
7
  6
CONTINUOUS
 90
12
 70
0
 10
-47.8136875379
 20
65.0443832494
 10
-47.8473710438
 20
65.0625378936
 10
-47.8883708819
 20
65.0812186307
 10
-47.9292833975
 20
65.0961815666
 10
-47.9700003858
 20
65.1074304863
 10
-48.0103669201
 20
65.1149741718
 10
-48.0501105112
 20
65.1188194062
 10
-48.0890649965
 20
65.1190147895
 10
-48.1270229774
 20
65.1156341695
 10
-48.1635685652
 20
65.1088181149
 10
-48.1984125108
 20
65.0987698388
 10
-48.2194898054
 20
65.0904264476
  0
LINE
  5
2B1
100
AcDbEntity
  8
0
100
AcDbLine
 62
250
  6
CONTINUOUS
 10
49.2765320645
 20
5.3679782031
 11
-52.2640017139
 21
63.9962098049
  0
LINE
  5
2B2
100
AcDbEntity
  8
0
100
AcDbLine
 62
250
  6
CONTINUOUS
 10
49.6300854551
 20
5.9803506381
 11
-51.9104483233
 21
64.60858224
  0
LINE
  5
2B3
100
AcDbEntity
  8
0
100
AcDbLine
 62
7
  6
CONTINUOUS
 10
51.8928271549
 20
7.2868293368
 11
-49.6477066235
 21
65.9150609386
  0
LINE
  5
2B4
100
AcDbEntity
  8
RACCORDO
100
AcDbLine
 62
250
  6
CONTINUOUS
 10
-47.9099885594
 20
65.0365554764
 11
52.5666761059
 21
7.022588567
  0
LINE
  5
2B5
100
AcDbEntity
  8
RACCORDO
100
AcDbLine
 62
7
  6
CONTINUOUS
 10
-47.8136857069
 20
65.0443821922
 11
52.6629789585
 21
7.0304152827
  0
LINE
  5
2B6
100
AcDbEntity
  8
0
100
AcDbLine
 62
250
  6
CONTINUOUS
 10
49.9836388457
 20
-65.2567401944
 11
49.9836388457
 21
4.143233333
  0
LINE
  5
2B7
100
AcDbEntity
  8
0
100
AcDbLine
 62
250
  6
CONTINUOUS
 10
50.6907456269
 20
-65.2567401944
 11
50.6907456269
 21
4.143233333
  0
LINE
  5
2B8
100
AcDbEntity
  8
0
100
AcDbLine
 62
250
  6
CONTINUOUS
 10
30.3083926592
 20
-40.8533632904
 11
30.6447887622
 21
-40.6591323965
  0
LWPOLYLINE
  5
2B9
100
AcDbEntity
  8
RACCORDO
100
AcDbPolyline
 62
7
  6
CONTINUOUS
 90
23
 70
0
 10
53.1164062238
 20
6.2449141419
 10
53.1161477001
 20
6.2637287401
 10
53.1136140142
 20
6.3072966039
 10
53.1084775662
 20
6.3511389706
 10
53.1008348391
 20
6.3951325137
 10
53.0907736652
 20
6.439169053
 10
53.0783802411
 20
6.4831296076
 10
53.0637305424
 20
6.5268780388
 10
53.0469213484
 20
6.5702336166
 10
53.0280326799
 20
6.6130486163
 10
53.0071422503
 20
6.6551738384
 10
52.9843662702
 20
6.6964014325
 10
52.9597855665
 20
6.7365829843
 10
52.9334894638
 20
6.7755665009
 10
52.9056074954
 20
6.8131395503
 10
52.8762262281
 20
6.8491584729
 10
52.845436763
 20
6.8834799806
 10
52.8133597684
 20
6.9159171206
 10
52.7800762518
 20
6.946336059
 10
52.7456468717
 20
6.9746083947
 10
52.7101279901
 20
7.0005989718
 10
52.6735795841
 20
7.0241644859
 10
52.6628692098
 20
7.0304785113
  0
LINE
  5
2BA
100
AcDbEntity
  8
0
100
AcDbLine
 62
7
  6
CONTINUOUS
 10
52.9534873267
 20
-63.9502614958
 11
52.9534873267
 21
5.4497120316
  0
LINE
  5
2BB
100
AcDbEntity
  8
RACCORDO
100
AcDbLine
 62
250
  6
CONTINUOUS
 10
53.0614812373
 20
6.1655609406
 11
53.0614812373
 21
-62.0060019248
  0
LINE
  5
2BC
100
AcDbEntity
  8
RACCORDO
100
AcDbLine
 62
7
  6
CONTINUOUS
 10
53.1164063631
 20
6.2450504016
 11
53.1164063631
 21
-61.9265124619
  0
LWPOLYLINE
  5
2BD
100
AcDbEntity
  8
RACCORDO
100
AcDbPolyline
 62
7
  6
CONTINUOUS
 90
12
 70
0
 10
52.9534873267
 20
-62.3008561271
 10
52.97118541
 20
-62.2868214529
 10
52.9973171261
 20
-62.2616548337
 10
53.0215062271
 20
-62.2333905135
 10
53.0434246618
 20
-62.2021694928
 10
53.0627432191
 20
-62.1682848901
 10
53.0792940005
 20
-62.1318817672
 10
53.0929438657
 20
-62.0930766701
 10
53.1035520475
 20
-62.0521074483
 10
53.1110331942
 20
-62.0091030853
 10
53.115323581
 20
-61.9641424006
 10
53.116406363
 20
-61.9265158449
  0
LINE
  5
2BE
100
AcDbEntity
  8
RACCORDO
100
AcDbLine
 62
250
  6
CONTINUOUS
 10
53.0614812373
 20
-62.0060019248
 11
52.9534873267
 21
-62.0750627786
  0
LINE
  5
2BF
100
AcDbEntity
  8
0
100
AcDbLine
 62
250
  6
CONTINUOUS
 10
50.6907456269
 20
-65.2567401944
 11
52.9534873267
 21
-63.9502614958
  0
LINE
  5
2C0
100
AcDbEntity
  8
0
100
AcDbLine
 62
7
  6
CONTINUOUS
 10
50.3801216953
 20
-65.9433454861
 11
52.6428633951
 21
-64.6368667875
  0
ARC
  5
2C1
100
AcDbEntity
  8
RACCORDO
100
AcDbCircle
 62
250
  6
CONTINUOUS
 10
-36.0619102187
 20
8.6869989314
 40
6.9301655047
100
AcDbArc
 50
299.4043414046
 51
299.9317922576
  0
ARC
  5
2C2
100
AcDbEntity
  8
RACCORDO
100
AcDbCircle
 62
250
  6
CONTINUOUS
 10
-36.0619102187
 20
40.5293397263
 40
6.9301655047
100
AcDbArc
 50
299.4043414046
 51
299.9317922576
  0
ARC
  5
2C3
100
AcDbEntity
  8
RACCORDO
100
AcDbCircle
 62
250
  6
CONTINUOUS
 10
-30.3856031451
 20
-2.5531109114
 40
1.5623960982
100
AcDbArc
 50
260.03009929
 51
263.0082682087
  0
ARC
  5
2C4
100
AcDbEntity
  8
RACCORDO
100
AcDbCircle
 62
250
  6
CONTINUOUS
 10
-30.3874751492
 20
-2.5680053645
 40
1.5473845332
100
AcDbArc
 50
263.0099359083
 51
263.3000150333
  0
ARC
  5
2C5
100
AcDbEntity
  8
RACCORDO
100
AcDbCircle
 62
250
  6
CONTINUOUS
 10
-29.554010135
 20
7.7868372743
 40
1.3162621028
100
AcDbArc
 50
320.178103281
 51
324.8921015772
  0
ARC
  5
2C6
100
AcDbEntity
  8
RACCORDO
100
AcDbCircle
 62
250
  6
CONTINUOUS
 10
-30.5803199596
 20
-1.9091304695
 40
1.2328352864
100
AcDbArc
 50
150.5793025084
 51
152.4485685714
  0
ARC
  5
2C7
100
AcDbEntity
  8
RACCORDO
100
AcDbCircle
 62
250
  6
CONTINUOUS
 10
-30.592207842
 20
-1.9031761346
 40
1.2195414115
100
AcDbArc
 50
152.4382520622
 51
156.3484193205
  0
ARC
  5
2C8
100
AcDbEntity
  8
RACCORDO
100
AcDbCircle
 62
250
  6
CONTINUOUS
 10
-30.50286587
 20
-2.9360227445
 40
1.1612999432
100
AcDbArc
 50
246.6121166153
 51
249.6448106713
  0
ARC
  5
2C9
100
AcDbEntity
  8
RACCORDO
100
AcDbCircle
 62
250
  6
CONTINUOUS
 10
-30.0904912762
 20
-4.8364717337
 40
0.6709478407
100
AcDbArc
 50
80.0176983103
 51
83.2926231505
  0
ARC
  5
2CA
100
AcDbEntity
  8
RACCORDO
100
AcDbCircle
 62
250
  6
CONTINUOUS
 10
-30.0885499768
 20
-4.8271104088
 40
0.6613917844
100
AcDbArc
 50
75.0381610964
 51
80.0427498479
  0
ARC
  5
2CB
100
AcDbEntity
  8
RACCORDO
100
AcDbCircle
 62
250
  6
CONTINUOUS
 10
-30.8487372991
 20
9.0563626139
 40
0.6076881898
100
AcDbArc
 50
145.5242527044
 51
159.5247927385
  0
ARC
  5
2CC
100
AcDbEntity
  8
RACCORDO
100
AcDbCircle
 62
250
  6
CONTINUOUS
 10
-28.3687719468
 20
8.0960692094
 40
0.5250152147
100
AcDbArc
 50
324.8856020564
 51
332.8568018341
  0
ARC
  5
2CD
100
AcDbEntity
  8
RACCORDO
100
AcDbCircle
 62
250
  6
CONTINUOUS
 10
-30.0881003582
 20
9.0904408286
 40
0.5206118078
100
AcDbArc
 50
324.5476226251
 51
332.5871905681
  0
ARC
  5
2CE
100
AcDbEntity
  8
RACCORDO
100
AcDbCircle
 62
250
  6
CONTINUOUS
 10
-31.9580749633
 20
-0.7950913152
 40
0.5144862596
100
AcDbArc
 50
330.5033691327
 51
339.7554535444
  0
ARC
  5
2CF
100
AcDbEntity
  8
RACCORDO
100
AcDbCircle
 62
250
  6
CONTINUOUS
 10
-32.744024383
 20
2.1061937258
 40
0.2086289755
100
AcDbArc
 50
293.9213179198
 51
299.0664587476
  0
ARC
  5
2D0
100
AcDbEntity
  8
RACCORDO
100
AcDbCircle
 62
250
  6
CONTINUOUS
 10
-32.744024383
 20
33.9485345208
 40
0.2086289755
100
AcDbArc
 50
293.9213179198
 51
299.0664587477
  0
ARC
  5
2D1
100
AcDbEntity
  8
RACCORDO
100
AcDbCircle
 62
250
  6
CONTINUOUS
 10
-32.7440243795
 20
2.9980905978
 40
0.2086289668
100
AcDbArc
 50
293.9213174243
 51
299.0664589618
  0
ARC
  5
2D2
100
AcDbEntity
  8
RACCORDO
100
AcDbCircle
 62
250
  6
CONTINUOUS
 10
-32.7440243795
 20
34.8404313927
 40
0.2086289668
100
AcDbArc
 50
293.9213174242
 51
299.0664589617
  0
ARC
  5
2D3
100
AcDbEntity
  8
RACCORDO
100
AcDbCircle
 62
250
  6
CONTINUOUS
 10
-32.7421305841
 20
-3.1535928317
 40
0.204541488
100
AcDbArc
 50
295.0838861278
 51
299.0959471034
  0
ARC
  5
2D4
100
AcDbEntity
  8
RACCORDO
100
AcDbCircle
 62
250
  6
CONTINUOUS
 10
-29.9840873014
 20
9.6923395205
 40
0.1710397558
100
AcDbArc
 50
60.0039024557
 51
64.1897995458
  0
ARC
  5
2D5
100
AcDbEntity
  8
RACCORDO
100
AcDbCircle
 62
250
  6
CONTINUOUS
 10
-28.2599491391
 20
8.6989197907
 40
0.1692418842
100
AcDbArc
 50
60.0039669161
 51
64.3345515344
  0
ARC
  5
2D6
100
AcDbEntity
  8
RACCORDO
100
AcDbCircle
 62
250
  6
CONTINUOUS
 10
-28.2597815685
 20
5.7478861797
 40
0.168981274
100
AcDbArc
 50
60.0183623756
 51
62.8650336601
  0
ARC
  5
2D7
100
AcDbEntity
  8
RACCORDO
100
AcDbCircle
 62
250
  6
CONTINUOUS
 10
-28.0720065904
 20
5.6636447738
 40
0.1404466129
100
AcDbArc
 50
53.0809809246
 51
60.1296894608
  0
SPLINE
  5
2D8
100
AcDbEntity
  8
RACCORDO
100
AcDbSpline
 62
7
  6
CONTINUOUS
 70
0
 71
3
 72
12
 73
8
 74
0
 42
0.0000001
 43
0.0000001
 44
0.0000000001
 40
0.0
 40
0.0
 40
0.0
 40
0.0
 40
0.1193043503
 40
0.2384071329
 40
0.4778883357
 40
0.731420384
 40
1.0
 40
1.0
 40
1.0
 40
1.0
 10
-31.4085103475
 20
34.5683565653
 30
0.0
 10
-31.3826196531
 20
34.584386558
 30
0.0
 10
-31.3351994112
 20
34.6240113777
 30
0.0
 10
-31.2652958844
 20
34.7255383624
 30
0.0
 10
-31.2282925558
 20
34.8828628629
 30
0.0
 10
-31.2540593776
 20
35.0782105404
 30
0.0
 10
-31.3059046505
 20
35.202724361
 30
0.0
 10
-31.3395688947
 20
35.2624419019
 30
0.0
  0
SPLINE
  5
2D9
100
AcDbEntity
  8
RACCORDO
100
AcDbSpline
 62
7
  6
CONTINUOUS
 70
0
 71
3
 72
12
 73
8
 74
0
 42
0.0000001
 43
0.0000001
 44
0.0000000001
 40
0.0
 40
0.0
 40
0.0
 40
0.0
 40
0.1193043503
 40
0.2384071329
 40
0.4778883357
 40
0.731420384
 40
1.0
 40
1.0
 40
1.0
 40
1.0
 10
-31.4085103475
 20
2.7260157703
 30
0.0
 10
-31.3826196532
 20
2.742045763
 30
0.0
 10
-31.3351994112
 20
2.7816705827
 30
0.0
 10
-31.2652958844
 20
2.8831975675
 30
0.0
 10
-31.2282925558
 20
3.040522068
 30
0.0
 10
-31.2540593776
 20
3.2358697454
 30
0.0
 10
-31.3059046505
 20
3.360383566
 30
0.0
 10
-31.3395688947
 20
3.4201011069
 30
0.0
  0
LINE
  5
2DA
100
AcDbEntity
  8
RACCORDO
100
AcDbLine
 62
250
  6
CONTINUOUS
 10
-32.6426674642
 20
33.7661809509
 11
-32.424321427
 21
33.8862069068
  0
SPLINE
  5
2DB
100
AcDbEntity
  8
RACCORDO
100
AcDbSpline
 62
250
  6
CONTINUOUS
 70
0
 71
3
 72
8
 73
4
 74
0
 42
0.0000001
 43
0.0000001
 44
0.0000000001
 40
0.0
 40
0.0
 40
0.0
 40
0.0
 40
1.0
 40
1.0
 40
1.0
 40
1.0
 10
-27.9553368261
 20
5.7672304332
 30
0.0
 10
-27.969814343
 20
5.7755831753
 30
0.0
 10
-27.9857608594
 20
5.7817263569
 30
0.0
 10
-28.0020587749
 20
5.7854337478
 30
0.0
  0
LINE
  5
2DC
100
AcDbEntity
  8
RACCORDO
100
AcDbLine
 62
250
  6
CONTINUOUS
 10
-32.4243214271
 20
2.9392003602
 11
-32.6426674642
 21
2.8157370359
  0
LINE
  5
2DD
100
AcDbEntity
  8
RACCORDO
100
AcDbLine
 62
250
  6
CONTINUOUS
 10
-32.4243214271
 20
34.7815411552
 11
-32.6426674642
 21
34.6580778309
  0
SPLINE
  5
2DE
100
AcDbEntity
  8
RACCORDO
100
AcDbSpline
 62
250
  6
CONTINUOUS
 70
0
 71
3
 72
13
 73
9
 74
0
 42
0.0000001
 43
0.0000001
 44
0.0000000001
 40
0.0
 40
0.0
 40
0.0
 40
0.0
 40
0.3056765278
 40
0.5816176132
 40
0.7026126557
 40
0.8111333768
 40
0.9089035053
 40
1.0
 40
1.0
 40
1.0
 40
1.0
 10
-31.4095756527
 20
35.2202792222
 30
0.0
 10
-31.3741641205
 20
35.1574621378
 30
0.0
 10
-31.3193290851
 20
35.0304159926
 30
0.0
 10
-31.2904385557
 20
34.8647636643
 30
0.0
 10
-31.2996850777
 20
34.7452579354
 30
0.0
 10
-31.3211806924
 20
34.6704062154
 30
0.0
 10
-31.3572747647
 20
34.6092143332
 30
0.0
 10
-31.3913040813
 20
34.5790165579
 30
0.0
 10
-31.4095756527
 20
34.5677038773
 30
0.0
  0
SPLINE
  5
2DF
100
AcDbEntity
  8
RACCORDO
100
AcDbSpline
 62
7
  6
CONTINUOUS
 70
0
 71
3
 72
13
 73
9
 74
0
 42
0.0000001
 43
0.0000001
 44
0.0000000001
 40
0.0
 40
0.0
 40
0.0
 40
0.0
 40
0.0912948519
 40
0.1894043736
 40
0.2981790384
 40
0.4192362573
 40
0.6947878562
 40
1.0
 40
1.0
 40
1.0
 40
1.0
 10
-32.3858848303
 20
2.1335772993
 30
0.0
 10
-32.3673511249
 20
2.145611933
 30
0.0
 10
-32.3329515786
 20
2.1773051005
 30
0.0
 10
-32.2965342058
 20
2.2406221432
 30
0.0
 10
-32.2748308099
 20
2.3176614778
 30
0.0
 10
-32.2654858258
 20
2.4402521798
 30
0.0
 10
-32.2946126969
 20
2.6100442426
 30
0.0
 10
-32.3500692665
 20
2.7404882435
 30
0.0
 10
-32.3858848304
 20
2.8051035548
 30
0.0
  0
SPLINE
  5
2E0
100
AcDbEntity
  8
RACCORDO
100
AcDbSpline
 62
250
  6
CONTINUOUS
 70
0
 71
3
 72
13
 73
9
 74
0
 42
0.0000001
 43
0.0000001
 44
0.0000000001
 40
0.0
 40
0.0
 40
0.0
 40
0.0
 40
0.3056765278
 40
0.5816176132
 40
0.7026126557
 40
0.8111333768
 40
0.9089035053
 40
1.0
 40
1.0
 40
1.0
 40
1.0
 10
-31.4095756527
 20
3.3779384273
 30
0.0
 10
-31.3741641205
 20
3.3151213429
 30
0.0
 10
-31.3193290851
 20
3.1880751977
 30
0.0
 10
-31.2904385557
 20
3.0224228694
 30
0.0
 10
-31.2996850777
 20
2.9029171404
 30
0.0
 10
-31.3211806924
 20
2.8280654205
 30
0.0
 10
-31.3572747647
 20
2.7668735382
 30
0.0
 10
-31.3913040813
 20
2.736675763
 30
0.0
 10
-31.4095756527
 20
2.7253630824
 30
0.0
  0
SPLINE
  5
2E1
100
AcDbEntity
  8
RACCORDO
100
AcDbSpline
 62
7
  6
CONTINUOUS
 70
0
 71
3
 72
13
 73
9
 74
0
 42
0.0000001
 43
0.0000001
 44
0.0000000001
 40
0.0
 40
0.0
 40
0.0
 40
0.0
 40
0.0912948519
 40
0.1894043736
 40
0.2981790384
 40
0.4192362573
 40
0.6947878562
 40
1.0
 40
1.0
 40
1.0
 40
1.0
 10
-32.3858848304
 20
33.9759180942
 30
0.0
 10
-32.3673511249
 20
33.9879527279
 30
0.0
 10
-32.3329515786
 20
34.0196458954
 30
0.0
 10
-32.2965342058
 20
34.0829629381
 30
0.0
 10
-32.2748308099
 20
34.1600022728
 30
0.0
 10
-32.2654858258
 20
34.2825929747
 30
0.0
 10
-32.2946126969
 20
34.4523850376
 30
0.0
 10
-32.3500692665
 20
34.5828290385
 30
0.0
 10
-32.3858848304
 20
34.6474443497
 30
0.0
  0
SPLINE
  5
2E2
100
AcDbEntity
  8
RACCORDO
100
AcDbSpline
 62
250
  6
CONTINUOUS
 70
0
 71
3
 72
9
 73
5
 74
0
 42
0.0000001
 43
0.0000001
 44
0.0000000001
 40
0.0
 40
0.0
 40
0.0
 40
0.0
 40
0.4677764909
 40
1.0
 40
1.0
 40
1.0
 40
1.0
 10
-27.9554004686
 20
8.7185039441
 30
0.0
 10
-27.9791468504
 20
8.7321987671
 30
0.0
 10
-28.0383068293
 20
8.7479466348
 30
0.0
 10
-28.0973930115
 20
8.7369532336
 30
0.0
 10
-28.1270033108
 20
8.7271558619
 30
0.0
  0
LINE
  5
2E3
100
AcDbEntity
  8
RACCORDO
100
AcDbLine
 62
250
  6
CONTINUOUS
 10
-32.6426674642
 20
1.923840156
 11
-32.424321427
 21
2.0438661119
  0
SPLINE
  5
2E4
100
AcDbEntity
  8
RACCORDO
100
AcDbSpline
 62
250
  6
CONTINUOUS
 70
0
 71
3
 72
9
 73
5
 74
0
 42
0.0000001
 43
0.0000001
 44
0.0000000001
 40
0.0
 40
0.0
 40
0.0
 40
0.0
 40
0.4760802184
 40
1.0
 40
1.0
 40
1.0
 40
1.0
 10
-28.4401748936
 20
8.8695004491
 30
0.0
 10
-28.4260114808
 20
8.8739469074
 30
0.0
 10
-28.3935985859
 20
8.8758139112
 30
0.0
 10
-28.3638352101
 20
8.8640059405
 30
0.0
 10
-28.3497337073
 20
8.8557576013
 30
0.0
  0
SPLINE
  5
2E5
100
AcDbEntity
  8
RACCORDO
100
AcDbSpline
 62
250
  6
CONTINUOUS
 70
0
 71
3
 72
9
 73
5
 74
0
 42
0.0000001
 43
0.0000001
 44
0.0000000001
 40
0.0
 40
0.0
 40
0.0
 40
0.0
 40
0.468013315
 40
1.0
 40
1.0
 40
1.0
 40
1.0
 10
-29.678635813
 20
9.7134784374
 30
0.0
 10
-29.7025176095
 20
9.7272523695
 30
0.0
 10
-29.7619308515
 20
9.7431669337
 30
0.0
 10
-29.8213574731
 20
9.732372923
 30
0.0
 10
-29.8511509903
 20
9.7226571233
 30
0.0
  0
SPLINE
  5
2E6
100
AcDbEntity
  8
RACCORDO
100
AcDbSpline
 62
250
  6
CONTINUOUS
 70
0
 71
3
 72
9
 73
5
 74
0
 42
0.0000001
 43
0.0000001
 44
0.0000000001
 40
0.0
 40
0.0
 40
0.0
 40
0.0
 40
0.4757888052
 40
1.0
 40
1.0
 40
1.0
 40
1.0
 10
-30.1629920434
 20
9.8654140516
 30
0.0
 10
-30.1490015895
 20
9.8696990958
 30
0.0
 10
-30.117023062
 20
9.8713134617
 30
0.0
 10
-30.0877502267
 20
9.8594774523
 30
0.0
 10
-30.0738813868
 20
9.8512588628
 30
0.0
  0
SPLINE
  5
2E7
100
AcDbEntity
  8
RACCORDO
100
AcDbSpline
 62
250
  6
CONTINUOUS
 70
0
 71
3
 72
8
 73
4
 74
0
 42
0.0000001
 43
0.0000001
 44
0.0000000001
 40
0.0
 40
0.0
 40
0.0
 40
0.0
 40
1.0
 40
1.0
 40
1.0
 40
1.0
 10
-28.1827112204
 20
5.8982684672
 30
0.0
 10
-28.1953711215
 20
5.9047569077
 30
0.0
 10
-28.2089507476
 20
5.9096629282
 30
0.0
 10
-28.2228056239
 20
5.9128902118
 30
0.0
  0
SPLINE
  5
2E8
100
AcDbEntity
  8
RACCORDO
100
AcDbSpline
 62
250
  6
CONTINUOUS
 70
0
 71
3
 72
9
 73
5
 74
0
 42
0.0000001
 43
0.0000001
 44
0.0000000001
 40
0.0
 40
0.0
 40
0.0
 40
0.0
 40
0.4493461763
 40
1.0
 40
1.0
 40
1.0
 40
1.0
 10
-31.2507199367
 20
9.4478546312
 30
0.0
 10
-31.2382645898
 20
9.4558199127
 30
0.0
 10
-31.2173059039
 20
9.4842861578
 30
0.0
 10
-31.2139977683
 20
9.5180565885
 30
0.0
 10
-31.2145454614
 20
9.5361660551
 30
0.0
  0
SPLINE
  5
2E9
100
AcDbEntity
  8
RACCORDO
100
AcDbSpline
 62
250
  6
CONTINUOUS
 70
0
 71
3
 72
13
 73
9
 74
0
 42
0.0000001
 43
0.0000001
 44
0.0000000001
 40
0.0
 40
0.0
 40
0.0
 40
0.0
 40
0.0912504485
 40
0.1892875186
 40
0.2980096976
 40
0.4190530621
 40
0.6946887726
 40
1.0
 40
1.0
 40
1.0
 40
1.0
 10
-32.6039746415
 20
2.0137168905
 30
0.0
 10
-32.5854964124
 20
2.0255959257
 30
0.0
 10
-32.551174819
 20
2.056967514
 30
0.0
 10
-32.5148256646
 20
2.1198282175
 30
0.0
 10
-32.4931662878
 20
2.1963981986
 30
0.0
 10
-32.4838415539
 20
2.3183279042
 30
0.0
 10
-32.5129193744
 20
2.4872330404
 30
0.0
 10
-32.5682445701
 20
2.6169489415
 30
0.0
 10
-32.6039746415
 20
2.6811787997
 30
0.0
  0
SPLINE
  5
2EA
100
AcDbEntity
  8
RACCORDO
100
AcDbSpline
 62
250
  6
CONTINUOUS
 70
0
 71
3
 72
13
 73
9
 74
0
 42
0.0000001
 43
0.0000001
 44
0.0000000001
 40
0.0
 40
0.0
 40
0.0
 40
0.0
 40
0.0912504485
 40
0.1892875186
 40
0.2980096976
 40
0.4190530621
 40
0.6946887726
 40
1.0
 40
1.0
 40
1.0
 40
1.0
 10
-32.6039746415
 20
33.8560576854
 30
0.0
 10
-32.5854964124
 20
33.8679367206
 30
0.0
 10
-32.551174819
 20
33.8993083089
 30
0.0
 10
-32.5148256646
 20
33.9621690124
 30
0.0
 10
-32.4931662878
 20
34.0387389935
 30
0.0
 10
-32.4838415539
 20
34.1606686991
 30
0.0
 10
-32.5129193744
 20
34.3295738353
 30
0.0
 10
-32.5682445701
 20
34.4592897364
 30
0.0
 10
-32.6039746415
 20
34.5235195946
 30
0.0
  0
SPLINE
  5
2EB
100
AcDbEntity
  8
RACCORDO
100
AcDbSpline
 62
250
  6
CONTINUOUS
 70
0
 71
3
 72
9
 73
5
 74
0
 42
0.0000001
 43
0.0000001
 44
0.0000000001
 40
0.0
 40
0.0
 40
0.0
 40
0.0
 40
0.4506593244
 40
1.0
 40
1.0
 40
1.0
 40
1.0
 10
-31.3931033126
 20
35.4367577094
 30
0.0
 10
-31.3931037507
 20
35.4215468192
 30
0.0
 10
-31.4060009456
 20
35.3876753493
 30
0.0
 10
-31.4333124743
 20
35.3660632622
 30
0.0
 10
-31.4492265045
 20
35.3565482283
 30
0.0
  0
SPLINE
  5
2EC
100
AcDbEntity
  8
RACCORDO
100
AcDbSpline
 62
250
  6
CONTINUOUS
 70
0
 71
3
 72
8
 73
4
 74
0
 42
0.0000001
 43
0.0000001
 44
0.0000000001
 40
0.0
 40
0.0
 40
0.0
 40
0.0
 40
1.0
 40
1.0
 40
1.0
 40
1.0
 10
-31.3395686867
 20
35.2624420191
 30
0.0
 10
-31.3616207548
 20
35.2464488492
 30
0.0
 10
-31.3867150346
 20
35.2350936521
 30
0.0
 10
-31.4095756522
 20
35.2202792214
 30
0.0
  0
SPLINE
  5
2ED
100
AcDbEntity
  8
RACCORDO
100
AcDbSpline
 62
250
  6
CONTINUOUS
 70
0
 71
3
 72
9
 73
5
 74
0
 42
0.0000001
 43
0.0000001
 44
0.0000000001
 40
0.0
 40
0.0
 40
0.0
 40
0.0
 40
0.4686390674
 40
1.0
 40
1.0
 40
1.0
 40
1.0
 10
-31.3931033128
 20
12.6319827652
 30
0.0
 10
-31.393102333
 20
12.6210212039
 30
0.0
 10
-31.3992850062
 20
12.5974272691
 30
0.0
 10
-31.4145871938
 20
12.5789721758
 30
0.0
 10
-31.4237402754
 20
12.5705643136
 30
0.0
  0
SPLINE
  5
2EE
100
AcDbEntity
  8
RACCORDO
100
AcDbSpline
 62
250
  6
CONTINUOUS
 70
0
 71
3
 72
9
 73
5
 74
0
 42
0.0000001
 43
0.0000001
 44
0.0000000001
 40
0.0
 40
0.0
 40
0.0
 40
0.0
 40
0.239946639
 40
1.0
 40
1.0
 40
1.0
 40
1.0
 10
-31.4237402754
 20
12.5705643136
 30
0.0
 10
-31.4256075526
 20
12.5688490652
 30
0.0
 10
-31.4335957612
 20
12.5619260726
 30
0.0
 10
-31.4423332142
 20
12.5558868717
 30
0.0
 10
-31.4492265045
 20
12.5517653581
 30
0.0
  0
SPLINE
  5
2EF
100
AcDbEntity
  8
RACCORDO
100
AcDbSpline
 62
250
  6
CONTINUOUS
 70
0
 71
3
 72
9
 73
5
 74
0
 42
0.0000001
 43
0.0000001
 44
0.0000000001
 40
0.0
 40
0.0
 40
0.0
 40
0.0
 40
0.7429058763
 40
1.0
 40
1.0
 40
1.0
 40
1.0
 10
-31.3931033128
 20
34.5574400883
 30
0.0
 10
-31.3931026626
 20
34.5501656214
 30
0.0
 10
-31.3947583373
 20
34.5402866079
 30
0.0
 10
-31.3983007289
 20
34.5311541291
 30
0.0
 10
-31.3993196368
 20
34.528852099
 30
0.0
  0
SPLINE
  5
2F0
100
AcDbEntity
  8
RACCORDO
100
AcDbSpline
 62
250
  6
CONTINUOUS
 70
0
 71
3
 72
8
 73
4
 74
0
 42
0.0000001
 43
0.0000001
 44
0.0000000001
 40
0.0
 40
0.0
 40
0.0
 40
0.0
 40
1.0
 40
1.0
 40
1.0
 40
1.0
 10
-31.3993196368
 20
34.528852099
 30
0.0
 10
-31.4010690259
 20
34.5248996849
 30
0.0
 10
-31.403147105
 20
34.5210812125
 30
0.0
 10
-31.4054753886
 20
34.5174396421
 30
0.0
  0
SPLINE
  5
2F1
100
AcDbEntity
  8
RACCORDO
100
AcDbSpline
 62
250
  6
CONTINUOUS
 70
0
 71
3
 72
9
 73
5
 74
0
 42
0.0000001
 43
0.0000001
 44
0.0000000001
 40
0.0
 40
0.0
 40
0.0
 40
0.0
 40
0.229199152
 40
1.0
 40
1.0
 40
1.0
 40
1.0
 10
-31.4054753886
 20
34.5174396421
 30
0.0
 10
-31.4079339352
 20
34.5135943328
 30
0.0
 10
-31.419919427
 20
34.49761784
 30
0.0
 10
-31.436052589
 20
34.4850993945
 30
0.0
 10
-31.4492265045
 20
34.4772226811
 30
0.0
  0
SPLINE
  5
2F2
100
AcDbEntity
  8
RACCORDO
100
AcDbSpline
 62
250
  6
CONTINUOUS
 70
0
 71
3
 72
9
 73
5
 74
0
 42
0.0000001
 43
0.0000001
 44
0.0000000001
 40
0.0
 40
0.0
 40
0.0
 40
0.0
 40
0.4506803649
 40
1.0
 40
1.0
 40
1.0
 40
1.0
 10
-31.3931033128
 20
9.1904765914
 30
0.0
 10
-31.3931019531
 20
9.1752637365
 30
0.0
 10
-31.4059958221
 20
9.1413871532
 30
0.0
 10
-31.4333109576
 20
9.1197733136
 30
0.0
 10
-31.4492265045
 20
9.1102592205
 30
0.0
  0
SPLINE
  5
2F3
100
AcDbEntity
  8
RACCORDO
100
AcDbSpline
 62
250
  6
CONTINUOUS
 70
0
 71
3
 72
11
 73
7
 74
0
 42
0.0000001
 43
0.0000001
 44
0.0000000001
 40
0.0
 40
0.0
 40
0.0
 40
0.0
 40
0.2855384208
 40
0.5450787033
 40
0.7810740773
 40
1.0
 40
1.0
 40
1.0
 40
1.0
 10
53.0614812373
 20
-62.0060019248
 30
0.0
 10
53.0616753824
 20
-62.0367033518
 30
0.0
 10
53.0579430499
 20
-62.0954803356
 30
0.0
 10
53.0379344102
 20
-62.17757968
 30
0.0
 10
53.0040083143
 20
-62.2472555398
 30
0.0
 10
52.9715329273
 20
-62.2848187441
 30
0.0
 10
52.9536698685
 20
-62.3001493002
 30
0.0
  0
SPLINE
  5
2F4
100
AcDbEntity
  8
RACCORDO
100
AcDbSpline
 62
250
  6
CONTINUOUS
 70
0
 71
3
 72
9
 73
5
 74
0
 42
0.0000001
 43
0.0000001
 44
0.0000000001
 40
0.0
 40
0.0
 40
0.0
 40
0.0
 40
0.2396316792
 40
1.0
 40
1.0
 40
1.0
 40
1.0
 10
52.5666761059
 20
7.022588567
 30
0.0
 10
52.5775438203
 20
7.0164042977
 30
0.0
 10
52.6221522061
 20
6.9892978562
 30
0.0
 10
52.6637906714
 20
6.9574192245
 30
0.0
 10
52.6936644657
 20
6.931308466
 30
0.0
  0
SPLINE
  5
2F5
100
AcDbEntity
  8
RACCORDO
100
AcDbSpline
 62
250
  6
CONTINUOUS
 70
0
 71
3
 72
11
 73
7
 74
0
 42
0.0000001
 43
0.0000001
 44
0.0000000001
 40
0.0
 40
0.0
 40
0.0
 40
0.0
 40
0.2512313893
 40
0.5134833447
 40
0.768560081
 40
1.0
 40
1.0
 40
1.0
 40
1.0
 10
52.6936644657
 20
6.931308466
 30
0.0
 10
52.7486118121
 20
6.8832825313
 30
0.0
 10
52.8495027781
 20
6.7716782872
 30
0.0
 10
52.9655656708
 20
6.5795109555
 30
0.0
 10
53.0416419737
 20
6.3744009835
 30
0.0
 10
53.0619029875
 20
6.2327880169
 30
0.0
 10
53.0614812373
 20
6.1655609406
 30
0.0
  0
SPLINE
  5
2F6
100
AcDbEntity
  8
RACCORDO
100
AcDbSpline
 62
250
  6
CONTINUOUS
 70
0
 71
3
 72
9
 73
5
 74
0
 42
0.0000001
 43
0.0000001
 44
0.0000000001
 40
0.0
 40
0.0
 40
0.0
 40
0.0
 40
0.4506593244
 40
1.0
 40
1.0
 40
1.0
 40
1.0
 10
-31.3931033126
 20
3.5944169145
 30
0.0
 10
-31.3931037507
 20
3.5792060243
 30
0.0
 10
-31.4060009456
 20
3.5453345544
 30
0.0
 10
-31.4333124743
 20
3.5237224673
 30
0.0
 10
-31.4492265045
 20
3.5142074333
 30
0.0
  0
SPLINE
  5
2F7
100
AcDbEntity
  8
RACCORDO
100
AcDbSpline
 62
250
  6
CONTINUOUS
 70
0
 71
3
 72
8
 73
4
 74
0
 42
0.0000001
 43
0.0000001
 44
0.0000000001
 40
0.0
 40
0.0
 40
0.0
 40
0.0
 40
1.0
 40
1.0
 40
1.0
 40
1.0
 10
-31.3395686867
 20
3.4201012242
 30
0.0
 10
-31.3616207548
 20
3.4041080542
 30
0.0
 10
-31.3867150346
 20
3.3927528572
 30
0.0
 10
-31.4095756522
 20
3.3779384265
 30
0.0
  0
SPLINE
  5
2F8
100
AcDbEntity
  8
RACCORDO
100
AcDbSpline
 62
250
  6
CONTINUOUS
 70
0
 71
3
 72
9
 73
5
 74
0
 42
0.0000001
 43
0.0000001
 44
0.0000000001
 40
0.0
 40
0.0
 40
0.0
 40
0.0
 40
0.4506573216
 40
1.0
 40
1.0
 40
1.0
 40
1.0
 10
-31.3931033129
 20
-0.7584927824
 30
0.0
 10
-31.3931019538
 20
-0.7737047429
 30
0.0
 10
-31.4059975186
 20
-0.8075803623
 30
0.0
 10
-31.4333112263
 20
-0.8291944119
 30
0.0
 10
-31.4492265045
 20
-0.8387101932
 30
0.0
  0
SPLINE
  5
2F9
100
AcDbEntity
  8
RACCORDO
100
AcDbSpline
 62
250
  6
CONTINUOUS
 70
0
 71
3
 72
9
 73
5
 74
0
 42
0.0000001
 43
0.0000001
 44
0.0000000001
 40
0.0
 40
0.0
 40
0.0
 40
0.0
 40
0.7429058763
 40
1.0
 40
1.0
 40
1.0
 40
1.0
 10
-31.3931033128
 20
2.7150992933
 30
0.0
 10
-31.3931026626
 20
2.7078248265
 30
0.0
 10
-31.3947583373
 20
2.697945813
 30
0.0
 10
-31.3983007289
 20
2.6888133342
 30
0.0
 10
-31.3993196368
 20
2.6865113041
 30
0.0
  0
SPLINE
  5
2FA
100
AcDbEntity
  8
RACCORDO
100
AcDbSpline
 62
250
  6
CONTINUOUS
 70
0
 71
3
 72
8
 73
4
 74
0
 42
0.0000001
 43
0.0000001
 44
0.0000000001
 40
0.0
 40
0.0
 40
0.0
 40
0.0
 40
1.0
 40
1.0
 40
1.0
 40
1.0
 10
-31.3993196368
 20
2.6865113041
 30
0.0
 10
-31.4010690259
 20
2.68255889
 30
0.0
 10
-31.403147105
 20
2.6787404176
 30
0.0
 10
-31.4054753886
 20
2.6750988472
 30
0.0
  0
SPLINE
  5
2FB
100
AcDbEntity
  8
RACCORDO
100
AcDbSpline
 62
250
  6
CONTINUOUS
 70
0
 71
3
 72
9
 73
5
 74
0
 42
0.0000001
 43
0.0000001
 44
0.0000000001
 40
0.0
 40
0.0
 40
0.0
 40
0.0
 40
0.229199152
 40
1.0
 40
1.0
 40
1.0
 40
1.0
 10
-31.4054753886
 20
2.6750988472
 30
0.0
 10
-31.4079339351
 20
2.6712535379
 30
0.0
 10
-31.4199194269
 20
2.6552770451
 30
0.0
 10
-31.436052589
 20
2.6427585996
 30
0.0
 10
-31.4492265045
 20
2.6348818862
 30
0.0
  0
SPLINE
  5
2FC
100
AcDbEntity
  8
RACCORDO
100
AcDbSpline
 62
250
  6
CONTINUOUS
 70
0
 71
3
 72
14
 73
10
 74
0
 42
0.0000001
 43
0.0000001
 44
0.0000000001
 40
0.0
 40
0.0
 40
0.0
 40
0.0
 40
0.0163864536
 40
0.0646513208
 40
0.144673916
 40
0.256205668
 40
0.3987343864
 40
0.5710749797
 40
1.0
 40
1.0
 40
1.0
 40
1.0
 10
-31.4799373482
 20
-1.0664424564
 30
0.0
 10
-31.4798416573
 20
-1.066275053
 30
0.0
 10
-31.4809980152
 20
-1.0658739226
 30
0.0
 10
-31.4819247525
 20
-1.0649248326
 30
0.0
 10
-31.4846219304
 20
-1.0634741688
 30
0.0
 10
-31.4878696232
 20
-1.061448509
 30
0.0
 10
-31.4922397336
 20
-1.0589020602
 30
0.0
 10
-31.4997711906
 20
-1.0544809601
 30
0.0
 10
-31.5059035064
 20
-1.0509346878
 30
0.0
 10
-31.5102740202
 20
-1.0484101395
 30
0.0
  0
SPLINE
  5
2FD
100
AcDbEntity
  8
RACCORDO
100
AcDbSpline
 62
250
  6
CONTINUOUS
 70
0
 71
3
 72
14
 73
10
 74
0
 42
0.0000001
 43
0.0000001
 44
0.0000000001
 40
0.0
 40
0.0
 40
0.0
 40
0.0
 40
0.0163643359
 40
0.0646132797
 40
0.1446264273
 40
0.2561551548
 40
0.3986873828
 40
0.5710378237
 40
1.0
 40
1.0
 40
1.0
 40
1.0
 10
-31.6238277652
 20
-1.3215714364
 30
0.0
 10
-31.623730777
 20
-1.3214050823
 30
0.0
 10
-31.6248895751
 20
-1.3210019146
 30
0.0
 10
-31.6258128186
 20
-1.3200552419
 30
0.0
 10
-31.6285114942
 20
-1.3186035297
 30
0.0
 10
-31.6317582882
 20
-1.3165784415
 30
0.0
 10
-31.6361288145
 20
-1.3140317203
 30
0.0
 10
-31.6436606351
 20
-1.3096104087
 30
0.0
 10
-31.6497934999
 20
-1.3060638137
 30
0.0
 10
-31.6541643945
 20
-1.3035390454
 30
0.0
  0
SPLINE
  5
2FE
100
AcDbEntity
  8
RACCORDO
100
AcDbSpline
 62
250
  6
CONTINUOUS
 70
0
 71
3
 72
9
 73
5
 74
0
 42
0.0000001
 43
0.0000001
 44
0.0000000001
 40
0.0
 40
0.0
 40
0.0
 40
0.0
 40
0.4506573102
 40
1.0
 40
1.0
 40
1.0
 40
1.0
 10
-31.740485406
 20
-1.7126215128
 30
0.0
 10
-31.7404840462
 20
-1.7278334725
 30
0.0
 10
-31.7533796112
 20
-1.7617090913
 30
0.0
 10
-31.7806933191
 20
-1.7833231395
 30
0.0
 10
-31.7966085977
 20
-1.79283892
 30
0.0
  0
SPLINE
  5
2FF
100
AcDbEntity
  8
RACCORDO
100
AcDbSpline
 62
250
  6
CONTINUOUS
 70
0
 71
3
 72
9
 73
5
 74
0
 42
0.0000001
 43
0.0000001
 44
0.0000000001
 40
0.0
 40
0.0
 40
0.0
 40
0.0
 40
0.4506794358
 40
1.0
 40
1.0
 40
1.0
 40
1.0
 10
-31.7404854547
 20
-2.8911262553
 30
0.0
 10
-31.7405038031
 20
-2.906326471
 30
0.0
 10
-31.7534172098
 20
-2.9401565836
 30
0.0
 10
-31.7807070158
 20
-2.9617491237
 30
0.0
 10
-31.7966085977
 20
-2.971256715
 30
0.0
  0
SPLINE
  5
300
100
AcDbEntity
  8
RACCORDO
100
AcDbSpline
 62
250
  6
CONTINUOUS
 70
0
 71
3
 72
9
 73
5
 74
0
 42
0.0000001
 43
0.0000001
 44
0.0000000001
 40
0.0
 40
0.0
 40
0.0
 40
0.0
 40
0.4669412808
 40
1.0
 40
1.0
 40
1.0
 40
1.0
 10
-31.2062640811
 20
-3.8312920759
 30
0.0
 10
-31.2161797921
 20
-3.8255858339
 30
0.0
 10
-31.2409876956
 20
-3.8191588517
 30
0.0
 10
-31.2656474529
 20
-3.824005069
 30
0.0
 10
-31.2780032759
 20
-3.8282365499
 30
0.0
  0
SPLINE
  5
301
100
AcDbEntity
  8
RACCORDO
100
AcDbSpline
 62
250
  6
CONTINUOUS
 70
0
 71
3
 72
9
 73
5
 74
0
 42
0.0000001
 43
0.0000001
 44
0.0000000001
 40
0.0
 40
0.0
 40
0.0
 40
0.0
 40
0.4669282741
 40
1.0
 40
1.0
 40
1.0
 40
1.0
 10
-30.9911754846
 20
-3.9554814584
 30
0.0
 10
-31.0010945706
 20
-3.949757457
 30
0.0
 10
-31.0259262936
 20
-3.9433011989
 30
0.0
 10
-31.0506147825
 20
-3.948149929
 30
0.0
 10
-31.0629839868
 20
-3.9523859925
 30
0.0
  0
SPLINE
  5
302
100
AcDbEntity
  8
RACCORDO
100
AcDbSpline
 62
250
  6
CONTINUOUS
 70
0
 71
3
 72
10
 73
6
 74
0
 42
0.0000001
 43
0.0000001
 44
0.0000000001
 40
0.0
 40
0.0
 40
0.0
 40
0.0
 40
0.1009266582
 40
0.2943288658
 40
1.0
 40
1.0
 40
1.0
 40
1.0
 10
-30.0169889267
 20
-4.1477765714
 30
0.0
 10
-30.0162061897
 20
-4.1478687453
 30
0.0
 10
-30.0146039683
 20
-4.1500540614
 30
0.0
 10
-30.0129304259
 20
-4.1574186194
 30
0.0
 10
-30.01236698
 20
-4.1646107579
 30
0.0
 10
-30.0121255029
 20
-4.170116115
 30
0.0
  0
SPLINE
  5
303
100
AcDbEntity
  8
RACCORDO
100
AcDbSpline
 62
250
  6
CONTINUOUS
 70
0
 71
3
 72
10
 73
6
 74
0
 42
0.0000001
 43
0.0000001
 44
0.0000000001
 40
0.0
 40
0.0
 40
0.0
 40
0.0
 40
0.1009263467
 40
0.2943285061
 40
1.0
 40
1.0
 40
1.0
 40
1.0
 10
-30.5728725898
 20
-4.0824827789
 30
0.0
 10
-30.5720898561
 20
-4.0825749524
 30
0.0
 10
-30.5704876455
 20
-4.0847602724
 30
0.0
 10
-30.5688141322
 20
-4.0921248236
 30
0.0
 10
-30.5682507032
 20
-4.0993169596
 30
0.0
 10
-30.56800924
 20
-4.1048223138
 30
0.0
  0
SPLINE
  5
304
100
AcDbEntity
  8
RACCORDO
100
AcDbSpline
 62
250
  6
CONTINUOUS
 70
0
 71
3
 72
9
 73
5
 74
0
 42
0.0000001
 43
0.0000001
 44
0.0000000001
 40
0.0
 40
0.0
 40
0.0
 40
0.0
 40
0.4668023237
 40
1.0
 40
1.0
 40
1.0
 40
1.0
 10
-29.7213742158
 20
-4.2411304763
 30
0.0
 10
-29.731289417
 20
-4.2354051177
 30
0.0
 10
-29.756123603
 20
-4.2289494594
 30
0.0
 10
-29.7808120453
 20
-4.2338010708
 30
0.0
 10
-29.793184608
 20
-4.2380382844
 30
0.0
  0
SPLINE
  5
305
100
AcDbEntity
  8
RACCORDO
100
AcDbSpline
 62
250
  6
CONTINUOUS
 70
0
 71
3
 72
9
 73
5
 74
0
 42
0.0000001
 43
0.0000001
 44
0.0000000001
 40
0.0
 40
0.0
 40
0.0
 40
0.0
 40
0.2590085322
 40
1.0
 40
1.0
 40
1.0
 40
1.0
 10
-32.6312388101
 20
-3.4641424226
 30
0.0
 10
-32.6331623882
 20
-3.452874097
 30
0.0
 10
-32.6397301593
 20
-3.4092310454
 30
0.0
 10
-32.6428097342
 20
-3.365025833
 30
0.0
 10
-32.6426674257
 20
-3.3323225162
 30
0.0
  0
SPLINE
  5
306
100
AcDbEntity
  8
RACCORDO
100
AcDbSpline
 62
7
  6
CONTINUOUS
 70
0
 71
3
 72
11
 73
7
 74
0
 42
0.0000001
 43
0.0000001
 44
0.0000000001
 40
0.0
 40
0.0
 40
0.0
 40
0.0
 40
0.229604163
 40
0.4838162364
 40
0.7466057486
 40
1.0
 40
1.0
 40
1.0
 40
1.0
 10
-32.4243214269
 20
-3.206252691
 30
0.0
 10
-32.4233299713
 20
-3.2701797565
 30
0.0
 10
-32.4023767776
 20
-3.4047281524
 30
0.0
 10
-32.3303148383
 20
-3.6007642183
 30
0.0
 10
-32.2225469449
 20
-3.7875856626
 30
0.0
 10
-32.129084432
 20
-3.8977857271
 30
0.0
 10
-32.0796234232
 20
-3.9481068682
 30
0.0
  0
SPLINE
  5
307
100
AcDbEntity
  8
RACCORDO
100
AcDbSpline
 62
7
  6
CONTINUOUS
 70
0
 71
3
 72
11
 73
7
 74
0
 42
0.0000001
 43
0.0000001
 44
0.0000000001
 40
0.0
 40
0.0
 40
0.0
 40
0.0
 40
0.2595223254
 40
0.513628097
 40
0.7607396199
 40
1.0
 40
1.0
 40
1.0
 40
1.0
 10
-32.0796234232
 20
-3.9481068682
 30
0.0
 10
-32.0678313702
 20
-3.9595560362
 30
0.0
 10
-32.044878953
 20
-3.9826602205
 30
0.0
 10
-32.0071872729
 20
-4.0127824113
 30
0.0
 10
-31.9690036198
 20
-4.0400556075
 30
0.0
 10
-31.9425326658
 20
-4.0558600854
 30
0.0
 10
-31.9294103374
 20
-4.0634367533
 30
0.0
  0
SPLINE
  5
308
100
AcDbEntity
  8
RACCORDO
100
AcDbSpline
 62
250
  6
CONTINUOUS
 70
0
 71
3
 72
11
 73
7
 74
0
 42
0.0000001
 43
0.0000001
 44
0.0000000001
 40
0.0
 40
0.0
 40
0.0
 40
0.0
 40
0.2331982614
 40
0.4951914286
 40
0.7604561205
 40
1.0
 40
1.0
 40
1.0
 40
1.0
 10
-31.7966085977
 20
-2.971256715
 30
0.0
 10
-31.792732212
 20
-3.0515586586
 30
0.0
 10
-31.7558326483
 20
-3.2207518759
 30
0.0
 10
-31.6438144942
 20
-3.4596682544
 30
0.0
 10
-31.4844591352
 20
-3.6727407738
 30
0.0
 10
-31.3493834933
 20
-3.7867053684
 30
0.0
 10
-31.2780033118
 20
-3.8282365627
 30
0.0
  0
SPLINE
  5
309
100
AcDbEntity
  8
RACCORDO
100
AcDbSpline
 62
250
  6
CONTINUOUS
 70
0
 71
3
 72
11
 73
7
 74
0
 42
0.0000001
 43
0.0000001
 44
0.0000000001
 40
0.0
 40
0.0
 40
0.0
 40
0.0
 40
0.2414900626
 40
0.4970998999
 40
0.7543756758
 40
1.0
 40
1.0
 40
1.0
 40
1.0
 10
-32.3358495512
 20
-3.1647417304
 30
0.0
 10
-32.3464549631
 20
-3.2323601107
 30
0.0
 10
-32.3487253608
 20
-3.3749564895
 30
0.0
 10
-32.3035982263
 20
-3.5855881406
 30
0.0
 10
-32.2142278809
 20
-3.7828475686
 30
0.0
 10
-32.1280187611
 20
-3.8982011802
 30
0.0
 10
-32.0797231526
 20
-3.9483412868
 30
0.0
  0
SPLINE
  5
30A
100
AcDbEntity
  8
RACCORDO
100
AcDbSpline
 62
250
  6
CONTINUOUS
 70
0
 71
3
 72
9
 73
5
 74
0
 42
0.0000001
 43
0.0000001
 44
0.0000000001
 40
0.0
 40
0.0
 40
0.0
 40
0.0
 40
0.5480881629
 40
1.0
 40
1.0
 40
1.0
 40
1.0
 10
-32.6426674065
 20
33.7661809827
 30
0.0
 10
-32.6427797223
 20
33.7846388906
 30
0.0
 10
-32.6384625352
 20
33.8190611293
 30
0.0
 10
-32.6167817364
 20
33.8478356077
 30
0.0
 10
-32.603974586
 20
33.8560577159
 30
0.0
  0
SPLINE
  5
30B
100
AcDbEntity
  8
RACCORDO
100
AcDbSpline
 62
7
  6
CONTINUOUS
 70
0
 71
3
 72
9
 73
5
 74
0
 42
0.0000001
 43
0.0000001
 44
0.0000000001
 40
0.0
 40
0.0
 40
0.0
 40
0.0
 40
0.5497373267
 40
1.0
 40
1.0
 40
1.0
 40
1.0
 10
-32.4243214269
 20
33.8862069069
 30
0.0
 10
-32.4243214268
 20
33.9046554574
 30
0.0
 10
-32.4199329541
 20
33.9388828002
 30
0.0
 10
-32.3985577953
 20
33.9676890603
 30
0.0
 10
-32.3858848303
 20
33.9759180942
 30
0.0
  0
SPLINE
  5
30C
100
AcDbEntity
  8
RACCORDO
100
AcDbSpline
 62
250
  6
CONTINUOUS
 70
0
 71
3
 72
9
 73
5
 74
0
 42
0.0000001
 43
0.0000001
 44
0.0000000001
 40
0.0
 40
0.0
 40
0.0
 40
0.0
 40
0.2361689265
 40
1.0
 40
1.0
 40
1.0
 40
1.0
 10
-31.4095757104
 20
34.5677038423
 30
0.0
 10
-31.413185485
 20
34.5654681602
 30
0.0
 10
-31.4275697219
 20
34.5545077865
 30
0.0
 10
-31.4371137181
 20
34.538081835
 30
0.0
 10
-31.4416631655
 20
34.5251245666
 30
0.0
  0
SPLINE
  5
30D
100
AcDbEntity
  8
RACCORDO
100
AcDbSpline
 62
250
  6
CONTINUOUS
 70
0
 71
3
 72
9
 73
5
 74
0
 42
0.0000001
 43
0.0000001
 44
0.0000000001
 40
0.0
 40
0.0
 40
0.0
 40
0.0
 40
0.2331757776
 40
1.0
 40
1.0
 40
1.0
 40
1.0
 10
-31.4416631655
 20
34.5251245666
 30
0.0
 10
-31.4429152177
 20
34.5215586003
 30
0.0
 10
-31.4475061053
 20
34.5059922394
 30
0.0
 10
-31.4491523316
 20
34.4896513474
 30
0.0
 10
-31.4492265633
 20
34.4772226455
 30
0.0
  0
SPLINE
  5
30E
100
AcDbEntity
  8
RACCORDO
100
AcDbSpline
 62
250
  6
CONTINUOUS
 70
0
 71
3
 72
9
 73
5
 74
0
 42
0.0000001
 43
0.0000001
 44
0.0000000001
 40
0.0
 40
0.0
 40
0.0
 40
0.0
 40
0.267129005
 40
1.0
 40
1.0
 40
1.0
 40
1.0
 10
-32.6039746415
 20
34.5235195946
 30
0.0
 10
-32.6101320429
 20
34.5344418553
 30
0.0
 10
-32.630835252
 20
34.5764904592
 30
0.0
 10
-32.6428744284
 20
34.6236794902
 30
0.0
 10
-32.6426674159
 20
34.6580778582
 30
0.0
  0
SPLINE
  5
30F
100
AcDbEntity
  8
RACCORDO
100
AcDbSpline
 62
7
  6
CONTINUOUS
 70
0
 71
3
 72
9
 73
5
 74
0
 42
0.0000001
 43
0.0000001
 44
0.0000000001
 40
0.0
 40
0.0
 40
0.0
 40
0.0
 40
0.2673062261
 40
1.0
 40
1.0
 40
1.0
 40
1.0
 10
-32.3858848303
 20
34.6474443497
 30
0.0
 10
-32.3919432101
 20
34.6583743491
 30
0.0
 10
-32.4123167149
 20
34.7003776331
 30
0.0
 10
-32.4243214266
 20
34.7472872071
 30
0.0
 10
-32.4243214269
 20
34.7815411553
 30
0.0
  0
SPLINE
  5
310
100
AcDbEntity
  8
RACCORDO
100
AcDbSpline
 62
250
  6
CONTINUOUS
 70
0
 71
3
 72
9
 73
5
 74
0
 42
0.0000001
 43
0.0000001
 44
0.0000000001
 40
0.0
 40
0.0
 40
0.0
 40
0.0
 40
0.4740293238
 40
1.0
 40
1.0
 40
1.0
 40
1.0
 10
-31.4492265629
 20
35.3565481938
 30
0.0
 10
-31.4490907314
 20
35.3339573753
 30
0.0
 10
-31.4406696159
 20
35.2863356589
 30
0.0
 10
-31.4217612754
 20
35.2421846329
 30
0.0
 10
-31.4095757099
 20
35.2202791887
 30
0.0
  0
SPLINE
  5
311
100
AcDbEntity
  8
RACCORDO
100
AcDbSpline
 62
250
  6
CONTINUOUS
 70
0
 71
3
 72
9
 73
5
 74
0
 42
0.0000001
 43
0.0000001
 44
0.0000000001
 40
0.0
 40
0.0
 40
0.0
 40
0.0
 40
0.5480881629
 40
1.0
 40
1.0
 40
1.0
 40
1.0
 10
-32.6426674065
 20
1.9238401877
 30
0.0
 10
-32.6427797223
 20
1.9422980956
 30
0.0
 10
-32.6384625352
 20
1.9767203344
 30
0.0
 10
-32.6167817364
 20
2.0054948128
 30
0.0
 10
-32.603974586
 20
2.013716921
 30
0.0
  0
SPLINE
  5
312
100
AcDbEntity
  8
RACCORDO
100
AcDbSpline
 62
7
  6
CONTINUOUS
 70
0
 71
3
 72
9
 73
5
 74
0
 42
0.0000001
 43
0.0000001
 44
0.0000000001
 40
0.0
 40
0.0
 40
0.0
 40
0.0
 40
0.549737328
 40
1.0
 40
1.0
 40
1.0
 40
1.0
 10
-32.4243214269
 20
2.0438661119
 30
0.0
 10
-32.4243214268
 20
2.0623146625
 30
0.0
 10
-32.4199329539
 20
2.0965420052
 30
0.0
 10
-32.3985577953
 20
2.1253482654
 30
0.0
 10
-32.3858848303
 20
2.1335772993
 30
0.0
  0
SPLINE
  5
313
100
AcDbEntity
  8
RACCORDO
100
AcDbSpline
 62
250
  6
CONTINUOUS
 70
0
 71
3
 72
9
 73
5
 74
0
 42
0.0000001
 43
0.0000001
 44
0.0000000001
 40
0.0
 40
0.0
 40
0.0
 40
0.0
 40
0.2361689265
 40
1.0
 40
1.0
 40
1.0
 40
1.0
 10
-31.4095757104
 20
2.7253630474
 30
0.0
 10
-31.413185485
 20
2.7231273652
 30
0.0
 10
-31.4275697219
 20
2.7121669916
 30
0.0
 10
-31.4371137181
 20
2.6957410401
 30
0.0
 10
-31.4416631655
 20
2.6827837717
 30
0.0
  0
SPLINE
  5
314
100
AcDbEntity
  8
RACCORDO
100
AcDbSpline
 62
250
  6
CONTINUOUS
 70
0
 71
3
 72
9
 73
5
 74
0
 42
0.0000001
 43
0.0000001
 44
0.0000000001
 40
0.0
 40
0.0
 40
0.0
 40
0.0
 40
0.2331757776
 40
1.0
 40
1.0
 40
1.0
 40
1.0
 10
-31.4416631655
 20
2.6827837717
 30
0.0
 10
-31.4429152176
 20
2.6792178054
 30
0.0
 10
-31.4475061053
 20
2.6636514445
 30
0.0
 10
-31.4491523316
 20
2.6473105525
 30
0.0
 10
-31.4492265633
 20
2.6348818506
 30
0.0
  0
SPLINE
  5
315
100
AcDbEntity
  8
RACCORDO
100
AcDbSpline
 62
250
  6
CONTINUOUS
 70
0
 71
3
 72
9
 73
5
 74
0
 42
0.0000001
 43
0.0000001
 44
0.0000000001
 40
0.0
 40
0.0
 40
0.0
 40
0.0
 40
0.267129005
 40
1.0
 40
1.0
 40
1.0
 40
1.0
 10
-32.6039746415
 20
2.6811787997
 30
0.0
 10
-32.6101320429
 20
2.6921010604
 30
0.0
 10
-32.630835252
 20
2.7341496642
 30
0.0
 10
-32.6428744284
 20
2.7813386953
 30
0.0
 10
-32.6426674159
 20
2.8157370633
 30
0.0
  0
SPLINE
  5
316
100
AcDbEntity
  8
RACCORDO
100
AcDbSpline
 62
7
  6
CONTINUOUS
 70
0
 71
3
 72
9
 73
5
 74
0
 42
0.0000001
 43
0.0000001
 44
0.0000000001
 40
0.0
 40
0.0
 40
0.0
 40
0.0
 40
0.2673062261
 40
1.0
 40
1.0
 40
1.0
 40
1.0
 10
-32.3858848303
 20
2.8051035548
 30
0.0
 10
-32.3919432101
 20
2.8160335542
 30
0.0
 10
-32.4123167149
 20
2.8580368381
 30
0.0
 10
-32.4243214266
 20
2.9049464122
 30
0.0
 10
-32.4243214269
 20
2.9392003604
 30
0.0
  0
SPLINE
  5
317
100
AcDbEntity
  8
RACCORDO
100
AcDbSpline
 62
250
  6
CONTINUOUS
 70
0
 71
3
 72
9
 73
5
 74
0
 42
0.0000001
 43
0.0000001
 44
0.0000000001
 40
0.0
 40
0.0
 40
0.0
 40
0.0
 40
0.4740293238
 40
1.0
 40
1.0
 40
1.0
 40
1.0
 10
-31.4492265629
 20
3.5142073989
 30
0.0
 10
-31.4490907314
 20
3.4916165804
 30
0.0
 10
-31.4406696159
 20
3.443994864
 30
0.0
 10
-31.4217612754
 20
3.3998438379
 30
0.0
 10
-31.4095757099
 20
3.3779383937
 30
0.0
  0
SPLINE
  5
318
100
AcDbEntity
  8
RACCORDO
100
AcDbSpline
 62
250
  6
CONTINUOUS
 70
0
 71
3
 72
9
 73
5
 74
0
 42
0.0000001
 43
0.0000001
 44
0.0000000001
 40
0.0
 40
0.0
 40
0.0
 40
0.0
 40
0.2548661163
 40
1.0
 40
1.0
 40
1.0
 40
1.0
 10
-32.6594084869
 20
1.9972102668
 30
0.0
 10
-32.6544922827
 20
1.9976263997
 30
0.0
 10
-32.6352986724
 20
2.0002148395
 30
0.0
 10
-32.6166176639
 20
2.0067727032
 30
0.0
 10
-32.6039746413
 20
2.0137168906
 30
0.0
  0
SPLINE
  5
319
100
AcDbEntity
  8
RACCORDO
100
AcDbSpline
 62
250
  6
CONTINUOUS
 70
0
 71
3
 72
9
 73
5
 74
0
 42
0.0000001
 43
0.0000001
 44
0.0000000001
 40
0.0
 40
0.0
 40
0.0
 40
0.0
 40
0.2548661163
 40
1.0
 40
1.0
 40
1.0
 40
1.0
 10
-32.6594084869
 20
33.8395510618
 30
0.0
 10
-32.6544922827
 20
33.8399671946
 30
0.0
 10
-32.6352986724
 20
33.8425556345
 30
0.0
 10
-32.6166176639
 20
33.8491134981
 30
0.0
 10
-32.6039746413
 20
33.8560576855
 30
0.0
  0
SPLINE
  5
31A
100
AcDbEntity
  8
RACCORDO
100
AcDbSpline
 62
250
  6
CONTINUOUS
 70
0
 71
3
 72
9
 73
5
 74
0
 42
0.0000001
 43
0.0000001
 44
0.0000000001
 40
0.0
 40
0.0
 40
0.0
 40
0.0
 40
0.2408556304
 40
1.0
 40
1.0
 40
1.0
 40
1.0
 10
-31.0629839868
 20
-3.9523859925
 30
0.0
 10
-31.055276658
 20
-3.9568360428
 30
0.0
 10
-31.0229788256
 20
-3.9747939864
 30
0.0
 10
-30.9895915381
 20
-3.9907669965
 30
0.0
 10
-30.9638482951
 20
-4.0019086492
 30
0.0
  0
SPLINE
  5
31B
100
AcDbEntity
  8
RACCORDO
100
AcDbSpline
 62
250
  6
CONTINUOUS
 70
0
 71
3
 72
9
 73
5
 74
0
 42
0.0000001
 43
0.0000001
 44
0.0000000001
 40
0.0
 40
0.0
 40
0.0
 40
0.0
 40
0.2426629107
 40
1.0
 40
1.0
 40
1.0
 40
1.0
 10
-30.906811163
 20
-4.0248045217
 30
0.0
 10
-30.8871187975
 20
-4.0321266551
 30
0.0
 10
-30.8052062205
 20
-4.0602303999
 30
0.0
 10
-30.7206818378
 20
-4.080562286
 30
0.0
 10
-30.6561020362
 20
-4.0919130162
 30
0.0
  0
SPLINE
  5
31C
100
AcDbEntity
  8
RACCORDO
100
AcDbSpline
 62
250
  6
CONTINUOUS
 70
0
 71
3
 72
9
 73
5
 74
0
 42
0.0000001
 43
0.0000001
 44
0.0000000001
 40
0.0
 40
0.0
 40
0.0
 40
0.0
 40
0.2659248093
 40
1.0
 40
1.0
 40
1.0
 40
1.0
 10
-29.9177947258
 20
-4.188141132
 30
0.0
 10
-29.9062838189
 20
-4.1912218938
 30
0.0
 10
-29.8633545224
 20
-4.2040192799
 30
0.0
 10
-29.8216718125
 20
-4.221592017
 30
0.0
 10
-29.793184608
 20
-4.2380382844
 30
0.0
  0
SPLINE
  5
31D
100
AcDbEntity
  8
RACCORDO
100
AcDbSpline
 62
250
  6
CONTINUOUS
 70
0
 71
3
 72
9
 73
5
 74
0
 42
0.0000001
 43
0.0000001
 44
0.0000000001
 40
0.0
 40
0.0
 40
0.0
 40
0.0
 40
0.4513860012
 40
1.0
 40
1.0
 40
1.0
 40
1.0
 10
-47.8136918379
 20
65.0443758023
 30
0.0
 10
-47.826706588
 20
65.0518920949
 30
0.0
 10
-47.8619341598
 20
65.0577353459
 30
0.0
 10
-47.8939638965
 20
65.0453233955
 30
0.0
 10
-47.9099885594
 20
65.0365554764
 30
0.0
  0
SPLINE
  5
31E
100
AcDbEntity
  8
RACCORDO
100
AcDbSpline
 62
250
  6
CONTINUOUS
 70
0
 71
3
 72
9
 73
5
 74
0
 42
0.0000001
 43
0.0000001
 44
0.0000000001
 40
0.0
 40
0.0
 40
0.0
 40
0.0
 40
0.4514012436
 40
1.0
 40
1.0
 40
1.0
 40
1.0
 10
53.1163977646
 20
-61.9265158452
 30
0.0
 10
53.116398994
 20
-61.9415452237
 30
0.0
 10
53.1038470232
 20
-61.9749736544
 30
0.0
 10
53.0770854311
 20
-61.9965077175
 30
0.0
 10
53.0614812373
 20
-62.0060019248
 30
0.0
  0
SPLINE
  5
31F
100
AcDbEntity
  8
RACCORDO
100
AcDbSpline
 62
250
  6
CONTINUOUS
 70
0
 71
3
 72
9
 73
5
 74
0
 42
0.0000001
 43
0.0000001
 44
0.0000000001
 40
0.0
 40
0.0
 40
0.0
 40
0.0
 40
0.4514170452
 40
1.0
 40
1.0
 40
1.0
 40
1.0
 10
52.6628649228
 20
7.0304710766
 30
0.0
 10
52.6498508737
 20
7.0379547632
 30
0.0
 10
52.6146665954
 20
7.0437437319
 30
0.0
 10
52.5826807562
 20
7.0313455361
 30
0.0
 10
52.5666761059
 20
7.022588567
 30
0.0
  0
SPLINE
  5
320
100
AcDbEntity
  8
RACCORDO
100
AcDbSpline
 62
250
  6
CONTINUOUS
 70
0
 71
3
 72
9
 73
5
 74
0
 42
0.0000001
 43
0.0000001
 44
0.0000000001
 40
0.0
 40
0.0
 40
0.0
 40
0.0
 40
0.4514343781
 40
1.0
 40
1.0
 40
1.0
 40
1.0
 10
53.1163976438
 20
6.2449141471
 30
0.0
 10
53.1163691273
 20
6.2299028138
 30
0.0
 10
53.1037901117
 20
6.1965433327
 30
0.0
 10
53.0770646387
 20
6.1750424966
 30
0.0
 10
53.0614812373
 20
6.1655609406
 30
0.0
  0
SPLINE
  5
321
100
AcDbEntity
  8
RACCORDO
100
AcDbSpline
 62
250
  6
CONTINUOUS
 70
0
 71
3
 72
9
 73
5
 74
0
 42
0.0000001
 43
0.0000001
 44
0.0000000001
 40
0.0
 40
0.0
 40
0.0
 40
0.0
 40
0.2403637369
 40
1.0
 40
1.0
 40
1.0
 40
1.0
 10
-32.3358495512
 20
-3.1647417304
 30
0.0
 10
-32.3432246528
 20
-3.1673876563
 30
0.0
 10
-32.3736285393
 20
-3.1791691083
 30
0.0
 10
-32.4028705725
 20
-3.1938664059
 30
0.0
 10
-32.4243147568
 20
-3.2062491996
 30
0.0
  0
SPLINE
  5
322
100
AcDbEntity
  8
RACCORDO
100
AcDbSpline
 62
250
  6
CONTINUOUS
 70
0
 71
3
 72
11
 73
7
 74
0
 42
0.0000001
 43
0.0000001
 44
0.0000000001
 40
0.0
 40
0.0
 40
0.0
 40
0.0
 40
0.2372371052
 40
0.498924496
 40
0.7612144972
 40
1.0
 40
1.0
 40
1.0
 40
1.0
 10
-31.3534778873
 20
12.6527528631
 30
0.0
 10
-31.3331652429
 20
12.6414229103
 30
0.0
 10
-31.2947903663
 20
12.609703534
 30
0.0
 10
-31.2506322122
 20
12.5487721098
 30
0.0
 10
-31.221306838
 20
12.4793085949
 30
0.0
 10
-31.2138696006
 20
12.4298919975
 30
0.0
 10
-31.214545461
 20
12.4064911593
 30
0.0
  0
LINE
  5
323
100
AcDbEntity
  8
RACCORDO
100
AcDbLine
 62
250
  6
CONTINUOUS
 10
-32.424321427
 20
2.0438661119
 11
-31.4492265045
 21
2.6348818862
  0
SPLINE
  5
324
100
AcDbEntity
  8
RACCORDO
100
AcDbSpline
 62
250
  6
CONTINUOUS
 70
0
 71
3
 72
9
 73
5
 74
0
 42
0.0000001
 43
0.0000001
 44
0.0000000001
 40
0.0
 40
0.0
 40
0.0
 40
0.0
 40
0.232651889
 40
1.0
 40
1.0
 40
1.0
 40
1.0
 10
-31.4492265045
 20
-0.8387101932
 30
0.0
 10
-31.4492270257
 20
-0.8493604773
 30
0.0
 10
-31.4517717245
 20
-0.8951321838
 30
0.0
 10
-31.463240719
 20
-0.9401514177
 30
0.0
 10
-31.4753714648
 20
-0.9731178413
 30
0.0
  0
SPLINE
  5
325
100
AcDbEntity
  8
RACCORDO
100
AcDbSpline
 62
250
  6
CONTINUOUS
 70
0
 71
3
 72
9
 73
5
 74
0
 42
0.0000001
 43
0.0000001
 44
0.0000000001
 40
0.0
 40
0.0
 40
0.0
 40
0.0
 40
0.2566742438
 40
1.0
 40
1.0
 40
1.0
 40
1.0
 10
-31.7093101445
 20
-1.4139280379
 30
0.0
 10
-31.7169512664
 20
-1.4313841754
 30
0.0
 10
-31.7450859677
 20
-1.5000873278
 30
0.0
 10
-31.766677921
 20
-1.5715459183
 30
0.0
 10
-31.7780863511
 20
-1.6255376438
 30
0.0
  0
SPLINE
  5
326
100
AcDbEntity
  8
RACCORDO
100
AcDbSpline
 62
250
  6
CONTINUOUS
 70
0
 71
3
 72
9
 73
5
 74
0
 42
0.0000001
 43
0.0000001
 44
0.0000000001
 40
0.0
 40
0.0
 40
0.0
 40
0.0
 40
0.2610328795
 40
1.0
 40
1.0
 40
1.0
 40
1.0
 10
-31.7780863511
 20
-1.6255376438
 30
0.0
 10
-31.7811171487
 20
-1.6398812467
 30
0.0
 10
-31.7914583088
 20
-1.6950802276
 30
0.0
 10
-31.7966064723
 20
-1.7513365359
 30
0.0
 10
-31.7966085977
 20
-1.79283892
 30
0.0
  0
SPLINE
  5
327
100
AcDbEntity
  8
RACCORDO
100
AcDbSpline
 62
250
  6
CONTINUOUS
 70
0
 71
3
 72
9
 73
5
 74
0
 42
0.0000001
 43
0.0000001
 44
0.0000000001
 40
0.0
 40
0.0
 40
0.0
 40
0.0
 40
0.2324259118
 40
1.0
 40
1.0
 40
1.0
 40
1.0
 10
-31.4492265045
 20
9.1102592205
 30
0.0
 10
-31.4492250063
 20
9.1228256432
 30
0.0
 10
-31.446172565
 20
9.1768835561
 30
0.0
 10
-31.4325031621
 20
9.2300373326
 30
0.0
 10
-31.418033962
 20
9.2689331802
 30
0.0
  0
SPLINE
  5
328
100
AcDbEntity
  8
RACCORDO
100
AcDbSpline
 62
250
  6
CONTINUOUS
 70
0
 71
3
 72
9
 73
5
 74
0
 42
0.0000001
 43
0.0000001
 44
0.0000000001
 40
0.0
 40
0.0
 40
0.0
 40
0.0
 40
0.2663363054
 40
1.0
 40
1.0
 40
1.0
 40
1.0
 10
-31.3496947016
 20
9.4003489755
 30
0.0
 10
-31.3400417364
 20
9.4144268029
 30
0.0
 10
-31.3015983028
 20
9.46564616
 30
0.0
 10
-31.2541668305
 20
9.5108469924
 30
0.0
 10
-31.2145454614
 20
9.5361660551
 30
0.0
  0
SPLINE
  5
329
100
AcDbEntity
  8
RACCORDO
100
AcDbSpline
 62
250
  6
CONTINUOUS
 70
0
 71
3
 72
15
 73
11
 74
0
 42
0.0000001
 43
0.0000001
 44
0.0000000001
 40
0.0
 40
0.0
 40
0.0
 40
0.0
 40
0.1428542865
 40
0.2704050516
 40
0.3853924581
 40
0.4935920776
 40
0.6029288217
 40
0.7209312364
 40
0.852691389
 40
1.0
 40
1.0
 40
1.0
 40
1.0
 10
-31.2145454614
 20
12.4064911591
 30
0.0
 10
-31.2292434376
 20
12.3982857736
 30
0.0
 10
-31.2584468328
 20
12.3849983059
 30
0.0
 10
-31.3032021706
 20
12.3751552941
 30
0.0
 10
-31.3450957784
 20
12.377349338
 30
0.0
 10
-31.3822120291
 20
12.39215357
 30
0.0
 10
-31.4122575401
 20
12.4189932542
 30
0.0
 10
-31.4338727364
 20
12.4560291437
 30
0.0
 10
-31.446698675
 20
12.5014183787
 30
0.0
 10
-31.4492255033
 20
12.5344072154
 30
0.0
 10
-31.4492265045
 20
12.5517653581
 30
0.0
  0
SPLINE
  5
32A
100
AcDbEntity
  8
RACCORDO
100
AcDbSpline
 62
250
  6
CONTINUOUS
 70
0
 71
3
 72
9
 73
5
 74
0
 42
0.0000001
 43
0.0000001
 44
0.0000000001
 40
0.0
 40
0.0
 40
0.0
 40
0.0
 40
0.2744945721
 40
1.0
 40
1.0
 40
1.0
 40
1.0
 10
-31.3534778873
 20
12.6527528631
 30
0.0
 10
-31.3567977723
 20
12.6508155328
 30
0.0
 10
-31.3691607699
 20
12.644285395
 30
0.0
 10
-31.3829707561
 20
12.6400625124
 30
0.0
 10
-31.3931104587
 20
12.6394298455
 30
0.0
  0
LINE
  5
32B
100
AcDbEntity
  8
RACCORDO
100
AcDbLine
 62
250
  6
CONTINUOUS
 10
-31.4492265045
 20
35.3565482283
 11
-32.4243214271
 21
34.7815411552
  0
LINE
  5
32C
100
AcDbEntity
  8
RACCORDO
100
AcDbLine
 62
250
  6
CONTINUOUS
 10
-31.4492265045
 20
3.5142074333
 11
-32.4243214271
 21
2.9392003602
  0
LINE
  5
32D
100
AcDbEntity
  8
RACCORDO
100
AcDbLine
 62
250
  6
CONTINUOUS
 10
-32.424321427
 20
33.8862069068
 11
-31.4492265045
 21
34.4772226811
  0
SPLINE
  5
32E
100
AcDbEntity
  8
RACCORDO
100
AcDbSpline
 62
250
  6
CONTINUOUS
 70
0
 71
3
 72
9
 73
5
 74
0
 42
0.0000001
 43
0.0000001
 44
0.0000000001
 40
0.0
 40
0.0
 40
0.0
 40
0.0
 40
0.5487416148
 40
1.0
 40
1.0
 40
1.0
 40
1.0
 10
-28.7911649987
 20
6.7240190968
 30
0.0
 10
-28.7910252342
 20
6.7052757784
 30
0.0
 10
-28.7953991919
 20
6.670293211
 30
0.0
 10
-28.8179445344
 20
6.6413713303
 30
0.0
 10
-28.8311154111
 20
6.6333638308
 30
0.0
  0
SPLINE
  5
32F
100
AcDbEntity
  8
RACCORDO
100
AcDbSpline
 62
250
  6
CONTINUOUS
 70
0
 71
3
 72
9
 73
5
 74
0
 42
0.0000001
 43
0.0000001
 44
0.0000000001
 40
0.0
 40
0.0
 40
0.0
 40
0.0
 40
0.68508714
 40
1.0
 40
1.0
 40
1.0
 40
1.0
 10
-28.4772150132
 20
7.029831205
 30
0.0
 10
-28.4708470818
 20
7.0229478879
 30
0.0
 10
-28.4626966785
 20
7.0141204378
 30
0.0
 10
-28.4550490358
 20
6.9984643639
 30
0.0
 10
-28.4575289126
 20
6.9949388135
 30
0.0
  0
SPLINE
  5
330
100
AcDbEntity
  8
RACCORDO
100
AcDbSpline
 62
250
  6
CONTINUOUS
 70
0
 71
3
 72
9
 73
5
 74
0
 42
0.0000001
 43
0.0000001
 44
0.0000000001
 40
0.0
 40
0.0
 40
0.0
 40
0.0
 40
0.6851664348
 40
1.0
 40
1.0
 40
1.0
 40
1.0
 10
-27.9393067723
 20
7.794074773
 30
0.0
 10
-27.9329374669
 20
7.7871899705
 30
0.0
 10
-27.9247854884
 20
7.7783657423
 30
0.0
 10
-27.917140003
 20
7.762699828
 30
0.0
 10
-27.9196238475
 20
7.7591778725
 30
0.0
  0
SPLINE
  5
331
100
AcDbEntity
  8
RACCORDO
100
AcDbSpline
 62
250
  6
CONTINUOUS
 70
0
 71
3
 72
9
 73
5
 74
0
 42
0.0000001
 43
0.0000001
 44
0.0000000001
 40
0.0
 40
0.0
 40
0.0
 40
0.0
 40
0.5493426898
 40
1.0
 40
1.0
 40
1.0
 40
1.0
 10
-27.8504276263
 20
8.0478598011
 30
0.0
 10
-27.8345123476
 20
8.0573755816
 30
0.0
 10
-27.8071986398
 20
8.0789896298
 30
0.0
 10
-27.7943030748
 20
8.1128652486
 30
0.0
 10
-27.7943044346
 20
8.1280772082
 30
0.0
  0
SPLINE
  5
332
100
AcDbEntity
  8
RACCORDO
100
AcDbSpline
 62
250
  6
CONTINUOUS
 70
0
 71
3
 72
9
 73
5
 74
0
 42
0.0000001
 43
0.0000001
 44
0.0000000001
 40
0.0
 40
0.0
 40
0.0
 40
0.0
 40
0.5493322576
 40
1.0
 40
1.0
 40
1.0
 40
1.0
 10
-27.8504276263
 20
8.3283543026
 30
0.0
 10
-27.8345188097
 20
8.3378662178
 30
0.0
 10
-27.8072163801
 20
8.3594701147
 30
0.0
 10
-27.7943123861
 20
8.3933242595
 30
0.0
 10
-27.7943044435
 20
8.4085306808
 30
0.0
  0
SPLINE
  5
333
100
AcDbEntity
  8
RACCORDO
100
AcDbSpline
 62
250
  6
CONTINUOUS
 70
0
 71
3
 72
10
 73
6
 74
0
 42
0.0000001
 43
0.0000001
 44
0.0000000001
 40
0.0
 40
0.0
 40
0.0
 40
0.0
 40
0.2508076981
 40
0.5149539274
 40
1.0
 40
1.0
 40
1.0
 40
1.0
 10
-28.0137445345
 20
8.4698417611
 30
0.0
 10
-28.0096327267
 20
8.4941030481
 30
0.0
 10
-28.0099630296
 20
8.5456890284
 30
0.0
 10
-28.0368831814
 20
8.6402034709
 30
0.0
 10
-28.0855291908
 20
8.70381926
 30
0.0
 10
-28.1270033108
 20
8.7271558619
 30
0.0
  0
SPLINE
  5
334
100
AcDbEntity
  8
RACCORDO
100
AcDbSpline
 62
250
  6
CONTINUOUS
 70
0
 71
3
 72
10
 73
6
 74
0
 42
0.0000001
 43
0.0000001
 44
0.0000000001
 40
0.0
 40
0.0
 40
0.0
 40
0.0
 40
0.6810296868
 40
0.8791641691
 40
1.0
 40
1.0
 40
1.0
 40
1.0
 10
-29.6640110724
 20
8.7884723997
 30
0.0
 10
-29.6575286048
 20
8.7814964823
 30
0.0
 10
-29.6493731313
 20
8.7720312757
 30
0.0
 10
-29.6428309138
 20
8.7597398525
 30
0.0
 10
-29.6428075448
 20
8.7547130588
 30
0.0
 10
-29.6437897304
 20
8.7533381906
 30
0.0
  0
SPLINE
  5
335
100
AcDbEntity
  8
RACCORDO
100
AcDbSpline
 62
250
  6
CONTINUOUS
 70
0
 71
3
 72
9
 73
5
 74
0
 42
0.0000001
 43
0.0000001
 44
0.0000000001
 40
0.0
 40
0.0
 40
0.0
 40
0.0
 40
0.5500821771
 40
1.0
 40
1.0
 40
1.0
 40
1.0
 10
-29.5743423902
 20
9.0418015595
 30
0.0
 10
-29.5581145673
 20
9.0513362778
 30
0.0
 10
-29.5302464627
 20
9.0730246712
 30
0.0
 10
-29.5170008626
 20
9.1073464157
 30
0.0
 10
-29.5170015595
 20
9.1227408043
 30
0.0
  0
SPLINE
  5
336
100
AcDbEntity
  8
RACCORDO
100
AcDbSpline
 62
250
  6
CONTINUOUS
 70
0
 71
3
 72
9
 73
5
 74
0
 42
0.0000001
 43
0.0000001
 44
0.0000000001
 40
0.0
 40
0.0
 40
0.0
 40
0.0
 40
0.5500720468
 40
1.0
 40
1.0
 40
1.0
 40
1.0
 10
-29.5743423902
 20
9.322296061
 30
0.0
 10
-29.5581207506
 20
9.3318271446
 30
0.0
 10
-29.5302634837
 20
9.353505996
 30
0.0
 10
-29.5170098199
 20
9.3878071547
 30
0.0
 10
-29.5170015691
 20
9.4031963046
 30
0.0
  0
SPLINE
  5
337
100
AcDbEntity
  8
RACCORDO
100
AcDbSpline
 62
250
  6
CONTINUOUS
 70
0
 71
3
 72
10
 73
6
 74
0
 42
0.0000001
 43
0.0000001
 44
0.0000000001
 40
0.0
 40
0.0
 40
0.0
 40
0.0
 40
0.2510715645
 40
0.5155165424
 40
1.0
 40
1.0
 40
1.0
 40
1.0
 10
-29.7391100842
 20
9.4646211851
 30
0.0
 10
-29.734953351
 20
9.4889054703
 30
0.0
 10
-29.7351570809
 20
9.5405489371
 30
0.0
 10
-29.7616725635
 20
9.6351695051
 30
0.0
 10
-29.809847092
 20
9.6991150188
 30
0.0
 10
-29.8511509903
 20
9.7226571233
 30
0.0
  0
SPLINE
  5
338
100
AcDbEntity
  8
RACCORDO
100
AcDbSpline
 62
7
  6
CONTINUOUS
 70
0
 71
3
 72
9
 73
5
 74
0
 42
0.0000001
 43
0.0000001
 44
0.0000000001
 40
0.0
 40
0.0
 40
0.0
 40
0.0
 40
0.2831574819
 40
1.0
 40
1.0
 40
1.0
 40
1.0
 10
-28.7105892973
 20
6.0270863326
 30
0.0
 10
-28.7109290291
 20
6.0278371851
 30
0.0
 10
-28.7122509522
 20
6.0304186784
 30
0.0
 10
-28.7142824916
 20
6.0327303547
 30
0.0
 10
-28.716089632
 20
6.0337730573
 30
0.0
  0
SPLINE
  5
339
100
AcDbEntity
  8
RACCORDO
100
AcDbSpline
 62
250
  6
CONTINUOUS
 70
0
 71
3
 72
8
 73
4
 74
0
 42
0.0000001
 43
0.0000001
 44
0.0000000001
 40
0.0
 40
0.0
 40
0.0
 40
0.0
 40
1.0
 40
1.0
 40
1.0
 40
1.0
 10
-28.2228056239
 20
5.9128902118
 30
0.0
 10
-28.2338300082
 20
5.9192780389
 30
0.0
 10
-28.2459194887
 20
5.9241038368
 30
0.0
 10
-28.2583233123
 20
5.9270170043
 30
0.0
  0
SPLINE
  5
33A
100
AcDbEntity
  8
RACCORDO
100
AcDbSpline
 62
250
  6
CONTINUOUS
 70
0
 71
3
 72
9
 73
5
 74
0
 42
0.0000001
 43
0.0000001
 44
0.0000000001
 40
0.0
 40
0.0
 40
0.0
 40
0.0
 40
0.570327805
 40
1.0
 40
1.0
 40
1.0
 40
1.0
 10
-28.0137445345
 20
4.7598383485
 30
0.0
 10
-28.0107635941
 20
4.7458142398
 30
0.0
 10
-28.0077813183
 20
4.7202413159
 30
0.0
 10
-28.0191419556
 20
4.6953325787
 30
0.0
 10
-28.027344327
 20
4.6883045401
 30
0.0
  0
SPLINE
  5
33B
100
AcDbEntity
  8
RACCORDO
100
AcDbSpline
 62
250
  6
CONTINUOUS
 70
0
 71
3
 72
9
 73
5
 74
0
 42
0.0000001
 43
0.0000001
 44
0.0000000001
 40
0.0
 40
0.0
 40
0.0
 40
0.0
 40
0.5493426898
 40
1.0
 40
1.0
 40
1.0
 40
1.0
 10
-27.8504276263
 20
5.0966208926
 30
0.0
 10
-27.8345123476
 20
5.1061366731
 30
0.0
 10
-27.8071986398
 20
5.1277507213
 30
0.0
 10
-27.7943030748
 20
5.1616263401
 30
0.0
 10
-27.7943044346
 20
5.1768382998
 30
0.0
  0
SPLINE
  5
33C
100
AcDbEntity
  8
RACCORDO
100
AcDbSpline
 62
250
  6
CONTINUOUS
 70
0
 71
3
 72
9
 73
5
 74
0
 42
0.0000001
 43
0.0000001
 44
0.0000000001
 40
0.0
 40
0.0
 40
0.0
 40
0.0
 40
0.5493363576
 40
1.0
 40
1.0
 40
1.0
 40
1.0
 10
-27.8504276263
 20
5.3771153941
 30
0.0
 10
-27.8345162762
 20
5.3866288256
 30
0.0
 10
-27.807209426
 20
5.4082367028
 30
0.0
 10
-27.7943087335
 20
5.4420992659
 30
0.0
 10
-27.794304437
 20
5.457307859
 30
0.0
  0
SPLINE
  5
33D
100
AcDbEntity
  8
RACCORDO
100
AcDbSpline
 62
250
  6
CONTINUOUS
 70
0
 71
3
 72
9
 73
5
 74
0
 42
0.0000001
 43
0.0000001
 44
0.0000000001
 40
0.0
 40
0.0
 40
0.0
 40
0.0
 40
0.506292358
 40
1.0
 40
1.0
 40
1.0
 40
1.0
 10
-27.9393067723
 20
5.5246183438
 30
0.0
 10
-27.9282289449
 20
5.5498396655
 30
0.0
 10
-27.9147744879
 20
5.603737859
 30
0.0
 10
-27.9199214415
 20
5.6592079178
 30
0.0
 10
-27.9274165627
 20
5.6850032909
 30
0.0
  0
SPLINE
  5
33E
100
AcDbEntity
  8
RACCORDO
100
AcDbSpline
 62
250
  6
CONTINUOUS
 70
0
 71
3
 72
9
 73
5
 74
0
 42
0.0000001
 43
0.0000001
 44
0.0000000001
 40
0.0
 40
0.0
 40
0.0
 40
0.0
 40
0.5158066174
 40
1.0
 40
1.0
 40
1.0
 40
1.0
 10
-27.9274165627
 20
5.6850032909
 30
0.0
 10
-27.932717251
 20
5.7032462559
 30
0.0
 10
-27.9479171769
 20
5.7374655612
 30
0.0
 10
-27.9733785484
 20
5.7652262893
 30
0.0
 10
-27.9876423263
 20
5.7759297773
 30
0.0
  0
SPLINE
  5
33F
100
AcDbEntity
  8
RACCORDO
100
AcDbSpline
 62
250
  6
CONTINUOUS
 70
0
 71
3
 72
11
 73
7
 74
0
 42
0.0000001
 43
0.0000001
 44
0.0000000001
 40
0.0
 40
0.0
 40
0.0
 40
0.0
 40
0.2667310001
 40
0.5280856628
 40
0.7733419204
 40
1.0
 40
1.0
 40
1.0
 40
1.0
 10
-28.4772150132
 20
5.6456288437
 30
0.0
 10
-28.4668219438
 20
5.6692911465
 30
0.0
 10
-28.4537052197
 20
5.7197884417
 30
0.0
 10
-28.4583040665
 20
5.795847978
 30
0.0
 10
-28.4865559138
 20
5.8627395087
 30
0.0
 10
-28.520915203
 20
5.8955203443
 30
0.0
 10
-28.5399670158
 20
5.9064442477
 30
0.0
  0
SPLINE
  5
340
100
AcDbEntity
  8
RACCORDO
100
AcDbSpline
 62
250
  6
CONTINUOUS
 70
0
 71
3
 72
11
 73
7
 74
0
 42
0.0000001
 43
0.0000001
 44
0.0000000001
 40
0.0
 40
0.0
 40
0.0
 40
0.0
 40
0.2372268474
 40
0.4994453218
 40
0.7619661539
 40
1.0
 40
1.0
 40
1.0
 40
1.0
 10
-28.7911649987
 20
5.5760181623
 30
0.0
 10
-28.7909933707
 20
5.5992395566
 30
0.0
 10
-28.7994798147
 20
5.6482361304
 30
0.0
 10
-28.8299863007
 20
5.716941236
 30
0.0
 10
-28.8748957533
 20
5.7773241152
 30
0.0
 10
-28.9134490743
 20
5.8088858706
 30
0.0
 10
-28.9337988403
 20
5.8202359719
 30
0.0
  0
SPLINE
  5
341
100
AcDbEntity
  8
RACCORDO
100
AcDbSpline
 62
250
  6
CONTINUOUS
 70
0
 71
3
 72
11
 73
7
 74
0
 42
0.0000001
 43
0.0000001
 44
0.0000000001
 40
0.0
 40
0.0
 40
0.0
 40
0.0
 40
0.2188627617
 40
0.4547975969
 40
0.7144039066
 40
1.0
 40
1.0
 40
1.0
 40
1.0
 10
-48.2189993206
 20
65.090162096
 30
0.0
 10
-48.1967829877
 20
65.0980077686
 30
0.0
 10
-48.1479772809
 20
65.1074136155
 30
0.0
 10
-48.0705805026
 20
65.1020141255
 30
0.0
 10
-47.9893641717
 20
65.0782822687
 30
0.0
 10
-47.9365163273
 20
65.0520967014
 30
0.0
 10
-47.9099885594
 20
65.0365554764
 30
0.0
  0
SPLINE
  5
342
100
AcDbEntity
  8
RACCORDO
100
AcDbSpline
 62
250
  6
CONTINUOUS
 70
0
 71
3
 72
9
 73
5
 74
0
 42
0.0000001
 43
0.0000001
 44
0.0000000001
 40
0.0
 40
0.0
 40
0.0
 40
0.0
 40
0.4564687331
 40
1.0
 40
1.0
 40
1.0
 40
1.0
 10
-28.4772150132
 20
5.6456288437
 30
0.0
 10
-28.5257886098
 20
5.6565553897
 30
0.0
 10
-28.638899003
 20
5.6511836165
 30
0.0
 10
-28.7400529685
 20
5.6060527621
 30
0.0
 10
-28.7911649987
 20
5.5760181623
 30
0.0
  0
SPLINE
  5
343
100
AcDbEntity
  8
RACCORDO
100
AcDbSpline
 62
250
  6
CONTINUOUS
 70
0
 71
3
 72
11
 73
7
 74
0
 42
0.0000001
 43
0.0000001
 44
0.0000000001
 40
0.0
 40
0.0
 40
0.0
 40
0.0
 40
0.2958043372
 40
0.5525973475
 40
0.7802369395
 40
1.0
 40
1.0
 40
1.0
 40
1.0
 10
-27.8504276263
 20
5.3771153941
 30
0.0
 10
-27.850428118
 20
5.3954386767
 30
0.0
 10
-27.8536338301
 20
5.4298535364
 30
0.0
 10
-27.8706736273
 20
5.4758672196
 30
0.0
 10
-27.8998324803
 20
5.5098419071
 30
0.0
 10
-27.926025961
 20
5.5216294524
 30
0.0
 10
-27.9393067723
 20
5.5246183438
 30
0.0
  0
SPLINE
  5
344
100
AcDbEntity
  8
RACCORDO
100
AcDbSpline
 62
250
  6
CONTINUOUS
 70
0
 71
3
 72
11
 73
7
 74
0
 42
0.0000001
 43
0.0000001
 44
0.0000000001
 40
0.0
 40
0.0
 40
0.0
 40
0.0
 40
0.2486779603
 40
0.5112604843
 40
0.7678632618
 40
1.0
 40
1.0
 40
1.0
 40
1.0
 10
-28.0137445345
 20
4.7598383485
 30
0.0
 10
-27.9896001719
 20
4.7805669129
 30
0.0
 10
-27.9451482259
 20
4.8293763373
 30
0.0
 10
-27.893851174
 20
4.9138144794
 30
0.0
 10
-27.8598357607
 20
5.0043169851
 30
0.0
 10
-27.850429591
 20
5.0669158206
 30
0.0
 10
-27.8504276263
 20
5.0966208926
 30
0.0
  0
SPLINE
  5
345
100
AcDbEntity
  8
RACCORDO
100
AcDbSpline
 62
250
  6
CONTINUOUS
 70
0
 71
3
 72
12
 73
8
 74
0
 42
0.0000001
 43
0.0000001
 44
0.0000000001
 40
0.0
 40
0.0
 40
0.0
 40
0.0
 40
0.2884453149
 40
0.52606299
 40
0.6365018495
 40
0.7489156374
 40
1.0
 40
1.0
 40
1.0
 40
1.0
 10
-27.8504276263
 20
8.3283543026
 30
0.0
 10
-27.8504292436
 20
8.3534014663
 30
0.0
 10
-27.8558979486
 20
8.3996792397
 30
0.0
 10
-27.8858870829
 20
8.4492812388
 30
0.0
 10
-27.9201562137
 20
8.4711088679
 30
0.0
 10
-27.9603855109
 20
8.4820527146
 30
0.0
 10
-27.9930850318
 20
8.4768097182
 30
0.0
 10
-28.0137445345
 20
8.4698417611
 30
0.0
  0
SPLINE
  5
346
100
AcDbEntity
  8
RACCORDO
100
AcDbSpline
 62
250
  6
CONTINUOUS
 70
0
 71
3
 72
9
 73
5
 74
0
 42
0.0000001
 43
0.0000001
 44
0.0000000001
 40
0.0
 40
0.0
 40
0.0
 40
0.0
 40
0.5252578563
 40
1.0
 40
1.0
 40
1.0
 40
1.0
 10
-27.9015771337
 20
7.8565488924
 30
0.0
 10
-27.8856456422
 20
7.8876046583
 30
0.0
 10
-27.8609999269
 20
7.9498249095
 30
0.0
 10
-27.8504289816
 20
8.0163128392
 30
0.0
 10
-27.8504276263
 20
8.0478598011
 30
0.0
  0
SPLINE
  5
347
100
AcDbEntity
  8
RACCORDO
100
AcDbSpline
 62
250
  6
CONTINUOUS
 70
0
 71
3
 72
9
 73
5
 74
0
 42
0.0000001
 43
0.0000001
 44
0.0000000001
 40
0.0
 40
0.0
 40
0.0
 40
0.0
 40
0.2333146737
 40
1.0
 40
1.0
 40
1.0
 40
1.0
 10
-28.7911649987
 20
6.7240190968
 30
0.0
 10
-28.7690798897
 20
6.7374505697
 30
0.0
 10
-28.6773867748
 20
6.7998696046
 30
0.0
 10
-28.5974823292
 20
6.8786749839
 30
0.0
 10
-28.5430697206
 20
6.9438987228
 30
0.0
  0
SPLINE
  5
348
100
AcDbEntity
  8
RACCORDO
100
AcDbSpline
 62
250
  6
CONTINUOUS
 70
0
 71
3
 72
9
 73
5
 74
0
 42
0.0000001
 43
0.0000001
 44
0.0000000001
 40
0.0
 40
0.0
 40
0.0
 40
0.0
 40
0.4567620888
 40
1.0
 40
1.0
 40
1.0
 40
1.0
 10
-28.5399670158
 20
5.9064442477
 30
0.0
 10
-28.6008811095
 20
5.9202238094
 30
0.0
 10
-28.7426552634
 20
5.9138293448
 30
0.0
 10
-28.8696448221
 20
5.8576705176
 30
0.0
 10
-28.9337988403
 20
5.8202359719
 30
0.0
  0
SPLINE
  5
349
100
AcDbEntity
  8
RACCORDO
100
AcDbSpline
 62
250
  6
CONTINUOUS
 70
0
 71
3
 72
9
 73
5
 74
0
 42
0.0000001
 43
0.0000001
 44
0.0000000001
 40
0.0
 40
0.0
 40
0.0
 40
0.0
 40
0.5304039591
 40
1.0
 40
1.0
 40
1.0
 40
1.0
 10
-30.0738813868
 20
9.8512588628
 30
0.0
 10
-30.0456397893
 20
9.860072629
 30
0.0
 10
-29.9896161701
 20
9.8700036106
 30
0.0
 10
-29.9331979876
 20
9.8577214661
 30
0.0
 10
-29.9096180665
 20
9.8463165679
 30
0.0
  0
SPLINE
  5
34A
100
AcDbEntity
  8
RACCORDO
100
AcDbSpline
 62
250
  6
CONTINUOUS
 70
0
 71
3
 72
9
 73
5
 74
0
 42
0.0000001
 43
0.0000001
 44
0.0000000001
 40
0.0
 40
0.0
 40
0.0
 40
0.0
 40
0.5306118136
 40
1.0
 40
1.0
 40
1.0
 40
1.0
 10
-28.3497337073
 20
8.8557576013
 30
0.0
 10
-28.3217212491
 20
8.8646294269
 30
0.0
 10
-28.2661408977
 20
8.8747321506
 30
0.0
 10
-28.2100764153
 20
8.8627226957
 30
0.0
 10
-28.1866478351
 20
8.8514639948
 30
0.0
  0
SPLINE
  5
34B
100
AcDbEntity
  8
RACCORDO
100
AcDbSpline
 62
250
  6
CONTINUOUS
 70
0
 71
3
 72
12
 73
8
 74
0
 42
0.0000001
 43
0.0000001
 44
0.0000000001
 40
0.0
 40
0.0
 40
0.0
 40
0.0
 40
0.2871253551
 40
0.5246159463
 40
0.6353926113
 40
0.7482552022
 40
1.0
 40
1.0
 40
1.0
 40
1.0
 10
-29.5743423902
 20
9.322296061
 30
0.0
 10
-29.5743440235
 20
9.3473676808
 30
0.0
 10
-29.5799012057
 20
9.3937917093
 30
0.0
 10
-29.6101862623
 20
9.4434602569
 30
0.0
 10
-29.644700626
 20
9.4654102368
 30
0.0
 10
-29.6852369145
 20
9.4765495273
 30
0.0
 10
-29.7182303216
 20
9.4714952722
 30
0.0
 10
-29.7391100842
 20
9.4646211851
 30
0.0
  0
SPLINE
  5
34C
100
AcDbEntity
  8
RACCORDO
100
AcDbSpline
 62
250
  6
CONTINUOUS
 70
0
 71
3
 72
9
 73
5
 74
0
 42
0.0000001
 43
0.0000001
 44
0.0000000001
 40
0.0
 40
0.0
 40
0.0
 40
0.0
 40
0.5252583523
 40
1.0
 40
1.0
 40
1.0
 40
1.0
 10
-29.6259467605
 20
8.8507520586
 30
0.0
 10
-29.6098788283
 20
8.8817161614
 30
0.0
 10
-29.5850057018
 20
8.9438177702
 30
0.0
 10
-29.5743437568
 20
9.0102717413
 30
0.0
 10
-29.5743423902
 20
9.0418015595
 30
0.0
  0
SPLINE
  5
34D
100
AcDbEntity
  8
0
100
AcDbSpline
 62
7
  6
CONTINUOUS
 70
0
 71
3
 72
20
 73
16
 74
0
 42
0.0000001
 43
0.0000001
 44
0.0000000001
 40
0.0
 40
0.0
 40
0.0
 40
0.0
 40
0.2757902429
 40
0.5084175149
 40
0.6953611405
 40
0.7707145898
 40
0.8333669513
 40
0.8839576887
 40
0.9237149507
 40
0.9537417481
 40
0.9749987634
 40
0.9886150569
 40
0.9958821396
 40
0.998021121
 40
1.0
 40
1.0
 40
1.0
 40
1.0
 10
30.6447887622
 20
-40.7309282583
 30
0.0
 10
30.6447887622
 20
-40.7456336907
 30
0.0
 10
30.6437084169
 20
-40.7727642134
 30
0.0
 10
30.6387584951
 20
-40.8095697659
 30
0.0
 10
30.6324309804
 20
-40.8352531116
 30
0.0
 10
30.6267977072
 20
-40.8516487206
 30
0.0
 10
30.6229553968
 20
-40.8609472682
 30
0.0
 10
30.6193238555
 20
-40.8682672639
 30
0.0
 10
30.6160844377
 20
-40.8737944778
 30
0.0
 10
30.6132585215
 20
-40.8778046016
 30
0.0
 10
30.6112028974
 20
-40.8804541549
 30
0.0
 10
30.6094556662
 20
-40.8822061918
 30
0.0
 10
30.6088793863
 20
-40.8828753946
 30
0.0
 10
30.607997917
 20
-40.8833940225
 30
0.0
 10
30.6083157772
 20
-40.8831407575
 30
0.0
 10
30.6084071553
 20
-40.883087997
 30
0.0
  0
SPLINE
  5
34E
100
AcDbEntity
  8
0
100
AcDbSpline
 62
7
  6
CONTINUOUS
 70
0
 71
3
 72
11
 73
7
 74
0
 42
0.0000001
 43
0.0000001
 44
0.0000000001
 40
0.0
 40
0.0
 40
0.0
 40
0.0
 40
0.2372212891
 40
0.5000061068
 40
0.7627876004
 40
1.0
 40
1.0
 40
1.0
 40
1.0
 10
51.8928271549
 20
7.2868293368
 30
0.0
 10
52.0433962773
 20
7.1998926126
 30
0.0
 10
52.3283579588
 20
6.9600596807
 30
0.0
 10
52.6609598574
 20
6.5055525857
 30
0.0
 10
52.888271765
 20
5.9902636922
 30
0.0
 10
52.9534873267
 20
5.6235705635
 30
0.0
 10
52.9534873267
 20
5.4497120316
 30
0.0
  0
SPLINE
  5
34F
100
AcDbEntity
  8
0
100
AcDbSpline
 62
7
  6
CONTINUOUS
 70
0
 71
3
 72
13
 73
9
 74
0
 42
0.0000001
 43
0.0000001
 44
0.0000000001
 40
0.0
 40
0.0
 40
0.0
 40
0.0
 40
0.1052299534
 40
0.2277459704
 40
0.500005826
 40
0.7722644296
 40
0.89477703
 40
1.0
 40
1.0
 40
1.0
 40
1.0
 10
30.1583854111
 20
2.9354047063
 30
0.0
 10
30.1889813837
 20
2.9177389751
 30
0.0
 10
30.2516516977
 20
2.8732732274
 30
0.0
 10
30.3740298843
 20
2.7577900496
 30
0.0
 10
30.5069710497
 20
2.5750085899
 30
0.0
 10
30.5987956769
 20
2.3684893108
 30
0.0
 10
30.6376170425
 20
2.2047688393
 30
0.0
 10
30.6447887622
 20
2.12826517
 30
0.0
 10
30.6447887622
 20
2.0929377595
 30
0.0
  0
SPLINE
  5
350
100
AcDbEntity
  8
0
100
AcDbSpline
 62
7
  6
CONTINUOUS
 70
0
 71
3
 72
20
 73
16
 74
0
 42
0.0000001
 43
0.0000001
 44
0.0000000001
 40
0.0
 40
0.0
 40
0.0
 40
0.0
 40
0.0019893648
 40
0.0041245769
 40
0.0113923002
 40
0.0250125633
 40
0.0462763531
 40
0.0763134844
 40
0.1160801734
 40
0.1666741259
 40
0.2293199842
 40
0.3046737647
 40
0.4916215051
 40
0.7242041474
 40
1.0
 40
1.0
 40
1.0
 40
1.0
 10
-33.1716127359
 20
39.45932668
 30
0.0
 10
-33.1717046266
 20
39.4592736235
 30
0.0
 10
-33.1720842086
 20
39.4591241969
 30
0.0
 10
-33.171195231
 20
39.4596290762
 30
0.0
 10
-33.1703260465
 20
39.4597937088
 30
0.0
 10
-33.1679345716
 20
39.4604314748
 30
0.0
 10
-33.1646095913
 20
39.4608867465
 30
0.0
 10
-33.1597210287
 20
39.4613293628
 30
0.0
 10
-33.1533113283
 20
39.461371485
 30
0.0
 10
-33.1451534034
 20
39.4608566329
 30
0.0
 10
-33.1351765292
 20
39.4595343043
 30
0.0
 10
-33.1181560603
 20
39.4562122276
 30
0.0
 10
-33.0927444368
 20
39.4488477982
 30
0.0
 10
-33.0583853116
 20
39.4347296934
 30
0.0
 10
-33.0343447692
 20
39.4220951214
 30
0.0
 10
-33.0216054879
 20
39.4147396201
 30
0.0
  0
SPLINE
  5
351
100
AcDbEntity
  8
0
100
AcDbSpline
 62
7
  6
CONTINUOUS
 70
0
 71
3
 72
11
 73
7
 74
0
 42
0.0000001
 43
0.0000001
 44
0.0000000001
 40
0.0
 40
0.0
 40
0.0
 40
0.0
 40
0.2898086083
 40
0.549045172
 40
0.7822281915
 40
1.0
 40
1.0
 40
1.0
 40
1.0
 10
52.9534873267
 20
-63.9502614958
 30
0.0
 10
52.9534873267
 20
-64.0262837471
 30
0.0
 10
52.9420100235
 20
-64.1708069375
 30
0.0
 10
52.883411082
 20
-64.3693552865
 30
0.0
 10
52.7849281584
 20
-64.5304922771
 30
0.0
 10
52.6923327564
 20
-64.608299161
 30
0.0
 10
52.6428612857
 20
-64.6368633467
 30
0.0
  0
SPLINE
  5
352
100
AcDbEntity
  8
0
100
AcDbSpline
 62
7
  6
CONTINUOUS
 70
0
 71
3
 72
11
 73
7
 74
0
 42
0.0000001
 43
0.0000001
 44
0.0000000001
 40
0.0
 40
0.0
 40
0.0
 40
0.0
 40
0.2479418697
 40
0.4956563892
 40
0.7449335159
 40
1.0
 40
1.0
 40
1.0
 40
1.0
 10
50.3801216953
 20
-65.9433454861
 30
0.0
 10
50.3051999175
 20
-65.9866043817
 30
0.0
 10
50.1406350118
 20
-66.0497506728
 30
0.0
 10
49.8777913991
 20
-66.0664818469
 30
0.0
 10
49.6182803326
 20
-66.0125272059
 30
0.0
 10
49.4571480315
 20
-65.9383062492
 30
0.0
 10
49.380073375
 20
-65.8938043085
 30
0.0
  0
SPLINE
  5
353
100
AcDbEntity
  8
0
100
AcDbSpline
 62
7
  6
CONTINUOUS
 70
0
 71
3
 72
11
 73
7
 74
0
 42
0.0000001
 43
0.0000001
 44
0.0000000001
 40
0.0
 40
0.0
 40
0.0
 40
0.0
 40
0.2433433252
 40
0.5000090078
 40
0.7566696625
 40
1.0
 40
1.0
 40
1.0
 40
1.0
 10
-52.1604604034
 20
-7.2655727066
 30
0.0
 10
-52.3001031215
 20
-7.1849447513
 30
0.0
 10
-52.5601296316
 20
-6.9711656175
 30
0.0
 10
-52.8599868332
 20
-6.5642611225
 30
0.0
 10
-53.0624380543
 20
-6.1011301422
 30
0.0
 10
-53.1175551045
 20
-5.7690616222
 30
0.0
 10
-53.1175551045
 20
-5.6078221092
 30
0.0
  0
SPLINE
  5
354
100
AcDbEntity
  8
0
100
AcDbSpline
 62
7
  6
CONTINUOUS
 70
0
 71
3
 72
11
 73
7
 74
0
 42
0.0000001
 43
0.0000001
 44
0.0000000001
 40
0.0
 40
0.0
 40
0.0
 40
0.0
 40
0.2550641648
 40
0.5043391559
 40
0.7520499656
 40
1.0
 40
1.0
 40
1.0
 40
1.0
 10
-53.1175551045
 20
63.7921514181
 30
0.0
 10
-53.1175551045
 20
63.881140018
 30
0.0
 10
-53.1012633335
 20
64.0577728703
 30
0.0
 10
-53.0182415047
 20
64.3094603857
 30
0.0
 10
-52.8723503059
 20
64.5287015842
 30
0.0
 10
-52.7354002452
 20
64.6396386308
 30
0.0
 10
-52.6604845635
 20
64.6828940065
 30
0.0
  0
SPLINE
  5
355
100
AcDbEntity
  8
0
100
AcDbSpline
 62
7
  6
CONTINUOUS
 70
0
 71
3
 72
11
 73
7
 74
0
 42
0.0000001
 43
0.0000001
 44
0.0000000001
 40
0.0
 40
0.0
 40
0.0
 40
0.0
 40
0.2177664644
 40
0.4509472482
 40
0.7101858585
 40
1.0
 40
1.0
 40
1.0
 40
1.0
 10
-50.3977407543
 20
65.9893692643
 30
0.0
 10
-50.3482631142
 20
66.0179370122
 30
0.0
 10
-50.2345683805
 20
66.0592329376
 30
0.0
 10
-50.0457510275
 20
66.0639533581
 30
0.0
 10
-49.8444730028
 20
66.015415891
 30
0.0
 10
-49.7135538472
 20
65.9530803004
 30
0.0
 10
-49.6477066235
 20
65.9150609386
 30
0.0
  0
SPLINE
  5
356
100
AcDbEntity
  8
0
100
AcDbSpline
 62
7
  6
CONTINUOUS
 70
0
 71
3
 72
11
 73
7
 74
0
 42
0.0000001
 43
0.0000001
 44
0.0000000001
 40
0.0
 40
0.0
 40
0.0
 40
0.0
 40
0.2372200919
 40
0.4999938933
 40
0.7627710182
 40
1.0
 40
1.0
 40
1.0
 40
1.0
 10
-32.6594662055
 20
-3.2717343205
 30
0.0
 10
-32.6594662055
 20
-3.3412800135
 30
0.0
 10
-32.6333813352
 20
-3.4879579106
 30
0.0
 10
-32.5424528987
 20
-3.6940692031
 30
0.0
 10
-32.4094176694
 20
-3.87587309
 30
0.0
 10
-32.2954317606
 20
-3.9718054126
 30
0.0
 10
-32.2352021368
 20
-4.0065812425
 30
0.0
  0
SPLINE
  5
357
100
AcDbEntity
  8
0
100
AcDbSpline
 62
250
  6
CONTINUOUS
 70
0
 71
3
 72
11
 73
7
 74
0
 42
0.0000001
 43
0.0000001
 44
0.0000000001
 40
0.0
 40
0.0
 40
0.0
 40
0.0
 40
0.2177715893
 40
0.4509281864
 40
0.7102220722
 40
1.0
 40
1.0
 40
1.0
 40
1.0
 10
30.6084057538
 20
-40.8830855698
 30
0.0
 10
30.5886143341
 20
-40.8945128835
 30
0.0
 10
30.5431370201
 20
-40.9110240677
 30
0.0
 10
30.4676074
 20
-40.9129260365
 30
0.0
 10
30.3870987777
 20
-40.8934984729
 30
0.0
 10
30.3347281244
 20
-40.8685690579
 30
0.0
 10
30.3083926592
 20
-40.8533632904
 30
0.0
  0
SPLINE
  5
358
100
AcDbEntity
  8
0
100
AcDbSpline
 62
250
  6
CONTINUOUS
 70
0
 71
3
 72
15
 73
11
 74
0
 42
0.0000001
 43
0.0000001
 44
0.0000000001
 40
0.0
 40
0.0
 40
0.0
 40
0.0
 40
0.1449036733
 40
0.2745328298
 40
0.3911248448
 40
0.5000110984
 40
0.6088953336
 40
0.7254819912
 40
0.8551039262
 40
1.0
 40
1.0
 40
1.0
 40
1.0
 10
-52.2640017139
 20
63.9962098049
 30
0.0
 10
-52.3078956746
 20
64.0215536277
 30
0.0
 10
-52.3951776451
 20
64.0631035375
 30
0.0
 10
-52.5293276537
 20
64.095483744
 30
0.0
 10
-52.6552858666
 20
64.0922911497
 30
0.0
 10
-52.7673951933
 20
64.0516448629
 30
0.0
 10
-52.8586580474
 20
63.9748900364
 30
0.0
 10
-52.9244090539
 20
63.8674132518
 30
0.0
 10
-52.9634478018
 20
63.7350546796
 30
0.0
 10
-52.9711084951
 20
63.6386966597
 30
0.0
 10
-52.9711084951
 20
63.5880141215
 30
0.0
  0
SPLINE
  5
359
100
AcDbEntity
  8
0
100
AcDbSpline
 62
250
  6
CONTINUOUS
 70
0
 71
3
 72
11
 73
7
 74
0
 42
0.0000001
 43
0.0000001
 44
0.0000000001
 40
0.0
 40
0.0
 40
0.0
 40
0.0
 40
0.2372127525
 40
0.4999938952
 40
0.7627783571
 40
1.0
 40
1.0
 40
1.0
 40
1.0
 10
49.9836388457
 20
4.143233333
 30
0.0
 10
49.9836388457
 20
4.2591392769
 30
0.0
 10
49.940163735
 20
4.503601871
 30
0.0
 10
49.7886216332
 20
4.8471276717
 30
0.0
 10
49.5668875597
 20
5.1501330562
 30
0.0
 10
49.3769117015
 20
5.3100202587
 30
0.0
 10
49.2765320645
 20
5.3679782031
 30
0.0
  0
SPLINE
  5
35A
100
AcDbEntity
  8
0
100
AcDbSpline
 62
250
  6
CONTINUOUS
 70
0
 71
3
 72
15
 73
11
 74
0
 42
0.0000001
 43
0.0000001
 44
0.0000000001
 40
0.0
 40
0.0
 40
0.0
 40
0.0
 40
0.1449036733
 40
0.2745328298
 40
0.3911248448
 40
0.5000110984
 40
0.6088953336
 40
0.7254819912
 40
0.8551039262
 40
1.0
 40
1.0
 40
1.0
 40
1.0
 10
49.2765320645
 20
-65.6649358779
 30
0.0
 10
49.3204260252
 20
-65.6902797007
 30
0.0
 10
49.4077079957
 20
-65.7318296104
 30
0.0
 10
49.5418580043
 20
-65.764209817
 30
0.0
 10
49.6678162172
 20
-65.7610172227
 30
0.0
 10
49.7799255439
 20
-65.7203709358
 30
0.0
 10
49.871188398
 20
-65.6436161094
 30
0.0
 10
49.9369394045
 20
-65.5361393247
 30
0.0
 10
49.9759781524
 20
-65.4037807526
 30
0.0
 10
49.9836388457
 20
-65.3074227327
 30
0.0
 10
49.9836388457
 20
-65.2567401944
 30
0.0
  0
SPLINE
  5
35B
100
AcDbEntity
  8
0
100
AcDbSpline
 62
250
  6
CONTINUOUS
 70
0
 71
3
 72
11
 73
7
 74
0
 42
0.0000001
 43
0.0000001
 44
0.0000000001
 40
0.0
 40
0.0
 40
0.0
 40
0.0
 40
0.2177718081
 40
0.450954831
 40
0.7101913958
 40
1.0
 40
1.0
 40
1.0
 40
1.0
 10
50.3801196779
 20
-65.9433419922
 30
0.0
 10
50.4295911359
 20
-65.9147777998
 30
0.0
 10
50.5221865108
 20
-65.8369709093
 30
0.0
 10
50.6206694034
 20
-65.6758339294
 30
0.0
 10
50.679268327
 20
-65.4772856046
 30
0.0
 10
50.6907456269
 20
-65.3327624346
 30
0.0
 10
50.6907456269
 20
-65.2567401944
 30
0.0
  0
SPLINE
  5
35C
100
AcDbEntity
  8
0
100
AcDbSpline
 62
250
  6
CONTINUOUS
 70
0
 71
3
 72
11
 73
7
 74
0
 42
0.0000001
 43
0.0000001
 44
0.0000000001
 40
0.0
 40
0.0
 40
0.0
 40
0.0
 40
0.2372127525
 40
0.4999938952
 40
0.7627783571
 40
1.0
 40
1.0
 40
1.0
 40
1.0
 10
-52.9711084951
 20
-5.8119594059
 30
0.0
 10
-52.9711084951
 20
-5.9278653498
 30
0.0
 10
-52.9276333844
 20
-6.172327944
 30
0.0
 10
-52.7760912826
 20
-6.5158537446
 30
0.0
 10
-52.5543572091
 20
-6.8188591291
 30
0.0
 10
-52.3643813509
 20
-6.9787463317
 30
0.0
 10
-52.2640017139
 20
-7.036704276
 30
0.0
  0
SPLINE
  5
35D
100
AcDbEntity
  8
0
100
AcDbSpline
 62
250
  6
CONTINUOUS
 70
0
 71
3
 72
15
 73
11
 74
0
 42
0.0000001
 43
0.0000001
 44
0.0000000001
 40
0.0
 40
0.0
 40
0.0
 40
0.0
 40
0.144895097
 40
0.2745174532
 40
0.3911043914
 40
0.4999889423
 40
0.6088755268
 40
0.7254678256
 40
0.8550973452
 40
1.0
 40
1.0
 40
1.0
 40
1.0
 10
-33.7201263773
 20
39.1846845633
 30
0.0
 10
-33.7201263773
 20
39.2302985403
 30
0.0
 10
-33.7132318664
 20
39.3170205836
 30
0.0
 10
-33.6780971096
 20
39.4361432459
 30
0.0
 10
-33.6189211716
 20
39.5328727141
 30
0.0
 10
-33.5367843839
 20
39.6019522815
 30
0.0
 10
-33.435885675
 20
39.6385339912
 30
0.0
 10
-33.3225229669
 20
39.6414071393
 30
0.0
 10
-33.2017880963
 20
39.612264879
 30
0.0
 10
-33.1232345612
 20
39.5748699587
 30
0.0
 10
-33.0837302742
 20
39.5520606784
 30
0.0
  0
SPLINE
  5
35E
100
AcDbEntity
  8
0
100
AcDbSpline
 62
250
  6
CONTINUOUS
 70
0
 71
3
 72
11
 73
7
 74
0
 42
0.0000001
 43
0.0000001
 44
0.0000000001
 40
0.0
 40
0.0
 40
0.0
 40
0.0
 40
0.2372210701
 40
0.5000061555
 40
0.7627879224
 40
1.0
 40
1.0
 40
1.0
 40
1.0
 10
-33.0837302742
 20
-4.7414518376
 30
0.0
 10
-33.1740717293
 20
-4.6892898136
 30
0.0
 10
-33.345050054
 20
-4.5453913848
 30
0.0
 10
-33.5446109763
 20
-4.2726863329
 30
0.0
 10
-33.6809988719
 20
-3.9635128154
 30
0.0
 10
-33.7201263773
 20
-3.7434965071
 30
0.0
 10
-33.7201263773
 20
-3.6391814545
 30
0.0
  0
SPLINE
  5
35F
100
AcDbEntity
  8
0
100
AcDbSpline
 62
250
  6
CONTINUOUS
 70
0
 71
3
 72
11
 73
7
 74
0
 42
0.0000001
 43
0.0000001
 44
0.0000000001
 40
0.0
 40
0.0
 40
0.0
 40
0.0
 40
0.2372383085
 40
0.5
 40
0.7627616915
 40
1.0
 40
1.0
 40
1.0
 40
1.0
 10
-33.7201263773
 20
-3.6391814545
 30
0.0
 10
-33.6900101797
 20
-3.6565701695
 30
0.0
 10
-33.619974419
 20
-3.681945699
 30
0.0
 10
-33.5079943429
 20
-3.694103537
 30
0.0
 10
-33.3960142668
 20
-3.681945699
 30
0.0
 10
-33.3259785061
 20
-3.6565701695
 30
0.0
 10
-33.2958623086
 20
-3.6391814545
 30
0.0
  0
SPLINE
  5
360
100
AcDbEntity
  8
0
100
AcDbSpline
 62
250
  6
CONTINUOUS
 70
0
 71
3
 72
11
 73
7
 74
0
 42
0.0000001
 43
0.0000001
 44
0.0000000001
 40
0.0
 40
0.0
 40
0.0
 40
0.0
 40
0.2372324595
 40
0.4999938932
 40
0.7627586504
 40
1.0
 40
1.0
 40
1.0
 40
1.0
 10
-33.0837302742
 20
-4.7414518376
 30
0.0
 10
-33.0837302742
 20
-4.7066771749
 30
0.0
 10
-33.0706864027
 20
-4.6333384873
 30
0.0
 10
-33.0252247314
 20
-4.5302837551
 30
0.0
 10
-32.9587066349
 20
-4.4393844743
 30
0.0
 10
-32.9017146246
 20
-4.3914171997
 30
0.0
 10
-32.8715982398
 20
-4.3740283765
 30
0.0
  0
SPLINE
  5
361
100
AcDbEntity
  8
0
100
AcDbSpline
 62
250
  6
CONTINUOUS
 70
0
 71
3
 72
11
 73
7
 74
0
 42
0.0000001
 43
0.0000001
 44
0.0000000001
 40
0.0
 40
0.0
 40
0.0
 40
0.0
 40
0.2372324595
 40
0.4999938932
 40
0.7627586504
 40
1.0
 40
1.0
 40
1.0
 40
1.0
 10
30.0962606248
 20
-41.2207867514
 30
0.0
 10
30.0962606248
 20
-41.1860120887
 30
0.0
 10
30.1093044963
 20
-41.1126734012
 30
0.0
 10
30.1547661676
 20
-41.009618669
 30
0.0
 10
30.2212842642
 20
-40.9187193882
 30
0.0
 10
30.2782762744
 20
-40.8707521135
 30
0.0
 10
30.3083926592
 20
-40.8533632904
 30
0.0
  0
SPLINE
  5
362
100
AcDbEntity
  8
0
100
AcDbSpline
 62
250
  6
CONTINUOUS
 70
0
 71
3
 72
11
 73
7
 74
0
 42
0.0000001
 43
0.0000001
 44
0.0000000001
 40
0.0
 40
0.0
 40
0.0
 40
0.0
 40
0.2896952569
 40
0.5490778583
 40
0.7822096781
 40
1.0
 40
1.0
 40
1.0
 40
1.0
 10
30.7326567279
 20
-40.8534106363
 30
0.0
 10
30.719492997
 20
-40.845810063
 30
0.0
 10
30.6956103917
 20
-40.8293597206
 30
0.0
 10
30.667067465
 20
-40.7993605682
 30
0.0
 10
30.6490116141
 20
-40.7661741956
 30
0.0
 10
30.6447887622
 20
-40.7423557931
 30
0.0
 10
30.6447887622
 20
-40.7309282583
 30
0.0
  0
SPLINE
  5
363
100
AcDbEntity
  8
0
100
AcDbSpline
 62
250
  6
CONTINUOUS
 70
0
 71
3
 72
11
 73
7
 74
0
 42
0.0000001
 43
0.0000001
 44
0.0000000001
 40
0.0
 40
0.0
 40
0.0
 40
0.0
 40
0.2896952569
 40
0.5490778583
 40
0.7822096781
 40
1.0
 40
1.0
 40
1.0
 40
1.0
 10
30.7326567279
 20
1.9704553815
 30
0.0
 10
30.719492997
 20
1.9780559548
 30
0.0
 10
30.6956103917
 20
1.9945062972
 30
0.0
 10
30.667067465
 20
2.0245054496
 30
0.0
 10
30.6490116141
 20
2.0576918222
 30
0.0
 10
30.6447887622
 20
2.0815102247
 30
0.0
 10
30.6447887622
 20
2.0929377595
 30
0.0
  0
SPLINE
  5
364
100
AcDbEntity
  8
0
100
AcDbSpline
 62
250
  6
CONTINUOUS
 70
0
 71
3
 72
11
 73
7
 74
0
 42
0.0000001
 43
0.0000001
 44
0.0000000001
 40
0.0
 40
0.0
 40
0.0
 40
0.0
 40
0.2897008281
 40
0.5490847291
 40
0.7822142041
 40
1.0
 40
1.0
 40
1.0
 40
1.0
 10
30.0962606248
 20
3.0727257646
 30
0.0
 10
30.0962606248
 20
3.0575271218
 30
0.0
 10
30.0985644828
 20
3.0286225094
 30
0.0
 10
30.1102698777
 20
2.9889087237
 30
0.0
 10
30.1299779754
 20
2.9566824714
 30
0.0
 10
30.1484905861
 20
2.9411178616
 30
0.0
 10
30.1583854111
 20
2.9354047063
 30
0.0
  0
SPLINE
  5
365
100
AcDbEntity
  8
0
100
AcDbSpline
 62
250
  6
CONTINUOUS
 70
0
 71
3
 72
11
 73
7
 74
0
 42
0.0000001
 43
0.0000001
 44
0.0000000001
 40
0.0
 40
0.0
 40
0.0
 40
0.0
 40
0.2897008281
 40
0.5490847291
 40
0.7822142041
 40
1.0
 40
1.0
 40
1.0
 40
1.0
 10
-33.0837302742
 20
39.5520606784
 30
0.0
 10
-33.0837302742
 20
39.5368620356
 30
0.0
 10
-33.0814264162
 20
39.5079574232
 30
0.0
 10
-33.0697210213
 20
39.4682436375
 30
0.0
 10
-33.0500129236
 20
39.4360173852
 30
0.0
 10
-33.0315003129
 20
39.4204527754
 30
0.0
 10
-33.0216054879
 20
39.4147396201
 30
0.0
  0
SPLINE
  5
366
100
AcDbEntity
  8
0
100
AcDbSpline
 62
250
  6
CONTINUOUS
 70
0
 71
3
 72
11
 73
7
 74
0
 42
0.0000001
 43
0.0000001
 44
0.0000000001
 40
0.0
 40
0.0
 40
0.0
 40
0.0
 40
0.2372383085
 40
0.5
 40
0.7627616915
 40
1.0
 40
1.0
 40
1.0
 40
1.0
 10
-33.7201263773
 20
39.1846845633
 30
0.0
 10
-33.6900101797
 20
39.1672958483
 30
0.0
 10
-33.619974419
 20
39.1419203188
 30
0.0
 10
-33.5079943429
 20
39.1297624808
 30
0.0
 10
-33.3960142668
 20
39.1419203188
 30
0.0
 10
-33.3259785061
 20
39.1672958483
 30
0.0
 10
-33.2958623086
 20
39.1846845633
 30
0.0
  0
SPLINE
  5
367
100
AcDbEntity
  8
0
100
AcDbSpline
 62
250
  6
CONTINUOUS
 70
0
 71
3
 72
15
 73
11
 74
0
 42
0.0000001
 43
0.0000001
 44
0.0000000001
 40
0.0
 40
0.0
 40
0.0
 40
0.0
 40
0.144895097
 40
0.2745174532
 40
0.3911043914
 40
0.4999889423
 40
0.6088755268
 40
0.7254678256
 40
0.8550973452
 40
1.0
 40
1.0
 40
1.0
 40
1.0
 10
30.7326567279
 20
-40.8534106363
 30
0.0
 10
30.7326567279
 20
-40.8990246133
 30
0.0
 10
30.725762217
 20
-40.9857466565
 30
0.0
 10
30.6906274602
 20
-41.1048693189
 30
0.0
 10
30.6314515222
 20
-41.201598787
 30
0.0
 10
30.5493147345
 20
-41.2706783545
 30
0.0
 10
30.4484160257
 20
-41.3072600642
 30
0.0
 10
30.3350533175
 20
-41.3101332123
 30
0.0
 10
30.2143184469
 20
-41.2809909519
 30
0.0
 10
30.1357649118
 20
-41.2435960316
 30
0.0
 10
30.0962606248
 20
-41.2207867514
 30
0.0
  0
SPLINE
  5
368
100
AcDbEntity
  8
0
100
AcDbSpline
 62
250
  6
CONTINUOUS
 70
0
 71
3
 72
9
 73
5
 74
0
 42
0.0000001
 43
0.0000001
 44
0.0000000001
 40
0.0
 40
0.0
 40
0.0
 40
0.0
 40
0.2415801629
 40
1.0
 40
1.0
 40
1.0
 40
1.0
 10
30.0962606248
 20
3.0727257646
 30
0.0
 10
30.1067289136
 20
3.0666815059
 30
0.0
 10
30.1495210408
 20
3.0407306808
 30
0.0
 10
30.1901652363
 20
3.0112918002
 30
0.0
 10
30.219717147
 20
2.9874839847
 30
0.0
  0
SPLINE
  5
369
100
AcDbEntity
  8
0
100
AcDbSpline
 62
250
  6
CONTINUOUS
 70
0
 71
3
 72
11
 73
7
 74
0
 42
0.0000001
 43
0.0000001
 44
0.0000000001
 40
0.0
 40
0.0
 40
0.0
 40
0.0
 40
0.2482530857
 40
0.5109091438
 40
0.7677464758
 40
1.0
 40
1.0
 40
1.0
 40
1.0
 10
30.219717147
 20
2.9874839847
 30
0.0
 10
30.2951385361
 20
2.9267224812
 30
0.0
 10
30.4344647544
 20
2.7814490969
 30
0.0
 10
30.5956990352
 20
2.5269384664
 30
0.0
 10
30.7029289892
 20
2.2520627424
 30
0.0
 10
30.7326567279
 20
2.0610655822
 30
0.0
 10
30.7326567279
 20
1.9704553815
 30
0.0
  0
SPLINE
  5
36A
100
AcDbEntity
  8
0
100
AcDbSpline
 62
250
  6
CONTINUOUS
 70
0
 71
3
 72
11
 73
7
 74
0
 42
0.0000001
 43
0.0000001
 44
0.0000000001
 40
0.0
 40
0.0
 40
0.0
 40
0.0
 40
0.2372289829
 40
0.5000061069
 40
0.7627799045
 40
1.0
 40
1.0
 40
1.0
 40
1.0
 10
-32.8715982398
 20
-4.3740283765
 30
0.0
 10
-32.9318278639
 20
-4.3392525464
 30
0.0
 10
-33.0458137727
 20
-4.2433202237
 30
0.0
 10
-33.1788490016
 20
-4.0615163378
 30
0.0
 10
-33.2697774378
 20
-3.8554050456
 30
0.0
 10
-33.2958623085
 20
-3.7087271485
 30
0.0
 10
-33.2958623086
 20
-3.6391814545
 30
0.0
  0
SPLINE
  5
36B
100
AcDbEntity
  8
0
100
AcDbSpline
 62
250
  6
CONTINUOUS
 70
0
 71
3
 72
11
 73
7
 74
0
 42
0.0000001
 43
0.0000001
 44
0.0000000001
 40
0.0
 40
0.0
 40
0.0
 40
0.0
 40
0.2897723602
 40
0.5490642342
 40
0.7822230579
 40
1.0
 40
1.0
 40
1.0
 40
1.0
 10
-33.2958623086
 20
39.1846845633
 30
0.0
 10
-33.2958623086
 20
39.2150894984
 30
0.0
 10
-33.2912657156
 20
39.2728989371
 30
0.0
 10
-33.2678383438
 20
39.352322306
 30
0.0
 10
-33.2284319007
 20
39.4167725091
 30
0.0
 10
-33.1914002818
 20
39.4478983666
 30
0.0
 10
-33.1716113345
 20
39.4593242528
 30
0.0
  0
SPLINE
  5
36C
100
AcDbEntity
  8
0
100
AcDbSpline
 62
250
  6
CONTINUOUS
 70
0
 71
3
 72
11
 73
7
 74
0
 42
0.0000001
 43
0.0000001
 44
0.0000000001
 40
0.0
 40
0.0
 40
0.0
 40
0.0
 40
0.2898141455
 40
0.5490527546
 40
0.7822335352
 40
1.0
 40
1.0
 40
1.0
 40
1.0
 10
-51.9104483233
 20
64.60858224
 30
0.0
 10
-51.9762955567
 20
64.6466016073
 30
0.0
 10
-52.1072147315
 20
64.7089372052
 30
0.0
 10
-52.308492786
 20
64.7574746689
 30
0.0
 10
-52.497310164
 20
64.752754227
 30
0.0
 10
-52.6110049054
 20
64.7114582747
 30
0.0
 10
-52.6604825461
 20
64.6828905125
 30
0.0
  0
SPLINE
  5
36D
100
AcDbEntity
  8
0
100
AcDbSpline
 62
250
  6
CONTINUOUS
 70
0
 71
3
 72
11
 73
7
 74
0
 42
0.0000001
 43
0.0000001
 44
0.0000000001
 40
0.0
 40
0.0
 40
0.0
 40
0.0
 40
0.2372123995
 40
0.4999938932
 40
0.7627787109
 40
1.0
 40
1.0
 40
1.0
 40
1.0
 10
50.6907456269
 20
4.143233333
 30
0.0
 10
50.6907456269
 20
4.3170918648
 30
0.0
 10
50.6255300652
 20
4.6837849936
 30
0.0
 10
50.3982181576
 20
5.1990738871
 30
0.0
 10
50.0656162589
 20
5.6535809821
 30
0.0
 10
49.7806545775
 20
5.893413914
 30
0.0
 10
49.6300854551
 20
5.9803506381
 30
0.0
  0
SPLINE
  5
36E
100
AcDbEntity
  8
0
100
AcDbSpline
 62
250
  6
CONTINUOUS
 70
0
 71
3
 72
11
 73
7
 74
0
 42
0.0000001
 43
0.0000001
 44
0.0000000001
 40
0.0
 40
0.0
 40
0.0
 40
0.0
 40
0.2372200919
 40
0.4999938933
 40
0.7627710182
 40
1.0
 40
1.0
 40
1.0
 40
1.0
 10
49.2765320645
 20
5.3679782031
 30
0.0
 10
49.2765320645
 20
5.4259329473
 30
0.0
 10
49.2982694564
 20
5.5481645282
 30
0.0
 10
49.3740431535
 20
5.7199239386
 30
0.0
 10
49.4849058446
 20
5.8714271777
 30
0.0
 10
49.5798941019
 20
5.9513707799
 30
0.0
 10
49.6300854551
 20
5.9803506381
 30
0.0
  0
SPLINE
  5
36F
100
AcDbEntity
  8
0
100
AcDbSpline
 62
250
  6
CONTINUOUS
 70
0
 71
3
 72
11
 73
7
 74
0
 42
0.0000001
 43
0.0000001
 44
0.0000000001
 40
0.0
 40
0.0
 40
0.0
 40
0.0
 40
0.2372259409
 40
0.5
 40
0.7627740591
 40
1.0
 40
1.0
 40
1.0
 40
1.0
 10
49.9836388457
 20
4.143233333
 30
0.0
 10
50.0338298868
 20
4.1142536549
 30
0.0
 10
50.1505553343
 20
4.0719588148
 30
0.0
 10
50.3371922363
 20
4.0516986662
 30
0.0
 10
50.5238291382
 20
4.0719588148
 30
0.0
 10
50.6405545858
 20
4.1142536549
 30
0.0
 10
50.6907456269
 20
4.143233333
 30
0.0
  0
SPLINE
  5
370
100
AcDbEntity
  8
0
100
AcDbSpline
 62
250
  6
CONTINUOUS
 70
0
 71
3
 72
11
 73
7
 74
0
 42
0.0000001
 43
0.0000001
 44
0.0000000001
 40
0.0
 40
0.0
 40
0.0
 40
0.0
 40
0.2372259409
 40
0.5
 40
0.7627740591
 40
1.0
 40
1.0
 40
1.0
 40
1.0
 10
49.9836388457
 20
-65.2567401944
 30
0.0
 10
50.0338298868
 20
-65.2857198725
 30
0.0
 10
50.1505553343
 20
-65.3280147126
 30
0.0
 10
50.3371922363
 20
-65.3482748612
 30
0.0
 10
50.5238291382
 20
-65.3280147126
 30
0.0
 10
50.6405545858
 20
-65.2857198725
 30
0.0
 10
50.6907456269
 20
-65.2567401944
 30
0.0
  0
SPLINE
  5
371
100
AcDbEntity
  8
0
100
AcDbSpline
 62
250
  6
CONTINUOUS
 70
0
 71
3
 72
11
 73
7
 74
0
 42
0.0000001
 43
0.0000001
 44
0.0000000001
 40
0.0
 40
0.0
 40
0.0
 40
0.0
 40
0.2897723599
 40
0.5490642322
 40
0.7822230543
 40
1.0
 40
1.0
 40
1.0
 40
1.0
 10
49.2765320645
 20
-65.6649358779
 30
0.0
 10
49.2765320645
 20
-65.6902733238
 30
0.0
 10
49.2803625586
 20
-65.7384478559
 30
0.0
 10
49.2998853684
 20
-65.8046339962
 30
0.0
 10
49.3327240704
 20
-65.8583424992
 30
0.0
 10
49.3635837533
 20
-65.8842807136
 30
0.0
 10
49.380074543
 20
-65.8938022856
 30
0.0
  0
SPLINE
  5
372
100
AcDbEntity
  8
0
100
AcDbSpline
 62
250
  6
CONTINUOUS
 70
0
 71
3
 72
11
 73
7
 74
0
 42
0.0000001
 43
0.0000001
 44
0.0000000001
 40
0.0
 40
0.0
 40
0.0
 40
0.0
 40
0.2897723599
 40
0.5490642322
 40
0.7822230543
 40
1.0
 40
1.0
 40
1.0
 40
1.0
 10
-52.2640017139
 20
-7.036704276
 30
0.0
 10
-52.2640017139
 20
-7.0620417219
 30
0.0
 10
-52.2601712198
 20
-7.110216254
 30
0.0
 10
-52.24064841
 20
-7.1764023943
 30
0.0
 10
-52.207809708
 20
-7.2301108974
 30
0.0
 10
-52.1769500251
 20
-7.2560491117
 30
0.0
 10
-52.1604592354
 20
-7.2655706837
 30
0.0
  0
SPLINE
  5
373
100
AcDbEntity
  8
0
100
AcDbSpline
 62
250
  6
CONTINUOUS
 70
0
 71
3
 72
11
 73
7
 74
0
 42
0.0000001
 43
0.0000001
 44
0.0000000001
 40
0.0
 40
0.0
 40
0.0
 40
0.0
 40
0.2897667745
 40
0.5490573594
 40
0.7822185358
 40
1.0
 40
1.0
 40
1.0
 40
1.0
 10
-52.9711084951
 20
-5.8119594059
 30
0.0
 10
-52.9930535668
 20
-5.7992885965
 30
0.0
 10
-53.0328626989
 20
-5.7718792972
 30
0.0
 10
-53.0804242968
 20
-5.7218704936
 30
0.0
 10
-53.1105198025
 20
-5.6665678723
 30
0.0
 10
-53.1175527686
 20
-5.6268673161
 30
0.0
 10
-53.1175527686
 20
-5.6078221092
 30
0.0
  0
SPLINE
  5
374
100
AcDbEntity
  8
0
100
AcDbSpline
 62
250
  6
CONTINUOUS
 70
0
 71
3
 72
11
 73
7
 74
0
 42
0.0000001
 43
0.0000001
 44
0.0000000001
 40
0.0
 40
0.0
 40
0.0
 40
0.0
 40
0.2897667745
 40
0.5490573594
 40
0.7822185358
 40
1.0
 40
1.0
 40
1.0
 40
1.0
 10
-52.9711084951
 20
63.5880141215
 30
0.0
 10
-52.9930535668
 20
63.6006849308
 30
0.0
 10
-53.0328626989
 20
63.6280942302
 30
0.0
 10
-53.0804242968
 20
63.6781030338
 30
0.0
 10
-53.1105198025
 20
63.7334056551
 30
0.0
 10
-53.1175527686
 20
63.7731062112
 30
0.0
 10
-53.1175527686
 20
63.7921514181
 30
0.0
  0
SPLINE
  5
375
100
AcDbEntity
  8
0
100
AcDbSpline
 62
250
  6
CONTINUOUS
 70
0
 71
3
 72
11
 73
7
 74
0
 42
0.0000001
 43
0.0000001
 44
0.0000000001
 40
0.0
 40
0.0
 40
0.0
 40
0.0
 40
0.2372200919
 40
0.4999938933
 40
0.7627710182
 40
1.0
 40
1.0
 40
1.0
 40
1.0
 10
-52.2640017139
 20
63.9962098049
 30
0.0
 10
-52.2640017139
 20
64.0541645491
 30
0.0
 10
-52.2422643219
 20
64.17639613
 30
0.0
 10
-52.1664906249
 20
64.3481555405
 30
0.0
 10
-52.0556279338
 20
64.4996587796
 30
0.0
 10
-51.9606396764
 20
64.5796023817
 30
0.0
 10
-51.9104483233
 20
64.60858224
 30
0.0
  0
ELLIPSE
  5
376
100
AcDbEntity
  8
RACCORDO
100
AcDbEllipse
 62
7
  6
CONTINUOUS
 10
-29.4124934051
 20
6.5138651945
 30
0.0
 11
0.2758078635
 21
-0.0609777515
 31
0.0
 40
0.2088113763
 41
-0.9866670507
 42
-0.2145955909
  0
ELLIPSE
  5
377
100
AcDbEntity
  8
RACCORDO
100
AcDbEllipse
 62
7
  6
CONTINUOUS
 10
-30.2730425104
 20
10.3098706554
 30
0.0
 11
-0.1000048646
 21
0.1733605896
 31
0.0
 40
0.5769800402
 41
-3.1154263679
 42
-2.3560908291
  0
ELLIPSE
  5
378
100
AcDbEntity
  8
RACCORDO
100
AcDbEllipse
 62
7
  6
CONTINUOUS
 10
-30.2730425104
 20
13.0911127389
 30
0.0
 11
-0.0999438228
 21
0.1732551175
 31
0.0
 40
0.5776833225
 41
-2.3554807532
 42
-0.7852935066
  0
ELLIPSE
  5
379
100
AcDbEntity
  8
RACCORDO
100
AcDbEllipse
 62
7
  6
CONTINUOUS
 10
-30.8586143338
 20
13.4292145708
 30
0.0
 11
-0.100126692
 21
0.1734133857
 31
0.0
 40
0.5766289216
 41
-0.7848373798
 42
-0.0348624203
  0
ELLIPSE
  5
37A
100
AcDbEntity
  8
RACCORDO
100
AcDbEllipse
 62
7
  6
CONTINUOUS
 10
-30.2243451174
 20
5.5662413887
 30
0.0
 11
0.487138911
 21
0.8734102324
 31
0.0
 40
0.5671693725
 41
0.2534204135
 42
0.6461194952
  0
ELLIPSE
  5
37B
100
AcDbEntity
  8
RACCORDO
100
AcDbEllipse
 62
7
  6
CONTINUOUS
 10
-30.2243451174
 20
5.019992707
 30
0.0
 11
0.487138911
 21
0.8734102324
 31
0.0
 40
0.5671693725
 41
-2.2336737706
 42
-1.8409746889
  0
ELLIPSE
  5
37C
100
AcDbEntity
  8
RACCORDO
100
AcDbEllipse
 62
7
  6
CONTINUOUS
 10
-30.2243451174
 20
36.8623335019
 30
0.0
 11
0.487138911
 21
0.8734102324
 31
0.0
 40
0.5671693725
 41
-2.2336737706
 42
-1.8409746889
  0
ELLIPSE
  5
37D
100
AcDbEntity
  8
RACCORDO
100
AcDbEllipse
 62
7
  6
CONTINUOUS
 10
-29.4124934051
 20
37.217998348
 30
0.0
 11
0.2467240346
 21
0.2959232061
 31
0.0
 40
0.4188007473
 41
-1.4982967879
 42
-1.2386703536
  0
ELLIPSE
  5
37E
100
AcDbEntity
  8
RACCORDO
100
AcDbEllipse
 62
7
  6
CONTINUOUS
 10
-31.4211539077
 20
7.4693857087
 30
0.0
 11
0.4935308613
 21
0.8697499888
 31
0.0
 40
0.5722717666
 41
0.2575598763
 42
0.650258958
  0
ELLIPSE
  5
37F
100
AcDbEntity
  8
RACCORDO
100
AcDbEllipse
 62
7
  6
CONTINUOUS
 10
-29.4124934051
 20
5.375657553
 30
0.0
 11
0.2467240346
 21
0.2959232061
 31
0.0
 40
0.4188007473
 41
-1.4982967879
 42
0.0723472399
  0
ENDSEC
  0
SECTION
  2
OBJECTS
  0
DICTIONARY
  5
C
100
AcDbDictionary
280
0
281
1
  3
ACAD_GROUP
350
D
  3
ACAD_MLINESTYLE
350
17
  3
ACAD_LAYOUT
350
1A
  3
ACAD_PLOTSETTINGS
350
19
  3
ACAD_PLOTSTYLENAME
350
E
  0
DICTIONARY
  5
D
102
{ACAD_REACTORS
330
C
102
}
100
AcDbDictionary
280
0
281
1
  0
ACDBDICTIONARYWDFLT
  5
E
102
{ACAD_REACTORS
330
C
102
}
100
AcDbDictionary
281
1
  3
Normal
350
F
100
AcDbDictionaryWithDefault
340
F
  0
DICTIONARY
  5
17
102
{ACAD_REACTORS
330
C
102
}
100
AcDbDictionary
280
0
281
1
  3
Standard
350
18
  0
DICTIONARY
  5
19
102
{ACAD_REACTORS
330
C
102
}
100
AcDbDictionary
281
1
  0
DICTIONARY
  5
1A
102
{ACAD_REACTORS
330
C
102
}
100
AcDbDictionary
281
1
  3
Model
350
380
  3
Layout1
350
381
  0
ACDBPLACEHOLDER
  5
F
102
{ACAD_REACTORS
330
E
102
}
  0
MLINESTYLE
  5
18
102
{ACAD_REACTORS
330
17
102
}
100
AcDbMlineStyle
  2
STANDARD
 70
0
  3

 62
256
 51
90.0
 52
90.0
 71
2
 49
0.5
 62
256
  6
BYLAYER
 49
-0.5
 62
256
  6
BYLAYER
  0
LAYOUT
  5
380
102
{ACAD_REACTORS
330
1A
102
}
100
AcDbPlotSettings
  1

  2
none_device
  4

  6

 40
0.0
 41
0.0
 42
0.0
 43
0.0
 44
210.0
 45
297.0
 46
0.0
 47
0.0
 48
0.0
 49
0.0
140
0.0
141
0.0
142
1.0
143
1.0
 70
1024
 72
1
 73
0
 74
0
  7

 75
0
147
1.0
148
0.0
149
0.0
100
AcDbLayout
  1
Model
 70
0
 71
0
 10
0.0
 20
0.0
 11
210.0
 21
297.0
 12
0.0
 22
0.0
 32
0.0
 14
0.0
 24
0.0
 34
0.0
 15
0.0
 25
0.0
 35
0.0
146
0.0
 13
0.0
 23
0.0
 33
0.0
 16
1.0
 26
0.0
 36
0.0
 17
0.0
 27
1.0
 37
0.0
 76
0
330
213
345
0
346
0
  0
LAYOUT
  5
381
102
{ACAD_REACTORS
330
1A
102
}
100
AcDbPlotSettings
  1

  2
none_device
  4

  6

 40
0.0
 41
0.0
 42
0.0
 43
0.0
 44
210.0
 45
297.0
 46
0.0
 47
0.0
 48
0.0
 49
0.0
140
0.0
141
0.0
142
1.0
143
1.0
 70
0
 72
1
 73
0
 74
0
  7

 75
0
147
1.0
148
0.0
149
0.0
100
AcDbLayout
  1
Layout1
 70
0
 71
1
 10
0.0
 20
0.0
 11
210.0
 21
297.0
 12
0.0
 22
0.0
 32
0.0
 14
0.0
 24
0.0
 34
0.0
 15
0.0
 25
0.0
 35
0.0
146
0.0
 13
0.0
 23
0.0
 33
0.0
 16
1.0
 26
0.0
 36
0.0
 17
0.0
 27
1.0
 37
0.0
 76
0
330
214
345
0
346
0
  0
ENDSEC
  0
EOF
