  0
SECTION
  2
HEADER
  9
$ACADVER
  1
AC1024
  9
$DWGCODEPAGE
  3
ANSI_1252
  9
$EXTMAX
 10
297.0
 20
210.0
 30
0.0
  9
$EXTMIN
 10
0.0
 20
0.0
 30
0.0
  9
$LIMMIN
 10
0.0
 20
0.0
  9
$LIMMAX
 10
297.0
 20
210.0
  9
$VIEWCTR
 10
148.5
 20
105.0
  9
$VIEWSIZE
 40
210.0
  9
$CLAYER
  8
0
  9
$LTSCALE
 40
16.335
  9
$CELTYPE
  6
BYLAYER
  9
$DIMSCALE
 40
1.0
  9
$DIMASZ
 40
3.0
  9
$DIMEXO
 40
0.5
  9
$DIMDLI
 40
11.286
  9
$DIMEXE
 40
1.5
  9
$DIMCEN
 40
2.673
  9
$DIMLFAC
 40
1.0
  9
$DIMBLK
  1
_FILLED
  9
$DIMALT
 70
0
  9
$DIMALTF
 40
0.0393700787
  9
$DIMTXT
 40
3.0
  9
$DIMTOL
 70
1
  9
$DIMLIM
 70
0
  9
$DIMTFAC
 40
1.0
  9
$DIMTP
 40
0.01
  9
$DIMTM
 40
0.01
  9
$DIMGAP
 40
0.625
  9
$DIMDSEP
 70
44
  9
$AUNITS
 70
0
  9
$PDMODE
 70
3
  9
$PDSIZE
 40
3.0
  9
$HANDSEED
  5
3AD
  9
$TILEMODE
 70
1
  9
$MEASUREMENT
 70
1
  9
$INSUNITS
 70
4
  0
ENDSEC
  0
SECTION
  2
CLASSES
  0
CLASS
  1
ACDBDICTIONARYWDFLT
  2
AcDbDictionaryWithDefault
  3
AutoCAD 2000
 90
0
 91
1
280
0
281
0
  0
CLASS
  1
ACDBPLACEHOLDER
  2
AcDbPlaceHolder
  3
AutoCAD 2000
 90
0
 91
1
280
0
281
0
  0
CLASS
  1
LAYOUT
  2
AcDbLayout
  3
AutoCAD 2000
 90
0
 91
0
280
0
281
0
  0
ENDSEC
  0
SECTION
  2
TABLES
  0
TABLE
  2
VPORT
  5
8
100
AcDbSymbolTable
 70
2
  0
VPORT
  5
1F4
100
AcDbSymbolTableRecord
100
AcDbViewportTableRecord
  2
*ACTIVE
 70
0
 10
0.0
 20
0.0
 11
1.0
 21
1.0
 12
148.5
 22
105.0
 13
0.0
 23
0.0
 14
1.0
 24
1.0
 15
0.0
 25
0.0
 16
0.0
 26
0.0
 36
1.0
 17
0.0
 27
0.0
 37
0.0
 40
210.0
 41
1.4142857143
 42
50.0
 43
0.0
 44
0.0
 50
0.0
 51
0.0
 71
0
 72
100
 73
1
 74
1
 75
0
 76
0
 77
0
 78
0
  0
ENDTAB
  0
TABLE
  2
LTYPE
  5
5
100
AcDbSymbolTable
 70
6
  0
LTYPE
  5
14
100
AcDbSymbolTableRecord
100
AcDbLinetypeTableRecord
  2
BYBLOCK
 70
0
  3

 72
65
 73
0
 40
0.0
  0
LTYPE
  5
15
100
AcDbSymbolTableRecord
100
AcDbLinetypeTableRecord
  2
BYLAYER
 70
0
  3

 72
65
 73
0
 40
0.0
  0
LTYPE
  5
16
100
AcDbSymbolTableRecord
100
AcDbLinetypeTableRecord
  2
CONTINUOUS
 70
64
  3
Solid line
 72
65
 73
0
 40
0.0
  0
LTYPE
  5
1F5
100
AcDbSymbolTableRecord
100
AcDbLinetypeTableRecord
  2
CENTER
 70
64
  3
____ _ ____ _ ____ _ ____ _ ____ _ ____ _ ____
 72
65
 73
4
 40
0.6
 49
0.375
 74
0
 49
-0.075
 74
0
 49
0.075
 74
0
 49
-0.075
 74
0
  0
LTYPE
  5
1F6
100
AcDbSymbolTableRecord
100
AcDbLinetypeTableRecord
  2
HIDDEN
 70
64
  3
- - - - - - - - - - - - - - - - - - - -
 72
65
 73
2
 40
0.2
 49
0.1
 74
0
 49
-0.1
 74
0
  0
LTYPE
  5
1F7
100
AcDbSymbolTableRecord
100
AcDbLinetypeTableRecord
  2
PHANTOM
 70
64
  3
_____ _ _ _____ _ _ _____ _ _ _____
 72
65
 73
6
 40
0.8
 49
0.45
 74
0
 49
-0.05
 74
0
 49
0.1
 74
0
 49
-0.05
 74
0
 49
0.1
 74
0
 49
-0.05
 74
0
  0
LTYPE
  5
1F8
100
AcDbSymbolTableRecord
100
AcDbLinetypeTableRecord
  2
DOT
 70
64
  3
. . . . . . . . . . . . . . . . . . . .
 72
65
 73
2
 40
0.2
 49
0.1
 74
0
 49
-0.1
 74
0
  0
LTYPE
  5
1F9
100
AcDbSymbolTableRecord
100
AcDbLinetypeTableRecord
  2
DASHED
 70
64
  3
- - - - - - - - - - - - - - - - - - - -
 72
65
 73
2
 40
0.2
 49
0.1
 74
0
 49
-0.1
 74
0
  0
ENDTAB
  0
TABLE
  2
LAYER
  5
2
100
AcDbSymbolTable
 70
36
  0
LAYER
  5
10
100
AcDbSymbolTableRecord
100
AcDbLayerTableRecord
  2
0
 70
0
 62
7
  6
CONTINUOUS
370
-3
390
F
  0
LAYER
  5
1FA
100
AcDbSymbolTableRecord
100
AcDbLayerTableRecord
  2
DEFAULT_1
 70
0
 62
7
  6
CENTER
370
-3
390
F
  0
LAYER
  5
1FB
100
AcDbSymbolTableRecord
100
AcDbLayerTableRecord
  2
DEFAULT_2
 70
0
 62
7
  6
HIDDEN
370
-3
390
F
  0
LAYER
  5
1FC
100
AcDbSymbolTableRecord
100
AcDbLayerTableRecord
  2
DEFAULT_3
 70
0
 62
7
  6
PHANTOM
370
-3
390
F
  0
LAYER
  5
1FD
100
AcDbSymbolTableRecord
100
AcDbLayerTableRecord
  2
ASSI
 70
0
 62
7
  6
CONTINUOUS
370
-3
390
F
  0
LAYER
  5
1FE
100
AcDbSymbolTableRecord
100
AcDbLayerTableRecord
  2
COORDINATE
 70
0
 62
7
  6
CONTINUOUS
370
-3
390
F
  0
LAYER
  5
1FF
100
AcDbSymbolTableRecord
100
AcDbLayerTableRecord
  2
COPY_PUBLISH
 70
0
 62
7
  6
CONTINUOUS
370
-3
390
F
  0
LAYER
  5
200
100
AcDbSymbolTableRecord
100
AcDbLayerTableRecord
  2
COSMETICI
 70
0
 62
7
  6
CONTINUOUS
370
-3
390
F
  0
LAYER
  5
201
100
AcDbSymbolTableRecord
100
AcDbLayerTableRecord
  2
CURVE
 70
0
 62
7
  6
CONTINUOUS
370
-3
390
F
  0
LAYER
  5
202
100
AcDbSymbolTableRecord
100
AcDbLayerTableRecord
  2
DRAFT
 70
0
 62
7
  6
CONTINUOUS
370
-3
390
F
  0
LAYER
  5
203
100
AcDbSymbolTableRecord
100
AcDbLayerTableRecord
  2
IMPORT_IGES
 70
0
 62
7
  6
CONTINUOUS
370
-3
390
F
  0
LAYER
  5
204
100
AcDbSymbolTableRecord
100
AcDbLayerTableRecord
  2
INTF_1
 70
0
 62
7
  6
CONTINUOUS
370
-3
390
F
  0
LAYER
  5
205
100
AcDbSymbolTableRecord
100
AcDbLayerTableRecord
  2
INTF_11
 70
0
 62
7
  6
CONTINUOUS
370
-3
390
F
  0
LAYER
  5
206
100
AcDbSymbolTableRecord
100
AcDbLayerTableRecord
  2
INTF_13
 70
0
 62
7
  6
CONTINUOUS
370
-3
390
F
  0
LAYER
  5
207
100
AcDbSymbolTableRecord
100
AcDbLayerTableRecord
  2
INTF_2
 70
0
 62
7
  6
CONTINUOUS
370
-3
390
F
  0
LAYER
  5
208
100
AcDbSymbolTableRecord
100
AcDbLayerTableRecord
  2
NONE
 70
0
 62
7
  6
CONTINUOUS
370
-3
390
F
  0
LAYER
  5
209
100
AcDbSymbolTableRecord
100
AcDbLayerTableRecord
  2
NOTE
 70
0
 62
7
  6
CONTINUOUS
370
-3
390
F
  0
LAYER
  5
20A
100
AcDbSymbolTableRecord
100
AcDbLayerTableRecord
  2
PIANI
 70
0
 62
7
  6
CONTINUOUS
370
-3
390
F
  0
LAYER
  5
20B
100
AcDbSymbolTableRecord
100
AcDbLayerTableRecord
  2
PUNTI
 70
0
 62
7
  6
CONTINUOUS
370
-3
390
F
  0
LAYER
  5
20C
100
AcDbSymbolTableRecord
100
AcDbLayerTableRecord
  2
RACCORDO
 70
0
 62
7
  6
CONTINUOUS
370
-3
390
F
  0
LAYER
  5
20D
100
AcDbSymbolTableRecord
100
AcDbLayerTableRecord
  2
SIMBOLI
 70
0
 62
7
  6
CONTINUOUS
370
-3
390
F
  0
LAYER
  5
20E
100
AcDbSymbolTableRecord
100
AcDbLayerTableRecord
  2
SMUSSO
 70
0
 62
7
  6
CONTINUOUS
370
-3
390
F
  0
LAYER
  5
20F
100
AcDbSymbolTableRecord
100
AcDbLayerTableRecord
  2
SUPERFICI
 70
0
 62
7
  6
CONTINUOUS
370
-3
390
F
  0
LAYER
  5
210
100
AcDbSymbolTableRecord
100
AcDbLayerTableRecord
  2
TRASH
 70
0
 62
7
  6
CONTINUOUS
370
-3
390
F
  0
ENDTAB
  0
TABLE
  2
STYLE
  5
3
100
AcDbSymbolTable
 70
1
  0
STYLE
  5
11
100
AcDbSymbolTableRecord
100
AcDbTextStyleTableRecord
  2
STANDARD
 70
0
 40
0.0
 41
0.8
 50
0.0
 71
0
 42
0.2
  3
txt
  4

  0
STYLE
  5
211
100
AcDbSymbolTableRecord
100
AcDbTextStyleTableRecord
  2
TEXTSTYLE_1
 70
0
 40
0.0
 41
0.8
 50
0.0
 71
0
 42
0.2
  3
gdt
  4

  0
ENDTAB
  0
TABLE
  2
VIEW
  5
6
100
AcDbSymbolTable
 70
0
  0
ENDTAB
  0
TABLE
  2
UCS
  5
7
100
AcDbSymbolTable
 70
0
  0
ENDTAB
  0
TABLE
  2
APPID
  5
9
100
AcDbSymbolTable
 70
1
  0
APPID
  5
212
100
AcDbSymbolTableRecord
100
AcDbRegAppTableRecord
  2
ACAD
 70
0
  0
ENDTAB
  0
TABLE
  2
BLOCK_RECORD
  5
1
100
AcDbSymbolTable
 70
0
  0
BLOCK_RECORD
  5
213
100
AcDbSymbolTableRecord
100
AcDbBlockTableRecord
  2
*Model_Space
  0
BLOCK_RECORD
  5
214
100
AcDbSymbolTableRecord
100
AcDbBlockTableRecord
  2
*Paper_Space
  0
BLOCK_RECORD
  5
215
100
AcDbSymbolTableRecord
100
AcDbBlockTableRecord
  2
_FILLED
  0
ENDTAB
  0
TABLE
  2
DIMSTYLE
  5
A
100
AcDbSymbolTable
 70
1
100
AcDbDimStyleTable
 71
0
  0
DIMSTYLE
105
216
100
AcDbSymbolTableRecord
100
AcDbDimStyleTableRecord
  2
STANDARD
 70
0
  3

  4

 40
1.0
 41
3.0
 42
0.5
 43
0.38
 44
1.5
 45
0.0
 46
0.0
 47
0.01
 48
0.01
140
3.0
141
0.09
142
0.0
143
25.4
144
1.0
145
0.0
146
1.0
147
0.625
 71
1
 72
0
 73
0
 74
0
 75
0
 76
0
 77
1
 78
8
 79
2
170
0
171
1
172
0
173
0
174
0
175
0
176
0
177
0
178
0
270
2
179
2
271
2
272
2
273
2
274
2
275
0
280
0
281
0
282
0
283
1
284
8
285
0
286
0
287
3
288
0
340
11
278
44
341
215
342
215
343
215
344
215
  0
ENDTAB
  0
ENDSEC
  0
SECTION
  2
BLOCKS
  0
BLOCK
  5
20
100
AcDbEntity
  8
0
100
AcDbBlockBegin
  2
*Model_Space
 70
0
 10
0.0
 20
0.0
 30
0.0
  3
*Model_Space
  1

  0
ENDBLK
  5
21
100
AcDbEntity
  8
0
100
AcDbBlockEnd
  0
BLOCK
  5
1C
100
AcDbEntity
  8
0
100
AcDbBlockBegin
  2
*Paper_Space
 70
0
 10
0.0
 20
0.0
 30
0.0
  3
*Paper_Space
  1

  0
ENDBLK
  5
1D
100
AcDbEntity
  8
0
100
AcDbBlockEnd
  0
BLOCK
  5
217
100
AcDbEntity
  8
0
100
AcDbBlockBegin
  2
_FILLED
 70
64
 10
0.0
 20
0.0
  3
_FILLED
  1

  0
SOLID
  5
218
100
AcDbEntity
  8
0
  6
BYBLOCK
 62
0
100
AcDbTrace
 10
0.0
 20
0.0
 11
-1.0
 21
0.3166666667
 12
-1.0
 22
-0.3166666667
 13
-1.0
 23
-0.3166666667
  0
ENDBLK
  5
219
100
AcDbEntity
  8
0
  6
BYBLOCK
 62
0
100
AcDbBlockEnd
  0
ENDSEC
  0
SECTION
  2
ENTITIES
  0
LWPOLYLINE
  5
21A
100
AcDbEntity
  8
RACCORDO
100
AcDbPolyline
 62
7
  6
CONTINUOUS
 90
15
 70
0
 10
-52.9437310398
 20
64.5347758096
 10
-52.9962712802
 20
64.4946006675
 10
-53.0441421801
 20
64.4517402374
 10
-53.0894992398
 20
64.4044426992
 10
-53.1319330431
 20
64.3528521255
 10
-53.170993602
 20
64.2972723578
 10
-53.2064326273
 20
64.2378376816
 10
-53.2380157111
 20
64.1747289108
 10
-53.2654612768
 20
64.1083311154
 10
-53.2886319061
 20
64.0388285403
 10
-53.3074331051
 20
63.9663453292
 10
-53.3217477286
 20
63.8911230568
 10
-53.3314975629
 20
63.813306422
 10
-53.336623021
 20
63.7330058261
 10
-53.3374448021
 20
63.6846750751
  0
LINE
  5
21B
100
AcDbEntity
  8
RACCORDO
100
AcDbLine
 62
7
  6
CONTINUOUS
 10
-52.9443059192
 20
64.5343739367
 11
-51.9145035729
 21
65.2605018386
  0
LINE
  5
21C
100
AcDbEntity
  8
RACCORDO
100
AcDbLine
 62
250
  6
CONTINUOUS
 10
-52.149810641
 20
64.4893077353
 11
-51.1272034889
 21
65.2103622062
  0
LINE
  5
21D
100
AcDbEntity
  8
RACCORDO
100
AcDbLine
 62
7
  6
CONTINUOUS
 10
-50.8882070384
 20
65.0983525839
 11
-50.9111318699
 21
65.0856051614
  0
LINE
  5
21E
100
AcDbEntity
  8
RACCORDO
100
AcDbLine
 62
7
  6
CONTINUOUS
 10
-49.0288657882
 20
65.9272940642
 11
-50.6767778396
 21
65.0411002915
  0
LINE
  5
21F
100
AcDbEntity
  8
RACCORDO
100
AcDbLine
 62
250
  6
CONTINUOUS
 10
-48.6860910839
 20
65.8886128459
 11
-50.4767927583
 21
64.9256314348
  0
LINE
  5
220
100
AcDbEntity
  8
RACCORDO
100
AcDbLine
 62
250
  6
CONTINUOUS
 10
-49.0288657882
 20
65.9272940642
 11
-49.0197684955
 21
65.9319328565
  0
LWPOLYLINE
  5
221
100
AcDbEntity
  8
RACCORDO
100
AcDbPolyline
 62
250
  6
CONTINUOUS
 90
7
 70
0
 10
-50.8869492131
 20
65.0976269183
 10
-50.8704145188
 20
65.1057178301
 10
-50.8541410946
 20
65.1114330667
 10
-50.8383526895
 20
65.1146940447
 10
-50.8232663844
 20
65.1154559254
 10
-50.8090896066
 20
65.1137082307
 10
-50.7960172774
 20
65.1094749872
  0
LWPOLYLINE
  5
222
100
AcDbEntity
  8
RACCORDO
100
AcDbPolyline
 62
250
  6
CONTINUOUS
 90
8
 70
0
 10
-50.8962869859
 20
65.1029868117
 10
-50.8796494129
 20
65.1110192817
 10
-50.8632533811
 20
65.1166647834
 10
-50.847324332
 20
65.1198457002
 10
-50.8320812923
 20
65.1205183059
 10
-50.8177338433
 20
65.1186733546
 10
-50.8044792394
 20
65.1143362078
 10
-50.7980046866
 20
65.1110714594
  0
LWPOLYLINE
  5
223
100
AcDbEntity
  8
RACCORDO
100
AcDbPolyline
 62
250
  6
CONTINUOUS
 90
12
 70
0
 10
-49.0197684955
 20
65.9319328565
 10
-48.9960943517
 20
65.9418112392
 10
-48.9709964031
 20
65.9492373832
 10
-48.944579509
 20
65.9541183226
 10
-48.916899902
 20
65.9563846371
 10
-48.8876845776
 20
65.9559455376
 10
-48.8568358427
 20
65.9526125196
 10
-48.8246091744
 20
65.9462275732
 10
-48.7912609435
 20
65.9367003728
 10
-48.7569773202
 20
65.9239682728
 10
-48.7218643628
 20
65.9079541575
 10
-48.6860910839
 20
65.8886128459
  0
LWPOLYLINE
  5
224
100
AcDbEntity
  8
RACCORDO
100
AcDbPolyline
 62
250
  6
CONTINUOUS
 90
11
 70
0
 10
-52.4848604768
 20
-7.0152469262
 10
-52.4836032441
 20
-7.0489179145
 10
-52.4798404873
 20
-7.0808976145
 10
-52.4735989671
 20
-7.1109585872
 10
-52.4649230731
 20
-7.1388870393
 10
-52.453874508
 20
-7.1644843443
 10
-52.4405318492
 20
-7.1875684545
 10
-52.4249899893
 20
-7.2079751963
 10
-52.4073594617
 20
-7.2255594371
 10
-52.3877656546
 20
-7.2401961181
 10
-52.3813191663
 20
-7.2441153567
  0
LWPOLYLINE
  5
225
100
AcDbEntity
  8
RACCORDO
100
AcDbPolyline
 62
7
  6
CONTINUOUS
 90
24
 70
0
 10
-53.3374054544
 20
-5.5986728729
 10
-53.3342701659
 20
-5.6848873188
 10
-53.3262714489
 20
-5.7715426996
 10
-53.313582638
 20
-5.8584802566
 10
-53.2963775901
 20
-5.9454703447
 10
-53.2748664834
 20
-6.0321074684
 10
-53.2492401355
 20
-6.1181451451
 10
-53.2196421601
 20
-6.2034363585
 10
-53.1862811305
 20
-6.2876321705
 10
-53.1493578055
 20
-6.3704424312
 10
-53.1089894023
 20
-6.4517485872
 10
-53.065281633
 20
-6.5314139449
 10
-53.0183623921
 20
-6.6092199501
 10
-52.968360783
 20
-6.684949019
 10
-52.9153427991
 20
-6.7584438637
 10
-52.859361962
 20
-6.8295421914
 10
-52.8005620597
 20
-6.8979352011
 10
-52.7391256043
 20
-6.963295331
 10
-52.6751101821
 20
-7.0254155844
 10
-52.6086261969
 20
-7.0840204497
 10
-52.5398807656
 20
-7.1387501565
 10
-52.4689758456
 20
-7.1893380887
 10
-52.3959754969
 20
-7.2355374122
 10
-52.3811544508
 20
-7.2442103362
  0
LWPOLYLINE
  5
226
100
AcDbEntity
  8
RACCORDO
100
AcDbPolyline
 62
250
  6
CONTINUOUS
 90
31
 70
0
 10
-53.1909981928
 20
-5.7921805263
 10
-53.1898964865
 20
-5.8361268482
 10
-53.1870004541
 20
-5.8803510183
 10
-53.1823100954
 20
-5.9248530365
 10
-53.1758134864
 20
-5.9695806245
 10
-53.1675225513
 20
-6.0145860608
 10
-53.1574730622
 20
-6.0600261797
 10
-53.1456355929
 20
-6.1061051655
 10
-53.1320395696
 20
-6.1526188339
 10
-53.1168090442
 20
-6.1991114679
 10
-53.099939966
 20
-6.2455428804
 10
-53.0814363856
 20
-6.2919532584
 10
-53.0614345068
 20
-6.3380074448
 10
-53.0399223637
 20
-6.3837084868
 10
-53.0169119222
 20
-6.4290533372
 10
-52.9925752829
 20
-6.4736976979
 10
-52.9668820294
 20
-6.5176620186
 10
-52.9398625781
 20
-6.5609258495
 10
-52.9117802796
 20
-6.6030835433
 10
-52.8828098521
 20
-6.6439299675
 10
-52.8527765773
 20
-6.6836702546
 10
-52.8214196508
 20
-6.7225141543
 10
-52.7886322672
 20
-6.7606626406
 10
-52.754521232
 20
-6.7979147395
 10
-52.7191461568
 20
-6.8338772791
 10
-52.6823643051
 20
-6.8686613687
 10
-52.6443184134
 20
-6.902155899
 10
-52.6054963026
 20
-6.9336343699
 10
-52.5660605797
 20
-6.9628546147
 10
-52.5258486378
 20
-6.9900588001
 10
-52.4848604768
 20
-7.0152469262
  0
LINE
  5
227
100
AcDbEntity
  8
RACCORDO
100
AcDbLine
 62
7
  6
CONTINUOUS
 10
-53.3374448022
 20
63.6846795241
 11
-53.3374054544
 21
-5.5986728729
  0
LINE
  5
228
100
AcDbEntity
  8
RACCORDO
100
AcDbLine
 62
250
  6
CONTINUOUS
 10
-53.1909981928
 20
63.4805422275
 11
-53.1909981928
 21
-5.7921805263
  0
LINE
  5
229
100
AcDbEntity
  8
RACCORDO
100
AcDbLine
 62
7
  6
CONTINUOUS
 10
-53.3374448022
 20
-5.5880432415
 11
-53.3374446903
 21
-5.5878501339
  0
LWPOLYLINE
  5
22A
100
AcDbEntity
  8
RACCORDO
100
AcDbPolyline
 62
250
  6
CONTINUOUS
 90
19
 70
0
 10
-52.4848604768
 20
63.8881784929
 10
-52.4836032643
 20
63.9233010465
 10
-52.4798405585
 20
63.9596256476
 10
-52.4735991123
 20
63.9968939625
 10
-52.4649233073
 20
64.0348409453
 10
-52.4538748383
 20
64.0731967212
 10
-52.4405322753
 20
64.1116885052
 10
-52.4249905036
 20
64.1500425465
 10
-52.4073600501
 20
64.1879860712
 10
-52.3877662987
 20
64.2252492206
 10
-52.3663485951
 20
64.2615669785
 10
-52.343259258
 20
64.2966810499
 10
-52.3186624991
 20
64.3303416949
 10
-52.2927332479
 20
64.3623095159
 10
-52.2656559118
 20
64.392357153
 10
-52.2376230695
 20
64.4202708972
 10
-52.2088340924
 20
64.4458522202
 10
-52.1794937264
 20
64.4689191852
 10
-52.149810641
 20
64.4893077353
  0
LINE
  5
22B
100
AcDbEntity
  8
RACCORDO
100
AcDbLine
 62
250
  6
CONTINUOUS
 10
-33.4843666867
 20
39.500358043
 11
-33.4804422056
 21
39.5025407246
  0
LINE
  5
22C
100
AcDbEntity
  8
RACCORDO
100
AcDbLine
 62
7
  6
CONTINUOUS
 10
-33.4804422056
 20
39.5025407246
 11
-33.4803394441
 21
39.5025960328
  0
LINE
  5
22D
100
AcDbEntity
  8
RACCORDO
100
AcDbLine
 62
250
  6
CONTINUOUS
 10
-33.5866992202
 20
39.2721370723
 11
-33.30787144
 21
39.4220816292
  0
LINE
  5
22E
100
AcDbEntity
  8
RACCORDO
100
AcDbLine
 62
7
  6
CONTINUOUS
 10
-29.521155493
 20
37.108035161
 11
-30.127341575
 21
36.3442616405
  0
LWPOLYLINE
  5
22F
100
AcDbEntity
  8
RACCORDO
100
AcDbPolyline
 62
7
  6
CONTINUOUS
 90
4
 70
0
 10
-32.1528702161
 20
33.3346631537
 10
-32.1393358517
 20
33.3491719172
 10
-32.0692683093
 20
33.4194455245
 10
-31.9983151578
 20
33.485900436
  0
LWPOLYLINE
  5
230
100
AcDbEntity
  8
RACCORDO
100
AcDbPolyline
 62
250
  6
CONTINUOUS
 90
8
 70
0
 10
-30.5678238929
 20
34.7574574224
 10
-30.5646088646
 20
34.7607129258
 10
-30.5595762917
 20
34.7681682698
 10
-30.556085533
 20
34.7771398267
 10
-30.554174728
 20
34.7875295754
 10
-30.5538647535
 20
34.7992239997
 10
-30.5551589964
 20
34.8120953289
 10
-30.558043316
 20
34.8260029338
  0
LWPOLYLINE
  5
231
100
AcDbEntity
  8
RACCORDO
100
AcDbPolyline
 62
250
  6
CONTINUOUS
 90
8
 70
0
 10
-31.9812512955
 20
33.5012046655
 10
-31.9780323316
 20
33.5044635825
 10
-31.9729996624
 20
33.5119188622
 10
-31.9695088072
 20
33.5208903906
 10
-31.9675979172
 20
33.5312801602
 10
-31.9672878837
 20
33.5429746657
 10
-31.9685821075
 20
33.5558461414
 10
-31.9714664607
 20
33.5697539619
  0
LWPOLYLINE
  5
232
100
AcDbEntity
  8
RACCORDO
100
AcDbPolyline
 62
250
  6
CONTINUOUS
 90
3
 70
0
 10
-32.0449105147
 20
33.5021993271
 10
-32.1169587043
 20
33.4313889028
 10
-32.1528702161
 20
33.3937421629
  0
LINE
  5
233
100
AcDbEntity
  8
RACCORDO
100
AcDbLine
 62
250
  6
CONTINUOUS
 10
-31.9714664607
 20
33.5697539619
 11
-32.0449105147
 21
33.5021993271
  0
LINE
  5
234
100
AcDbEntity
  8
RACCORDO
100
AcDbLine
 62
250
  6
CONTINUOUS
 10
-30.558043316
 20
34.8260029338
 11
-31.9714664607
 21
33.5697539619
  0
LINE
  5
235
100
AcDbEntity
  8
RACCORDO
100
AcDbLine
 62
7
  6
CONTINUOUS
 10
-30.5678281509
 20
34.7574536373
 11
-31.9983151578
 21
33.485900436
  0
LWPOLYLINE
  5
236
100
AcDbEntity
  8
RACCORDO
100
AcDbPolyline
 62
7
  6
CONTINUOUS
 90
7
 70
0
 10
-30.5678238929
 20
34.7574574224
 10
-30.5397821117
 20
34.7816983126
 10
-30.5139249245
 20
34.8028568379
 10
-30.4881276942
 20
34.8228420902
 10
-30.4624439532
 20
34.8416349873
 10
-30.4369270424
 20
34.8592200155
 10
-30.413061224
 20
34.8746879775
  0
LWPOLYLINE
  5
237
100
AcDbEntity
  8
RACCORDO
100
AcDbPolyline
 62
250
  6
CONTINUOUS
 90
5
 70
0
 10
-30.5055486892
 20
34.8706023496
 10
-30.5181136659
 20
34.8602903022
 10
-30.5310755115
 20
34.849391725
 10
-30.5443853949
 20
34.8379626022
 10
-30.558043316
 20
34.8260029338
  0
LINE
  5
238
100
AcDbEntity
  8
RACCORDO
100
AcDbLine
 62
7
  6
CONTINUOUS
 10
-30.3863156537
 20
36.0897252689
 11
-32.1528702161
 21
34.7810318321
  0
LWPOLYLINE
  5
239
100
AcDbEntity
  8
RACCORDO
100
AcDbPolyline
 62
250
  6
CONTINUOUS
 90
10
 70
0
 10
-28.1757919681
 20
36.2802121524
 10
-28.1697640693
 20
36.284510519
 10
-28.1625268654
 20
36.2913079725
 10
-28.1562003327
 20
36.2993098602
 10
-28.1508326199
 20
36.308455283
 10
-28.1464645786
 20
36.3186746386
 10
-28.1431294523
 20
36.3298901516
 10
-28.1408526231
 20
36.3420164652
 10
-28.1396514193
 20
36.3549612908
 10
-28.1395349826
 20
36.3686261105
  0
LWPOLYLINE
  5
23A
100
AcDbEntity
  8
RACCORDO
100
AcDbPolyline
 62
250
  6
CONTINUOUS
 90
9
 70
0
 10
-30.4130510382
 20
34.8746943752
 10
-30.4101608948
 20
34.8766229074
 10
-30.4011621879
 20
34.8843325596
 10
-30.3934594028
 20
34.8937920829
 10
-30.3871369329
 20
34.9048978369
 10
-30.3822640485
 20
34.9175281445
 10
-30.3788941379
 20
34.9315446256
 10
-30.3770641226
 20
34.9467937126
 10
-30.3767940526
 20
34.9631083333
  0
LWPOLYLINE
  5
23B
100
AcDbEntity
  8
RACCORDO
100
AcDbPolyline
 62
250
  6
CONTINUOUS
 90
12
 70
0
 10
-30.3767940526
 20
34.9631083333
 10
-30.3885243995
 20
34.9556398042
 10
-30.4001985334
 20
34.9480215896
 10
-30.4118164544
 20
34.9402536896
 10
-30.4233421311
 20
34.9323620351
 10
-30.4348115949
 20
34.9243206952
 10
-30.4463329398
 20
34.916051877
 10
-30.4578923095
 20
34.9075746879
 10
-30.4695035603
 20
34.8988700206
 10
-30.4813163551
 20
34.8898027599
 10
-30.4933317502
 20
34.8803838515
 10
-30.5055486892
 20
34.8706023496
  0
LINE
  5
23C
100
AcDbEntity
  8
RACCORDO
100
AcDbLine
 62
250
  6
CONTINUOUS
 10
-28.1395349826
 20
36.3686261105
 11
-30.3767940526
 21
34.9631083333
  0
LINE
  5
23D
100
AcDbEntity
  8
RACCORDO
100
AcDbLine
 62
7
  6
CONTINUOUS
 10
-28.1757919681
 20
36.2802121524
 11
-30.4130510382
 21
34.8746943752
  0
LINE
  5
23E
100
AcDbEntity
  8
RACCORDO
100
AcDbLine
 62
250
  6
CONTINUOUS
 10
-29.521155493
 20
37.108035161
 11
-29.4115758356
 21
37.1724093793
  0
LINE
  5
23F
100
AcDbEntity
  8
RACCORDO
100
AcDbLine
 62
7
  6
CONTINUOUS
 10
-32.1528702161
 20
37.4648009629
 11
-30.877368219
 21
38.0187395308
  0
LWPOLYLINE
  5
240
100
AcDbEntity
  8
RACCORDO
100
AcDbPolyline
 62
7
  6
CONTINUOUS
 90
11
 70
0
 10
-33.4866060609
 20
39.5001162728
 10
-33.4865721204
 20
39.5001266896
 10
-33.4845867106
 20
39.5003071679
 10
-33.4799116415
 20
39.5002975789
 10
-33.4722770334
 20
39.4995996061
 10
-33.4615307929
 20
39.4976915752
 10
-33.4480452528
 20
39.4941855701
 10
-33.4325010913
 20
39.4889295045
 10
-33.4153144127
 20
39.4818480237
 10
-33.3966506409
 20
39.4728333918
 10
-33.3795410914
 20
39.4634627979
  0
LWPOLYLINE
  5
241
100
AcDbEntity
  8
RACCORDO
100
AcDbPolyline
 62
7
  6
CONTINUOUS
 90
9
 70
0
 10
-28.065401146
 20
36.3951449851
 10
-28.0659399812
 20
36.3941854597
 10
-28.0784670023
 20
36.3747961035
 10
-28.0922066038
 20
36.3561884755
 10
-28.1071481751
 20
36.3384447102
 10
-28.1229989618
 20
36.3219425254
 10
-28.1396513482
 20
36.3067766191
 10
-28.1572402818
 20
36.2928477143
 10
-28.1757919681
 20
36.2802121524
  0
LWPOLYLINE
  5
242
100
AcDbEntity
  8
RACCORDO
100
AcDbPolyline
 62
250
  6
CONTINUOUS
 90
8
 70
0
 10
-28.0966999018
 20
36.4132164944
 10
-28.0996289868
 20
36.4086141199
 10
-28.1055818469
 20
36.4004226505
 10
-28.1119828378
 20
36.3926463009
 10
-28.1186016753
 20
36.3855517993
 10
-28.1253615978
 20
36.3792280551
 10
-28.1323393669
 20
36.3735861588
 10
-28.1395349826
 20
36.3686261105
  0
LWPOLYLINE
  5
243
100
AcDbEntity
  8
RACCORDO
100
AcDbPolyline
 62
250
  6
CONTINUOUS
 90
7
 70
0
 10
-32.1890398072
 20
27.3993186259
 10
-32.1768299378
 20
27.410748134
 10
-32.1670007112
 20
27.4229187947
 10
-32.1596850508
 20
27.4356660205
 10
-32.1549818883
 20
27.4488174273
 10
-32.152954826
 20
27.4621951647
 10
-32.1528702172
 20
27.4655416817
  0
LWPOLYLINE
  5
244
100
AcDbEntity
  8
RACCORDO
100
AcDbPolyline
 62
250
  6
CONTINUOUS
 90
7
 70
0
 10
-31.9560698962
 20
23.3688937568
 10
-31.9438600269
 20
23.3803232649
 10
-31.9340308002
 20
23.3924939255
 10
-31.9267151398
 20
23.4052411514
 10
-31.9220119774
 20
23.4183925582
 10
-31.9199849151
 20
23.4317702956
 10
-31.9199003649
 20
23.4350396202
  0
LWPOLYLINE
  5
245
100
AcDbEntity
  8
RACCORDO
100
AcDbPolyline
 62
250
  6
CONTINUOUS
 90
8
 70
0
 10
-31.9560698962
 20
27.3049036899
 10
-31.9460746058
 20
27.3140252671
 10
-31.9376005689
 20
27.32364262
 10
-31.9307202461
 20
27.3336713269
 10
-31.9254941903
 20
27.344018468
 10
-31.9219625837
 20
27.3545983612
 10
-31.9201531314
 20
27.3653342739
 10
-31.919900308
 20
27.3711192355
  0
LINE
  5
246
100
AcDbEntity
  8
RACCORDO
100
AcDbLine
 62
250
  6
CONTINUOUS
 10
-32.1174321621
 20
27.5358331188
 11
-32.1501110509
 21
27.5096859087
  0
LINE
  5
247
100
AcDbEntity
  8
RACCORDO
100
AcDbLine
 62
250
  6
CONTINUOUS
 10
-31.9560698962
 20
27.3049036899
 11
-31.988748785
 21
27.2787564798
  0
LWPOLYLINE
  5
248
100
AcDbEntity
  8
RACCORDO
100
AcDbPolyline
 62
250
  6
CONTINUOUS
 90
22
 70
0
 10
-31.988748785
 20
27.2787564798
 10
-32.0040593791
 20
27.2673575134
 10
-32.0190653568
 20
27.2577131226
 10
-32.0337667183
 20
27.2498233073
 10
-32.0482256287
 20
27.2436751693
 10
-32.0623799229
 20
27.2392816069
 10
-32.0760431048
 20
27.2366813149
 10
-32.0892369484
 20
27.2359065521
 10
-32.1019396797
 20
27.2369250598
 10
-32.113899482
 20
27.2396787565
 10
-32.1250718384
 20
27.2441964529
 10
-32.1355012656
 20
27.2504493384
 10
-32.1450694973
 20
27.258292899
 10
-32.1537540324
 20
27.2676687423
 10
-32.1615773718
 20
27.2786352608
 10
-32.1684887516
 20
27.2912231181
 10
-32.1745329002
 20
27.3054996128
 10
-32.1796650891
 20
27.3213974463
 10
-32.1837003692
 20
27.3387453875
 10
-32.1865770907
 20
27.3574863593
 10
-32.1883569034
 20
27.3776774388
 10
-32.1890398072
 20
27.3993186259
  0
LINE
  5
249
100
AcDbEntity
  8
RACCORDO
100
AcDbLine
 62
250
  6
CONTINUOUS
 10
-34.0072287657
 20
-3.7388304049
 11
-34.0072287657
 21
39.2742560299
  0
LINE
  5
24A
100
AcDbEntity
  8
RACCORDO
100
AcDbLine
 62
250
  6
CONTINUOUS
 10
-33.5866992202
 20
-3.7409493625
 11
-33.5866992202
 21
39.2721370723
  0
LWPOLYLINE
  5
24B
100
AcDbEntity
  8
RACCORDO
100
AcDbPolyline
 62
250
  6
CONTINUOUS
 90
13
 70
0
 10
-33.5866991074
 20
39.2721371329
 10
-33.5861890029
 20
39.298188171
 10
-33.5841493277
 20
39.32332489
 10
-33.5805816137
 20
39.3474316001
 10
-33.5754899722
 20
39.370417205
 10
-33.568889969
 20
39.3921492429
 10
-33.5608229254
 20
39.4124681687
 10
-33.5513363106
 20
39.4312740197
 10
-33.5404706085
 20
39.4485058093
 10
-33.528279893
 20
39.4640874299
 10
-33.5148267092
 20
39.4779534364
 10
-33.5001703292
 20
39.4900564808
 10
-33.4843666867
 20
39.500358043
  0
LWPOLYLINE
  5
24C
100
AcDbEntity
  8
RACCORDO
100
AcDbPolyline
 62
250
  6
CONTINUOUS
 90
25
 70
0
 10
-34.0072287657
 20
39.2742560299
 10
-34.0060084202
 20
39.3164425581
 10
-34.0023927651
 20
39.3567894373
 10
-33.9963818002
 20
39.3952966676
 10
-33.9879233302
 20
39.4321522355
 10
-33.9770695504
 20
39.4671681545
 10
-33.9639770477
 20
39.4997804644
 10
-33.9486135897
 20
39.5299159648
 10
-33.9310114087
 20
39.5576478563
 10
-33.9114237887
 20
39.5826317799
 10
-33.8898348217
 20
39.6048234754
 10
-33.8662604157
 20
39.6242672032
 10
-33.8410015788
 20
39.6407513849
 10
-33.8140216221
 20
39.6542432591
 10
-33.7853572346
 20
39.6647755872
 10
-33.7554194914
 20
39.672235076
 10
-33.7242534978
 20
39.676590422
 10
-33.6918141485
 20
39.6778729287
 10
-33.6583772027
 20
39.6760632119
 10
-33.6238763587
 20
39.6711350552
 10
-33.5883779181
 20
39.663114675
 10
-33.5523565452
 20
39.652061337
 10
-33.5159704615
 20
39.6379947961
 10
-33.4790614456
 20
39.6208952973
 10
-33.4416294974
 20
39.6007628405
  0
LWPOLYLINE
  5
24D
100
AcDbEntity
  8
RACCORDO
100
AcDbPolyline
 62
250
  6
CONTINUOUS
 90
19
 70
0
 10
-33.4416294974
 20
-4.7184770734
 10
-33.4408400734
 20
-4.6969095182
 10
-33.4384776836
 20
-4.6745909272
 10
-33.4345599207
 20
-4.651687416
 10
-33.4291159538
 20
-4.6283694529
 10
-33.4221863101
 20
-4.6048105865
 10
-33.4138225726
 20
-4.5811861545
 10
-33.4040869983
 20
-4.5576719849
 10
-33.3930520526
 20
-4.5344430813
 10
-33.3807998675
 20
-4.5116723173
 10
-33.3674216368
 20
-4.4895291625
 10
-33.3530169329
 20
-4.4681784126
 10
-33.3376929611
 20
-4.4477789572
 10
-33.3215637731
 20
-4.4284826146
 10
-33.3047494118
 20
-4.410432991
 10
-33.2873750102
 20
-4.3937644058
 10
-33.2695698737
 20
-4.3786009071
 10
-33.2514665187
 20
-4.3650553464
 10
-33.2331996775
 20
-4.3532285303
  0
LWPOLYLINE
  5
24E
100
AcDbEntity
  8
RACCORDO
100
AcDbPolyline
 62
250
  6
CONTINUOUS
 90
15
 70
0
 10
-31.9504292319
 20
15.3728077079
 10
-31.9434298735
 20
15.4397624455
 10
-31.9336124769
 20
15.5086300116
 10
-31.9210090629
 20
15.5791470213
 10
-31.9057156936
 20
15.6505233191
 10
-31.8876932946
 20
15.7228023648
 10
-31.8669809403
 20
15.7959406987
 10
-31.8437919168
 20
15.8690177864
 10
-31.8181090821
 20
15.9420054698
 10
-31.7899495783
 20
16.0149319069
 10
-31.7595781174
 20
16.0869610373
 10
-31.7268867748
 20
16.1582221175
 10
-31.6919834753
 20
16.228585891
 10
-31.655456705
 20
16.2968285278
 10
-31.6175026262
 20
16.3625420846
  0
LWPOLYLINE
  5
24F
100
AcDbEntity
  8
RACCORDO
100
AcDbPolyline
 62
250
  6
CONTINUOUS
 90
16
 70
0
 10
-31.5367240565
 20
22.8167152959
 10
-31.5330177025
 20
22.8357696518
 10
-31.5309882736
 20
22.8552961655
 10
-31.5306560603
 20
22.8750993878
 10
-31.5320243648
 20
22.8949811005
 10
-31.535079469
 20
22.9147423116
 10
-31.5397907755
 20
22.9341852462
 10
-31.5461111098
 20
22.9531153061
 10
-31.5539771953
 20
22.9713430345
 10
-31.5633102944
 20
22.9886860203
 10
-31.5740169754
 20
23.0049706827
 10
-31.5859900741
 20
23.020034058
 10
-31.5991097861
 20
23.0337254335
 10
-31.6132448166
 20
23.0459077907
 10
-31.6282536829
 20
23.0564591897
 10
-31.6439861686
 20
23.0652740274
  0
LWPOLYLINE
  5
250
100
AcDbEntity
  8
RACCORDO
100
AcDbPolyline
 62
250
  6
CONTINUOUS
 90
3
 70
0
 10
-32.1756873757
 20
10.9419461179
 10
-32.1699498136
 20
10.9656938171
 10
-32.1632145147
 20
10.989684772
  0
LWPOLYLINE
  5
251
100
AcDbEntity
  8
RACCORDO
100
AcDbPolyline
 62
250
  6
CONTINUOUS
 90
6
 70
0
 10
-32.1632145147
 20
10.989684772
 10
-32.1555017714
 20
11.0138750816
 10
-32.1469337076
 20
11.0378592049
 10
-32.137521003
 20
11.061589953
 10
-32.1272529779
 20
11.0851145148
 10
-32.1162197171
 20
11.108168916
  0
LWPOLYLINE
  5
252
100
AcDbEntity
  8
RACCORDO
100
AcDbPolyline
 62
250
  6
CONTINUOUS
 90
7
 70
0
 10
-32.1162197171
 20
11.108168916
 10
-32.104413448
 20
11.1307740016
 10
-32.0918419431
 20
11.1529089266
 10
-32.0786186053
 20
11.1742471818
 10
-32.0646726469
 20
11.1948578374
 10
-32.0500748557
 20
11.2146718231
 10
-32.0351509973
 20
11.2331554201
  0
LINE
  5
253
100
AcDbEntity
  8
RACCORDO
100
AcDbLine
 62
250
  6
CONTINUOUS
 10
-31.6175026262
 20
16.3625420846
 11
-31.5779250767
 21
16.4261345047
  0
LWPOLYLINE
  5
254
100
AcDbEntity
  8
RACCORDO
100
AcDbPolyline
 62
7
  6
CONTINUOUS
 90
16
 70
0
 10
-31.5071390157
 20
16.4831319097
 10
-31.4733476136
 20
16.5374327214
 10
-31.4411335806
 20
16.5937347271
 10
-31.4106363409
 20
16.6517921898
 10
-31.3819903398
 20
16.7113315146
 10
-31.3553047706
 20
16.7721339728
 10
-31.3306978213
 20
16.8339443216
 10
-31.3083148492
 20
16.8964222342
 10
-31.2882614385
 20
16.9593175014
 10
-31.2706345909
 20
17.0223623781
 10
-31.2555526795
 20
17.0852125743
 10
-31.2430966474
 20
17.147615073
 10
-31.2333376322
 20
17.2093507004
 10
-31.2263575578
 20
17.270187524
 10
-31.222220717
 20
17.3299086747
 10
-31.2209907042
 20
17.3831464727
  0
LWPOLYLINE
  5
255
100
AcDbEntity
  8
RACCORDO
100
AcDbPolyline
 62
250
  6
CONTINUOUS
 90
18
 70
0
 10
-31.509572086
 20
16.5282102848
 10
-31.4836205451
 20
16.569827857
 10
-31.4588694338
 20
16.6124585047
 10
-31.435282982
 20
16.6562081473
 10
-31.4128969599
 20
16.7009708655
 10
-31.3918186771
 20
16.746428901
 10
-31.372038963
 20
16.79256102
 10
-31.3535669883
 20
16.8393884563
 10
-31.3365375755
 20
16.8866571526
 10
-31.3209280007
 20
16.9343567186
 10
-31.3067609877
 20
16.9824975447
 10
-31.2942395313
 20
17.0308567446
 10
-31.2833169741
 20
17.0796701497
 10
-31.2740399734
 20
17.1287019287
 10
-31.2667514954
 20
17.1770217017
 10
-31.2615658621
 20
17.2243193422
 10
-31.2583687514
 20
17.2709049766
 10
-31.2571601633
 20
17.316778605
  0
LINE
  5
256
100
AcDbEntity
  8
RACCORDO
100
AcDbLine
 62
250
  6
CONTINUOUS
 10
-31.5779250767
 20
16.4261345047
 11
-31.509572086
 21
16.5282102848
  0
LWPOLYLINE
  5
257
100
AcDbEntity
  8
RACCORDO
100
AcDbPolyline
 62
250
  6
CONTINUOUS
 90
7
 70
0
 10
-31.2571601633
 20
22.448596322
 10
-31.2449505131
 20
22.460025596
 10
-31.2351213743
 20
22.4721960455
 10
-31.2278056941
 20
22.484943099
 10
-31.2231024317
 20
22.4980943868
 10
-31.2210752224
 20
22.5114720647
 10
-31.2209907019
 20
22.5146999913
  0
LWPOLYLINE
  5
258
100
AcDbEntity
  8
RACCORDO
100
AcDbPolyline
 62
250
  6
CONTINUOUS
 90
6
 70
0
 10
-31.2571601633
 20
17.316778605
 10
-31.244950294
 20
17.3282081131
 10
-31.2351210673
 20
17.3403787738
 10
-31.2278054069
 20
17.3531259996
 10
-31.2231022445
 20
17.3662774064
 10
-31.2210751822
 20
17.3796551438
  0
LWPOLYLINE
  5
259
100
AcDbEntity
  8
RACCORDO
100
AcDbPolyline
 62
250
  6
CONTINUOUS
 90
19
 70
0
 10
49.6516050645
 20
-65.1722107265
 10
49.6826518451
 20
-65.1886849277
 10
49.715992287
 20
-65.2035901437
 10
49.7513892736
 20
-65.2168203691
 10
49.7885910621
 20
-65.2282815106
 10
49.8273330742
 20
-65.2378920568
 10
49.8673397772
 20
-65.2455836577
 10
49.9083266442
 20
-65.2513016108
 10
49.9500021773
 20
-65.2550052501
 10
49.9920699809
 20
-65.2566682352
 10
50.0342308695
 20
-65.2562787393
 10
50.0761849956
 20
-65.2538395322
 10
50.1176339822
 20
-65.2493679617
 10
50.1582830449
 20
-65.2428958294
 10
50.1978430881
 20
-65.2344691651
 10
50.2360327617
 20
-65.224147899
 10
50.2725804612
 20
-65.2120054357
 10
50.3072262602
 20
-65.1981281324
 10
50.3397237583
 20
-65.1826146841
  0
LWPOLYLINE
  5
25A
100
AcDbEntity
  8
RACCORDO
100
AcDbPolyline
 62
250
  6
CONTINUOUS
 90
31
 70
0
 10
48.9454673486
 20
-65.579846992
 10
48.9829762995
 20
-65.6002320904
 10
49.019828632
 20
-65.6181662227
 10
49.0560243459
 20
-65.6336493891
 10
49.0915122029
 20
-65.6466382368
 10
49.1263434414
 20
-65.6571761185
 10
49.1606717764
 20
-65.6653930923
 10
49.1946593276
 20
-65.6713487865
 10
49.2281439753
 20
-65.6749835728
 10
49.2607930758
 20
-65.676248625
 10
49.2925697998
 20
-65.675118001
 10
49.3235109766
 20
-65.6716176428
 10
49.3533944509
 20
-65.6657765501
 10
49.3822168783
 20
-65.6575789755
 10
49.4099816032
 20
-65.6470406664
 10
49.4364765036
 20
-65.6342378647
 10
49.4617040804
 20
-65.6191368935
 10
49.4856618328
 20
-65.6017714297
 10
49.5081301365
 20
-65.5823187461
 10
49.5290187035
 20
-65.5609284523
 10
49.5484178217
 20
-65.5374509386
 10
49.5663787309
 20
-65.511614649
 10
49.5830220773
 20
-65.4833659189
 10
49.5982272147
 20
-65.4527584129
 10
49.6116834439
 20
-65.4196815685
 10
49.6234156163
 20
-65.3839849221
 10
49.6333988806
 20
-65.3458189375
 10
49.6412479829
 20
-65.3055244427
 10
49.6468345054
 20
-65.2632150474
 10
49.6502868659
 20
-65.218777142
 10
49.6516050645
 20
-65.1722107265
  0
LWPOLYLINE
  5
25B
100
AcDbEntity
  8
RACCORDO
100
AcDbPolyline
 62
7
  6
CONTINUOUS
 90
15
 70
0
 10
49.0490065686
 20
-65.8087142155
 10
49.0888659197
 20
-65.8308847323
 10
49.161198955
 20
-65.8668845249
 10
49.2336866731
 20
-65.8975965753
 10
49.306207349
 20
-65.9230241375
 10
49.3785994717
 20
-65.9431659053
 10
49.4505921825
 20
-65.9579990459
 10
49.5220293327
 20
-65.967549753
 10
49.5926786693
 20
-65.9718431857
 10
49.6620584566
 20
-65.970927625
 10
49.7298936744
 20
-65.9649262508
 10
49.7959439835
 20
-65.9539887373
 10
49.8597204687
 20
-65.9383514461
 10
49.9208951069
 20
-65.9183046622
 10
49.9821916643
 20
-65.8928016183
  0
LWPOLYLINE
  5
25C
100
AcDbEntity
  8
RACCORDO
100
AcDbPolyline
 62
250
  6
CONTINUOUS
 90
11
 70
0
 10
-53.1909981928
 20
-5.7921805263
 10
-53.2195303125
 20
-5.7742546404
 10
-53.245345109
 20
-5.7550044221
 10
-53.2682589822
 20
-5.7345667733
 10
-53.2881089625
 20
-5.7130870413
 10
-53.3047538692
 20
-5.6907179858
 10
-53.3180753148
 20
-5.6676186927
 10
-53.3279785491
 20
-5.6439534409
 10
-53.334393131
 20
-5.6198905359
 10
-53.3372734306
 20
-5.5956011141
 10
-53.3374448022
 20
-5.5880432415
  0
LWPOLYLINE
  5
25D
100
AcDbEntity
  8
RACCORDO
100
AcDbPolyline
 62
250
  6
CONTINUOUS
 90
25
 70
0
 10
-32.6687612077
 20
-3.1459061598
 10
-32.6663668015
 20
-3.1770221533
 10
-32.6624193911
 20
-3.2088684193
 10
-32.6569284817
 20
-3.24130531
 10
-32.6499019551
 20
-3.27417177
 10
-32.6413760234
 20
-3.3073518178
 10
-32.6314062444
 20
-3.3407753243
 10
-32.6200198434
 20
-3.374339534
 10
-32.6072571947
 20
-3.4078786948
 10
-32.5932034553
 20
-3.4412320944
 10
-32.5779564235
 20
-3.4742015131
 10
-32.5615508509
 20
-3.5067392955
 10
-32.543965296
 20
-3.5389059793
 10
-32.5252377614
 20
-3.5705824941
 10
-32.5054362558
 20
-3.6016316151
 10
-32.4845474753
 20
-3.6320627374
 10
-32.4626116974
 20
-3.6617521258
 10
-32.4397037925
 20
-3.6905416808
 10
-32.4158464556
 20
-3.7183641902
 10
-32.3910500012
 20
-3.7451513392
 10
-32.3654550347
 20
-3.7706594715
 10
-32.3393062455
 20
-3.7945843644
 10
-32.3127774613
 20
-3.816771945
 10
-32.2859488488
 20
-3.8371788942
 10
-32.2589536564
 20
-3.8557138205
  0
LWPOLYLINE
  5
25E
100
AcDbEntity
  8
RACCORDO
100
AcDbPolyline
 62
250
  6
CONTINUOUS
 90
6
 70
0
 10
-30.8511616929
 20
-4.1128630541
 10
-30.8515687695
 20
-4.104551087
 10
-30.8522006295
 20
-4.0979452577
 10
-30.8530513914
 20
-4.0931070472
 10
-30.8541131362
 20
-4.090081484
 10
-30.8554641124
 20
-4.0888838541
  0
LWPOLYLINE
  5
25F
100
AcDbEntity
  8
RACCORDO
100
AcDbPolyline
 62
250
  6
CONTINUOUS
 90
6
 70
0
 10
-30.1166858237
 20
-4.1876320734
 10
-30.1170928247
 20
-4.1793211642
 10
-30.1177245471
 20
-4.1727158962
 10
-30.1185751127
 20
-4.1678777315
 10
-30.1196365618
 20
-4.1648517712
 10
-30.1209806161
 20
-4.1636536787
  0
LWPOLYLINE
  5
260
100
AcDbEntity
  8
RACCORDO
100
AcDbPolyline
 62
250
  6
CONTINUOUS
 90
16
 70
0
 10
-28.0718901942
 20
8.7091139223
 10
-28.0722872569
 20
8.7173611359
 10
-28.0733800524
 20
8.7249451718
 10
-28.0751685807
 20
8.7318660301
 10
-28.0776859661
 20
8.7381828318
 10
-28.0808990843
 20
8.7438364558
 10
-28.0847085619
 20
8.7486495388
 10
-28.0891330637
 20
8.752594936
 10
-28.0941539248
 20
8.7556997922
 10
-28.0996157775
 20
8.7578681788
 10
-28.1055335732
 20
8.7590701388
 10
-28.1118923605
 20
8.7593356292
 10
-28.1184919173
 20
8.7586585926
 10
-28.1252655029
 20
8.7570370099
 10
-28.132279858
 20
8.7544729001
 10
-28.1395349826
 20
8.7509662634
  0
LWPOLYLINE
  5
261
100
AcDbEntity
  8
RACCORDO
100
AcDbPolyline
 62
250
  6
CONTINUOUS
 90
15
 70
0
 10
-31.988748785
 20
27.2787564798
 10
-31.9894371194
 20
27.2963211859
 10
-31.9919060044
 20
27.3144170719
 10
-31.9961284896
 20
27.3328466364
 10
-32.002058486
 20
27.3514087362
 10
-32.0096312689
 20
27.3699007838
 10
-32.0187641853
 20
27.3881209578
 10
-32.0293575544
 20
27.405870403
 10
-32.0412957569
 20
27.4229554035
 10
-32.0544484985
 20
27.4391894978
 10
-32.0686722279
 20
27.4543955085
 10
-32.0838117062
 20
27.4684074802
 10
-32.0997017035
 20
27.4810724916
 10
-32.1161687978
 20
27.4922523199
 10
-32.1330332662
 20
27.50182495
  0
LWPOLYLINE
  5
262
100
AcDbEntity
  8
RACCORDO
100
AcDbPolyline
 62
250
  6
CONTINUOUS
 90
10
 70
0
 10
-33.4416294974
 20
39.6007628405
 10
-33.4408400986
 20
39.5801072153
 10
-33.4384777773
 20
39.5605168979
 10
-33.4345601151
 20
39.5421376899
 10
-33.4291162695
 20
39.5251063789
 10
-33.4221867562
 20
39.5095497208
 10
-33.4138231483
 20
39.4955834964
 10
-33.4040876923
 20
39.4833116497
 10
-33.3930528444
 20
39.4728255141
 10
-33.3795410914
 20
39.4634627979
  0
LWPOLYLINE
  5
263
100
AcDbEntity
  8
RACCORDO
100
AcDbPolyline
 62
250
  6
CONTINUOUS
 90
5
 70
0
 10
-31.9560698962
 20
27.3049036899
 10
-31.9565208517
 20
27.3195186713
 10
-31.9582137846
 20
27.3345261443
 10
-31.9611358475
 20
27.3498120308
 10
-31.9652648592
 20
27.3652601674
  0
LWPOLYLINE
  5
264
100
AcDbEntity
  8
RACCORDO
100
AcDbPolyline
 62
7
  6
CONTINUOUS
 90
15
 70
0
 10
-28.0145402896
 20
5.429248925
 10
-28.0153777302
 20
5.4574398374
 10
-28.0182709016
 20
5.4880367002
 10
-28.023201229
 20
5.517625528
 10
-28.0301591822
 20
5.5461749215
 10
-28.039130153
 20
5.5736289482
 10
-28.0500856408
 20
5.5998822198
 10
-28.0629762923
 20
5.6247996519
 10
-28.0777294304
 20
5.6482503167
 10
-28.0942664397
 20
5.6701200233
 10
-28.1124694788
 20
5.6902643684
 10
-28.1322016125
 20
5.7085601832
 10
-28.1533108417
 20
5.7249046433
 10
-28.1756059557
 20
5.7391942602
 10
-28.1790548582
 20
5.7411638038
  0
LWPOLYLINE
  5
265
100
AcDbEntity
  8
RACCORDO
100
AcDbPolyline
 62
250
  6
CONTINUOUS
 90
3
 70
0
 10
-31.2571601633
 20
22.448596322
 10
-31.2582356808
 20
22.4900330414
 10
-31.2610824949
 20
22.5291809872
  0
LWPOLYLINE
  5
266
100
AcDbEntity
  8
RACCORDO
100
AcDbPolyline
 62
7
  6
CONTINUOUS
 90
14
 70
0
 10
-31.2209907019
 20
22.5146999913
 10
-31.2222433025
 20
22.566749987
 10
-31.2266881361
 20
22.6235007014
 10
-31.2343191265
 20
22.6775951311
 10
-31.2451213679
 20
22.7289401877
 10
-31.2590956333
 20
22.7775272934
 10
-31.2762970504
 20
22.8233764454
 10
-31.296740383
 20
22.8663349595
 10
-31.3203528137
 20
22.9061268958
 10
-31.3471628149
 20
22.9426665226
 10
-31.3770595961
 20
22.9756818914
 10
-31.4095343929
 20
23.004641096
 10
-31.4443348315
 20
23.029435388
 10
-31.4575315367
 20
23.0374095845
  0
LWPOLYLINE
  5
267
100
AcDbEntity
  8
RACCORDO
100
AcDbPolyline
 62
250
  6
CONTINUOUS
 90
16
 70
0
 10
-30.3767940526
 20
7.5274641051
 10
-30.3770641271
 20
7.5452665185
 10
-30.378894158
 20
7.563760665
 10
-30.382264092
 20
7.582743916
 10
-30.3871370035
 20
7.6020082845
 10
-30.3934595009
 20
7.6213427055
 10
-30.401162311
 20
7.6405353481
 10
-30.4101610375
 20
7.6593759335
 10
-30.4203570862
 20
7.6776580415
 10
-30.431638747
 20
7.6951813734
 10
-30.4438824141
 20
7.7117539412
 10
-30.4569539427
 20
7.7271941747
 10
-30.4707101207
 20
7.7413329124
 10
-30.4850002335
 20
7.7540152498
 10
-30.4996677152
 20
7.7651022375
 10
-30.5145518663
 20
7.7744724063
  0
LWPOLYLINE
  5
268
100
AcDbEntity
  8
RACCORDO
100
AcDbPolyline
 62
250
  6
CONTINUOUS
 90
19
 70
0
 10
-28.1395349826
 20
8.7509662634
 10
-28.1396514193
 20
8.7657481336
 10
-28.1408526231
 20
8.7810335013
 10
-28.1431294523
 20
8.7967060358
 10
-28.1464645786
 20
8.8126464595
 10
-28.1508326199
 20
8.8287334562
 10
-28.1562003327
 20
8.8448445941
 10
-28.1625268654
 20
8.8608572578
 10
-28.1697640693
 20
8.8766495812
 10
-28.1778568649
 20
8.8921013751
 10
-28.1867436612
 20
8.9070950422
 10
-28.1963568242
 20
8.9215164715
 10
-28.2066231921
 20
8.9352559073
 10
-28.2174646315
 20
8.9482087841
 10
-28.2287986325
 20
8.9602765228
 10
-28.2405389365
 20
8.9713672806
 10
-28.2525961928
 20
8.98139665
 10
-28.2648786383
 20
8.9902883016
 10
-28.2772927963
 20
8.9979745645
  0
LINE
  5
269
100
AcDbEntity
  8
RACCORDO
100
AcDbLine
 62
7
  6
CONTINUOUS
 10
-32.9354279449
 20
-3.3649147374
 11
-32.9354279449
 21
39.207037423
  0
LINE
  5
26A
100
AcDbEntity
  8
RACCORDO
100
AcDbLine
 62
250
  6
CONTINUOUS
 10
-32.6687608497
 20
39.0530671843
 11
-32.6687608497
 21
-3.1459059531
  0
LINE
  5
26B
100
AcDbEntity
  8
RACCORDO
100
AcDbLine
 62
7
  6
CONTINUOUS
 10
-32.6419659304
 20
39.0375961338
 11
-32.6419659304
 21
-3.0881672346
  0
LINE
  5
26C
100
AcDbEntity
  8
RACCORDO
100
AcDbLine
 62
250
  6
CONTINUOUS
 10
-32.2472822849
 20
-2.6198244811
 11
-32.2472822849
 21
-2.3545863339
  0
LINE
  5
26D
100
AcDbEntity
  8
RACCORDO
100
AcDbLine
 62
7
  6
CONTINUOUS
 10
-32.2111126938
 20
-2.553589312
 11
-32.2111126938
 21
-2.2883511626
  0
LINE
  5
26E
100
AcDbEntity
  8
RACCORDO
100
AcDbLine
 62
250
  6
CONTINUOUS
 10
-32.1890398072
 20
-1.9506687492
 11
-32.1890398072
 21
10.8292101582
  0
LINE
  5
26F
100
AcDbEntity
  8
RACCORDO
100
AcDbLine
 62
250
  6
CONTINUOUS
 10
-32.1890398072
 20
27.3993186259
 11
-32.1890398072
 21
38.7760822667
  0
LINE
  5
270
100
AcDbEntity
  8
RACCORDO
100
AcDbLine
 62
7
  6
CONTINUOUS
 10
-32.1528702161
 20
-1.8844335801
 11
-32.1528702161
 21
10.8954453251
  0
LINE
  5
271
100
AcDbEntity
  8
RACCORDO
100
AcDbLine
 62
7
  6
CONTINUOUS
 10
-32.1528702161
 20
27.4655537951
 11
-32.1528702161
 21
38.7551983981
  0
LINE
  5
272
100
AcDbEntity
  8
RACCORDO
100
AcDbLine
 62
250
  6
CONTINUOUS
 10
-31.9560698962
 20
11.30783663
 11
-31.9560698962
 21
15.243846563
  0
LINE
  5
273
100
AcDbEntity
  8
RACCORDO
100
AcDbLine
 62
250
  6
CONTINUOUS
 10
-31.9560698962
 20
23.3688937568
 11
-31.9560698962
 21
27.3049036899
  0
LINE
  5
274
100
AcDbEntity
  8
RACCORDO
100
AcDbLine
 62
7
  6
CONTINUOUS
 10
-31.9199003051
 20
11.3740717991
 11
-31.9199003051
 21
15.3100817323
  0
LINE
  5
275
100
AcDbEntity
  8
RACCORDO
100
AcDbLine
 62
7
  6
CONTINUOUS
 10
-31.9199003051
 20
23.435128926
 11
-31.9199003051
 21
27.371138859
  0
LINE
  5
276
100
AcDbEntity
  8
RACCORDO
100
AcDbLine
 62
250
  6
CONTINUOUS
 10
-31.2571601633
 20
17.316778605
 11
-31.2571601633
 21
22.448596322
  0
LINE
  5
277
100
AcDbEntity
  8
RACCORDO
100
AcDbLine
 62
7
  6
CONTINUOUS
 10
-31.2209905722
 20
17.3830137742
 11
-31.2209905722
 21
22.5148314928
  0
LINE
  5
278
100
AcDbEntity
  8
RACCORDO
100
AcDbLine
 62
250
  6
CONTINUOUS
 10
-29.8549484211
 20
9.7208159602
 11
-29.8549484211
 21
9.3258636387
  0
LINE
  5
279
100
AcDbEntity
  8
RACCORDO
100
AcDbLine
 62
7
  6
CONTINUOUS
 10
-29.7975985109
 20
9.8017552051
 11
-29.7975985109
 21
9.4048050761
  0
LINE
  5
27A
100
AcDbEntity
  8
RACCORDO
100
AcDbLine
 62
250
  6
CONTINUOUS
 10
-28.0718901942
 20
5.3483368723
 11
-28.0718901942
 21
4.6476275555
  0
LINE
  5
27B
100
AcDbEntity
  8
RACCORDO
100
AcDbLine
 62
250
  6
CONTINUOUS
 10
-28.0718901942
 20
8.0084046054
 11
-28.0718901942
 21
8.7091139223
  0
LINE
  5
27C
100
AcDbEntity
  8
RACCORDO
100
AcDbLine
 62
7
  6
CONTINUOUS
 10
-28.014540284
 20
5.4292761173
 11
-28.014540284
 21
4.7285668004
  0
LINE
  5
27D
100
AcDbEntity
  8
RACCORDO
100
AcDbLine
 62
7
  6
CONTINUOUS
 10
-28.014540284
 20
8.0893438504
 11
-28.014540284
 21
8.7900531672
  0
LINE
  5
27E
100
AcDbEntity
  8
RACCORDO
100
AcDbLine
 62
7
  6
CONTINUOUS
 10
-31.2209907019
 20
22.5146999913
 11
-31.2209905722
 21
22.5148314928
  0
LWPOLYLINE
  5
27F
100
AcDbEntity
  8
RACCORDO
100
AcDbPolyline
 62
7
  6
CONTINUOUS
 90
25
 70
0
 10
-32.1528702172
 20
10.8954328688
 10
-32.1528618143
 20
10.8972985536
 10
-32.1525867744
 20
10.9065707656
 10
-32.1518614595
 20
10.9170667344
 10
-32.1506110914
 20
10.9287238167
 10
-32.1487737001
 20
10.9414661858
 10
-32.1463065665
 20
10.9551487059
 10
-32.14317083
 20
10.9696655347
 10
-32.1393381036
 20
10.9849119474
 10
-32.1348015325
 20
11.000735215
 10
-32.1295538833
 20
11.0170080826
 10
-32.1236075619
 20
11.0335789252
 10
-32.1170099536
 20
11.0502432238
 10
-32.1097842568
 20
11.0668785189
 10
-32.1019952463
 20
11.0832919886
 10
-32.0937931116
 20
11.0991696009
 10
-32.0852624124
 20
11.1143719239
 10
-32.0765017423
 20
11.1287592389
 10
-32.0677313675
 20
11.142042674
 10
-32.0590553284
 20
11.154158376
 10
-32.0506111591
 20
11.1650140277
 10
-32.0427054336
 20
11.1743553476
 10
-32.0354778942
 20
11.1821876889
 10
-32.0290354011
 20
11.1885678439
 10
-32.0236191914
 20
11.193451637
  0
LWPOLYLINE
  5
280
100
AcDbEntity
  8
RACCORDO
100
AcDbPolyline
 62
7
  6
CONTINUOUS
 90
21
 70
0
 10
-31.9199003256
 20
15.3101340472
 10
-31.9197517953
 20
15.3288401315
 10
-31.9178703673
 20
15.3809310456
 10
-31.9137921966
 20
15.4352848813
 10
-31.9074845403
 20
15.4916183237
 10
-31.8989346424
 20
15.5496430894
 10
-31.8881492756
 20
15.6090967476
 10
-31.8751483482
 20
15.6697088922
 10
-31.8599619116
 20
15.7312161089
 10
-31.8426258362
 20
15.7933863544
 10
-31.8231927402
 20
15.8559522696
 10
-31.8017319755
 20
15.9186237536
 10
-31.7783173718
 20
15.9811438865
 10
-31.7530461863
 20
16.0432232199
 10
-31.7260144244
 20
16.1045985623
 10
-31.6973052126
 20
16.1650576835
 10
-31.6670353075
 20
16.2243350826
 10
-31.6353272306
 20
16.2821710665
 10
-31.6022923435
 20
16.3383463844
 10
-31.5680863778
 20
16.3925905568
 10
-31.5071390157
 20
16.4831319097
  0
LINE
  5
281
100
AcDbEntity
  8
RACCORDO
100
AcDbLine
 62
250
  6
CONTINUOUS
 10
-32.1891088346
 20
-1.9587608042
 11
-32.1890398072
 21
-1.9506687492
  0
LWPOLYLINE
  5
282
100
AcDbEntity
  8
RACCORDO
100
AcDbPolyline
 62
7
  6
CONTINUOUS
 90
9
 70
0
 10
-32.2111127012
 20
-2.2883198438
 10
-32.2109654286
 20
-2.2748911863
 10
-32.2098539672
 20
-2.2481357038
 10
-32.2075806176
 20
-2.2196119084
 10
-32.2040787904
 20
-2.1895088733
 10
-32.1992953519
 20
-2.1579796275
 10
-32.1931831052
 20
-2.1251498943
 10
-32.1857052115
 20
-2.0911629265
 10
-32.1772039161
 20
-2.0575444866
  0
LWPOLYLINE
  5
283
100
AcDbEntity
  8
RACCORDO
100
AcDbPolyline
 62
250
  6
CONTINUOUS
 90
4
 70
0
 10
-32.2472822849
 20
-2.3545863339
 10
-32.2468926787
 20
-2.3271268713
 10
-32.2454829518
 20
-2.2985952021
 10
-32.2430531041
 20
-2.2689913264
  0
LINE
  5
284
100
AcDbEntity
  8
RACCORDO
100
AcDbLine
 62
250
  6
CONTINUOUS
 10
-31.9560698962
 20
15.243846563
 11
-31.9546425728
 21
15.3075024137
  0
LINE
  5
285
100
AcDbEntity
  8
RACCORDO
100
AcDbLine
 62
250
  6
CONTINUOUS
 10
-32.152954826
 20
-1.8877922105
 11
-32.1528702161
 21
-1.8844335801
  0
LWPOLYLINE
  5
286
100
AcDbEntity
  8
RACCORDO
100
AcDbPolyline
 62
250
  6
CONTINUOUS
 90
6
 70
0
 10
-32.1890398072
 20
10.8292101582
 10
-32.1884548693
 20
10.8507744533
 10
-32.1868312403
 20
10.8728119411
 10
-32.1841689202
 20
10.8953226213
 10
-32.1804474935
 20
10.9183977733
 10
-32.1756873757
 20
10.9419461179
  0
LWPOLYLINE
  5
287
100
AcDbEntity
  8
RACCORDO
100
AcDbPolyline
 62
250
  6
CONTINUOUS
 90
8
 70
0
 10
-31.9560698962
 20
11.30783663
 10
-31.9565218016
 20
11.2939964035
 10
-31.9582181367
 20
11.2807644257
 10
-31.9611464231
 20
11.2682417202
 10
-31.9652856101
 20
11.2565220044
 10
-31.970604168
 20
11.245697167
 10
-31.9770583008
 20
11.2358549486
 10
-31.98445522
 20
11.227234416
  0
LWPOLYLINE
  5
288
100
AcDbEntity
  8
RACCORDO
100
AcDbPolyline
 62
250
  6
CONTINUOUS
 90
9
 70
0
 10
-28.0145402896
 20
5.429248925
 10
-28.0147306397
 20
5.4242390598
 10
-28.0167371113
 20
5.412207457
 10
-28.0209107559
 20
5.400362862
 10
-28.0272058462
 20
5.3888350467
 10
-28.0355534117
 20
5.3777503122
 10
-28.0458619949
 20
5.3672301053
 10
-28.0580186526
 20
5.3573896874
 10
-28.0718901942
 20
5.3483368723
  0
LWPOLYLINE
  5
289
100
AcDbEntity
  8
RACCORDO
100
AcDbPolyline
 62
7
  6
CONTINUOUS
 90
16
 70
0
 10
-28.014540284
 20
4.7285668004
 10
-28.0154073115
 20
4.7057947469
 10
-28.0179605644
 20
4.6830973012
 10
-28.0221472161
 20
4.6604853255
 10
-28.0280183643
 20
4.6376999802
 10
-28.0355457874
 20
4.6149861377
 10
-28.0444459286
 20
4.5930782374
 10
-28.0545614506
 20
4.5721068699
 10
-28.0659399812
 20
4.5518446648
 10
-28.0784670023
 20
4.5324553086
 10
-28.0922066038
 20
4.5138476806
 10
-28.1071481751
 20
4.4961039153
 10
-28.1229989618
 20
4.4796017305
 10
-28.1396513482
 20
4.4644358242
 10
-28.1572402818
 20
4.4505069193
 10
-28.1757919681
 20
4.4378713575
  0
LWPOLYLINE
  5
28A
100
AcDbEntity
  8
RACCORDO
100
AcDbPolyline
 62
250
  6
CONTINUOUS
 90
7
 70
0
 10
-31.988748785
 20
11.2800901591
 10
-31.989437111
 20
11.2635876731
 10
-31.9919059718
 20
11.2479881868
 10
-31.996128422
 20
11.2334619533
 10
-32.0020583779
 20
11.2201675121
 10
-32.0096311198
 20
11.2082499588
 10
-32.0187639988
 20
11.1978393617
  0
LWPOLYLINE
  5
28B
100
AcDbEntity
  8
RACCORDO
100
AcDbPolyline
 62
250
  6
CONTINUOUS
 90
16
 70
0
 10
-28.0718901942
 20
4.6476275555
 10
-28.0722674947
 20
4.63900251
 10
-28.0733471604
 20
4.6301904272
 10
-28.0751291913
 20
4.6211913072
 10
-28.0776484786
 20
4.6118938713
 10
-28.0808701311
 20
4.6024093981
 10
-28.0846894756
 20
4.5930717233
 10
-28.0891214744
 20
4.583902685
 10
-28.0941511652
 20
4.5748804451
 10
-28.0996289868
 20
4.5662733249
 10
-28.1055818469
 20
4.5580818556
 10
-28.1119828378
 20
4.550305506
 10
-28.1186016753
 20
4.5432110044
 10
-28.1253615978
 20
4.5368872601
 10
-28.1323393669
 20
4.5312453639
 10
-28.1395349826
 20
4.5262853155
  0
LWPOLYLINE
  5
28C
100
AcDbEntity
  8
RACCORDO
100
AcDbPolyline
 62
250
  6
CONTINUOUS
 90
9
 70
0
 10
-29.0348697971
 20
6.6737667004
 10
-29.0356587864
 20
6.6570527555
 10
-29.0380192688
 20
6.6414205087
 10
-29.0419251156
 20
6.6270431443
 10
-29.0473330793
 20
6.6140799465
 10
-29.0541832695
 20
6.6026745418
 10
-29.0623998132
 20
6.5929533046
 10
-29.0718917032
 20
6.5850239459
 10
-29.0761918213
 20
6.5822744427
  0
LINE
  5
28D
100
AcDbEntity
  8
RACCORDO
100
AcDbLine
 62
250
  6
CONTINUOUS
 10
-31.9546425728
 20
15.3075024137
 11
-31.9504292319
 21
15.3728077079
  0
LWPOLYLINE
  5
28E
100
AcDbEntity
  8
RACCORDO
100
AcDbPolyline
 62
250
  6
CONTINUOUS
 90
10
 70
0
 10
-29.7975985109
 20
9.8017552051
 10
-29.7982150442
 20
9.7926949454
 10
-29.8003413906
 20
9.7826959213
 10
-29.8039689828
 20
9.7728419498
 10
-29.8090702127
 20
9.7632080257
 10
-29.8156062567
 20
9.7538674689
 10
-29.8235273717
 20
9.7448913667
 10
-29.8327732732
 20
9.7363480326
 10
-29.8432735942
 20
9.7283024866
 10
-29.8549484211
 20
9.7208159602
  0
LWPOLYLINE
  5
28F
100
AcDbEntity
  8
RACCORDO
100
AcDbPolyline
 62
250
  6
CONTINUOUS
 90
10
 70
0
 10
-28.014540284
 20
4.7285668004
 10
-28.0151568173
 20
4.7195065407
 10
-28.0172831637
 20
4.7095075166
 10
-28.0209107559
 20
4.6996535452
 10
-28.0260119858
 20
4.690019621
 10
-28.0325480298
 20
4.6806790642
 10
-28.0404691448
 20
4.671702962
 10
-28.0497150463
 20
4.6631596279
 10
-28.0602153673
 20
4.6551140819
 10
-28.0718901942
 20
4.6476275555
  0
LWPOLYLINE
  5
290
100
AcDbEntity
  8
RACCORDO
100
AcDbPolyline
 62
250
  6
CONTINUOUS
 90
6
 70
0
 10
-32.6419659862
 20
-3.0882534358
 10
-32.6427270663
 20
-3.0982322571
 10
-32.6458090124
 20
-3.1106961704
 10
-32.6512226947
 20
-3.1228922574
 10
-32.6589037464
 20
-3.1346755403
 10
-32.6687608497
 20
-3.1459059531
  0
LWPOLYLINE
  5
291
100
AcDbEntity
  8
RACCORDO
100
AcDbPolyline
 62
250
  6
CONTINUOUS
 90
3
 70
0
 10
-32.2430531041
 20
-2.2689913264
 10
-32.2396230961
 20
-2.2382044186
 10
-32.2351729673
 20
-2.2063453043
  0
LWPOLYLINE
  5
292
100
AcDbEntity
  8
RACCORDO
100
AcDbPolyline
 62
250
  6
CONTINUOUS
 90
7
 70
0
 10
-32.194351967
 20
-2.0149583129
 10
-32.1928488787
 20
-2.0046754731
 10
-32.191617257
 20
-1.9947626941
 10
-32.1906584004
 20
-1.9852174304
 10
-32.1899258709
 20
-1.976035793
 10
-32.1894041892
 20
-1.9672164855
 10
-32.1891088346
 20
-1.9587608042
  0
LWPOLYLINE
  5
293
100
AcDbEntity
  8
RACCORDO
100
AcDbPolyline
 62
250
  6
CONTINUOUS
 90
16
 70
0
 10
-31.9714664607
 20
7.0469069535
 10
-31.9685821074
 20
7.066004322
 10
-31.9672878837
 20
7.0857773284
 10
-31.9675979175
 20
7.1060099268
 10
-31.9695088078
 20
7.1264810503
 10
-31.9729996635
 20
7.1469670337
 10
-31.9780323332
 20
7.1672440579
 10
-31.9845518197
 20
7.1870905801
 10
-31.9924868826
 20
7.2062897668
 10
-32.0017508218
 20
7.2246318688
 10
-32.012242415
 20
7.24191649
 10
-32.0238470292
 20
7.2579547914
 10
-32.0364378813
 20
7.2725715624
 10
-32.0498774097
 20
7.2856071136
 10
-32.0640187742
 20
7.2969190246
 10
-32.0787074708
 20
7.3063837117
  0
LWPOLYLINE
  5
294
100
AcDbEntity
  8
RACCORDO
100
AcDbPolyline
 62
250
  6
CONTINUOUS
 90
16
 70
0
 10
-30.558043316
 20
7.4515821339
 10
-30.5551589964
 20
7.4706791884
 10
-30.5538647535
 20
7.490451917
 10
-30.554174728
 20
7.5106842871
 10
-30.556085533
 20
7.5311552445
 10
-30.5595762917
 20
7.551641128
 10
-30.5646088646
 20
7.5719181133
 10
-30.5711282671
 20
7.5917646587
 10
-30.5790632696
 20
7.6109639251
 10
-30.588327176
 20
7.6293061456
 10
-30.5988187709
 20
7.6465909172
 10
-30.6104234255
 20
7.6626293903
 10
-30.62301435
 20
7.6772463321
 10
-30.6364539785
 20
7.6902820411
 10
-30.6505954729
 20
7.7015940921
 10
-30.6652843261
 20
7.7110588921
  0
LWPOLYLINE
  5
295
100
AcDbEntity
  8
RACCORDO
100
AcDbPolyline
 62
250
  6
CONTINUOUS
 90
3
 70
0
 10
-32.2351729673
 20
-2.2063453043
 10
-32.2296428365
 20
-2.17374646
 10
-32.2230127432
 20
-2.1405187114
  0
LINE
  5
296
100
AcDbEntity
  8
RACCORDO
100
AcDbLine
 62
250
  6
CONTINUOUS
 10
-32.2230127432
 20
-2.1405187114
 11
-32.2153026479
 21
-2.106551233
  0
LWPOLYLINE
  5
297
100
AcDbEntity
  8
RACCORDO
100
AcDbPolyline
 62
7
  6
CONTINUOUS
 90
6
 70
0
 10
-32.1772109243
 20
-2.0575703786
 10
-32.1694640607
 20
-2.0261771308
 10
-32.1625482808
 20
-1.9915221503
 10
-32.1573815224
 20
-1.9566468455
 10
-32.1541083657
 20
-1.9217389113
 10
-32.152870558
 20
-1.88422005
  0
LWPOLYLINE
  5
298
100
AcDbEntity
  8
RACCORDO
100
AcDbPolyline
 62
250
  6
CONTINUOUS
 90
6
 70
0
 10
-32.2153026479
 20
-2.106551233
 10
-32.203427526
 20
-2.0597398453
 10
-32.2006655998
 20
-2.0479994342
 10
-32.198226772
 20
-2.0366227915
 10
-32.1961278203
 20
-2.025608668
 10
-32.194351967
 20
-2.0149583129
  0
LWPOLYLINE
  5
299
100
AcDbEntity
  8
RACCORDO
100
AcDbPolyline
 62
250
  6
CONTINUOUS
 90
12
 70
0
 10
-28.1234054617
 20
7.8175002852
 10
-28.1153057396
 20
7.8338017537
 10
-28.1078001892
 20
7.8504017694
 10
-28.1008553064
 20
7.8673314789
 10
-28.0945045953
 20
7.8845597357
 10
-28.088866517
 20
7.90201082
 10
-28.0839194496
 20
7.9197647014
 10
-28.079685015
 20
7.9377414103
 10
-28.0763465395
 20
7.9556253181
 10
-28.073965132
 20
7.973311215
 10
-28.0724796835
 20
7.9909043108
 10
-28.0718901942
 20
8.0084046054
  0
LWPOLYLINE
  5
29A
100
AcDbEntity
  8
RACCORDO
100
AcDbPolyline
 62
7
  6
CONTINUOUS
 90
11
 70
0
 10
-28.1413271169
 20
7.7199516541
 10
-28.117432452
 20
7.7557204135
 10
-28.0971125317
 20
7.7902970746
 10
-28.0786536077
 20
7.8261326307
 10
-28.0622625392
 20
7.8628986518
 10
-28.0480351226
 20
7.9004876896
 10
-28.0361042937
 20
7.9387425213
 10
-28.0266610466
 20
7.9773169537
 10
-28.019827962
 20
8.0160603284
 10
-28.0157363415
 20
8.0549189466
 10
-28.0145402899
 20
8.0893717588
  0
LWPOLYLINE
  5
29B
100
AcDbEntity
  8
RACCORDO
100
AcDbPolyline
 62
250
  6
CONTINUOUS
 90
5
 70
0
 10
-28.1615486338
 20
7.7550849631
 10
-28.1511500017
 20
7.7702690295
 10
-28.1413275928
 20
7.7857339231
 10
-28.1320814071
 20
7.8014796439
 10
-28.1234054617
 20
7.8175002852
  0
LWPOLYLINE
  5
29C
100
AcDbEntity
  8
RACCORDO
100
AcDbPolyline
 62
250
  6
CONTINUOUS
 90
3
 70
0
 10
-32.0351509973
 20
11.2331554201
 10
-32.0200096603
 20
11.2501307219
 10
-32.0045422562
 20
11.2657756349
  0
LINE
  5
29D
100
AcDbEntity
  8
RACCORDO
100
AcDbLine
 62
250
  6
CONTINUOUS
 10
-31.98445522
 20
11.227234416
 11
-31.9904534778
 21
11.2216135461
  0
LWPOLYLINE
  5
29E
100
AcDbEntity
  8
RACCORDO
100
AcDbPolyline
 62
250
  6
CONTINUOUS
 90
7
 70
0
 10
-31.9560698962
 20
15.243846563
 10
-31.9438597284
 20
15.2552763908
 10
-31.9340303831
 20
15.267447338
 10
-31.926714751
 20
15.2801947956
 10
-31.9220117253
 20
15.2933463583
 10
-31.9199848613
 20
15.3067241688
 10
-31.9199003051
 20
15.3100817323
  0
LWPOLYLINE
  5
29F
100
AcDbEntity
  8
RACCORDO
100
AcDbPolyline
 62
250
  6
CONTINUOUS
 90
7
 70
0
 10
-32.1890398072
 20
10.8292101582
 10
-32.1768299261
 20
10.8406396781
 10
-32.1670006948
 20
10.8528103495
 10
-32.1596850355
 20
10.8655575841
 10
-32.1549818784
 20
10.8787089968
 10
-32.1529548239
 20
10.892086737
 10
-32.1528702172
 20
10.8954328688
  0
LWPOLYLINE
  5
2A0
100
AcDbEntity
  8
RACCORDO
100
AcDbPolyline
 62
250
  6
CONTINUOUS
 90
8
 70
0
 10
-31.9560698962
 20
11.30783663
 10
-31.9460957697
 20
11.316936739
 10
-31.9376332425
 20
11.3265337742
 10
-31.9307559209
 20
11.3365442701
 10
-31.9255232682
 20
11.3468820138
 10
-31.9219814307
 20
11.3574562855
 10
-31.9201614562
 20
11.3681724853
 10
-31.9199003051
 20
11.3740717991
  0
LINE
  5
2A1
100
AcDbEntity
  8
RACCORDO
100
AcDbLine
 62
250
  6
CONTINUOUS
 10
-32.0187639988
 20
11.1978393617
 11
-32.0231292878
 21
11.1938696895
  0
LINE
  5
2A2
100
AcDbEntity
  8
RACCORDO
100
AcDbLine
 62
250
  6
CONTINUOUS
 10
-32.0045422562
 20
11.2657756349
 11
-31.988748785
 21
11.2800901591
  0
LINE
  5
2A3
100
AcDbEntity
  8
RACCORDO
100
AcDbLine
 62
250
  6
CONTINUOUS
 10
-31.988748785
 20
11.2800901591
 11
-31.9560698962
 21
11.30783663
  0
LINE
  5
2A4
100
AcDbEntity
  8
RACCORDO
100
AcDbLine
 62
7
  6
CONTINUOUS
 10
-32.0236191914
 20
11.193451637
 11
-31.9904534778
 21
11.2216135461
  0
LWPOLYLINE
  5
2A5
100
AcDbEntity
  8
RACCORDO
100
AcDbPolyline
 62
250
  6
CONTINUOUS
 90
8
 70
0
 10
-0.1167023654
 20
35.7835224221
 10
-0.1001676459
 20
35.7916133444
 10
-0.0838942035
 20
35.7973285825
 10
-0.0681057874
 20
35.8005895555
 10
-0.0530194781
 20
35.801351427
 10
-0.0388427026
 20
35.799603722
 10
-0.0257703825
 20
35.7953704702
 10
-0.0191656764
 20
35.7920304533
  0
LINE
  5
2A6
100
AcDbEntity
  8
RACCORDO
100
AcDbLine
 62
7
  6
CONTINUOUS
 10
-52.3813191663
 20
-7.2441153567
 11
49.0490086694
 21
-65.8087154285
  0
LINE
  5
2A7
100
AcDbEntity
  8
RACCORDO
100
AcDbLine
 62
250
  6
CONTINUOUS
 10
-52.4848604768
 20
-7.0152469262
 11
48.9454673486
 21
-65.579846992
  0
LWPOLYLINE
  5
2A8
100
AcDbEntity
  8
RACCORDO
100
AcDbPolyline
 62
250
  6
CONTINUOUS
 90
6
 70
0
 10
-32.1528702161
 20
8.6244590743
 10
-32.1525166969
 20
8.6233779969
 10
-32.1476438125
 20
8.6041136703
 10
-32.144273902
 20
8.5851304761
 10
-32.1424438867
 20
8.566636398
 10
-32.1421738166
 20
8.5488340611
  0
LWPOLYLINE
  5
2A9
100
AcDbEntity
  8
RACCORDO
100
AcDbPolyline
 62
250
  6
CONTINUOUS
 90
3
 70
0
 10
-31.2610824949
 20
22.5291809872
 10
-31.2657006056
 20
22.5660401595
 10
-31.2721147976
 20
22.6006113001
  0
LINE
  5
2AA
100
AcDbEntity
  8
RACCORDO
100
AcDbLine
 62
250
  6
CONTINUOUS
 10
-28.7132574895
 20
6.9808808366
 11
-28.1615486338
 21
7.7550849631
  0
LINE
  5
2AB
100
AcDbEntity
  8
RACCORDO
100
AcDbLine
 62
7
  6
CONTINUOUS
 10
-28.6930322189
 20
6.9457527866
 11
-28.1413233636
 21
7.7199569125
  0
LINE
  5
2AC
100
AcDbEntity
  8
RACCORDO
100
AcDbLine
 62
7
  6
CONTINUOUS
 10
-29.521155493
 20
5.2656943661
 11
-30.127341575
 21
4.5019208456
  0
LWPOLYLINE
  5
2AD
100
AcDbEntity
  8
RACCORDO
100
AcDbPolyline
 62
250
  6
CONTINUOUS
 90
3
 70
0
 10
-28.7801742956
 20
6.8948344019
 10
-28.746345484
 20
6.9366084337
 10
-28.7132574895
 20
6.9808808366
  0
LWPOLYLINE
  5
2AE
100
AcDbEntity
  8
RACCORDO
100
AcDbPolyline
 62
7
  6
CONTINUOUS
 90
4
 70
0
 10
-32.1528702161
 20
1.4923224429
 10
-32.1393250971
 20
1.5068427158
 10
-32.0692504549
 20
1.5771224291
 10
-31.9982977733
 20
1.6435755371
  0
LWPOLYLINE
  5
2AF
100
AcDbEntity
  8
RACCORDO
100
AcDbPolyline
 62
250
  6
CONTINUOUS
 90
8
 70
0
 10
-30.5678238929
 20
2.9151166275
 10
-30.5646088646
 20
2.9183721309
 10
-30.5595762917
 20
2.9258274749
 10
-30.556085533
 20
2.9347990318
 10
-30.554174728
 20
2.9451887804
 10
-30.5538647535
 20
2.9568832047
 10
-30.5551589964
 20
2.969754534
 10
-30.558043316
 20
2.9836621389
  0
LWPOLYLINE
  5
2B0
100
AcDbEntity
  8
RACCORDO
100
AcDbPolyline
 62
250
  6
CONTINUOUS
 90
8
 70
0
 10
-31.9812512955
 20
1.6588638705
 10
-31.9780322605
 20
1.6621228695
 10
-31.9729996125
 20
1.6695781634
 10
-31.9695087787
 20
1.6785496981
 10
-31.9675979074
 20
1.6889394632
 10
-31.967287887
 20
1.7006339507
 10
-31.9685821149
 20
1.7135053941
 10
-31.9714664607
 20
1.7274131669
  0
LWPOLYLINE
  5
2B1
100
AcDbEntity
  8
RACCORDO
100
AcDbPolyline
 62
250
  6
CONTINUOUS
 90
3
 70
0
 10
-32.0473816296
 20
1.6572507109
 10
-32.1211063477
 20
1.5846228379
 10
-32.1528702161
 20
1.5512786314
  0
LINE
  5
2B2
100
AcDbEntity
  8
RACCORDO
100
AcDbLine
 62
250
  6
CONTINUOUS
 10
-31.9714664607
 20
1.7274131669
 11
-32.0473816296
 21
1.6572507109
  0
LINE
  5
2B3
100
AcDbEntity
  8
RACCORDO
100
AcDbLine
 62
250
  6
CONTINUOUS
 10
-30.558043316
 20
2.9836621389
 11
-31.9714664607
 21
1.7274131669
  0
LINE
  5
2B4
100
AcDbEntity
  8
RACCORDO
100
AcDbLine
 62
7
  6
CONTINUOUS
 10
-30.5678281509
 20
2.9151128424
 11
-31.9982977733
 21
1.6435755371
  0
LWPOLYLINE
  5
2B5
100
AcDbEntity
  8
RACCORDO
100
AcDbPolyline
 62
7
  6
CONTINUOUS
 90
7
 70
0
 10
-30.5678238929
 20
2.9151166275
 10
-30.5397821117
 20
2.9393575177
 10
-30.5139249245
 20
2.960516043
 10
-30.4881276942
 20
2.9805012952
 10
-30.4624439532
 20
2.9992941924
 10
-30.4369270424
 20
3.0168792205
 10
-30.413061224
 20
3.0323471826
  0
LWPOLYLINE
  5
2B6
100
AcDbEntity
  8
RACCORDO
100
AcDbPolyline
 62
250
  6
CONTINUOUS
 90
8
 70
0
 10
-28.0718901942
 20
8.0084046054
 10
-28.0580186526
 20
8.0174574205
 10
-28.0458619949
 20
8.0272978384
 10
-28.0355534117
 20
8.0378180453
 10
-28.0272058462
 20
8.0489027798
 10
-28.0209107559
 20
8.0604305951
 10
-28.0167371113
 20
8.0722751901
 10
-28.0147306397
 20
8.0843067928
  0
LWPOLYLINE
  5
2B7
100
AcDbEntity
  8
RACCORDO
100
AcDbPolyline
 62
250
  6
CONTINUOUS
 90
10
 70
0
 10
-28.0718901942
 20
8.7091139223
 10
-28.0602153673
 20
8.7166004487
 10
-28.0497150463
 20
8.7246459947
 10
-28.0404691448
 20
8.7331893288
 10
-28.0325480298
 20
8.742165431
 10
-28.0260119858
 20
8.7515059878
 10
-28.0209107559
 20
8.7611399119
 10
-28.0172831637
 20
8.7709938834
 10
-28.0151568173
 20
8.7809929075
 10
-28.014540284
 20
8.7900531672
  0
LINE
  5
2B8
100
AcDbEntity
  8
RACCORDO
100
AcDbLine
 62
7
  6
CONTINUOUS
 10
-31.667773541
 20
8.2975914854
 11
-29.8549484211
 21
9.3258636387
  0
LINE
  5
2B9
100
AcDbEntity
  8
RACCORDO
100
AcDbLine
 62
250
  6
CONTINUOUS
 10
-32.1528702161
 20
8.865329136
 11
-30.0603510232
 21
10.0096766024
  0
LINE
  5
2BA
100
AcDbEntity
  8
RACCORDO
100
AcDbLine
 62
250
  6
CONTINUOUS
 10
-32.1421738166
 20
8.5488340611
 11
-29.9225932095
 21
9.7626683012
  0
LINE
  5
2BB
100
AcDbEntity
  8
RACCORDO
100
AcDbLine
 62
250
  6
CONTINUOUS
 10
-32.1528702161
 20
8.5431167812
 11
-32.1421738166
 21
8.5488340611
  0
LINE
  5
2BC
100
AcDbEntity
  8
RACCORDO
100
AcDbLine
 62
7
  6
CONTINUOUS
 10
-32.1528702161
 20
9.2651470065
 11
-30.4293665924
 21
10.1741723782
  0
LINE
  5
2BD
100
AcDbEntity
  8
RACCORDO
100
AcDbLine
 62
250
  6
CONTINUOUS
 10
-32.1528702161
 20
9.2025223931
 11
-30.3311708871
 21
10.1633390034
  0
LWPOLYLINE
  5
2BE
100
AcDbEntity
  8
RACCORDO
100
AcDbPolyline
 62
250
  6
CONTINUOUS
 90
19
 70
0
 10
-30.3311708871
 20
10.1633390034
 10
-30.3231300732
 20
10.1675058004
 10
-30.314924684
 20
10.1713900936
 10
-30.3065691294
 20
10.1749593924
 10
-30.2980701702
 20
10.1781836538
 10
-30.2894552867
 20
10.1810247238
 10
-30.2807719056
 20
10.1834414042
 10
-30.272031277
 20
10.1854053267
 10
-30.2632653474
 20
10.1868833376
 10
-30.2545516607
 20
10.1878413745
 10
-30.2459177722
 20
10.1882598305
 10
-30.2373811677
 20
10.1881207744
 10
-30.2290004919
 20
10.1874108109
 10
-30.220799885
 20
10.186120921
 10
-30.2127984262
 20
10.1842426569
 10
-30.2050425155
 20
10.1817779314
 10
-30.1975553964
 20
10.1787284125
 10
-30.1903515891
 20
10.1750940607
 10
-30.1896281503
 20
10.1746875653
  0
LWPOLYLINE
  5
2BF
100
AcDbEntity
  8
RACCORDO
100
AcDbPolyline
 62
250
  6
CONTINUOUS
 90
10
 70
0
 10
-30.0603510232
 20
10.0096766024
 10
-30.0424684132
 20
10.0185644861
 10
-30.0247693193
 20
10.0255751424
 10
-30.0073825257
 20
10.0306575596
 10
-29.9904345443
 20
10.0337747564
 10
-29.974048694
 20
10.034904051
 10
-29.9583442029
 20
10.0340372265
 10
-29.9434353418
 20
10.0311805899
 10
-29.9294305925
 20
10.0263549268
 10
-29.919641428
 20
10.0214978864
  0
LWPOLYLINE
  5
2C0
100
AcDbEntity
  8
RACCORDO
100
AcDbPolyline
 62
250
  6
CONTINUOUS
 90
9
 70
0
 10
-30.4293160702
 20
10.1741989988
 10
-30.4261989325
 20
10.1757423578
 10
-30.4144754924
 20
10.1799833158
 10
-30.4018936157
 20
10.1822239785
 10
-30.3885910453
 20
10.1824398158
 10
-30.374713414
 20
10.1806284646
 10
-30.3604126503
 20
10.176809755
 10
-30.3458453149
 20
10.1710254931
 10
-30.3311708871
 20
10.1633390034
  0
LWPOLYLINE
  5
2C1
100
AcDbEntity
  8
RACCORDO
100
AcDbPolyline
 62
250
  6
CONTINUOUS
 90
3
 70
0
 10
-28.1634433888
 20
5.6939192435
 10
-28.1554502393
 20
5.6764805903
 10
-28.1490945492
 20
5.6579494709
  0
LWPOLYLINE
  5
2C2
100
AcDbEntity
  8
RACCORDO
100
AcDbPolyline
 62
250
  6
CONTINUOUS
 90
7
 70
0
 10
-31.5367240565
 20
16.4876057882
 10
-31.5330178341
 20
16.4766795685
 10
-31.5309883691
 20
16.4665255721
 10
-31.5306559898
 20
16.4572454325
 10
-31.53202404
 20
16.4489320375
 10
-31.5350788444
 20
16.4416686033
 10
-31.536430603
 20
16.4395459312
  0
LWPOLYLINE
  5
2C3
100
AcDbEntity
  8
RACCORDO
100
AcDbPolyline
 62
250
  6
CONTINUOUS
 90
7
 70
0
 10
-31.9044322289
 20
23.0418707242
 10
-31.9200886418
 20
23.088472441
 10
-31.9330759008
 20
23.1389171177
 10
-31.9431882331
 20
23.1922746028
 10
-31.9503570476
 20
23.2482348458
 10
-31.9546509353
 20
23.3071078971
 10
-31.9560698962
 20
23.3688937568
  0
LWPOLYLINE
  5
2C4
100
AcDbEntity
  8
RACCORDO
100
AcDbPolyline
 62
250
  6
CONTINUOUS
 90
15
 70
0
 10
-31.2721147976
 20
22.6006113001
 10
-31.2803002861
 20
22.6328936672
 10
-31.2901827173
 20
22.6628850349
 10
-31.3017628205
 20
22.6906799531
 10
-31.3150398662
 20
22.7161838719
 10
-31.3299373122
 20
22.7391109156
 10
-31.3464027852
 20
22.7594579917
 10
-31.3644886585
 20
22.7772281926
 10
-31.3842755093
 20
22.79214492
 10
-31.4058699838
 20
22.8042809316
 10
-31.4291654358
 20
22.8135634696
 10
-31.4539225052
 20
22.8194976622
 10
-31.480061405
 20
22.8219185522
 10
-31.5076619221
 20
22.8209910968
 10
-31.5367240565
 20
22.8167152959
  0
LWPOLYLINE
  5
2C5
100
AcDbEntity
  8
RACCORDO
100
AcDbPolyline
 62
250
  6
CONTINUOUS
 90
9
 70
0
 10
-28.1490945492
 20
5.6579494709
 10
-28.1444462772
 20
5.6385298816
 10
-28.1415565867
 20
5.6184356042
 10
-28.1404572805
 20
5.5978878422
 10
-28.1411604522
 20
5.5771127877
 10
-28.1436583535
 20
5.5563391366
 10
-28.1479234791
 20
5.5357955663
 10
-28.1539088707
 20
5.5157082177
 10
-28.1615486338
 20
5.4962982089
  0
LWPOLYLINE
  5
2C6
100
AcDbEntity
  8
RACCORDO
100
AcDbPolyline
 62
250
  6
CONTINUOUS
 90
6
 70
0
 10
-32.1890398072
 20
-1.9506687492
 10
-32.1768299378
 20
-1.9392392411
 10
-32.1670007112
 20
-1.9270685805
 10
-32.1596850508
 20
-1.9143213546
 10
-32.1549818883
 20
-1.9011699479
 10
-32.1529977566
 20
-1.8880755336
  0
LWPOLYLINE
  5
2C7
100
AcDbEntity
  8
RACCORDO
100
AcDbPolyline
 62
250
  6
CONTINUOUS
 90
7
 70
0
 10
-32.2472822849
 20
-2.3545863339
 10
-32.2350722564
 20
-2.3431566547
 10
-32.2252429664
 20
-2.3309858405
 10
-32.2179273209
 20
-2.3182384903
 10
-32.2132242313
 20
-2.3050869994
 10
-32.211197275
 20
-2.291709222
 10
-32.2111126938
 20
-2.2883511626
  0
LWPOLYLINE
  5
2C8
100
AcDbEntity
  8
RACCORDO
100
AcDbPolyline
 62
250
  6
CONTINUOUS
 90
7
 70
0
 10
-32.2472822849
 20
-2.6198244811
 10
-32.2350724156
 20
-2.608394973
 10
-32.225243189
 20
-2.5962243124
 10
-32.2179275285
 20
-2.5834770865
 10
-32.2132243661
 20
-2.5703256798
 10
-32.2111973038
 20
-2.5569479424
 10
-32.2111126938
 20
-2.553589312
  0
LINE
  5
2C9
100
AcDbEntity
  8
RACCORDO
100
AcDbLine
 62
7
  6
CONTINUOUS
 10
-32.2472822849
 20
-2.6198244811
 11
-32.6419659304
 21
-2.9450303292
  0
LWPOLYLINE
  5
2CA
100
AcDbEntity
  8
RACCORDO
100
AcDbPolyline
 62
250
  6
CONTINUOUS
 90
5
 70
0
 10
-30.5055486892
 20
3.0282615547
 10
-30.5181136659
 20
3.0179495073
 10
-30.5310755115
 20
3.0070509301
 10
-30.5443853949
 20
2.9956218073
 10
-30.558043316
 20
2.9836621389
  0
LINE
  5
2CB
100
AcDbEntity
  8
RACCORDO
100
AcDbLine
 62
7
  6
CONTINUOUS
 10
-30.3863156537
 20
4.2473844739
 11
-32.1528702161
 21
2.9386910372
  0
LWPOLYLINE
  5
2CC
100
AcDbEntity
  8
RACCORDO
100
AcDbPolyline
 62
250
  6
CONTINUOUS
 90
10
 70
0
 10
-28.1757919681
 20
4.4378713575
 10
-28.1697640693
 20
4.442169724
 10
-28.1625268654
 20
4.4489671775
 10
-28.1562003327
 20
4.4569690653
 10
-28.1508326199
 20
4.4661144881
 10
-28.1464645786
 20
4.4763338437
 10
-28.1431294523
 20
4.4875493567
 10
-28.1408526231
 20
4.4996756703
 10
-28.1396514193
 20
4.5126204959
 10
-28.1395349826
 20
4.5262853155
  0
LWPOLYLINE
  5
2CD
100
AcDbEntity
  8
RACCORDO
100
AcDbPolyline
 62
250
  6
CONTINUOUS
 90
9
 70
0
 10
-30.4130510382
 20
3.0323535803
 10
-30.4101608948
 20
3.0342821125
 10
-30.4011621879
 20
3.0419917647
 10
-30.3934594028
 20
3.051451288
 10
-30.3871369329
 20
3.0625570419
 10
-30.3822640485
 20
3.0751873496
 10
-30.3788941379
 20
3.0892038307
 10
-30.3770641226
 20
3.1044529177
 10
-30.3767940526
 20
3.1207675384
  0
LWPOLYLINE
  5
2CE
100
AcDbEntity
  8
RACCORDO
100
AcDbPolyline
 62
250
  6
CONTINUOUS
 90
12
 70
0
 10
-30.3767940526
 20
3.1207675384
 10
-30.3885243995
 20
3.1132990092
 10
-30.4001985334
 20
3.1056807947
 10
-30.4118164544
 20
3.0979128947
 10
-30.4233421311
 20
3.0900212402
 10
-30.4348115949
 20
3.0819799003
 10
-30.4463329398
 20
3.073711082
 10
-30.4578923095
 20
3.065233893
 10
-30.4695035603
 20
3.0565292257
 10
-30.4813163551
 20
3.047461965
 10
-30.4933317502
 20
3.0380430566
 10
-30.5055486892
 20
3.0282615547
  0
LINE
  5
2CF
100
AcDbEntity
  8
RACCORDO
100
AcDbLine
 62
250
  6
CONTINUOUS
 10
-28.1395349826
 20
4.5262853155
 11
-30.3767940526
 21
3.1207675384
  0
LINE
  5
2D0
100
AcDbEntity
  8
RACCORDO
100
AcDbLine
 62
7
  6
CONTINUOUS
 10
-28.1757919681
 20
4.4378713575
 11
-30.4130510382
 21
3.0323535803
  0
LWPOLYLINE
  5
2D1
100
AcDbEntity
  8
RACCORDO
100
AcDbPolyline
 62
250
  6
CONTINUOUS
 90
8
 70
0
 10
-29.0348697971
 20
6.6737667004
 10
-28.9971215141
 20
6.6974316319
 10
-28.9597974862
 20
6.7237500601
 10
-28.9228977132
 20
6.7527219852
 10
-28.8863166745
 20
6.7843991156
 10
-28.8501598909
 20
6.8187297428
 10
-28.8147439243
 20
6.8555587412
 10
-28.7801742956
 20
6.8948344019
  0
LWPOLYLINE
  5
2D2
100
AcDbEntity
  8
RACCORDO
100
AcDbPolyline
 62
7
  6
CONTINUOUS
 90
12
 70
0
 10
-29.0762078906
 20
6.5822650027
 10
-29.0425031845
 20
6.6030111144
 10
-29.0019454346
 20
6.63049571
 10
-28.9622075862
 20
6.6601631946
 10
-28.9233698216
 20
6.6918844891
 10
-28.8855003034
 20
6.7255389769
 10
-28.8486647915
 20
6.7609988456
 10
-28.8129253456
 20
6.7981456463
 10
-28.7783335385
 20
6.8368760453
 10
-28.7449651971
 20
6.8770463125
 10
-28.7129021245
 20
6.9185062962
 10
-28.6930292104
 20
6.9457570138
  0
LINE
  5
2D3
100
AcDbEntity
  8
RACCORDO
100
AcDbLine
 62
250
  6
CONTINUOUS
 10
-29.521155493
 20
6.3880045748
 11
-29.0348697971
 21
6.6737667004
  0
LINE
  5
2D4
100
AcDbEntity
  8
RACCORDO
100
AcDbLine
 62
7
  6
CONTINUOUS
 10
-29.3904969997
 20
6.3975753725
 11
-29.0761918213
 21
6.5822744427
  0
LINE
  5
2D5
100
AcDbEntity
  8
RACCORDO
100
AcDbLine
 62
250
  6
CONTINUOUS
 10
-29.4185411822
 20
5.6554432766
 11
-29.1787540054
 21
5.7963098608
  0
LINE
  5
2D6
100
AcDbEntity
  8
RACCORDO
100
AcDbLine
 62
250
  6
CONTINUOUS
 10
-29.521155493
 20
5.2656943661
 11
-29.0348697971
 21
5.5513702137
  0
LWPOLYLINE
  5
2D7
100
AcDbEntity
  8
RACCORDO
100
AcDbPolyline
 62
250
  6
CONTINUOUS
 90
13
 70
0
 10
-29.0348697971
 20
5.5513702137
 10
-29.0069223888
 20
5.5669760758
 10
-28.9791489566
 20
5.5808748827
 10
-28.9515495007
 20
5.5930666345
 10
-28.9241066032
 20
5.6035781117
 10
-28.8968376819
 20
5.6123825338
 10
-28.8697949905
 20
5.6193995588
 10
-28.8429639723
 20
5.6246624276
 10
-28.8163591839
 20
5.6281378993
 10
-28.790076549
 20
5.6296459104
 10
-28.7641480423
 20
5.6291264395
 10
-28.7385416891
 20
5.6266395079
 10
-28.7132574895
 20
5.6221851156
  0
LWPOLYLINE
  5
2D8
100
AcDbEntity
  8
RACCORDO
100
AcDbPolyline
 62
250
  6
CONTINUOUS
 90
13
 70
0
 10
-29.1787540054
 20
5.7963098608
 10
-29.1439209369
 20
5.815717345
 10
-29.1091286525
 20
5.8330812929
 10
-29.0744639919
 20
5.8483516044
 10
-29.0400844787
 20
5.861458765
 10
-29.0060051965
 20
5.872396123
 10
-28.9721062032
 20
5.8811748688
 10
-28.9384856179
 20
5.8877235454
 10
-28.9052396636
 20
5.8919764497
 10
-28.8722683613
 20
5.8938757344
 10
-28.8396249441
 20
5.8933166415
 10
-28.8075020657
 20
5.890197266
 10
-28.7760288289
 20
5.884428045
  0
LINE
  5
2D9
100
AcDbEntity
  8
RACCORDO
100
AcDbLine
 62
250
  6
CONTINUOUS
 10
-28.2772927963
 20
8.9979745645
 11
-30.5145518663
 21
7.7744724063
  0
LINE
  5
2DA
100
AcDbEntity
  8
RACCORDO
100
AcDbLine
 62
250
  6
CONTINUOUS
 10
-28.1395349826
 20
8.7509662634
 11
-30.3767940526
 21
7.5274641051
  0
LWPOLYLINE
  5
2DB
100
AcDbEntity
  8
RACCORDO
100
AcDbPolyline
 62
250
  6
CONTINUOUS
 90
10
 70
0
 10
-30.5145518663
 20
7.7744724063
 10
-30.5338381138
 20
7.7641919827
 10
-30.5525010966
 20
7.7548384332
 10
-30.5705309018
 20
7.7463609154
 10
-30.5879142764
 20
7.7387111989
 10
-30.6046516352
 20
7.7318364243
 10
-30.6207566547
 20
7.7256810152
 10
-30.6362331983
 20
7.7201959034
 10
-30.6510753541
 20
7.7153369622
 10
-30.6652843261
 20
7.7110588921
  0
LINE
  5
2DC
100
AcDbEntity
  8
RACCORDO
100
AcDbLine
 62
7
  6
CONTINUOUS
 10
-28.6460367556
 20
9.1623162298
 11
-30.9199044285
 21
7.9630130325
  0
LINE
  5
2DD
100
AcDbEntity
  8
RACCORDO
100
AcDbLine
 62
250
  6
CONTINUOUS
 10
-28.5478410504
 20
9.1514828549
 11
-30.8217087232
 21
7.9521796576
  0
LWPOLYLINE
  5
2DE
100
AcDbEntity
  8
RACCORDO
100
AcDbPolyline
 62
250
  6
CONTINUOUS
 90
10
 70
0
 10
-30.3767940526
 20
7.5274641051
 10
-30.400000033
 20
7.515255974
 10
-30.4224373787
 20
7.5040378361
 10
-30.4441060897
 20
7.4938096914
 10
-30.4650037109
 20
7.4846325971
 10
-30.4851326975
 20
7.4764454959
 10
-30.5045004147
 20
7.4690652162
 10
-30.5231093178
 20
7.4624307007
 10
-30.5409569515
 20
7.4566030066
 10
-30.558043316
 20
7.4515821339
  0
LWPOLYLINE
  5
2DF
100
AcDbEntity
  8
RACCORDO
100
AcDbPolyline
 62
250
  6
CONTINUOUS
 90
15
 70
0
 10
-30.8217087232
 20
7.9521796576
 10
-30.8317887501
 20
7.9469608759
 10
-30.8418049789
 20
7.941936721
 10
-30.8517555835
 20
7.9371053815
 10
-30.8616050879
 20
7.9324805758
 10
-30.8713856062
 20
7.9280437017
 10
-30.881196391
 20
7.9237494099
 10
-30.8910243796
 20
7.9196053161
 10
-30.9008785053
 20
7.9156095392
 10
-30.91088976
 20
7.9117143476
 10
-30.9210501978
 20
7.9079316026
 10
-30.9313612542
 20
7.9042696729
 10
-30.9419656824
 20
7.9006908624
 10
-30.9529067993
 20
7.8971993438
 10
-30.96412977
 20
7.8938321467
  0
LWPOLYLINE
  5
2E0
100
AcDbEntity
  8
RACCORDO
100
AcDbPolyline
 62
7
  6
CONTINUOUS
 90
7
 70
0
 10
-30.9199199767
 20
7.9630048294
 10
-30.9433060038
 20
7.9511232182
 10
-30.9678551508
 20
7.9396363702
 10
-30.9920083158
 20
7.9293435075
 10
-31.0157048699
 20
7.9202464114
 10
-31.0388627586
 20
7.9123483478
 10
-31.0633951662
 20
7.9050974336
  0
LWPOLYLINE
  5
2E1
100
AcDbEntity
  8
RACCORDO
100
AcDbPolyline
 62
250
  6
CONTINUOUS
 90
16
 70
0
 10
-29.9225932095
 20
9.7626683012
 10
-29.9153967996
 20
9.7661640664
 10
-29.9084184876
 20
9.7687218942
 10
-29.9016582733
 20
9.7703417847
 10
-29.8950394922
 20
9.7710249953
 10
-29.8886388089
 20
9.7707702686
 10
-29.8826862168
 20
9.7695738323
 10
-29.8772085164
 20
9.7674035896
 10
-29.8721789072
 20
9.7642916373
 10
-29.8677469817
 20
9.7603304929
 10
-29.8639276983
 20
9.7554806126
 10
-29.8607060984
 20
9.7497815402
 10
-29.8581868991
 20
9.7434444239
 10
-29.8564050059
 20
9.7365396465
 10
-29.8553255132
 20
9.7289968253
 10
-29.8549484211
 20
9.7208159602
  0
LINE
  5
2E2
100
AcDbEntity
  8
RACCORDO
100
AcDbLine
 62
7
  6
CONTINUOUS
 10
-32.1528702161
 20
8.0816682005
 11
-31.7470325536
 21
8.2578833822
  0
LINE
  5
2E3
100
AcDbEntity
  8
RACCORDO
100
AcDbLine
 62
7
  6
CONTINUOUS
 10
-32.1528702161
 20
5.622460168
 11
-30.3863156537
 21
6.3896582645
  0
LWPOLYLINE
  5
2E4
100
AcDbEntity
  8
RACCORDO
100
AcDbPolyline
 62
250
  6
CONTINUOUS
 90
6
 70
0
 10
-32.1956285529
 20
-3.861330331
 10
-32.2046518734
 20
-3.8570000932
 10
-32.2169862731
 20
-3.8534382798
 10
-32.2302546538
 20
-3.8520297254
 10
-32.24429929
 20
-3.8527911738
 10
-32.2589532286
 20
-3.8557135735
  0
LINE
  5
2E5
100
AcDbEntity
  8
RACCORDO
100
AcDbLine
 62
250
  6
CONTINUOUS
 10
-31.0627901076
 20
-4.0574154282
 11
-31.081086794
 21
-4.048457677
  0
LWPOLYLINE
  5
2E6
100
AcDbEntity
  8
RACCORDO
100
AcDbPolyline
 62
250
  6
CONTINUOUS
 90
19
 70
0
 10
-34.0072287657
 20
-3.7388304049
 10
-33.9881557568
 20
-3.7489313432
 10
-33.9676459017
 20
-3.7580455271
 10
-33.9458518454
 20
-3.7661051241
 10
-33.9229357906
 20
-3.7730501504
 10
-33.8990682906
 20
-3.7788289175
 10
-33.8744269799
 20
-3.7833984167
 10
-33.849195252
 20
-3.7867246396
 10
-33.8235608946
 20
-3.7887828306
 10
-33.797714692
 20
-3.7895576715
 10
-33.7718490051
 20
-3.7890433956
 10
-33.74615634
 20
-3.7872438304
 10
-33.7208279149
 20
-3.7841723693
 10
-33.6960522372
 20
-3.7798518715
 10
-33.6720137004
 20
-3.7743144926
 10
-33.648891212
 20
-3.7676014446
 10
-33.6268568615
 20
-3.7597626895
 10
-33.6060746402
 20
-3.7508565675
 10
-33.5866992202
 20
-3.7409493625
  0
LINE
  5
2E7
100
AcDbEntity
  8
RACCORDO
100
AcDbLine
 62
250
  6
CONTINUOUS
 10
-31.081086794
 20
-4.048457677
 11
-31.0986490664
 21
-4.0389152423
  0
LINE
  5
2E8
100
AcDbEntity
  8
RACCORDO
100
AcDbLine
 62
250
  6
CONTINUOUS
 10
29.9022363691
 20
-41.2924313395
 11
-33.4416294974
 21
-4.7184770734
  0
LINE
  5
2E9
100
AcDbEntity
  8
RACCORDO
100
AcDbLine
 62
250
  6
CONTINUOUS
 10
30.1106661889
 20
-40.9271827965
 11
-33.2331996775
 21
-4.3532285303
  0
LINE
  5
2EA
100
AcDbEntity
  8
RACCORDO
100
AcDbLine
 62
7
  6
CONTINUOUS
 10
-32.5819284022
 20
-3.9771939052
 11
30.3799676717
 21
-40.3306036004
  0
LINE
  5
2EB
100
AcDbEntity
  8
RACCORDO
100
AcDbLine
 62
250
  6
CONTINUOUS
 10
-32.2589532286
 20
-3.8557135735
 11
30.3799676717
 21
-40.0226414513
  0
LINE
  5
2EC
100
AcDbEntity
  8
RACCORDO
100
AcDbLine
 62
7
  6
CONTINUOUS
 10
-32.1956285529
 20
-3.861330331
 11
30.3799676717
 21
-39.9916952652
  0
LINE
  5
2ED
100
AcDbEntity
  8
RACCORDO
100
AcDbLine
 62
250
  6
CONTINUOUS
 10
-31.0986490664
 20
-4.0389152423
 11
-31.5926462525
 21
-3.7536874582
  0
LINE
  5
2EE
100
AcDbEntity
  8
RACCORDO
100
AcDbLine
 62
7
  6
CONTINUOUS
 10
-31.0232017951
 20
-4.0407054309
 11
-31.5173931836
 21
-3.7553655169
  0
LINE
  5
2EF
100
AcDbEntity
  8
RACCORDO
100
AcDbLine
 62
250
  6
CONTINUOUS
 10
30.3799676717
 20
-39.1176416005
 11
-30.1166858237
 21
-4.1876320734
  0
LINE
  5
2F0
100
AcDbEntity
  8
RACCORDO
100
AcDbLine
 62
7
  6
CONTINUOUS
 10
30.3799676717
 20
-39.0758694803
 11
-30.0412385524
 21
-4.189422262
  0
LWPOLYLINE
  5
2F1
100
AcDbEntity
  8
RACCORDO
100
AcDbPolyline
 62
7
  6
CONTINUOUS
 90
26
 70
0
 10
-32.1956285324
 20
-3.8613303428
 10
-32.206323884
 20
-3.8549995095
 10
-32.2344331266
 20
-3.836915219
 10
-32.262896696
 20
-3.8164694109
 10
-32.291482989
 20
-3.7937368276
 10
-32.3199818216
 20
-3.7688063989
 10
-32.348198237
 20
-3.7417869853
 10
-32.3759411412
 20
-3.7128031387
 10
-32.4030423162
 20
-3.6819787486
 10
-32.4293133962
 20
-3.6494892338
 10
-32.4545834521
 20
-3.6155120505
 10
-32.4787244874
 20
-3.5801905262
 10
-32.5015808122
 20
-3.5437362291
 10
-32.5230092225
 20
-3.5063687517
 10
-32.5429146822
 20
-3.4682535537
 10
-32.5611822293
 20
-3.4296239512
 10
-32.5777090755
 20
-3.3907216363
 10
-32.5924347244
 20
-3.3517325702
 10
-32.6052949912
 20
-3.3128920083
 10
-32.616235469
 20
-3.2744506746
 10
-32.625233547
 20
-3.2366215235
 10
-32.6322812843
 20
-3.1996288321
 10
-32.6373858838
 20
-3.1636936362
 10
-32.6405783448
 20
-3.1290478624
 10
-32.6419138229
 20
-3.0959306986
 10
-32.6419659861
 20
-3.0882534159
  0
LWPOLYLINE
  5
2F2
100
AcDbEntity
  8
RACCORDO
100
AcDbPolyline
 62
250
  6
CONTINUOUS
 90
43
 70
0
 10
-31.5926462526
 20
-3.7536874582
 10
-31.6104380878
 20
-3.7430585315
 10
-31.6287675762
 20
-3.7315724893
 10
-31.6476152307
 20
-3.7191889681
 10
-31.6668786719
 20
-3.7059226361
 10
-31.6866099998
 20
-3.6916813641
 10
-31.707017428
 20
-3.6762379551
 10
-31.7281140579
 20
-3.6594829704
 10
-31.7498084043
 20
-3.6413803561
 10
-31.7721438221
 20
-3.6217885324
 10
-31.7950750994
 20
-3.6006478343
 10
-31.8185263471
 20
-3.5779235134
 10
-31.8424802683
 20
-3.5535162056
 10
-31.8668935023
 20
-3.5273364947
 10
-31.8916173588
 20
-3.4993995615
 10
-31.9164748171
 20
-3.4697680433
 10
-31.9414881392
 20
-3.4382729059
 10
-31.9664429772
 20
-3.4050300199
 10
-31.9908491736
 20
-3.3705843017
 10
-32.0146641814
 20
-3.3349231673
 10
-32.0377733736
 20
-3.2981552667
 10
-32.0596627716
 20
-3.2611145527
 10
-32.0802457037
 20
-3.2240369401
 10
-32.0995614544
 20
-3.1869383721
 10
-32.1173846714
 20
-3.1503691782
 10
-32.1337051937
 20
-3.1145440311
 10
-32.1486368579
 20
-3.0794225816
 10
-32.1622026391
 20
-3.0451595274
 10
-32.1744585888
 20
-3.0118373111
 10
-32.18547891
 20
-2.9794823668
 10
-32.1953234333
 20
-2.9481622116
 10
-32.2040382266
 20
-2.9180071825
 10
-32.2117146568
 20
-2.8889866028
 10
-32.2184658118
 20
-2.8609291057
 10
-32.2242829294
 20
-2.8341497132
 10
-32.2292883468
 20
-2.8083814862
 10
-32.2336976254
 20
-2.7826058471
 10
-32.2374940544
 20
-2.7568855902
 10
-32.2406754185
 20
-2.7312471115
 10
-32.2433284845
 20
-2.7046997562
 10
-32.2453891387
 20
-2.6770152893
 10
-32.2467341863
 20
-2.6486745837
 10
-32.247282285
 20
-2.6198244811
  0
LWPOLYLINE
  5
2F3
100
AcDbEntity
  8
RACCORDO
100
AcDbPolyline
 62
250
  6
CONTINUOUS
 90
25
 70
0
 10
-33.2331995647
 20
-4.3532284651
 10
-33.2564919408
 20
-4.3391907667
 10
-33.2797141502
 20
-4.3234274399
 10
-33.3027687045
 20
-4.3059965426
 10
-33.3255820638
 20
-4.2869452832
 10
-33.3480307312
 20
-4.2663629406
 10
-33.3699457892
 20
-4.2443947571
 10
-33.3912164104
 20
-4.221159534
 10
-33.4117733819
 20
-4.1967439797
 10
-33.4315190579
 20
-4.1712669102
 10
-33.4503647301
 20
-4.1448517633
 10
-33.4682417917
 20
-4.1176065909
 10
-33.4850879729
 20
-4.0896319317
 10
-33.5008417048
 20
-4.0610305796
 10
-33.5154279508
 20
-4.0319426715
 10
-33.5287732611
 20
-4.002527749
 10
-33.5408059015
 20
-3.9729641011
 10
-33.551505724
 20
-3.9433253008
 10
-33.5608731156
 20
-3.9136142451
 10
-33.5688699358
 20
-3.8839052801
 10
-33.5754338389
 20
-3.8543770617
 10
-33.5805249835
 20
-3.8251891772
 10
-33.5841141136
 20
-3.7964779641
 10
-33.5861779734
 20
-3.7683571234
 10
-33.5866991059
 20
-3.7409492965
  0
LWPOLYLINE
  5
2F4
100
AcDbEntity
  8
RACCORDO
100
AcDbPolyline
 62
7
  6
CONTINUOUS
 90
26
 70
0
 10
-31.5172200776
 20
-3.7554652601
 10
-31.5501221896
 20
-3.73539488
 10
-31.5932747378
 20
-3.7063880008
 10
-31.6363945211
 20
-3.6742889096
 10
-31.6792338725
 20
-3.6391511298
 10
-31.7216601661
 20
-3.6009910301
 10
-31.7634845363
 20
-3.5599957139
 10
-31.8044250549
 20
-3.5164255584
 10
-31.84428752
 20
-3.4704472819
 10
-31.8828679317
 20
-3.4222757697
 10
-31.9199700576
 20
-3.3721369359
 10
-31.9554623748
 20
-3.3201835085
 10
-31.9891663452
 20
-3.2666775027
 10
-32.0209195289
 20
-3.2118984807
 10
-32.0506183387
 20
-3.156021538
 10
-32.0781049079
 20
-3.0993122911
 10
-32.1032324692
 20
-3.0420635406
 10
-32.1259198509
 20
-2.9844957432
 10
-32.1460653507
 20
-2.9268917967
 10
-32.1635821889
 20
-2.8695312711
 10
-32.1784205508
 20
-2.8127030595
 10
-32.1904959927
 20
-2.7567789432
 10
-32.1997463312
 20
-2.7019989625
 10
-32.2062129023
 20
-2.648535486
 10
-32.2099786904
 20
-2.5966014
 10
-32.2111133436
 20
-2.553425486
  0
LWPOLYLINE
  5
2F5
100
AcDbEntity
  8
RACCORDO
100
AcDbPolyline
 62
250
  6
CONTINUOUS
 90
25
 70
0
 10
-33.4416294974
 20
-4.7184770734
 10
-33.4787755112
 20
-4.6956203423
 10
-33.5155260616
 20
-4.6702261707
 10
-33.5518811485
 20
-4.6422945584
 10
-33.5880296787
 20
-4.6116561649
 10
-33.6237827454
 20
-4.5784803307
 10
-33.6585736282
 20
-4.5432750781
 10
-33.6923550494
 20
-4.5060304871
 10
-33.7251742867
 20
-4.4667564778
 10
-33.7566064528
 20
-4.4259908323
 10
-33.7866211708
 20
-4.3837327216
 10
-33.8152488177
 20
-4.3399829747
 10
-33.8421556368
 20
-4.2952818617
 10
-33.8673316011
 20
-4.2495928085
 10
-33.8907867377
 20
-4.2029523892
 10
-33.9122173708
 20
-4.1560105957
 10
-33.9315738356
 20
-4.1088481853
 10
-33.9489057969
 20
-4.0613844007
 10
-33.9640585744
 20
-4.0140269614
 10
-33.9770426172
 20
-3.9666932781
 10
-33.9878474762
 20
-3.91946594
 10
-33.9962871234
 20
-3.8730004348
 10
-34.0022995493
 20
-3.8275152586
 10
-34.0059467634
 20
-3.7827919153
 10
-34.0072287657
 20
-3.7388304049
  0
LWPOLYLINE
  5
2F6
100
AcDbEntity
  8
RACCORDO
100
AcDbPolyline
 62
250
  6
CONTINUOUS
 90
10
 70
0
 10
30.4678356374
 20
-40.9659245289
 10
30.4503411593
 20
-40.9549118295
 10
30.4345557689
 20
-40.9430695143
 10
30.420596941
 20
-40.9304857277
 10
30.4085685554
 20
-40.9172541321
 10
30.3985601217
 20
-40.9034732091
 10
30.3906461146
 20
-40.8892455262
 10
30.3848854222
 20
-40.8746769774
 10
30.3813209054
 20
-40.8598759914
 10
30.3799676823
 20
-40.8434880494
  0
LWPOLYLINE
  5
2F7
100
AcDbEntity
  8
RACCORDO
100
AcDbPolyline
 62
250
  6
CONTINUOUS
 90
7
 70
0
 10
-28.7132574895
 20
6.9808808366
 10
-28.7056176611
 20
6.9722618934
 10
-28.699632244
 20
6.9646288184
 10
-28.6953671263
 20
6.9580656377
 10
-28.6928692589
 20
6.9526445995
 10
-28.6921661389
 20
6.9484253794
 10
-28.6930292104
 20
6.9457570137
  0
LWPOLYLINE
  5
2F8
100
AcDbEntity
  8
RACCORDO
100
AcDbPolyline
 62
7
  6
CONTINUOUS
 90
10
 70
0
 10
-32.1528979017
 20
27.4458074183
 10
-32.1522831552
 20
27.4445592399
 10
-32.1510645974
 20
27.4417690536
 10
-32.1506380616
 20
27.4405880332
 10
-32.1507644583
 20
27.4410768103
 10
-32.1512075808
 20
27.4431581426
 10
-32.1517942582
 20
27.4468602208
 10
-32.1523608903
 20
27.4521744229
 10
-32.1527546614
 20
27.4589284353
 10
-32.1528702172
 20
27.4655416817
  0
LWPOLYLINE
  5
2F9
100
AcDbEntity
  8
RACCORDO
100
AcDbPolyline
 62
250
  6
CONTINUOUS
 90
7
 70
0
 10
-31.9652648592
 20
27.3652601674
 10
-31.970569447
 20
27.3807530854
 10
-31.9770092587
 20
27.3961729039
 10
-31.9845358467
 20
27.4114033578
 10
-31.9930916107
 20
27.4263276682
 10
-32.0026095339
 20
27.4408295582
 10
-32.0130152843
 20
27.4547972682
  0
LINE
  5
2FA
100
AcDbEntity
  8
RACCORDO
100
AcDbLine
 62
250
  6
CONTINUOUS
 10
-32.6687608497
 20
-3.1459059531
 11
-32.9354279449
 21
-3.2998870842
  0
LINE
  5
2FB
100
AcDbEntity
  8
RACCORDO
100
AcDbLine
 62
250
  6
CONTINUOUS
 10
-33.5866992202
 20
-3.7409493625
 11
-32.9354279449
 21
-3.3649147374
  0
LINE
  5
2FC
100
AcDbEntity
  8
RACCORDO
100
AcDbLine
 62
250
  6
CONTINUOUS
 10
-33.2331996775
 20
-4.3532285303
 11
-32.5819284022
 21
-3.9771939052
  0
LINE
  5
2FD
100
AcDbEntity
  8
RACCORDO
100
AcDbLine
 62
250
  6
CONTINUOUS
 10
-32.2589532286
 20
-3.8557135735
 11
-32.525629658
 21
-4.0097000945
  0
LINE
  5
2FE
100
AcDbEntity
  8
RACCORDO
100
AcDbLine
 62
250
  6
CONTINUOUS
 10
-30.6652843261
 20
7.7110588921
 11
-32.0787074708
 21
7.3063837117
  0
LINE
  5
2FF
100
AcDbEntity
  8
RACCORDO
100
AcDbLine
 62
250
  6
CONTINUOUS
 10
-30.558043316
 20
7.4515821339
 11
-31.9714664607
 21
7.0469069535
  0
LWPOLYLINE
  5
300
100
AcDbEntity
  8
RACCORDO
100
AcDbPolyline
 62
250
  6
CONTINUOUS
 90
7
 70
0
 10
-30.9396306759
 20
-4.0984600433
 10
-30.961104129
 20
-4.0932628504
 10
-30.98225922
 20
-4.0873995977
 10
-31.0032161951
 20
-4.0808348315
 10
-31.0238548081
 20
-4.0736040054
 10
-31.0437590069
 20
-4.0657884959
 10
-31.0627901076
 20
-4.0574154282
  0
LINE
  5
301
100
AcDbEntity
  8
RACCORDO
100
AcDbLine
 62
250
  6
CONTINUOUS
 10
-32.1528702161
 20
5.2559865403
 11
-30.3863156537
 21
4.2473844739
  0
LINE
  5
302
100
AcDbEntity
  8
RACCORDO
100
AcDbLine
 62
250
  6
CONTINUOUS
 10
-32.1171350461
 20
5.6379796175
 11
-30.127341575
 21
4.5019208456
  0
LWPOLYLINE
  5
303
100
AcDbEntity
  8
RACCORDO
100
AcDbPolyline
 62
250
  6
CONTINUOUS
 90
16
 70
0
 10
-28.7760288289
 20
5.884428045
 10
-28.7614910527
 20
5.8750203418
 10
-28.747992626
 20
5.863720385
 10
-28.7356821413
 20
5.850652566
 10
-28.724695114
 20
5.8359607372
 10
-28.7151524908
 20
5.819806628
 10
-28.7071593181
 20
5.8023680652
 10
-28.7008035859
 20
5.7838370145
 10
-28.6961552587
 20
5.7644174684
 10
-28.6932655062
 20
5.7443231997
 10
-28.6921661389
 20
5.7237754088
 10
-28.6928692589
 20
5.7030002884
 10
-28.6953671263
 20
5.6822265338
 10
-28.699632244
 20
5.6616828252
 10
-28.7056176611
 20
5.6415953105
 10
-28.7132574895
 20
5.6221851156
  0
LWPOLYLINE
  5
304
100
AcDbEntity
  8
RACCORDO
100
AcDbPolyline
 62
250
  6
CONTINUOUS
 90
7
 70
0
 10
-28.1615486338
 20
7.7550849631
 10
-28.1539088091
 20
7.7464660238
 10
-28.1479233933
 20
7.7388329513
 10
-28.1436582752
 20
7.7322697715
 10
-28.1411604061
 20
7.7268487329
 10
-28.1404572833
 20
7.7226295115
 10
-28.1413233636
 20
7.7199569125
  0
LINE
  5
305
100
AcDbEntity
  8
RACCORDO
100
AcDbLine
 62
7
  6
CONTINUOUS
 10
-31.5926462525
 20
-3.7536874582
 11
-32.0716242874
 21
-3.9329287703
  0
LWPOLYLINE
  5
306
100
AcDbEntity
  8
RACCORDO
100
AcDbPolyline
 62
250
  6
CONTINUOUS
 90
4
 70
0
 10
-30.1166858237
 20
-4.1876320734
 10
-30.1045079841
 20
-4.1837252335
 10
-30.0926153156
 20
-4.1812103242
 10
-30.0811004237
 20
-4.1801071569
  0
LWPOLYLINE
  5
307
100
AcDbEntity
  8
RACCORDO
100
AcDbPolyline
 62
250
  6
CONTINUOUS
 90
7
 70
0
 10
-31.5926462525
 20
-3.7536874582
 10
-31.5766632314
 20
-3.7488157758
 10
-31.5612368418
 20
-3.746371623
 10
-31.5465760686
 20
-3.7463878238
 10
-31.5328803467
 20
-3.7488634655
 10
-31.5203347859
 20
-3.7537651108
 10
-31.5173931836
 20
-3.7553655169
  0
LWPOLYLINE
  5
308
100
AcDbEntity
  8
RACCORDO
100
AcDbPolyline
 62
250
  6
CONTINUOUS
 90
7
 70
0
 10
-31.0986490664
 20
-4.0389152423
 10
-31.082646525
 20
-4.0340548347
 10
-31.0671924895
 20
-4.031626629
 10
-31.052495949
 20
-4.0316634623
 10
-31.0387556492
 20
-4.0341648365
 10
-31.026157404
 20
-4.039096925
 10
-31.0232017951
 20
-4.0407054309
  0
LWPOLYLINE
  5
309
100
AcDbEntity
  8
RACCORDO
100
AcDbPolyline
 62
250
  6
CONTINUOUS
 90
5
 70
0
 10
-30.0811004237
 20
-4.1801071569
 10
-30.0700527936
 20
-4.1804245801
 10
-30.0595587331
 20
-4.1821604012
 10
-30.0497005868
 20
-4.1853011286
 10
-30.0412543473
 20
-4.1894131452
  0
LINE
  5
30A
100
AcDbEntity
  8
RACCORDO
100
AcDbLine
 62
250
  6
CONTINUOUS
 10
-30.1166858237
 20
-4.1876320734
 11
-30.8511616929
 21
-4.1128630541
  0
LINE
  5
30B
100
AcDbEntity
  8
RACCORDO
100
AcDbLine
 62
7
  6
CONTINUOUS
 10
-30.1209882367
 20
-4.1636528741
 11
-30.8554641124
 21
-4.0888838541
  0
LWPOLYLINE
  5
30C
100
AcDbEntity
  8
RACCORDO
100
AcDbPolyline
 62
250
  6
CONTINUOUS
 90
3
 70
0
 10
-30.8511616929
 20
-4.1128630541
 10
-30.8736689019
 20
-4.1102218312
 10
-30.8959130624
 20
-4.1069395336
  0
LWPOLYLINE
  5
30D
100
AcDbEntity
  8
RACCORDO
100
AcDbPolyline
 62
7
  6
CONTINUOUS
 90
13
 70
0
 10
-30.8554648217
 20
-4.0888837822
 10
-30.8740178156
 20
-4.0866766086
 10
-30.8916000286
 20
-4.083989875
 10
-30.9087707653
 20
-4.0807935987
 10
-30.9254322677
 20
-4.0771292646
 10
-30.9414660325
 20
-4.0730443694
 10
-30.9567279762
 20
-4.0686050982
 10
-30.9710883166
 20
-4.0638850092
 10
-30.9844489018
 20
-4.0589572483
 10
-30.996697799
 20
-4.0539145903
 10
-31.0076800987
 20
-4.0488841142
 10
-31.0172947785
 20
-4.0439917223
 10
-31.0231639955
 20
-4.0407272725
  0
LWPOLYLINE
  5
30E
100
AcDbEntity
  8
RACCORDO
100
AcDbPolyline
 62
250
  6
CONTINUOUS
 90
3
 70
0
 10
-30.8959130624
 20
-4.1069395336
 10
-30.9178941744
 20
-4.1030161615
 10
-30.9396306759
 20
-4.0984600433
  0
LWPOLYLINE
  5
30F
100
AcDbEntity
  8
RACCORDO
100
AcDbPolyline
 62
250
  6
CONTINUOUS
 90
7
 70
0
 10
-30.9756281247
 20
7.8906099657
 10
-30.9904623573
 20
7.8981914255
 10
-31.0055213862
 20
7.9037393906
 10
-31.0206406797
 20
7.9071932453
 10
-31.0356550478
 20
7.9085152534
 10
-31.0504004467
 20
7.907690971
 10
-31.0633951662
 20
7.9050974336
  0
LWPOLYLINE
  5
310
100
AcDbEntity
  8
RACCORDO
100
AcDbPolyline
 62
250
  6
CONTINUOUS
 90
9
 70
0
 10
-30.8217087232
 20
7.9521796576
 10
-30.8363831496
 20
7.9598661467
 10
-30.8509504836
 20
7.9656504083
 10
-30.8652512463
 20
7.9694691181
 10
-30.8791288769
 20
7.9712804698
 10
-30.8924314468
 20
7.9710646332
 10
-30.9050133233
 20
7.9688239714
 10
-30.9167367635
 20
7.9645830143
 10
-30.9199044285
 20
7.9630130325
  0
LWPOLYLINE
  5
311
100
AcDbEntity
  8
RACCORDO
100
AcDbPolyline
 62
250
  6
CONTINUOUS
 90
8
 70
0
 10
-28.5478410504
 20
9.1514828549
 10
-28.5625154768
 20
9.159169344
 10
-28.577082811
 20
9.1649536057
 10
-28.5913835737
 20
9.1687723154
 10
-28.6052612043
 20
9.1705836671
 10
-28.6185637743
 20
9.1703678305
 10
-28.6311456508
 20
9.1681271686
 10
-28.642869091
 20
9.1638862115
  0
LWPOLYLINE
  5
312
100
AcDbEntity
  8
RACCORDO
100
AcDbPolyline
 62
7
  6
CONTINUOUS
 90
13
 70
0
 10
-28.4061627231
 20
9.1627536307
 10
-28.4184647164
 20
9.1692666213
 10
-28.4377523056
 20
9.1777016886
 10
-28.4579882091
 20
9.1844552751
 10
-28.4790064732
 20
9.1894050952
 10
-28.5006341939
 20
9.1924533142
 10
-28.5227119611
 20
9.1935313688
 10
-28.5450840787
 20
9.1925891944
 10
-28.5675340283
 20
9.1895997058
 10
-28.5898638908
 20
9.1845664701
 10
-28.611926537
 20
9.1775194525
 10
-28.6335798637
 20
9.1685034292
 10
-28.6459783826
 20
9.1623469823
  0
LWPOLYLINE
  5
313
100
AcDbEntity
  8
RACCORDO
100
AcDbPolyline
 62
7
  6
CONTINUOUS
 90
13
 70
0
 10
-30.189526851
 20
10.1746297888
 10
-30.2016341759
 20
10.1810457395
 10
-30.2204762735
 20
10.1893273135
 10
-30.2402587623
 20
10.1960103328
 10
-30.2608270584
 20
10.2009728705
 10
-30.2820204686
 20
10.2041172558
 10
-30.3036925725
 20
10.205368423
 10
-30.3256976674
 20
10.2046678046
 10
-30.3478221952
 20
10.2019804584
 10
-30.3698614028
 20
10.19730922
 10
-30.3916735498
 20
10.1906703825
 10
-30.4131357115
 20
10.1820898143
 10
-30.4293160702
 20
10.1741989988
  0
LINE
  5
314
100
AcDbEntity
  8
RACCORDO
100
AcDbLine
 62
250
  6
CONTINUOUS
 10
-28.2243199733
 20
5.7585411383
 11
-29.3760715935
 21
6.4060523538
  0
LINE
  5
315
100
AcDbEntity
  8
RACCORDO
100
AcDbLine
 62
7
  6
CONTINUOUS
 10
-28.1790910358
 20
5.7411848524
 11
-29.3690521057
 21
6.4101773029
  0
LINE
  5
316
100
AcDbEntity
  8
RACCORDO
100
AcDbLine
 62
250
  6
CONTINUOUS
 10
-29.1787540054
 20
5.7963098608
 11
-30.2900125535
 21
6.4232483704
  0
LINE
  5
317
100
AcDbEntity
  8
RACCORDO
100
AcDbLine
 62
250
  6
CONTINUOUS
 10
-28.7760288289
 20
5.884428045
 11
-29.6947346979
 21
6.4027341488
  0
LINE
  5
318
100
AcDbEntity
  8
RACCORDO
100
AcDbLine
 62
7
  6
CONTINUOUS
 10
-29.7975985109
 20
9.4523763071
 11
-28.9779002276
 21
8.9872818917
  0
LINE
  5
319
100
AcDbEntity
  8
RACCORDO
100
AcDbLine
 62
250
  6
CONTINUOUS
 10
-28.2772927963
 20
8.9979745645
 11
-28.5478410504
 21
9.1514828549
  0
LINE
  5
31A
100
AcDbEntity
  8
RACCORDO
100
AcDbLine
 62
250
  6
CONTINUOUS
 10
-30.0603510232
 20
10.0096766024
 11
-30.3311708871
 21
10.1633390034
  0
LINE
  5
31B
100
AcDbEntity
  8
RACCORDO
100
AcDbLine
 62
7
  6
CONTINUOUS
 10
-28.1365832011
 20
9.0097958485
 11
-28.4062981394
 21
9.1628313179
  0
LINE
  5
31C
100
AcDbEntity
  8
RACCORDO
100
AcDbLine
 62
7
  6
CONTINUOUS
 10
-29.919641428
 20
10.0214978864
 11
-30.1896281478
 21
10.1746875639
  0
LINE
  5
31D
100
AcDbEntity
  8
RACCORDO
100
AcDbLine
 62
7
  6
CONTINUOUS
 10
-30.5681261693
 20
6.3106996609
 11
-29.4185411822
 21
5.6554432766
  0
LINE
  5
31E
100
AcDbEntity
  8
RACCORDO
100
AcDbLine
 62
250
  6
CONTINUOUS
 10
-32.1528702161
 20
7.3492043513
 11
-32.0787074708
 21
7.3063837117
  0
LINE
  5
31F
100
AcDbEntity
  8
RACCORDO
100
AcDbLine
 62
250
  6
CONTINUOUS
 10
-30.9756281247
 20
7.8906099657
 11
-30.6652843261
 21
7.7110588921
  0
LINE
  5
320
100
AcDbEntity
  8
RACCORDO
100
AcDbLine
 62
250
  6
CONTINUOUS
 10
-30.8217087232
 20
7.9521796576
 11
-30.5145518663
 21
7.7744724063
  0
LINE
  5
321
100
AcDbEntity
  8
RACCORDO
100
AcDbLine
 62
250
  6
CONTINUOUS
 10
-31.1138054322
 20
7.8914178905
 11
-31.7470325536
 21
8.2578833822
  0
LINE
  5
322
100
AcDbEntity
  8
RACCORDO
100
AcDbLine
 62
250
  6
CONTINUOUS
 10
-31.0157315361
 20
7.9202373168
 11
-31.667773541
 21
8.2975914854
  0
LWPOLYLINE
  5
323
100
AcDbEntity
  8
RACCORDO
100
AcDbPolyline
 62
250
  6
CONTINUOUS
 90
16
 70
0
 10
-29.1787540054
 20
5.7963098608
 10
-29.1637539894
 20
5.7870441194
 10
-29.1489064985
 20
5.7760641679
 10
-29.1343760191
 20
5.7634916542
 10
-29.12032352
 20
5.7494658634
 10
-29.1069046829
 20
5.7341421881
 10
-29.0942681757
 20
5.7176904111
 10
-29.0825539847
 20
5.700292799
 10
-29.0718918748
 20
5.6821420919
 10
-29.0623999623
 20
5.6634393858
 10
-29.0541833893
 20
5.6443918782
 10
-29.0473331668
 20
5.6252105791
 10
-29.0419251707
 20
5.6061079878
 10
-29.0380192957
 20
5.5872957222
 10
-29.0356587935
 20
5.5689821751
 10
-29.0348697971
 20
5.5513702137
  0
LWPOLYLINE
  5
324
100
AcDbEntity
  8
RACCORDO
100
AcDbPolyline
 62
250
  6
CONTINUOUS
 90
19
 70
0
 10
-30.0603510232
 20
10.0096766024
 10
-30.0479368652
 20
10.0019903395
 10
-30.0356544197
 20
9.9930986879
 10
-30.0235971634
 20
9.9830693185
 10
-30.0118568594
 20
9.9719785607
 10
-30.0005228584
 20
9.959910822
 10
-29.989681419
 20
9.9469579452
 10
-29.9794150511
 20
9.9332185094
 10
-29.9698018881
 20
9.9187970801
 10
-29.9609150918
 20
9.903803413
 10
-29.9528222962
 20
9.8883516191
 10
-29.9455850923
 20
9.8725592957
 10
-29.9392585596
 20
9.856546632
 10
-29.9338908468
 20
9.8404354941
 10
-29.9295228056
 20
9.8243484974
 10
-29.9261876792
 20
9.8084080737
 10
-29.92391085
 20
9.7927355392
 10
-29.9227096462
 20
9.7774501715
 10
-29.9225932095
 20
9.7626683012
  0
LWPOLYLINE
  5
325
100
AcDbEntity
  8
RACCORDO
100
AcDbPolyline
 62
7
  6
CONTINUOUS
 90
13
 70
0
 10
-29.919641428
 20
10.0214978864
 10
-29.9024119889
 20
10.0107008285
 10
-29.8859975289
 20
9.9982846671
 10
-29.8705709192
 20
9.9843075408
 10
-29.8563251063
 20
9.9688842624
 10
-29.8433809037
 20
9.9520937648
 10
-29.8318044663
 20
9.9339410351
 10
-29.8217379208
 20
9.9145395845
 10
-29.8133087831
 20
9.8940292736
 10
-29.8065756394
 20
9.8723972544
 10
-29.8016400801
 20
9.8496942708
 10
-29.798620265
 20
9.8260985376
 10
-29.7975985109
 20
9.8017552051
  0
LWPOLYLINE
  5
326
100
AcDbEntity
  8
RACCORDO
100
AcDbPolyline
 62
7
  6
CONTINUOUS
 90
13
 70
0
 10
-28.1365832011
 20
9.0097958485
 10
-28.119353762
 20
8.9989987906
 10
-28.102939302
 20
8.9865826292
 10
-28.0875126923
 20
8.972605503
 10
-28.0732668794
 20
8.9571822245
 10
-28.0603226768
 20
8.940391727
 10
-28.0487462394
 20
8.9222389972
 10
-28.0386796939
 20
8.9028375466
 10
-28.0302505562
 20
8.8823272357
 10
-28.0235174125
 20
8.8606952166
 10
-28.0185818532
 20
8.8379922329
 10
-28.0155620381
 20
8.8143964997
 10
-28.014540284
 20
8.7900531672
  0
LWPOLYLINE
  5
327
100
AcDbEntity
  8
RACCORDO
100
AcDbPolyline
 62
250
  6
CONTINUOUS
 90
6
 70
0
 10
-28.2243199733
 20
5.7585411383
 10
-28.2097820976
 20
5.7491333611
 10
-28.1962835971
 20
5.7378333134
 10
-28.1839730643
 20
5.7247653932
 10
-28.1729860126
 20
5.7100734574
 10
-28.1634433888
 20
5.6939192435
  0
LWPOLYLINE
  5
328
100
AcDbEntity
  8
RACCORDO
100
AcDbPolyline
 62
250
  6
CONTINUOUS
 90
8
 70
0
 10
-32.0130152843
 20
27.4547972682
 10
-32.024230534
 20
27.4681270255
 10
-32.0361721823
 20
27.4807205214
 10
-32.0487596973
 20
27.4924910304
 10
-32.0618882542
 20
27.5033388244
 10
-32.0754283977
 20
27.5131613303
 10
-32.0892650225
 20
27.5218849787
 10
-32.103301732
 20
27.529458662
  0
LINE
  5
329
100
AcDbEntity
  8
RACCORDO
100
AcDbLine
 62
250
  6
CONTINUOUS
 10
-28.7132574895
 20
5.6221851156
 11
-28.1615486338
 21
5.4962982089
  0
LINE
  5
32A
100
AcDbEntity
  8
RACCORDO
100
AcDbLine
 62
250
  6
CONTINUOUS
 10
-28.7760288289
 20
5.884428045
 11
-28.2243199733
 21
5.7585411383
  0
LWPOLYLINE
  5
32B
100
AcDbEntity
  8
RACCORDO
100
AcDbPolyline
 62
250
  6
CONTINUOUS
 90
4
 70
0
 10
-28.2243199733
 20
5.7585411383
 10
-28.2070796002
 20
5.7536624475
 10
-28.190733267
 20
5.7471342183
 10
-28.1790910729
 20
5.7411848733
  0
LWPOLYLINE
  5
32C
100
AcDbEntity
  8
RACCORDO
100
AcDbPolyline
 62
250
  6
CONTINUOUS
 90
16
 70
0
 10
-28.1615486338
 20
5.4962982089
 10
-28.1511745718
 20
5.4933260254
 10
-28.1413918966
 20
5.4894273014
 10
-28.1322006084
 20
5.484602037
 10
-28.1236047865
 20
5.4788637864
 10
-28.1156003515
 20
5.4721989954
 10
-28.1081750654
 20
5.4645670012
 10
-28.101293775
 20
5.45600095
 10
-28.0949916334
 20
5.4464676956
 10
-28.0893618615
 20
5.4358271366
 10
-28.0843614308
 20
5.424036769
 10
-28.0800333697
 20
5.4111390968
 10
-28.0765999849
 20
5.39712153
 10
-28.0741353784
 20
5.381979872
 10
-28.0725654482
 20
5.3657183194
 10
-28.0718901942
 20
5.3483368723
  0
LWPOLYLINE
  5
32D
100
AcDbEntity
  8
RACCORDO
100
AcDbPolyline
 62
250
  6
CONTINUOUS
 90
10
 70
0
 10
-28.1365832011
 20
9.0097958485
 10
-28.1463724554
 20
9.0146529274
 10
-28.1603772058
 20
9.0194785761
 10
-28.1752860636
 20
9.0223351993
 10
-28.1909905453
 20
9.0232020125
 10
-28.2073763811
 20
9.0220727104
 10
-28.2243243466
 20
9.0189555103
 10
-28.2417111246
 20
9.0138730934
 10
-28.2594102024
 20
9.006862441
 10
-28.2772927963
 20
8.9979745645
  0
LWPOLYLINE
  5
32E
100
AcDbEntity
  8
RACCORDO
100
AcDbPolyline
 62
250
  6
CONTINUOUS
 90
10
 70
0
 10
-28.4062981108
 20
9.1628313017
 10
-28.413719121
 20
9.166640197
 10
-28.4270948831
 20
9.1717026515
 10
-28.4415252542
 20
9.1749794037
 10
-28.4569839727
 20
9.176376639
 10
-28.4733531644
 20
9.1757994711
 10
-28.4907112744
 20
9.1731398689
 10
-28.5090221855
 20
9.1682608888
 10
-28.5281121454
 20
9.161068085
 10
-28.5478410504
 20
9.1514828549
  0
LWPOLYLINE
  5
32F
100
AcDbEntity
  8
RACCORDO
100
AcDbPolyline
 62
250
  6
CONTINUOUS
 90
7
 70
0
 10
-32.2065125505
 20
-2.0718440246
 10
-32.1975512189
 20
-2.0703433897
 10
-32.1901239328
 20
-2.0682680418
 10
-32.1842966314
 20
-2.065636406
 10
-32.1801210491
 20
-2.0624718461
 10
-32.1776342561
 20
-2.0588024573
 10
-32.1772109243
 20
-2.0575703786
  0
LINE
  5
330
100
AcDbEntity
  8
RACCORDO
100
AcDbLine
 62
7
  6
CONTINUOUS
 10
-30.127341575
 20
6.4394442777
 11
-29.521155493
 21
6.3880045748
  0
LWPOLYLINE
  5
331
100
AcDbEntity
  8
RACCORDO
100
AcDbPolyline
 62
250
  6
CONTINUOUS
 90
7
 70
0
 10
-31.4575400132
 20
23.0374144383
 10
-31.4733954184
 20
23.0458000504
 10
-31.5037083414
 20
23.057990227
 10
-31.5360528971
 20
23.0661934009
 10
-31.5702899411
 20
23.0702412635
 10
-31.6063164319
 20
23.069981727
 10
-31.6439859229
 20
23.0652739064
  0
LWPOLYLINE
  5
332
100
AcDbEntity
  8
RACCORDO
100
AcDbPolyline
 62
7
  6
CONTINUOUS
 90
6
 70
0
 10
-31.7594096133
 20
23.2117100043
 10
-31.787694487
 20
23.2267940438
 10
-31.8240791504
 20
23.2428195282
 10
-31.8619790327
 20
23.2559008556
 10
-31.9012138385
 20
23.265941688
 10
-31.9052308278
 20
23.2666316141
  0
LWPOLYLINE
  5
333
100
AcDbEntity
  8
RACCORDO
100
AcDbPolyline
 62
250
  6
CONTINUOUS
 90
3
 70
0
 10
-31.7594209265
 20
23.2117167233
 10
-31.7756720463
 20
23.2205231099
 10
-31.787694487
 20
23.2267940438
  0
LINE
  5
334
100
AcDbEntity
  8
RACCORDO
100
AcDbLine
 62
250
  6
CONTINUOUS
 10
-31.8909659099
 20
23.2078770555
 11
-31.643986143
 21
23.0652740335
  0
LINE
  5
335
100
AcDbEntity
  8
RACCORDO
100
AcDbLine
 62
7
  6
CONTINUOUS
 10
-31.7593964402
 20
23.2117025865
 11
-31.4574407393
 21
23.0373571493
  0
LINE
  5
336
100
AcDbEntity
  8
RACCORDO
100
AcDbLine
 62
7
  6
CONTINUOUS
 10
-31.8152066814
 20
23.0843425326
 11
-31.8154535887
 21
23.0844853191
  0
LWPOLYLINE
  5
337
100
AcDbEntity
  8
RACCORDO
100
AcDbPolyline
 62
7
  6
CONTINUOUS
 90
15
 70
0
 10
-31.815456895
 20
23.084486975
 10
-31.8222839507
 20
23.0889785841
 10
-31.8312466943
 20
23.0964781858
 10
-31.8410962832
 20
23.1068929866
 10
-31.8517755035
 20
23.1209625672
 10
-31.8626464547
 20
23.1386448466
 10
-31.8733193022
 20
23.1599643587
 10
-31.8834881209
 20
23.184982698
 10
-31.8928219579
 20
23.2135596212
 10
-31.9010268857
 20
23.2453693021
 10
-31.9079162007
 20
23.2802134466
 10
-31.9133483322
 20
23.3179536581
 10
-31.9172081383
 20
23.3584203661
 10
-31.9194008889
 20
23.4014498572
 10
-31.9199003649
 20
23.4350396202
  0
LINE
  5
338
100
AcDbEntity
  8
RACCORDO
100
AcDbLine
 62
250
  6
CONTINUOUS
 10
-32.103301732
 20
27.529458662
 11
-32.1174321621
 21
27.5358331188
  0
LINE
  5
339
100
AcDbEntity
  8
RACCORDO
100
AcDbLine
 62
250
  6
CONTINUOUS
 10
-32.1330332662
 20
27.50182495
 11
-32.1501110509
 21
27.5096859087
  0
LWPOLYLINE
  5
33A
100
AcDbEntity
  8
RACCORDO
100
AcDbPolyline
 62
250
  6
CONTINUOUS
 90
9
 70
0
 10
-32.0198954731
 20
27.5443411499
 10
-32.024296534
 20
27.5466678243
 10
-32.0355811432
 20
27.5509188091
 10
-32.0477691731
 20
27.5532435645
 10
-32.0607300448
 20
27.5536171845
 10
-32.0743248934
 20
27.5520356644
 10
-32.0884080601
 20
27.5485159466
 10
-32.1028286521
 20
27.5430957407
 10
-32.1174321621
 20
27.5358331188
  0
LINE
  5
33B
100
AcDbEntity
  8
RACCORDO
100
AcDbLine
 62
250
  6
CONTINUOUS
 10
-32.1528702161
 20
27.556294607
 11
-32.1174321621
 21
27.5358331188
  0
LINE
  5
33C
100
AcDbEntity
  8
RACCORDO
100
AcDbLine
 62
7
  6
CONTINUOUS
 10
-32.1528702161
 20
27.6211191
 11
-32.0198954731
 21
27.5443411499
  0
LWPOLYLINE
  5
33D
100
AcDbEntity
  8
RACCORDO
100
AcDbPolyline
 62
250
  6
CONTINUOUS
 90
7
 70
0
 10
50.6629273933
 20
6.4639692651
 10
50.679357173
 20
6.4721216326
 10
50.6955063294
 20
6.4779096271
 10
50.7111528169
 20
6.4812536724
 10
50.726081494
 20
6.4821077987
 10
50.7400871033
 20
6.4804602624
 10
50.752977092
 20
6.4763337078
  0
LWPOLYLINE
  5
33E
100
AcDbEntity
  8
RACCORDO
100
AcDbPolyline
 62
250
  6
CONTINUOUS
 90
8
 70
0
 10
50.6535439296
 20
6.4694181923
 10
50.6700786156
 20
6.4775090965
 10
50.6863520186
 20
6.4832243159
 10
50.7021403897
 20
6.4864852723
 10
50.7172266498
 20
6.4872471322
 10
50.7314033727
 20
6.4854994232
 10
50.7444756377
 20
6.4812661782
 10
50.7510714584
 20
6.4779312826
  0
LINE
  5
33F
100
AcDbEntity
  8
RACCORDO
100
AcDbLine
 62
250
  6
CONTINUOUS
 10
-30.96412977
 20
7.8938321467
 11
-30.9756281247
 21
7.8906099657
  0
LINE
  5
340
100
AcDbEntity
  8
RACCORDO
100
AcDbLine
 62
250
  6
CONTINUOUS
 10
-30.9756281247
 20
7.8906099657
 11
-32.1528702161
 21
7.5711485139
  0
LINE
  5
341
100
AcDbEntity
  8
RACCORDO
100
AcDbLine
 62
7
  6
CONTINUOUS
 10
-31.0634157726
 20
7.9050918442
 11
-32.1528702161
 21
7.6094528243
  0
LWPOLYLINE
  5
342
100
AcDbEntity
  8
RACCORDO
100
AcDbPolyline
 62
250
  6
CONTINUOUS
 90
3
 70
0
 10
-32.0787074708
 20
7.3063837117
 10
-32.1453562879
 20
7.2893144221
 10
-32.1528702161
 20
7.2878630845
  0
LWPOLYLINE
  5
343
100
AcDbEntity
  8
RACCORDO
100
AcDbPolyline
 62
250
  6
CONTINUOUS
 90
4
 70
0
 10
-31.9714664607
 20
7.0469069535
 10
-32.0370886415
 20
7.0301573294
 10
-32.100912863
 20
7.0171686806
 10
-32.1528702161
 20
7.0094389629
  0
LWPOLYLINE
  5
344
100
AcDbEntity
  8
RACCORDO
100
AcDbPolyline
 62
250
  6
CONTINUOUS
 90
4
 70
0
 10
-31.8117016537
 20
23.2363074645
 10
-31.8502477619
 20
23.2482488856
 10
-31.8911311792
 20
23.2561318811
 10
-31.9033599012
 20
23.2571690135
  0
LINE
  5
345
100
AcDbEntity
  8
RACCORDO
100
AcDbLine
 62
250
  6
CONTINUOUS
 10
-32.1528702161
 20
37.0983273352
 11
-30.3863156537
 21
36.0897252689
  0
LINE
  5
346
100
AcDbEntity
  8
RACCORDO
100
AcDbLine
 62
250
  6
CONTINUOUS
 10
-32.1171350461
 20
37.4803204124
 11
-30.127341575
 21
36.3442616405
  0
LINE
  5
347
100
AcDbEntity
  8
RACCORDO
100
AcDbLine
 62
7
  6
CONTINUOUS
 10
-33.379504711
 20
39.4634417821
 11
29.9643611556
 21
2.8894875159
  0
LINE
  5
348
100
AcDbEntity
  8
RACCORDO
100
AcDbLine
 62
250
  6
CONTINUOUS
 10
-33.4416294974
 20
39.6007628405
 11
29.9022363691
 21
3.0268085743
  0
LINE
  5
349
100
AcDbEntity
  8
RACCORDO
100
AcDbLine
 62
7
  6
CONTINUOUS
 10
51.4979244526
 20
5.0083605785
 11
51.4567544761
 21
4.9837907547
  0
LINE
  5
34A
100
AcDbEntity
  8
RACCORDO
100
AcDbLine
 62
250
  6
CONTINUOUS
 10
49.2805171844
 20
5.9247076695
 11
50.4162374853
 21
6.5804520259
  0
LINE
  5
34B
100
AcDbEntity
  8
RACCORDO
100
AcDbLine
 62
250
  6
CONTINUOUS
 10
52.7883874784
 20
7.2985206979
 11
51.0168202575
 21
6.2756364754
  0
LINE
  5
34C
100
AcDbEntity
  8
RACCORDO
100
AcDbLine
 62
250
  6
CONTINUOUS
 10
53.2832868382
 20
6.441329863
 11
51.5117703676
 21
5.4184749432
  0
LINE
  5
34D
100
AcDbEntity
  8
RACCORDO
100
AcDbLine
 62
250
  6
CONTINUOUS
 10
50.3397237583
 20
4.0901080697
 11
51.4754440592
 21
4.7458524261
  0
LINE
  5
34E
100
AcDbEntity
  8
RACCORDO
100
AcDbLine
 62
7
  6
CONTINUOUS
 10
50.65480171
 20
6.4686919653
 11
50.6129273449
 21
6.4453131604
  0
LWPOLYLINE
  5
34F
100
AcDbEntity
  8
RACCORDO
100
AcDbPolyline
 62
250
  6
CONTINUOUS
 90
19
 70
0
 10
-34.0072287657
 20
39.2742560299
 10
-33.9881554394
 20
39.2641549376
 10
-33.9676452692
 20
39.2550406511
 10
-33.9458509155
 20
39.2469809989
 10
-33.9229345961
 20
39.2400359598
 10
-33.8990668751
 20
39.2342572156
 10
-33.8744253931
 20
39.229687767
 10
-33.8491935521
 20
39.2263616154
 10
-33.8235591438
 20
39.2243035081
 10
-33.7977129479
 20
39.2235287547
 10
-33.7718473267
 20
39.2240431147
 10
-33.7461547833
 20
39.2258427532
 10
-33.7208265222
 20
39.2289142712
 10
-33.6960510464
 20
39.233234804
 10
-33.672012742
 20
39.2387721915
 10
-33.6488904975
 20
39.2454852207
 10
-33.6268563916
 20
39.2533239293
 10
-33.6060744112
 20
39.2622299747
 10
-33.5866992202
 20
39.2721370723
  0
LWPOLYLINE
  5
350
100
AcDbEntity
  8
RACCORDO
100
AcDbPolyline
 62
7
  6
CONTINUOUS
 90
27
 70
0
 10
29.9643804288
 20
2.8894763906
 10
29.975612156
 20
2.8827783759
 10
29.9966637198
 20
2.8691128115
 10
30.0189633634
 20
2.8531016507
 10
30.0421328554
 20
2.8348198931
 10
30.0659650539
 20
2.8142629108
 10
30.0902716742
 20
2.7914328213
 10
30.1147171585
 20
2.7665043095
 10
30.1391002295
 20
2.7395651037
 10
30.1632267707
 20
2.7107185845
 10
30.186804181
 20
2.6802241275
 10
30.2096522736
 20
2.6482477404
 10
30.2316017459
 20
2.6149673367
 10
30.2524183295
 20
2.5807028214
 10
30.2719662165
 20
2.5456694598
 10
30.2901228625
 20
2.5100906526
 10
30.3067228666
 20
2.4743273722
 10
30.3216918461
 20
2.4386154521
 10
30.3349712697
 20
2.4031939987
 10
30.3464769268
 20
2.3684446971
 10
30.3562106494
 20
2.3345897349
 10
30.3641911545
 20
2.3018508025
 10
30.3704282211
 20
2.2706064101
 10
30.3750083561
 20
2.241025203
 10
30.3780329882
 20
2.2132876041
 10
30.3796184855
 20
2.1877602438
 10
30.3799676762
 20
2.1696741818
  0
LWPOLYLINE
  5
351
100
AcDbEntity
  8
RACCORDO
100
AcDbPolyline
 62
250
  6
CONTINUOUS
 90
5
 70
0
 10
29.9022363691
 20
3.0268085743
 10
29.939382383
 20
3.0039518433
 10
29.9761329333
 20
2.9785576716
 10
30.0124880202
 20
2.9506260594
 10
30.0486365504
 20
2.9199876658
  0
LWPOLYLINE
  5
352
100
AcDbEntity
  8
RACCORDO
100
AcDbPolyline
 62
250
  6
CONTINUOUS
 90
11
 70
0
 10
30.4678356374
 20
2.0471619059
 10
30.4503414262
 20
2.0581744221
 10
30.4345562136
 20
2.0700165554
 10
30.4205974815
 20
2.0826001704
 10
30.4085691181
 20
2.0958316132
 10
30.3985606447
 20
2.1096124086
 10
30.3906465497
 20
2.1238399926
 10
30.3848857339
 20
2.138408476
 10
30.3813210722
 20
2.1532094327
 10
30.3799790948
 20
2.1681327062
 10
30.3799676717
 20
2.1696442839
  0
LWPOLYLINE
  5
353
100
AcDbEntity
  8
RACCORDO
100
AcDbPolyline
 62
250
  6
CONTINUOUS
 90
21
 70
0
 10
30.0486365504
 20
2.9199876658
 10
30.0843896171
 20
2.8868118316
 10
30.1191804999
 20
2.8516065791
 10
30.1529619211
 20
2.8143619881
 10
30.1857811584
 20
2.7750879787
 10
30.2172133245
 20
2.7343223333
 10
30.2472280426
 20
2.6920642225
 10
30.2758556894
 20
2.6483144757
 10
30.3027625085
 20
2.6036133626
 10
30.3279384728
 20
2.5579243095
 10
30.3513936094
 20
2.5112838902
 10
30.3728242426
 20
2.4643420966
 10
30.3921807073
 20
2.4171796863
 10
30.4095126686
 20
2.3697159017
 10
30.4246654461
 20
2.3223584624
 10
30.437649489
 20
2.275024779
 10
30.4484543479
 20
2.2277974409
 10
30.4568939951
 20
2.1813319358
 10
30.462906421
 20
2.1358467595
 10
30.4665536351
 20
2.0911234162
 10
30.4678356374
 20
2.0471619059
  0
LWPOLYLINE
  5
354
100
AcDbEntity
  8
RACCORDO
100
AcDbPolyline
 62
250
  6
CONTINUOUS
 90
8
 70
0
 10
51.497924961
 20
5.0069079408
 10
51.5131986701
 20
5.0171829432
 10
51.5262842953
 20
5.0284196096
 10
51.5370019157
 20
5.0404634445
 10
51.5452041685
 20
5.0531488536
 10
51.5507782755
 20
5.0663014218
 10
51.5536475938
 20
5.0797403114
 10
51.5540562944
 20
5.0871211693
  0
LWPOLYLINE
  5
355
100
AcDbEntity
  8
RACCORDO
100
AcDbPolyline
 62
250
  6
CONTINUOUS
 90
7
 70
0
 10
51.4978975747
 20
5.0177584695
 10
51.5131721171
 20
5.0279137303
 10
51.52625866
 20
5.0390078052
 10
51.5369772733
 20
5.0508881647
 10
51.5451805842
 20
5.0633914758
 10
51.5507558044
 20
5.0763458258
 10
51.5536262803
 20
5.0895730868
  0
LWPOLYLINE
  5
356
100
AcDbEntity
  8
RACCORDO
100
AcDbPolyline
 62
250
  6
CONTINUOUS
 90
7
 70
0
 10
-31.643986143
 20
23.0652740335
 10
-31.6763852632
 20
23.0590403727
 10
-31.7077680958
 20
23.0568020187
 10
-31.7379724807
 20
23.0585403326
 10
-31.7668077735
 20
23.0642023777
 10
-31.7941624117
 20
23.0737558803
 10
-31.8152066814
 20
23.0843425326
  0
LWPOLYLINE
  5
357
100
AcDbEntity
  8
RACCORDO
100
AcDbPolyline
 62
250
  6
CONTINUOUS
 90
13
 70
0
 10
-31.5367240565
 20
22.8167152959
 10
-31.577666252
 20
22.8103154271
 10
-31.616942596
 20
22.8085929974
 10
-31.6545530885
 20
22.8115480068
 10
-31.6906302969
 20
22.8192341888
 10
-31.7250416539
 20
22.8315978099
 10
-31.7573894569
 20
22.84847767
 10
-31.7876490649
 20
22.8699090997
 10
-31.815845119
 20
22.8958567684
 10
-31.8416538403
 20
22.9260534844
 10
-31.8650612429
 20
22.9605455462
 10
-31.8860813128
 20
22.9992866552
 10
-31.9044322289
 20
23.0418707242
  0
LINE
  5
358
100
AcDbEntity
  8
RACCORDO
100
AcDbLine
 62
250
  6
CONTINUOUS
 10
50.752977092
 20
6.4763337078
 11
50.7594206658
 21
6.473087483
  0
LWPOLYLINE
  5
359
100
AcDbEntity
  8
RACCORDO
100
AcDbPolyline
 62
250
  6
CONTINUOUS
 90
19
 70
0
 10
49.6516050645
 20
4.1005120273
 10
49.6826516136
 20
4.0840379414
 10
49.7159918255
 20
4.0691328035
 10
49.7513885942
 20
4.0559026222
 10
49.7885901874
 20
4.044441494
 10
49.8273320344
 20
4.0348309349
 10
49.8673386078
 20
4.0271393002
 10
49.9083253868
 20
4.0214212976
 10
49.9500008766
 20
4.0177175988
 10
49.9920686792
 20
4.0160545501
 10
50.0342296102
 20
4.0164439839
 10
50.0761838205
 20
4.0188831354
 10
50.1176329242
 20
4.0233546615
 10
50.1582821338
 20
4.0298267645
 10
50.1978423487
 20
4.0382534184
 10
50.2360322057
 20
4.0485746941
 10
50.2725800924
 20
4.0607171877
 10
50.3072260788
 20
4.0745945444
 10
50.3397237583
 20
4.0901080697
  0
LWPOLYLINE
  5
35A
100
AcDbEntity
  8
RACCORDO
100
AcDbPolyline
 62
250
  6
CONTINUOUS
 90
11
 70
0
 10
-53.1909981928
 20
63.4805422275
 10
-53.2195305079
 20
63.4984682495
 10
-53.2453454362
 20
63.5177186028
 10
-53.2682593824
 20
63.5381563792
 10
-53.2881093829
 20
63.5596362257
 10
-53.3047542648
 20
63.5820053779
 10
-53.3180756501
 20
63.6051047468
 10
-53.3279787973
 20
63.6287700501
 10
-53.3343932754
 20
63.6528329806
 10
-53.3372734647
 20
63.6771224032
 10
-53.3374448021
 20
63.6846750752
  0
LWPOLYLINE
  5
35B
100
AcDbEntity
  8
RACCORDO
100
AcDbPolyline
 62
250
  6
CONTINUOUS
 90
11
 70
0
 10
29.9022363691
 20
3.0268085743
 10
29.9030257932
 20
3.0061526263
 10
29.9053881832
 20
2.986562064
 10
29.9093059462
 20
2.9681826872
 10
29.9147499131
 20
2.9511512806
 10
29.9216795567
 20
2.935594593
 10
29.9300432941
 20
2.9216283953
 10
29.9397788684
 20
2.9093566229
 10
29.9508138141
 20
2.898870598
 10
29.9630659992
 20
2.8902483502
 10
29.9643611556
 20
2.8894875159
  0
LINE
  5
35C
100
AcDbEntity
  8
RACCORDO
100
AcDbLine
 62
7
  6
CONTINUOUS
 10
30.3799676717
 20
2.1696442839
 11
30.3799676717
 21
-40.8434421511
  0
LINE
  5
35D
100
AcDbEntity
  8
RACCORDO
100
AcDbLine
 62
250
  6
CONTINUOUS
 10
30.4678356374
 20
2.0471619059
 11
30.4678356374
 21
-40.9659245289
  0
LWPOLYLINE
  5
35E
100
AcDbEntity
  8
RACCORDO
100
AcDbPolyline
 62
7
  6
CONTINUOUS
 90
9
 70
0
 10
30.3799676823
 20
-40.8434880494
 10
30.3795385214
 20
-40.8627448374
 10
30.3780226072
 20
-40.8834522776
 10
30.3755677077
 20
-40.901912438
 10
30.3723497995
 20
-40.9180358091
 10
30.3686422826
 20
-40.9314986727
 10
30.3649178092
 20
-40.9417853677
 10
30.3616993862
 20
-40.9487663296
 10
30.3611503164
 20
-40.9497993236
  0
LWPOLYLINE
  5
35F
100
AcDbEntity
  8
RACCORDO
100
AcDbPolyline
 62
250
  6
CONTINUOUS
 90
25
 70
0
 10
30.4678356374
 20
-40.9659245289
 10
30.4666152919
 20
-41.0081110571
 10
30.4629996368
 20
-41.0484579364
 10
30.4569886719
 20
-41.0869651666
 10
30.4485302019
 20
-41.1238207346
 10
30.4376764221
 20
-41.1588366535
 10
30.4245839194
 20
-41.1914489634
 10
30.4092204614
 20
-41.2215844639
 10
30.3916182804
 20
-41.2493163553
 10
30.3720306604
 20
-41.2743002789
 10
30.3504416934
 20
-41.2964919745
 10
30.3268672874
 20
-41.3159357022
 10
30.3016084506
 20
-41.3324198839
 10
30.2746284939
 20
-41.3459117581
 10
30.2459641063
 20
-41.3564440863
 10
30.2160263631
 20
-41.363903575
 10
30.1848603695
 20
-41.3682589211
 10
30.1524210202
 20
-41.3695414277
 10
30.1189840744
 20
-41.3677317109
 10
30.0844832304
 20
-41.3628035542
 10
30.0489847898
 20
-41.3547831741
 10
30.0129634169
 20
-41.343729836
 10
29.9765773333
 20
-41.3296632951
 10
29.9396683173
 20
-41.3125637963
 10
29.9022363691
 20
-41.2924313395
  0
LWPOLYLINE
  5
360
100
AcDbEntity
  8
RACCORDO
100
AcDbPolyline
 62
250
  6
CONTINUOUS
 90
19
 70
0
 10
29.9022363691
 20
-41.2924313395
 10
29.9030257679
 20
-41.2708641364
 10
29.9053880892
 20
-41.2485458696
 10
29.9093057513
 20
-41.2256426436
 10
29.914749597
 20
-41.202324916
 10
29.9216791103
 20
-41.1787662297
 10
29.9300427181
 20
-41.1551419206
 10
29.9397781741
 20
-41.1316278133
 10
29.950813022
 20
-41.108398912
 10
29.9630651346
 20
-41.0856280984
 10
29.9764433254
 20
-41.0634848447
 10
29.9908480267
 20
-41.0421339528
 10
30.0061720313
 20
-41.021734327
 10
30.0223012899
 20
-41.002437792
 10
30.0391157601
 20
-40.9843879629
 10
30.0564902999
 20
-40.9677191758
 10
30.0742955988
 20
-40.9525554885
 10
30.0923991405
 20
-40.9390097573
 10
30.1106661889
 20
-40.9271827965
  0
LWPOLYLINE
  5
361
100
AcDbEntity
  8
RACCORDO
100
AcDbPolyline
 62
250
  6
CONTINUOUS
 90
18
 70
0
 10
-52.149810641
 20
64.4893077353
 10
-52.2067464318
 20
64.519323594
 10
-52.2629122053
 20
64.5456229959
 10
-52.3181615882
 20
64.5682376452
 10
-52.372143951
 20
64.5871447224
 10
-52.4249548
 20
64.6024916516
 10
-52.4771039245
 20
64.6144632943
 10
-52.5286870165
 20
64.623047391
 10
-52.5793155672
 20
64.6281415744
 10
-52.6287540666
 20
64.6297113481
 10
-52.6768330911
 20
64.627760988
 10
-52.7234710529
 20
64.6223052127
 10
-52.7685754681
 20
64.6133549975
 10
-52.8120335931
 20
64.6009313066
 10
-52.8537251815
 20
64.5850675316
 10
-52.8935497761
 20
64.5657993129
 10
-52.9314276835
 20
64.5431573945
 10
-52.9437402198
 20
64.5347722324
  0
LWPOLYLINE
  5
362
100
AcDbEntity
  8
RACCORDO
100
AcDbPolyline
 62
250
  6
CONTINUOUS
 90
9
 70
0
 10
52.8858147649
 20
7.3070917587
 10
52.8815233158
 20
7.3093553028
 10
52.8702387296
 20
7.3136063239
 10
52.8580506969
 20
7.31593112
 10
52.8450898018
 20
7.3163047741
 10
52.8314949169
 20
7.3147232758
 10
52.8174117045
 20
7.3112035655
 10
52.8029910553
 20
7.3057833496
 10
52.7883874784
 20
7.2985206979
  0
LINE
  5
363
100
AcDbEntity
  8
RACCORDO
100
AcDbLine
 62
7
  6
CONTINUOUS
 10
-50.7977567845
 20
65.1109289595
 11
-50.8460080794
 21
65.1368976481
  0
LWPOLYLINE
  5
364
100
AcDbEntity
  8
RACCORDO
100
AcDbPolyline
 62
250
  6
CONTINUOUS
 90
31
 70
0
 10
-52.4848604768
 20
63.8881784929
 10
-52.5223694278
 20
63.9085635913
 10
-52.5592217602
 20
63.9264977237
 10
-52.5954174741
 20
63.9419808901
 10
-52.6309053312
 20
63.9549697377
 10
-52.6657365697
 20
63.9655076194
 10
-52.7000649047
 20
63.9737245933
 10
-52.7340524559
 20
63.9796802874
 10
-52.7675371035
 20
63.9833150738
 10
-52.8001862041
 20
63.9845801259
 10
-52.831962928
 20
63.9834495019
 10
-52.8629041049
 20
63.9799491437
 10
-52.8927875792
 20
63.9741080511
 10
-52.9216100066
 20
63.9659104765
 10
-52.9493747314
 20
63.9553721673
 10
-52.9758696319
 20
63.9425693657
 10
-53.0010972087
 20
63.9274683944
 10
-53.0250549611
 20
63.9101029306
 10
-53.0475232648
 20
63.890650247
 10
-53.0684118318
 20
63.8692599532
 10
-53.08781095
 20
63.8457824396
 10
-53.1057718592
 20
63.81994615
 10
-53.1224152056
 20
63.7916974199
 10
-53.137620343
 20
63.7610899138
 10
-53.1510765721
 20
63.7280130694
 10
-53.1628087446
 20
63.6923164231
 10
-53.1727920089
 20
63.6541504384
 10
-53.1806411112
 20
63.6138559437
 10
-53.1862276336
 20
63.5715465483
 10
-53.1896799942
 20
63.5271086429
 10
-53.1909981928
 20
63.4805422275
  0
LWPOLYLINE
  5
365
100
AcDbEntity
  8
RACCORDO
100
AcDbPolyline
 62
250
  6
CONTINUOUS
 90
14
 70
0
 10
-50.8962869859
 20
65.1029868133
 10
-50.9053060655
 20
65.1080625593
 10
-50.9145183901
 20
65.1131338377
 10
-50.9239224898
 20
65.1181924524
 10
-50.933482178
 20
65.1232110165
 10
-50.9432302758
 20
65.1282007154
 10
-50.9532682684
 20
65.1332064395
 10
-50.9636179168
 20
65.1382271047
 10
-50.974251936
 20
65.1432346844
 10
-50.9851973202
 20
65.1482270464
 10
-50.9964364818
 20
65.1531815201
 10
-51.0079790625
 20
65.1580861939
 10
-51.0198916351
 20
65.1629490123
 10
-51.0321878866
 20
65.1677541479
  0
LINE
  5
366
100
AcDbEntity
  8
RACCORDO
100
AcDbLine
 62
250
  6
CONTINUOUS
 10
48.9454673486
 20
5.3235784271
 11
-52.4848604768
 21
63.8881784929
  0
LINE
  5
367
100
AcDbEntity
  8
RACCORDO
100
AcDbLine
 62
250
  6
CONTINUOUS
 10
49.2805171844
 20
5.9247076695
 11
-52.149810641
 21
64.4893077353
  0
LINE
  5
368
100
AcDbEntity
  8
RACCORDO
100
AcDbLine
 62
7
  6
CONTINUOUS
 10
50.4162374853
 20
6.5804520259
 11
-51.1272034889
 21
65.2103622062
  0
LINE
  5
369
100
AcDbEntity
  8
RACCORDO
100
AcDbLine
 62
250
  6
CONTINUOUS
 10
-48.6860910839
 20
65.8886128459
 11
52.7883874784
 21
7.2985206979
  0
LINE
  5
36A
100
AcDbEntity
  8
RACCORDO
100
AcDbLine
 62
7
  6
CONTINUOUS
 10
-48.5885543949
 20
65.897120877
 11
52.8859241649
 21
7.3070287305
  0
LINE
  5
36B
100
AcDbEntity
  8
RACCORDO
100
AcDbLine
 62
7
  6
CONTINUOUS
 10
50.7597430513
 20
6.4729005852
 11
-50.7980046838
 21
65.1110714597
  0
LINE
  5
36C
100
AcDbEntity
  8
RACCORDO
100
AcDbLine
 62
250
  6
CONTINUOUS
 10
50.6629273934
 20
6.4639692666
 11
-50.8962869859
 21
65.1029868133
  0
LWPOLYLINE
  5
36D
100
AcDbEntity
  8
RACCORDO
100
AcDbPolyline
 62
250
  6
CONTINUOUS
 90
5
 70
0
 10
52.7883874784
 20
7.2985206979
 10
52.8201888049
 20
7.2791603481
 10
52.8518003623
 20
7.2575729321
 10
52.8830929163
 20
7.2338566082
 10
52.9139159455
 20
7.2081367929
  0
LWPOLYLINE
  5
36E
100
AcDbEntity
  8
RACCORDO
100
AcDbPolyline
 62
7
  6
CONTINUOUS
 90
5
 70
0
 10
-50.8460080794
 20
65.1368976481
 10
-50.8995666981
 20
65.1621440994
 10
-50.9534967355
 20
65.1837000843
 10
-51.0075282869
 20
65.2012919818
 10
-51.0610843292
 20
65.2147117078
  0
LINE
  5
36F
100
AcDbEntity
  8
RACCORDO
100
AcDbLine
 62
250
  6
CONTINUOUS
 10
-50.7960172774
 20
65.1094749872
 11
-50.789414149
 21
65.106135072
  0
LWPOLYLINE
  5
370
100
AcDbEntity
  8
RACCORDO
100
AcDbPolyline
 62
250
  6
CONTINUOUS
 90
9
 70
0
 10
-48.588556928
 20
65.8971223396
 10
-48.5929556997
 20
65.8994476689
 10
-48.6042402964
 20
65.9036986011
 10
-48.6164283121
 20
65.9060233149
 10
-48.6293891605
 20
65.9063969028
 10
-48.6429839752
 20
65.904815362
 10
-48.6570670971
 20
65.9012956376
 10
-48.6714876354
 20
65.895875441
 10
-48.6860910839
 20
65.8886128459
  0
LWPOLYLINE
  5
371
100
AcDbEntity
  8
RACCORDO
100
AcDbPolyline
 62
7
  6
CONTINUOUS
 90
13
 70
0
 10
-48.5885569282
 20
65.8971223397
 10
-48.6255045907
 20
65.9169003148
 10
-48.6661263285
 20
65.9351326448
 10
-48.706642668
 20
65.9497116439
 10
-48.7469502615
 20
65.9606448634
 10
-48.7868975914
 20
65.9679440247
 10
-48.8262155731
 20
65.9716181274
 10
-48.8647414124
 20
65.9717184195
 10
-48.9022748825
 20
65.968320758
 10
-48.93841284
 20
65.96156526
 10
-48.9728760795
 20
65.9516519086
 10
-49.0055466574
 20
65.9387867131
 10
-49.0291270653
 20
65.9271524433
  0
LWPOLYLINE
  5
372
100
AcDbEntity
  8
RACCORDO
100
AcDbPolyline
 62
250
  6
CONTINUOUS
 90
13
 70
0
 10
50.7913752595
 20
6.3776941376
 10
50.7801920317
 20
6.3860960267
 10
50.7693169978
 20
6.3940972158
 10
50.7586755477
 20
6.4017686481
 10
50.7483447234
 20
6.4090681974
 10
50.7382541303
 20
6.4160582415
 10
50.7281056284
 20
6.4229515226
 10
50.7178941386
 20
6.4297510321
 10
50.7076275383
 20
6.4364484776
 10
50.6970248596
 20
6.4432170953
 10
50.6859927226
 20
6.450100033
 10
50.6746263857
 20
6.4570225729
 10
50.6629273934
 20
6.4639692666
  0
LWPOLYLINE
  5
373
100
AcDbEntity
  8
RACCORDO
100
AcDbPolyline
 62
250
  6
CONTINUOUS
 90
5
 70
0
 10
-51.0321878866
 20
65.1677541479
 10
-51.0448418962
 20
65.172469216
 10
-51.0578599746
 20
65.1770726047
 10
-51.0712471281
 20
65.1815427304
 10
-51.0844697848
 20
65.185688301
  0
LWPOLYLINE
  5
374
100
AcDbEntity
  8
RACCORDO
100
AcDbPolyline
 62
250
  6
CONTINUOUS
 90
21
 70
0
 10
52.9139159455
 20
7.2081367929
 10
52.9441703235
 20
7.1805106278
 10
52.9738042573
 20
7.151032201
 10
53.0027198606
 20
7.1197902192
 10
53.0307724045
 20
7.0869314725
 10
53.0578407095
 20
7.0525968084
 10
53.0838300243
 20
7.0169012014
 10
53.1086150986
 20
6.9800092499
 10
53.1320448371
 20
6.9421534348
 10
53.1539493478
 20
6.9036442492
 10
53.1743427713
 20
6.8644957036
 10
53.1933243979
 20
6.8244870554
 10
53.2107612796
 20
6.7838123485
 10
53.2265651755
 20
6.742588835
 10
53.2407939731
 20
6.7004690048
 10
53.2533332688
 20
6.6574004743
 10
53.2639184667
 20
6.6138277266
 10
53.2723431424
 20
6.5701690566
 10
53.2784599471
 20
6.5267264279
 10
53.2821490602
 20
6.4836905728
 10
53.2832868382
 20
6.441329863
  0
LWPOLYLINE
  5
375
100
AcDbEntity
  8
RACCORDO
100
AcDbPolyline
 62
250
  6
CONTINUOUS
 90
31
 70
0
 10
50.3397237583
 20
4.0901080697
 10
50.3372485366
 20
4.1550941426
 10
50.3319397052
 20
4.2209665827
 10
50.3238979152
 20
4.2875037971
 10
50.3132787347
 20
4.3542269927
 10
50.3001620835
 20
4.4211867901
 10
50.2844531435
 20
4.4889995053
 10
50.2660934462
 20
4.557821064
 10
50.2451886084
 20
4.6271599468
 10
50.2218265213
 20
4.6966859581
 10
50.1960956076
 20
4.7661572144
 10
50.1680494119
 20
4.8354569934
 10
50.1377436861
 20
4.9044404004
 10
50.1052529635
 20
4.9729370082
 10
50.0706662918
 20
5.0407621703
 10
50.0340647709
 20
5.1077505553
 10
49.9955148775
 20
5.1737699748
 10
49.9551403455
 20
5.2386048339
 10
49.9131229753
 20
5.3019740782
 10
49.8698267315
 20
5.3633803245
 10
49.8251346738
 20
5.4230281285
 10
49.7784627909
 20
5.4816285297
 10
49.7297082687
 20
5.5391611252
 10
49.6791250653
 20
5.5951643129
 10
49.6266149003
 20
5.6495752869
 10
49.5721139635
 20
5.7022662371
 10
49.5159078747
 20
5.7527737451
 10
49.4584466053
 20
5.8005426578
 10
49.3999956317
 20
5.8452426881
 10
49.3406245423
 20
5.886713851
 10
49.2805171844
 20
5.9247076695
  0
LWPOLYLINE
  5
376
100
AcDbEntity
  8
RACCORDO
100
AcDbPolyline
 62
250
  6
CONTINUOUS
 90
11
 70
0
 10
48.9454673486
 20
-65.579846992
 10
48.9467245654
 20
-65.6135177455
 10
48.9504872749
 20
-65.6454972661
 10
48.9567287243
 20
-65.6755581136
 10
48.9654045322
 20
-65.7034864926
 10
48.9764530035
 20
-65.7290837721
 10
48.9897955683
 20
-65.7521678977
 10
49.0053373413
 20
-65.7725746899
 10
49.0229677957
 20
-65.7901590083
 10
49.0425615473
 20
-65.8047957846
 10
49.0490065686
 20
-65.8087142155
  0
LWPOLYLINE
  5
377
100
AcDbEntity
  8
RACCORDO
100
AcDbPolyline
 62
250
  6
CONTINUOUS
 90
31
 70
0
 10
49.6516050645
 20
4.1005120273
 10
49.6505033582
 20
4.1444583492
 10
49.6476073258
 20
4.1886825192
 10
49.6429169671
 20
4.2331845374
 10
49.6364203582
 20
4.2779121255
 10
49.628129423
 20
4.3229175617
 10
49.6180799339
 20
4.3683576807
 10
49.6062424646
 20
4.4144366664
 10
49.5926464413
 20
4.4609503349
 10
49.5774159159
 20
4.5074429688
 10
49.5605468377
 20
4.5538743814
 10
49.5420432573
 20
4.6002847593
 10
49.5220413785
 20
4.6463389457
 10
49.5005292354
 20
4.6920399877
 10
49.4775187939
 20
4.7373848382
 10
49.4531821546
 20
4.7820291989
 10
49.4274889011
 20
4.8259935196
 10
49.4004694498
 20
4.8692573505
 10
49.3723871513
 20
4.9114150442
 10
49.3434167238
 20
4.9522614684
 10
49.313383449
 20
4.9920017555
 10
49.2820265225
 20
5.0308456553
 10
49.2492391389
 20
5.0689941415
 10
49.2151281037
 20
5.1062462405
 10
49.1797530285
 20
5.1422087801
 10
49.1429711768
 20
5.1769928697
 10
49.1049252851
 20
5.2104874
 10
49.0661031743
 20
5.2419658708
 10
49.0266674515
 20
5.2711861157
 10
48.9864555095
 20
5.2983903011
 10
48.9454673486
 20
5.3235784271
  0
LWPOLYLINE
  5
378
100
AcDbEntity
  8
RACCORDO
100
AcDbPolyline
 62
250
  6
CONTINUOUS
 90
70
 70
0
 10
51.497897576
 20
5.0177584688
 10
51.4977818265
 20
5.0284125805
 10
51.4975639057
 20
5.0393411471
 10
51.4972376044
 20
5.0505460272
 10
51.4967976534
 20
5.0619819151
 10
51.4962373941
 20
5.0736970784
 10
51.4955443059
 20
5.0858355014
 10
51.4947056829
 20
5.0984415281
 10
51.4937111474
 20
5.1114775996
 10
51.49254649
 20
5.1249667868
 10
51.4912020618
 20
5.1388867528
 10
51.4896622889
 20
5.1532652449
 10
51.4878995808
 20
5.168201599
 10
51.4858937434
 20
5.1837202602
 10
51.4836292811
 20
5.1998031675
 10
51.4810808254
 20
5.2164874508
 10
51.4782239775
 20
5.2338041494
 10
51.4750432918
 20
5.2517284121
 10
51.4715269883
 20
5.2702129305
 10
51.467661143
 20
5.2892334015
 10
51.4634226063
 20
5.3088157968
 10
51.4587860593
 20
5.3289870946
 10
51.4537411759
 20
5.3497042903
 10
51.4482575236
 20
5.3710086803
 10
51.4422713879
 20
5.3930536901
 10
51.4357591746
 20
5.4158205267
 10
51.4286892852
 20
5.4393159896
 10
51.4209700918
 20
5.4637297046
 10
51.4125504764
 20
5.4890887322
 10
51.4034037841
 20
5.5153405571
 10
51.3934608793
 20
5.542551664
 10
51.3826273925
 20
5.5708325313
 10
51.3709055506
 20
5.6000255341
 10
51.3583838213
 20
5.6297927849
 10
51.3450235201
 20
5.6601377262
 10
51.3308114313
 20
5.6909990779
 10
51.3159135137
 20
5.7219456485
 10
51.3003647498
 20
5.7528755234
 10
51.2841294822
 20
5.7838323384
 10
51.267301501
 20
5.8146103076
 10
51.2498772533
 20
5.8452029002
 10
51.2318834671
 20
5.8755575401
 10
51.2134814328
 20
5.9054100767
 10
51.1946360742
 20
5.9348271523
 10
51.1754270726
 20
5.9636987028
 10
51.1562225277
 20
5.9915260469
 10
51.1371190961
 20
6.018243162
 10
51.1181072892
 20
6.0439328675
 10
51.0994257011
 20
6.0683551054
 10
51.0812075969
 20
6.0914267907
 10
51.063409486
 20
6.113285515
 10
51.046009258
 20
6.1340329809
 10
51.0290721729
 20
6.1536610281
 10
51.0126009399
 20
6.1722308127
 10
50.9964683974
 20
6.1899372577
 10
50.9806851247
 20
6.2068119889
 10
50.9652829201
 20
6.2228626973
 10
50.9501560241
 20
6.2382340344
 10
50.9352926775
 20
6.2529664187
 10
50.9207309177
 20
6.2670496523
 10
50.906434282
 20
6.2805439951
 10
50.8923888053
 20
6.2934852382
 10
50.8786260711
 20
6.3058667397
 10
50.8651764913
 20
6.3176838554
 10
50.8520597433
 20
6.3289419847
 10
50.8392711875
 20
6.3396681168
 10
50.8268040571
 20
6.3498903
 10
50.814672985
 20
6.3596164243
 10
50.8028748722
 20
6.3688687296
 10
50.7913752595
 20
6.3776941376
  0
LINE
  5
379
100
AcDbEntity
  8
RACCORDO
100
AcDbLine
 62
250
  6
CONTINUOUS
 10
49.6516050645
 20
-65.1722107265
 11
49.6516050645
 21
4.1005120273
  0
LINE
  5
37A
100
AcDbEntity
  8
RACCORDO
100
AcDbLine
 62
250
  6
CONTINUOUS
 10
50.3397237583
 20
-65.1826146841
 11
50.3397237583
 21
4.0901080697
  0
LINE
  5
37B
100
AcDbEntity
  8
RACCORDO
100
AcDbLine
 62
7
  6
CONTINUOUS
 10
51.4754440592
 20
-64.6574779337
 11
51.4754440592
 21
4.7458524261
  0
LINE
  5
37C
100
AcDbEntity
  8
RACCORDO
100
AcDbLine
 62
250
  6
CONTINUOUS
 10
51.4979244524
 20
-64.3944707071
 11
51.497897576
 21
5.0177584688
  0
LINE
  5
37D
100
AcDbEntity
  8
RACCORDO
100
AcDbLine
 62
7
  6
CONTINUOUS
 10
51.5540562945
 20
-64.3128012663
 11
51.5540356449
 21
5.097142337
  0
LWPOLYLINE
  5
37E
100
AcDbEntity
  8
RACCORDO
100
AcDbPolyline
 62
250
  6
CONTINUOUS
 90
19
 70
0
 10
48.9454673486
 20
5.3235784271
 10
48.9467245813
 20
5.3587012363
 10
48.9504873381
 20
5.3950260736
 10
48.9567288583
 20
5.4322945973
 10
48.9654047523
 20
5.4702417544
 10
48.9764533174
 20
5.5085976653
 10
48.9897959762
 20
5.5470895436
 10
49.0053378361
 20
5.5854436355
 10
49.0229683637
 20
5.6233871676
 10
49.0425621708
 20
5.6606502861
 10
49.0639799068
 20
5.6969679763
 10
49.0870692491
 20
5.7320819474
 10
49.1116659865
 20
5.7657424696
 10
49.1375951877
 20
5.7977101498
 10
49.1646724446
 20
5.8277576344
 10
49.1927051842
 20
5.8556712261
 10
49.2214940381
 20
5.8812524042
 10
49.2508342605
 20
5.9043192356
 10
49.2805171844
 20
5.9247076695
  0
LINE
  5
37F
100
AcDbEntity
  8
RACCORDO
100
AcDbLine
 62
250
  6
CONTINUOUS
 10
51.5536262803
 20
5.0895730868
 11
51.5540361793
 21
5.0967025781
  0
LINE
  5
380
100
AcDbEntity
  8
RACCORDO
100
AcDbLine
 62
250
  6
CONTINUOUS
 10
30.1106661889
 20
-40.9271827965
 11
30.3799676717
 21
-40.7606427199
  0
LINE
  5
381
100
AcDbEntity
  8
RACCORDO
100
AcDbLine
 62
7
  6
CONTINUOUS
 10
30.3634648974
 20
-40.9503075958
 11
30.363364667
 21
-40.9503695308
  0
LWPOLYLINE
  5
382
100
AcDbEntity
  8
RACCORDO
100
AcDbPolyline
 62
250
  6
CONTINUOUS
 90
14
 70
0
 10
30.363364667
 20
-40.9503695308
 10
30.3587677885
 20
-40.9531069396
 10
30.3418991728
 20
-40.9615574676
 10
30.3240699599
 20
-40.9681053032
 10
30.3053787349
 20
-40.9727225586
 10
30.285945918
 20
-40.9753959337
 10
30.2658261742
 20
-40.9761337276
 10
30.2450178774
 20
-40.9749354481
 10
30.2235685553
 20
-40.9717844978
 10
30.2016020189
 20
-40.9666803752
 10
30.1792290963
 20
-40.959641068
 10
30.1565524847
 20
-40.9506920916
 10
30.1336647592
 20
-40.9398600448
 10
30.1106662993
 20
-40.9271827282
  0
LWPOLYLINE
  5
383
100
AcDbEntity
  8
RACCORDO
100
AcDbPolyline
 62
7
  6
CONTINUOUS
 90
23
 70
0
 10
51.5540361793
 20
5.0967025781
 10
51.5519585253
 20
5.16149912
 10
51.5461510782
 20
5.2302326555
 10
51.5364991352
 20
5.3005801817
 10
51.5229263796
 20
5.3721456431
 10
51.5055390785
 20
5.444352583
 10
51.4844339493
 20
5.5169702521
 10
51.4596996023
 20
5.5897543696
 10
51.431536203
 20
5.6621278599
 10
51.4000894755
 20
5.7337391198
 10
51.3654282085
 20
5.8044102345
 10
51.3276846356
 20
5.8738187493
 10
51.2870139289
 20
5.9416493642
 10
51.2435959887
 20
6.0075960184
 10
51.1976038985
 20
6.0714048709
 10
51.1491442697
 20
6.132911725
 10
51.0984497394
 20
6.1917782979
 10
51.045915487
 20
6.2475175658
 10
50.9917028187
 20
6.299911073
 10
50.9359583109
 20
6.3487302216
 10
50.8791386942
 20
6.3935397951
 10
50.8216415762
 20
6.4341511024
 10
50.7594207192
 20
6.4730874531
  0
LWPOLYLINE
  5
384
100
AcDbEntity
  8
RACCORDO
100
AcDbPolyline
 62
7
  6
CONTINUOUS
 90
23
 70
0
 10
53.3394187384
 20
6.5214107754
 10
53.3391576352
 20
6.5403181522
 10
53.3366172028
 20
6.5838963188
 10
53.3314737098
 20
6.6277437122
 10
53.3238244987
 20
6.6717377374
 10
53.3137581103
 20
6.715771075
 10
53.3013617734
 20
6.7597236474
 10
53.2867118541
 20
6.8034598976
 10
53.2699046237
 20
6.8468020959
 10
53.2510207638
 20
6.8896027852
 10
53.2301377459
 20
6.931712431
 10
53.2073707204
 20
6.972925859
 10
53.182800123
 20
7.0130956021
 10
53.1565148939
 20
7.052069567
 10
53.1286438831
 20
7.0896365729
 10
53.0992731742
 20
7.1256522633
 10
53.0684929982
 20
7.1599739617
 10
53.0364217535
 20
7.1924165413
 10
53.0031398534
 20
7.2228454036
 10
52.9687089685
 20
7.2511305747
 10
52.9331844229
 20
7.2771358381
 10
52.8966249792
 20
7.3007176235
 10
52.8858147649
 20
7.3070917587
  0
LINE
  5
385
100
AcDbEntity
  8
RACCORDO
100
AcDbLine
 62
250
  6
CONTINUOUS
 10
53.2832868382
 20
6.441329863
 11
53.2832868382
 21
-62.882372128
  0
LINE
  5
386
100
AcDbEntity
  8
RACCORDO
100
AcDbLine
 62
7
  6
CONTINUOUS
 10
53.3394188781
 20
6.5215472704
 11
53.3394188781
 21
-62.8021547177
  0
LINE
  5
387
100
AcDbEntity
  8
RACCORDO
100
AcDbLine
 62
7
  6
CONTINUOUS
 10
51.5540356037
 20
-64.3227519288
 11
51.5540570008
 21
-64.3127970029
  0
LINE
  5
388
100
AcDbEntity
  8
RACCORDO
100
AcDbLine
 62
250
  6
CONTINUOUS
 10
51.497897576
 20
-64.4037848223
 11
51.497925484
 21
-64.3944701962
  0
LWPOLYLINE
  5
389
100
AcDbEntity
  8
RACCORDO
100
AcDbPolyline
 62
250
  6
CONTINUOUS
 90
13
 70
0
 10
53.2832868382
 20
-62.882372128
 10
53.2824219286
 20
-62.9182444808
 10
53.2795333683
 20
-62.9527489868
 10
53.274641544
 20
-62.9857524349
 10
53.2677798056
 20
-63.017106681
 10
53.2589827149
 20
-63.0467179
 10
53.2482712158
 20
-63.0745340694
 10
53.2356731854
 20
-63.100460804
 10
53.2212433803
 20
-63.1243662931
 10
53.2050431864
 20
-63.1461434203
 10
53.1871247974
 20
-63.1657134206
 10
53.1675681333
 20
-63.1829807353
 10
53.145416255
 20
-63.1985166741
  0
LWPOLYLINE
  5
38A
100
AcDbEntity
  8
RACCORDO
100
AcDbPolyline
 62
250
  6
CONTINUOUS
 90
9
 70
0
 10
53.339418878
 20
-62.8021579801
 10
53.3392336016
 20
-62.8071241518
 10
53.3372734647
 20
-62.8190235509
 10
53.3331934346
 20
-62.830742228
 10
53.3270372178
 20
-62.8421546231
 10
53.3188707705
 20
-62.853138452
 10
53.308781588
 20
-62.8635760261
 10
53.2968777644
 20
-62.8733555128
 10
53.2832868382
 20
-62.882372128
  0
LWPOLYLINE
  5
38B
100
AcDbEntity
  8
RACCORDO
100
AcDbPolyline
 62
250
  6
CONTINUOUS
 90
9
 70
0
 10
53.3394187384
 20
6.5214107752
 10
53.339233564
 20
6.5165773319
 10
53.3372733447
 20
6.5046779685
 10
53.333193252
 20
6.4929593479
 10
53.3270370011
 20
6.4815470271
 10
53.318870552
 20
6.4705632812
 10
53.3087814027
 20
6.4601257934
 10
53.2968776513
 20
6.4503463942
 10
53.2832868382
 20
6.441329863
  0
LINE
  5
38C
100
AcDbEntity
  8
RACCORDO
100
AcDbLine
 62
250
  6
CONTINUOUS
 10
51.5536469001
 20
-64.3201861786
 11
51.5540562945
 21
-64.3128012663
  0
LWPOLYLINE
  5
38D
100
AcDbEntity
  8
RACCORDO
100
AcDbPolyline
 62
250
  6
CONTINUOUS
 90
8
 70
0
 10
51.4979247297
 20
-29.6930549176
 10
51.5131984605
 20
-29.6827798987
 10
51.5262840961
 20
-29.6715432173
 10
51.5370017176
 20
-29.6594993705
 10
51.5452039646
 20
-29.6468139533
 10
51.5507780616
 20
-29.6336613821
 10
51.5536473682
 20
-29.6202224961
 10
51.5540567696
 20
-29.6128375102
  0
LWPOLYLINE
  5
38E
100
AcDbEntity
  8
RACCORDO
100
AcDbPolyline
 62
7
  6
CONTINUOUS
 90
3
 70
0
 10
-51.0610843292
 20
65.2147117078
 10
-51.1139742367
 20
65.2239699586
 10
-51.1607461907
 20
65.2285760682
  0
LWPOLYLINE
  5
38F
100
AcDbEntity
  8
RACCORDO
100
AcDbPolyline
 62
250
  6
CONTINUOUS
 90
14
 70
0
 10
51.4852201172
 20
-64.5588283151
 10
51.487137686
 20
-64.5467643569
 10
51.4888455347
 20
-64.5349440478
 10
51.4903600698
 20
-64.5233618874
 10
51.4917076621
 20
-64.5119227994
 10
51.4928896472
 20
-64.500712445
 10
51.4939239324
 20
-64.4896637618
 10
51.4948464819
 20
-64.4784408287
 10
51.4956562733
 20
-64.4670330986
 10
51.4963487006
 20
-64.4554509129
 10
51.4969327725
 20
-64.4433745074
 10
51.4973976197
 20
-64.4306895627
 10
51.4977240613
 20
-64.4174951736
 10
51.497897576
 20
-64.4037848223
  0
LWPOLYLINE
  5
390
100
AcDbEntity
  8
RACCORDO
100
AcDbPolyline
 62
250
  6
CONTINUOUS
 90
5
 70
0
 10
51.4754440592
 20
-64.607968283
 10
51.4780548676
 20
-64.5963769059
 10
51.4806990886
 20
-64.5836232792
 10
51.483081916
 20
-64.5711034998
 10
51.4852201172
 20
-64.5588283151
  0
LWPOLYLINE
  5
391
100
AcDbEntity
  8
RACCORDO
100
AcDbPolyline
 62
7
  6
CONTINUOUS
 90
6
 70
0
 10
51.5104508965
 20
-64.6077948164
 10
51.5258274003
 20
-64.5554947884
 10
51.5379337072
 20
-64.5005594308
 10
51.5466406236
 20
-64.4434042652
 10
51.5519831203
 20
-64.384319724
 10
51.5540363093
 20
-64.3225074075
  0
LWPOLYLINE
  5
392
100
AcDbEntity
  8
RACCORDO
100
AcDbPolyline
 62
7
  6
CONTINUOUS
 90
3
 70
0
 10
51.4744553702
 20
-64.6952457625
 10
51.4919420158
 20
-64.6573167149
 10
51.5104508965
 20
-64.6077948164
  0
LWPOLYLINE
  5
393
100
AcDbEntity
  8
RACCORDO
100
AcDbPolyline
 62
250
  6
CONTINUOUS
 90
8
 70
0
 10
51.4978975747
 20
-64.4037848215
 10
51.5131721089
 20
-64.3933897749
 10
51.5262586497
 20
-64.3820107722
 10
51.5369772656
 20
-64.3698042588
 10
51.5451805827
 20
-64.35693805
 10
51.5507558108
 20
-64.3435890481
 10
51.553626294
 20
-64.3299408086
 10
51.5540356037
 20
-64.3227519288
  0
LWPOLYLINE
  5
394
100
AcDbEntity
  8
RACCORDO
100
AcDbPolyline
 62
250
  6
CONTINUOUS
 90
7
 70
0
 10
51.4979244528
 20
-64.3930183928
 10
51.5131981512
 20
-64.3827433939
 10
51.5262837509
 20
-64.3715067374
 10
51.5370013356
 20
-64.3594629213
 10
51.5452035479
 20
-64.346777541
 10
51.5507776151
 20
-64.3336250133
 10
51.5536469001
 20
-64.3201861786
  0
LWPOLYLINE
  5
395
100
AcDbEntity
  8
RACCORDO
100
AcDbPolyline
 62
7
  6
CONTINUOUS
 90
13
 70
0
 10
53.1452379618
 20
-63.198626816
 10
53.1670221799
 20
-63.1840721616
 10
53.1944779291
 20
-63.162225395
 10
53.2202860103
 20
-63.1373471401
 10
53.2442072208
 20
-63.109434865
 10
53.2659216793
 20
-63.0786219581
 10
53.2851068469
 20
-63.0451897186
 10
53.3015967662
 20
-63.0092755196
 10
53.315257455
 20
-62.9709912892
 10
53.3259472358
 20
-62.9305701533
 10
53.3335802468
 20
-62.8881375067
 10
53.3380915724
 20
-62.8437654587
 10
53.339418878
 20
-62.8021579801
  0
LINE
  5
396
100
AcDbEntity
  8
RACCORDO
100
AcDbLine
 62
250
  6
CONTINUOUS
 10
53.2832868382
 20
-62.882372128
 11
51.5540563464
 21
-63.9517542031
  0
LINE
  5
397
100
AcDbEntity
  8
RACCORDO
100
AcDbLine
 62
7
  6
CONTINUOUS
 10
53.1454162675
 20
-63.1985166663
 11
51.5540563132
 21
-64.182637533
  0
LINE
  5
398
100
AcDbEntity
  8
RACCORDO
100
AcDbLine
 62
7
  6
CONTINUOUS
 10
51.4979244524
 20
-64.3944707071
 11
51.4754440592
 21
-64.4079392952
  0
LWPOLYLINE
  5
399
100
AcDbEntity
  8
RACCORDO
100
AcDbPolyline
 62
250
  6
CONTINUOUS
 90
17
 70
0
 10
49.9821687178
 20
-65.8928134041
 10
50.0090062944
 20
-65.8793658333
 10
50.0469058202
 20
-65.8567114326
 10
50.0828670395
 20
-65.8306732648
 10
50.1167374531
 20
-65.8013712318
 10
50.1482683006
 20
-65.7690860975
 10
50.1775782629
 20
-65.7337630331
 10
50.2049911041
 20
-65.6949078386
 10
50.2304377409
 20
-65.6523368681
 10
50.2536453926
 20
-65.6061851141
 10
50.2745105215
 20
-65.5562858174
 10
50.2928905282
 20
-65.5024708498
 10
50.3085268912
 20
-65.4449086093
 10
50.321163826
 20
-65.3839836386
 10
50.3306480381
 20
-65.3199246005
 10
50.3368757693
 20
-65.2527518478
 10
50.3397237583
 20
-65.1826146841
  0
LINE
  5
39A
100
AcDbEntity
  8
RACCORDO
100
AcDbLine
 62
250
  6
CONTINUOUS
 10
50.3397237583
 20
-65.1826146841
 11
51.4754440592
 21
-64.6574779337
  0
LINE
  5
39B
100
AcDbEntity
  8
RACCORDO
100
AcDbLine
 62
7
  6
CONTINUOUS
 10
49.9815438577
 20
-65.8931028497
 11
51.1252553276
 21
-65.3642711258
  0
ARC
  5
39C
100
AcDbEntity
  8
RACCORDO
100
AcDbCircle
 62
7
  6
CONTINUOUS
 10
-32.1199003051
 20
11.3740717991
 40
0.2
100
AcDbArc
 50
310.3324143868
 51
0.0008874324
  0
ARC
  5
39D
100
AcDbEntity
  8
RACCORDO
100
AcDbCircle
 62
7
  6
CONTINUOUS
 10
-32.1199003051
 20
27.371138859
 40
0.2
100
AcDbArc
 50
359.9943782842
 51
59.9984015651
  0
ARC
  5
39E
100
AcDbEntity
  8
RACCORDO
100
AcDbCircle
 62
7
  6
CONTINUOUS
 10
-30.1412433845
 20
-4.3626245529
 40
0.2
100
AcDbArc
 50
60.0036261221
 51
84.1851668267
  0
ELLIPSE
  5
39F
100
AcDbEntity
  8
RACCORDO
100
AcDbEllipse
 62
7
  6
CONTINUOUS
 10
-29.6601354624
 20
6.4711005383
 30
0.0
 11
0.2794702762
 21
-0.0619931167
 31
0.0
 40
0.2112759811
 41
-1.0041115231
 42
-0.2232016433
  0
ELLIPSE
  5
3A0
100
AcDbEntity
  8
RACCORDO
100
AcDbEllipse
 62
7
  6
CONTINUOUS
 10
-30.4778224497
 20
5.5263707956
 30
0.0
 11
0.4935667342
 21
0.8698228981
 31
0.0
 40
0.5722158713
 41
0.2575986682
 42
0.650282602
  0
ELLIPSE
  5
3A1
100
AcDbEntity
  8
RACCORDO
100
AcDbEllipse
 62
7
  6
CONTINUOUS
 10
-29.6601354624
 20
5.3487896785
 30
0.0
 11
0.2513937687
 21
0.2998440011
 31
0.0
 40
0.4094989963
 41
-1.5052842665
 42
0.0742383743
  0
ELLIPSE
  5
3A2
100
AcDbEntity
  8
RACCORDO
100
AcDbEllipse
 62
7
  6
CONTINUOUS
 10
-29.6601354624
 20
37.1911304734
 30
0.0
 11
0.2513937687
 21
0.2998440011
 31
0.0
 40
0.4094989963
 41
-1.5052842665
 42
-1.2154092701
  0
ELLIPSE
  5
3A3
100
AcDbEntity
  8
RACCORDO
100
AcDbEllipse
 62
7
  6
CONTINUOUS
 10
-31.6555409876
 20
9.1211246925
 30
0.0
 11
0.4935427458
 21
0.8697493807
 31
0.0
 40
0.5722728383
 41
-2.4913221255
 42
-2.3778749579
  0
ELLIPSE
  5
3A4
100
AcDbEntity
  8
RACCORDO
100
AcDbEllipse
 62
7
  6
CONTINUOUS
 10
-29.9975985109
 20
9.4068028836
 30
0.0
 11
0.1999930249
 21
-0.0029451872
 31
0.0
 40
0.5671391206
 41
-0.7683197657
 42
0.0083517522
  0
ELLIPSE
  5
3A5
100
AcDbEntity
  8
RACCORDO
100
AcDbEllipse
 62
7
  6
CONTINUOUS
 10
-30.4778224497
 20
36.8454824147
 30
0.0
 11
0.4935173262
 21
0.869738684
 31
0.0
 40
0.5723276047
 41
-2.2295706808
 42
-1.836886747
  0
ELLIPSE
  5
3A6
100
AcDbEntity
  8
RACCORDO
100
AcDbEllipse
 62
7
  6
CONTINUOUS
 10
-30.4778224497
 20
5.0031416198
 30
0.0
 11
0.4935173262
 21
0.869738684
 31
0.0
 40
0.5723276047
 41
-2.2295706808
 42
-1.836886747
  0
ELLIPSE
  5
3A7
100
AcDbEntity
  8
RACCORDO
100
AcDbEllipse
 62
7
  6
CONTINUOUS
 10
50.4133282947
 20
-64.0408664669
 30
0.0
 11
-0.752093153
 21
1.3025803154
 31
0.0
 40
0.5757524875
 41
-3.1938070556
 42
-2.3576120761
  0
ELLIPSE
  5
3A8
100
AcDbEntity
  8
RACCORDO
100
AcDbEllipse
 62
7
  6
CONTINUOUS
 10
50.4133282947
 20
5.3557456213
 30
0.0
 11
-0.7500365396
 21
1.2990170088
 31
0.0
 40
0.5789151826
 41
-2.3548735497
 42
-0.7868162787
  0
ELLIPSE
  5
3A9
100
AcDbEntity
  8
RACCORDO
100
AcDbEllipse
 62
7
  6
CONTINUOUS
 10
-51.1242942982
 20
63.9822963412
 30
0.0
 11
-0.752093153
 21
1.3025803154
 31
0.0
 40
0.5757524875
 41
-0.7840766935
 42
0.052214402
  0
ELLIPSE
  5
3AA
100
AcDbEntity
  8
RACCORDO
100
AcDbEllipse
 62
7
  6
CONTINUOUS
 10
-32.5818206982
 20
-3.568958768
 30
0.0
 11
-0.2500120911
 21
0.4330057209
 31
0.0
 40
0.5775075436
 41
0.7855021057
 42
2.355993846
  0
ENDSEC
  0
SECTION
  2
OBJECTS
  0
DICTIONARY
  5
C
100
AcDbDictionary
280
0
281
1
  3
ACAD_GROUP
350
D
  3
ACAD_MLINESTYLE
350
17
  3
ACAD_LAYOUT
350
1A
  3
ACAD_PLOTSETTINGS
350
19
  3
ACAD_PLOTSTYLENAME
350
E
  0
DICTIONARY
  5
D
102
{ACAD_REACTORS
330
C
102
}
100
AcDbDictionary
280
0
281
1
  0
ACDBDICTIONARYWDFLT
  5
E
102
{ACAD_REACTORS
330
C
102
}
100
AcDbDictionary
281
1
  3
Normal
350
F
100
AcDbDictionaryWithDefault
340
F
  0
DICTIONARY
  5
17
102
{ACAD_REACTORS
330
C
102
}
100
AcDbDictionary
280
0
281
1
  3
Standard
350
18
  0
DICTIONARY
  5
19
102
{ACAD_REACTORS
330
C
102
}
100
AcDbDictionary
281
1
  0
DICTIONARY
  5
1A
102
{ACAD_REACTORS
330
C
102
}
100
AcDbDictionary
281
1
  3
Model
350
3AB
  3
Layout1
350
3AC
  0
ACDBPLACEHOLDER
  5
F
102
{ACAD_REACTORS
330
E
102
}
  0
MLINESTYLE
  5
18
102
{ACAD_REACTORS
330
17
102
}
100
AcDbMlineStyle
  2
STANDARD
 70
0
  3

 62
256
 51
90.0
 52
90.0
 71
2
 49
0.5
 62
256
  6
BYLAYER
 49
-0.5
 62
256
  6
BYLAYER
  0
LAYOUT
  5
3AB
102
{ACAD_REACTORS
330
1A
102
}
100
AcDbPlotSettings
  1

  2
none_device
  4
ISO_A4_(297.00_x_210.00_MM)
  6

 40
0.0
 41
0.0
 42
0.0
 43
0.0
 44
297.0
 45
210.0
 46
0.0
 47
0.0
 48
0.0
 49
0.0
140
0.0
141
0.0
142
1.0
143
1.0
 70
1024
 72
1
 73
0
 74
0
  7

 75
0
147
1.0
148
0.0
149
0.0
100
AcDbLayout
  1
Model
 70
0
 71
0
 10
0.0
 20
0.0
 11
297.0
 21
210.0
 12
0.0
 22
0.0
 32
0.0
 14
0.0
 24
0.0
 34
0.0
 15
0.0
 25
0.0
 35
0.0
146
0.0
 13
0.0
 23
0.0
 33
0.0
 16
1.0
 26
0.0
 36
0.0
 17
0.0
 27
1.0
 37
0.0
 76
0
330
213
345
0
346
0
  0
LAYOUT
  5
3AC
102
{ACAD_REACTORS
330
1A
102
}
100
AcDbPlotSettings
  1

  2
none_device
  4
ISO_A4_(297.00_x_210.00_MM)
  6

 40
0.0
 41
0.0
 42
0.0
 43
0.0
 44
297.0
 45
210.0
 46
0.0
 47
0.0
 48
0.0
 49
0.0
140
0.0
141
0.0
142
1.0
143
1.0
 70
0
 72
1
 73
0
 74
0
  7

 75
0
147
1.0
148
0.0
149
0.0
100
AcDbLayout
  1
Layout1
 70
0
 71
1
 10
0.0
 20
0.0
 11
297.0
 21
210.0
 12
0.0
 22
0.0
 32
0.0
 14
0.0
 24
0.0
 34
0.0
 15
0.0
 25
0.0
 35
0.0
146
0.0
 13
0.0
 23
0.0
 33
0.0
 16
1.0
 26
0.0
 36
0.0
 17
0.0
 27
1.0
 37
0.0
 76
0
330
214
345
0
346
0
  0
ENDSEC
  0
EOF
