  0
SECTION
  2
HEADER
  9
$ACADVER
  1
AC1024
  9
$DWGCODEPAGE
  3
ANSI_1252
  9
$EXTMAX
 10
297.0
 20
210.0
 30
0.0
  9
$EXTMIN
 10
0.0
 20
0.0
 30
0.0
  9
$LIMMIN
 10
0.0
 20
0.0
  9
$LIMMAX
 10
297.0
 20
210.0
  9
$VIEWCTR
 10
148.5
 20
105.0
  9
$VIEWSIZE
 40
210.0
  9
$CLAYER
  8
0
  9
$LTSCALE
 40
16.335
  9
$CELTYPE
  6
BYLAYER
  9
$DIMSCALE
 40
1.0
  9
$DIMASZ
 40
3.0
  9
$DIMEXO
 40
0.5
  9
$DIMDLI
 40
11.286
  9
$DIMEXE
 40
1.5
  9
$DIMCEN
 40
2.673
  9
$DIMLFAC
 40
1.0
  9
$DIMBLK
  1
_FILLED
  9
$DIMALT
 70
0
  9
$DIMALTF
 40
0.0393700787
  9
$DIMTXT
 40
3.0
  9
$DIMTOL
 70
1
  9
$DIMLIM
 70
0
  9
$DIMTFAC
 40
1.0
  9
$DIMTP
 40
0.01
  9
$DIMTM
 40
0.01
  9
$DIMGAP
 40
0.625
  9
$DIMDSEP
 70
44
  9
$AUNITS
 70
0
  9
$PDMODE
 70
3
  9
$PDSIZE
 40
3.0
  9
$HANDSEED
  5
3AF
  9
$TILEMODE
 70
1
  9
$MEASUREMENT
 70
1
  9
$INSUNITS
 70
4
  0
ENDSEC
  0
SECTION
  2
CLASSES
  0
CLASS
  1
ACDBDICTIONARYWDFLT
  2
AcDbDictionaryWithDefault
  3
AutoCAD 2000
 90
0
 91
1
280
0
281
0
  0
CLASS
  1
ACDBPLACEHOLDER
  2
AcDbPlaceHolder
  3
AutoCAD 2000
 90
0
 91
1
280
0
281
0
  0
CLASS
  1
LAYOUT
  2
AcDbLayout
  3
AutoCAD 2000
 90
0
 91
0
280
0
281
0
  0
ENDSEC
  0
SECTION
  2
TABLES
  0
TABLE
  2
VPORT
  5
8
100
AcDbSymbolTable
 70
2
  0
VPORT
  5
1F4
100
AcDbSymbolTableRecord
100
AcDbViewportTableRecord
  2
*ACTIVE
 70
0
 10
0.0
 20
0.0
 11
1.0
 21
1.0
 12
148.5
 22
105.0
 13
0.0
 23
0.0
 14
1.0
 24
1.0
 15
0.0
 25
0.0
 16
0.0
 26
0.0
 36
1.0
 17
0.0
 27
0.0
 37
0.0
 40
210.0
 41
1.4142857143
 42
50.0
 43
0.0
 44
0.0
 50
0.0
 51
0.0
 71
0
 72
100
 73
1
 74
1
 75
0
 76
0
 77
0
 78
0
  0
ENDTAB
  0
TABLE
  2
LTYPE
  5
5
100
AcDbSymbolTable
 70
6
  0
LTYPE
  5
14
100
AcDbSymbolTableRecord
100
AcDbLinetypeTableRecord
  2
BYBLOCK
 70
0
  3

 72
65
 73
0
 40
0.0
  0
LTYPE
  5
15
100
AcDbSymbolTableRecord
100
AcDbLinetypeTableRecord
  2
BYLAYER
 70
0
  3

 72
65
 73
0
 40
0.0
  0
LTYPE
  5
16
100
AcDbSymbolTableRecord
100
AcDbLinetypeTableRecord
  2
CONTINUOUS
 70
64
  3
Solid line
 72
65
 73
0
 40
0.0
  0
LTYPE
  5
1F5
100
AcDbSymbolTableRecord
100
AcDbLinetypeTableRecord
  2
CENTER
 70
64
  3
____ _ ____ _ ____ _ ____ _ ____ _ ____ _ ____
 72
65
 73
4
 40
0.6
 49
0.375
 74
0
 49
-0.075
 74
0
 49
0.075
 74
0
 49
-0.075
 74
0
  0
LTYPE
  5
1F6
100
AcDbSymbolTableRecord
100
AcDbLinetypeTableRecord
  2
HIDDEN
 70
64
  3
- - - - - - - - - - - - - - - - - - - -
 72
65
 73
2
 40
0.2
 49
0.1
 74
0
 49
-0.1
 74
0
  0
LTYPE
  5
1F7
100
AcDbSymbolTableRecord
100
AcDbLinetypeTableRecord
  2
PHANTOM
 70
64
  3
_____ _ _ _____ _ _ _____ _ _ _____
 72
65
 73
6
 40
0.8
 49
0.45
 74
0
 49
-0.05
 74
0
 49
0.1
 74
0
 49
-0.05
 74
0
 49
0.1
 74
0
 49
-0.05
 74
0
  0
LTYPE
  5
1F8
100
AcDbSymbolTableRecord
100
AcDbLinetypeTableRecord
  2
DOT
 70
64
  3
. . . . . . . . . . . . . . . . . . . .
 72
65
 73
2
 40
0.2
 49
0.1
 74
0
 49
-0.1
 74
0
  0
LTYPE
  5
1F9
100
AcDbSymbolTableRecord
100
AcDbLinetypeTableRecord
  2
DASHED
 70
64
  3
- - - - - - - - - - - - - - - - - - - -
 72
65
 73
2
 40
0.2
 49
0.1
 74
0
 49
-0.1
 74
0
  0
ENDTAB
  0
TABLE
  2
LAYER
  5
2
100
AcDbSymbolTable
 70
36
  0
LAYER
  5
10
100
AcDbSymbolTableRecord
100
AcDbLayerTableRecord
  2
0
 70
0
 62
7
  6
CONTINUOUS
370
-3
390
F
  0
LAYER
  5
1FA
100
AcDbSymbolTableRecord
100
AcDbLayerTableRecord
  2
DEFAULT_1
 70
0
 62
7
  6
CENTER
370
-3
390
F
  0
LAYER
  5
1FB
100
AcDbSymbolTableRecord
100
AcDbLayerTableRecord
  2
DEFAULT_2
 70
0
 62
7
  6
HIDDEN
370
-3
390
F
  0
LAYER
  5
1FC
100
AcDbSymbolTableRecord
100
AcDbLayerTableRecord
  2
DEFAULT_3
 70
0
 62
7
  6
PHANTOM
370
-3
390
F
  0
LAYER
  5
1FD
100
AcDbSymbolTableRecord
100
AcDbLayerTableRecord
  2
ASSI
 70
0
 62
7
  6
CONTINUOUS
370
-3
390
F
  0
LAYER
  5
1FE
100
AcDbSymbolTableRecord
100
AcDbLayerTableRecord
  2
COORDINATE
 70
0
 62
7
  6
CONTINUOUS
370
-3
390
F
  0
LAYER
  5
1FF
100
AcDbSymbolTableRecord
100
AcDbLayerTableRecord
  2
COPY_PUBLISH
 70
0
 62
7
  6
CONTINUOUS
370
-3
390
F
  0
LAYER
  5
200
100
AcDbSymbolTableRecord
100
AcDbLayerTableRecord
  2
COSMETICI
 70
0
 62
7
  6
CONTINUOUS
370
-3
390
F
  0
LAYER
  5
201
100
AcDbSymbolTableRecord
100
AcDbLayerTableRecord
  2
CURVE
 70
0
 62
7
  6
CONTINUOUS
370
-3
390
F
  0
LAYER
  5
202
100
AcDbSymbolTableRecord
100
AcDbLayerTableRecord
  2
DRAFT
 70
0
 62
7
  6
CONTINUOUS
370
-3
390
F
  0
LAYER
  5
203
100
AcDbSymbolTableRecord
100
AcDbLayerTableRecord
  2
IMPORT_IGES
 70
0
 62
7
  6
CONTINUOUS
370
-3
390
F
  0
LAYER
  5
204
100
AcDbSymbolTableRecord
100
AcDbLayerTableRecord
  2
INTF_1
 70
0
 62
7
  6
CONTINUOUS
370
-3
390
F
  0
LAYER
  5
205
100
AcDbSymbolTableRecord
100
AcDbLayerTableRecord
  2
INTF_11
 70
0
 62
7
  6
CONTINUOUS
370
-3
390
F
  0
LAYER
  5
206
100
AcDbSymbolTableRecord
100
AcDbLayerTableRecord
  2
INTF_13
 70
0
 62
7
  6
CONTINUOUS
370
-3
390
F
  0
LAYER
  5
207
100
AcDbSymbolTableRecord
100
AcDbLayerTableRecord
  2
INTF_2
 70
0
 62
7
  6
CONTINUOUS
370
-3
390
F
  0
LAYER
  5
208
100
AcDbSymbolTableRecord
100
AcDbLayerTableRecord
  2
NONE
 70
0
 62
7
  6
CONTINUOUS
370
-3
390
F
  0
LAYER
  5
209
100
AcDbSymbolTableRecord
100
AcDbLayerTableRecord
  2
NOTE
 70
0
 62
7
  6
CONTINUOUS
370
-3
390
F
  0
LAYER
  5
20A
100
AcDbSymbolTableRecord
100
AcDbLayerTableRecord
  2
PIANI
 70
0
 62
7
  6
CONTINUOUS
370
-3
390
F
  0
LAYER
  5
20B
100
AcDbSymbolTableRecord
100
AcDbLayerTableRecord
  2
PUNTI
 70
0
 62
7
  6
CONTINUOUS
370
-3
390
F
  0
LAYER
  5
20C
100
AcDbSymbolTableRecord
100
AcDbLayerTableRecord
  2
RACCORDO
 70
0
 62
7
  6
CONTINUOUS
370
-3
390
F
  0
LAYER
  5
20D
100
AcDbSymbolTableRecord
100
AcDbLayerTableRecord
  2
SIMBOLI
 70
0
 62
7
  6
CONTINUOUS
370
-3
390
F
  0
LAYER
  5
20E
100
AcDbSymbolTableRecord
100
AcDbLayerTableRecord
  2
SMUSSO
 70
0
 62
7
  6
CONTINUOUS
370
-3
390
F
  0
LAYER
  5
20F
100
AcDbSymbolTableRecord
100
AcDbLayerTableRecord
  2
SUPERFICI
 70
0
 62
7
  6
CONTINUOUS
370
-3
390
F
  0
LAYER
  5
210
100
AcDbSymbolTableRecord
100
AcDbLayerTableRecord
  2
TRASH
 70
0
 62
7
  6
CONTINUOUS
370
-3
390
F
  0
ENDTAB
  0
TABLE
  2
STYLE
  5
3
100
AcDbSymbolTable
 70
1
  0
STYLE
  5
11
100
AcDbSymbolTableRecord
100
AcDbTextStyleTableRecord
  2
STANDARD
 70
0
 40
0.0
 41
0.8
 50
0.0
 71
0
 42
0.2
  3
txt
  4

  0
STYLE
  5
211
100
AcDbSymbolTableRecord
100
AcDbTextStyleTableRecord
  2
TEXTSTYLE_1
 70
0
 40
0.0
 41
0.8
 50
0.0
 71
0
 42
0.2
  3
gdt
  4

  0
ENDTAB
  0
TABLE
  2
VIEW
  5
6
100
AcDbSymbolTable
 70
0
  0
ENDTAB
  0
TABLE
  2
UCS
  5
7
100
AcDbSymbolTable
 70
0
  0
ENDTAB
  0
TABLE
  2
APPID
  5
9
100
AcDbSymbolTable
 70
1
  0
APPID
  5
212
100
AcDbSymbolTableRecord
100
AcDbRegAppTableRecord
  2
ACAD
 70
0
  0
ENDTAB
  0
TABLE
  2
BLOCK_RECORD
  5
1
100
AcDbSymbolTable
 70
0
  0
BLOCK_RECORD
  5
213
100
AcDbSymbolTableRecord
100
AcDbBlockTableRecord
  2
*Model_Space
  0
BLOCK_RECORD
  5
214
100
AcDbSymbolTableRecord
100
AcDbBlockTableRecord
  2
*Paper_Space
  0
BLOCK_RECORD
  5
215
100
AcDbSymbolTableRecord
100
AcDbBlockTableRecord
  2
_FILLED
  0
ENDTAB
  0
TABLE
  2
DIMSTYLE
  5
A
100
AcDbSymbolTable
 70
1
100
AcDbDimStyleTable
 71
0
  0
DIMSTYLE
105
216
100
AcDbSymbolTableRecord
100
AcDbDimStyleTableRecord
  2
STANDARD
 70
0
  3

  4

 40
1.0
 41
3.0
 42
0.5
 43
0.38
 44
1.5
 45
0.0
 46
0.0
 47
0.01
 48
0.01
140
3.0
141
0.09
142
0.0
143
25.4
144
1.0
145
0.0
146
1.0
147
0.625
 71
1
 72
0
 73
0
 74
0
 75
0
 76
0
 77
1
 78
8
 79
2
170
0
171
1
172
0
173
0
174
0
175
0
176
0
177
0
178
0
270
2
179
2
271
2
272
2
273
2
274
2
275
0
280
0
281
0
282
0
283
1
284
8
285
0
286
0
287
3
288
0
340
11
278
44
341
215
342
215
343
215
344
215
  0
ENDTAB
  0
ENDSEC
  0
SECTION
  2
BLOCKS
  0
BLOCK
  5
20
100
AcDbEntity
  8
0
100
AcDbBlockBegin
  2
*Model_Space
 70
0
 10
0.0
 20
0.0
 30
0.0
  3
*Model_Space
  1

  0
ENDBLK
  5
21
100
AcDbEntity
  8
0
100
AcDbBlockEnd
  0
BLOCK
  5
1C
100
AcDbEntity
  8
0
100
AcDbBlockBegin
  2
*Paper_Space
 70
0
 10
0.0
 20
0.0
 30
0.0
  3
*Paper_Space
  1

  0
ENDBLK
  5
1D
100
AcDbEntity
  8
0
100
AcDbBlockEnd
  0
BLOCK
  5
217
100
AcDbEntity
  8
0
100
AcDbBlockBegin
  2
_FILLED
 70
64
 10
0.0
 20
0.0
  3
_FILLED
  1

  0
SOLID
  5
218
100
AcDbEntity
  8
0
  6
BYBLOCK
 62
0
100
AcDbTrace
 10
0.0
 20
0.0
 11
-1.0
 21
0.3166666667
 12
-1.0
 22
-0.3166666667
 13
-1.0
 23
-0.3166666667
  0
ENDBLK
  5
219
100
AcDbEntity
  8
0
  6
BYBLOCK
 62
0
100
AcDbBlockEnd
  0
ENDSEC
  0
SECTION
  2
ENTITIES
  0
LWPOLYLINE
  5
21A
100
AcDbEntity
  8
RACCORDO
100
AcDbPolyline
 62
7
  6
CONTINUOUS
 90
15
 70
0
 10
-44.5292753853
 20
59.676226072
 10
-44.5818665051
 20
59.635994609
 10
-44.6297708459
 20
59.5930741879
 10
-44.6751480772
 20
59.5457238724
 10
-44.7175873859
 20
59.49408784
 10
-44.7566363509
 20
59.4384695531
 10
-44.7920527519
 20
59.3790144205
 10
-44.8236069343
 20
59.3159042861
 10
-44.8510190012
 20
59.2495171174
 10
-44.8741559955
 20
59.1800368991
 10
-44.8929265091
 20
59.1075901668
 10
-44.9072136878
 20
59.0324163176
 10
-44.9169422709
 20
58.9546640041
 10
-44.9220552218
 20
58.8744455281
 10
-44.922874174
 20
58.8262033933
  0
LINE
  5
21B
100
AcDbEntity
  8
RACCORDO
100
AcDbLine
 62
7
  6
CONTINUOUS
 10
-44.5297352907
 20
59.6759039007
 11
-43.4999329449
 21
60.4020318023
  0
LINE
  5
21C
100
AcDbEntity
  8
RACCORDO
100
AcDbLine
 62
250
  6
CONTINUOUS
 10
-43.735240013
 20
59.630837699
 11
-42.7126328608
 21
60.3518921699
  0
LINE
  5
21D
100
AcDbEntity
  8
RACCORDO
100
AcDbLine
 62
7
  6
CONTINUOUS
 10
-42.4736364111
 20
60.2398825472
 11
-42.4965612418
 21
60.2271351251
  0
LINE
  5
21E
100
AcDbEntity
  8
RACCORDO
100
AcDbLine
 62
7
  6
CONTINUOUS
 10
-40.6142948039
 20
61.0688242195
 11
-42.2622072098
 21
60.1826302561
  0
LINE
  5
21F
100
AcDbEntity
  8
RACCORDO
100
AcDbLine
 62
250
  6
CONTINUOUS
 10
-40.2715204559
 20
61.0301428096
 11
-42.0622221246
 21
60.0671614015
  0
LINE
  5
220
100
AcDbEntity
  8
RACCORDO
100
AcDbLine
 62
250
  6
CONTINUOUS
 10
-40.6142948039
 20
61.0688242195
 11
-40.609228436
 21
61.0714693242
  0
LWPOLYLINE
  5
221
100
AcDbEntity
  8
RACCORDO
100
AcDbPolyline
 62
250
  6
CONTINUOUS
 90
7
 70
0
 10
-42.4723785856
 20
60.2391568817
 10
-42.4558438912
 20
60.2472477936
 10
-42.4395704669
 20
60.2529630301
 10
-42.4237820617
 20
60.2562240081
 10
-42.4086957566
 20
60.2569858887
 10
-42.3945189787
 20
60.255238194
 10
-42.3814466495
 20
60.2510049504
  0
LWPOLYLINE
  5
222
100
AcDbEntity
  8
RACCORDO
100
AcDbPolyline
 62
250
  6
CONTINUOUS
 90
8
 70
0
 10
-42.4817163622
 20
60.2445167773
 10
-42.4650787893
 20
60.2525492475
 10
-42.4486827576
 20
60.2581947493
 10
-42.4327537085
 20
60.2613756662
 10
-42.4175106688
 20
60.2620482719
 10
-42.4031632197
 20
60.2602033205
 10
-42.3899086157
 20
60.2558661734
 10
-42.3834340577
 20
60.252601422
  0
LWPOLYLINE
  5
223
100
AcDbEntity
  8
RACCORDO
100
AcDbPolyline
 62
250
  6
CONTINUOUS
 90
11
 70
0
 10
-40.609228436
 20
61.0714693242
 10
-40.5815461645
 20
61.0833333257
 10
-40.5520872157
 20
61.0917652148
 10
-40.5210130752
 20
61.0966889235
 10
-40.4884240644
 20
61.0980510885
 10
-40.4544459875
 20
61.0957946208
 10
-40.419294303
 20
61.0898829725
 10
-40.383216524
 20
61.0803205847
 10
-40.346432746
 20
61.0671417776
 10
-40.3091300509
 20
61.0503922225
 10
-40.2715204228
 20
61.0301428274
  0
LWPOLYLINE
  5
224
100
AcDbEntity
  8
RACCORDO
100
AcDbPolyline
 62
7
  6
CONTINUOUS
 90
24
 70
0
 10
-44.9228344087
 20
-10.457187704
 10
-44.9196938352
 20
-10.5434222696
 10
-44.9116910786
 20
-10.6300819836
 10
-44.8990042695
 20
-10.7169964575
 10
-44.881808324
 20
-10.8039326764
 10
-44.8603166018
 20
-10.8905055907
 10
-44.8347106437
 20
-10.9764817491
 10
-44.8051434388
 20
-11.0617127826
 10
-44.7718120667
 20
-11.1458600729
 10
-44.7349159859
 20
-11.2286373371
 10
-44.6945747319
 20
-11.3099213354
 10
-44.6508863608
 20
-11.3895755728
 10
-44.6039858713
 20
-11.467384282
 10
-44.5539925686
 20
-11.5431236981
 10
-44.5009766912
 20
-11.6166424892
 10
-44.4449871855
 20
-11.6877728961
 10
-44.3861709985
 20
-11.7562039511
 10
-44.3247155005
 20
-11.8216029092
 10
-44.2606736789
 20
-11.8837611365
 10
-44.1941563021
 20
-11.9424061268
 10
-44.1253786444
 20
-11.9971676398
 10
-44.0544497774
 20
-12.047777344
 10
-43.9814312663
 20
-12.0939917197
 10
-43.9665824328
 20
-12.1026811728
  0
LWPOLYLINE
  5
225
100
AcDbEntity
  8
RACCORDO
100
AcDbPolyline
 62
250
  6
CONTINUOUS
 90
28
 70
0
 10
-44.7764275647
 20
-10.6506505626
 10
-44.7751367767
 20
-10.6993972778
 10
-44.7715486014
 20
-10.748797707
 10
-44.765663039
 20
-10.7988518501
 10
-44.7574494372
 20
-10.8496531505
 10
-44.7469384483
 20
-10.9011081649
 10
-44.7342220286
 20
-10.9529365628
 10
-44.7192719682
 20
-11.0052298949
 10
-44.702116477
 20
-11.0578966107
 10
-44.6829321415
 20
-11.1103817278
 10
-44.6617020174
 20
-11.1626694339
 10
-44.638443049
 20
-11.2147755414
 10
-44.6133826552
 20
-11.266192505
 10
-44.5865006206
 20
-11.3169181042
 10
-44.5578171607
 20
-11.3669545596
 10
-44.5276203412
 20
-11.4158009869
 10
-44.4959538941
 20
-11.4633847534
 10
-44.4627740875
 20
-11.5097784918
 10
-44.4282377918
 20
-11.5546992171
 10
-44.3922842571
 20
-11.5982195129
 10
-44.3549742332
 20
-11.6402667955
 10
-44.3166468403
 20
-11.6803403288
 10
-44.2772560858
 20
-11.7184441029
 10
-44.2368479622
 20
-11.7545741278
 10
-44.1958995669
 20
-11.7882176968
 10
-44.1545699325
 20
-11.8192039078
 10
-44.1127000265
 20
-11.847703663
 10
-44.0702898488
 20
-11.8737169624
  0
LINE
  5
226
100
AcDbEntity
  8
RACCORDO
100
AcDbLine
 62
7
  6
CONTINUOUS
 10
-44.9228741741
 20
58.8262094879
 11
-44.9228344087
 21
-10.457187704
  0
LINE
  5
227
100
AcDbEntity
  8
RACCORDO
100
AcDbLine
 62
7
  6
CONTINUOUS
 10
-44.9228741741
 20
-10.4465132839
 11
-44.9228740531
 21
-10.4463124258
  0
LWPOLYLINE
  5
228
100
AcDbEntity
  8
RACCORDO
100
AcDbPolyline
 62
250
  6
CONTINUOUS
 90
19
 70
0
 10
-44.0702898488
 20
59.0297084567
 10
-44.069032645
 20
59.0648309013
 10
-44.0652699611
 20
59.1011554017
 10
-44.0590285467
 20
59.1384236277
 10
-44.0503527798
 20
59.1763705365
 10
-44.0393043518
 20
59.214726255
 10
-44.0259618297
 20
59.2532179991
 10
-44.0104200955
 20
59.291572019
 10
-43.9927896733
 20
59.3295155409
 10
-43.9731959456
 20
59.3667787037
 10
-43.9517782556
 20
59.4030964906
 10
-43.9286889204
 20
59.4382106047
 10
-43.9040921522
 20
59.4718713021
 10
-43.8781628796
 20
59.503839183
 10
-43.8510855096
 20
59.5338868849
 10
-43.8230526234
 20
59.5618006937
 10
-43.7942635939
 20
59.5873820782
 10
-43.7649231669
 20
59.6104490998
 10
-43.735240013
 20
59.630837699
  0
LWPOLYLINE
  5
229
100
AcDbEntity
  8
RACCORDO
100
AcDbPolyline
 62
250
  6
CONTINUOUS
 90
11
 70
0
 10
-44.0702898488
 20
-11.8737169624
 10
-44.0690326161
 20
-11.9073879508
 10
-44.0652698593
 20
-11.9393676508
 10
-44.0590283391
 20
-11.9694286234
 10
-44.050352445
 20
-11.9973570756
 10
-44.03930388
 20
-12.0229543806
 10
-44.0259612212
 20
-12.0460384908
 10
-44.0104193612
 20
-12.0664452325
 10
-43.9927888337
 20
-12.0840294733
 10
-43.9731950265
 20
-12.0986661544
 10
-43.9667485383
 20
-12.102585393
  0
LINE
  5
22A
100
AcDbEntity
  8
RACCORDO
100
AcDbLine
 62
250
  6
CONTINUOUS
 10
-44.7764275647
 20
58.6220721912
 11
-44.7764275647
 21
-10.6506505626
  0
LINE
  5
22B
100
AcDbEntity
  8
RACCORDO
100
AcDbLine
 62
250
  6
CONTINUOUS
 10
-25.5310517831
 20
34.9063149298
 11
-25.5254929294
 21
34.9094481269
  0
LINE
  5
22C
100
AcDbEntity
  8
RACCORDO
100
AcDbLine
 62
7
  6
CONTINUOUS
 10
-25.5254929294
 20
34.9094481269
 11
-25.5253882495
 21
34.9095044684
  0
LINE
  5
22D
100
AcDbEntity
  8
RACCORDO
100
AcDbLine
 62
250
  6
CONTINUOUS
 10
-25.6317479999
 20
34.6790455217
 11
-25.3529202197
 21
34.8289900786
  0
LINE
  5
22E
100
AcDbEntity
  8
RACCORDO
100
AcDbLine
 62
7
  6
CONTINUOUS
 10
-24.1979189958
 20
32.8717094123
 11
-22.9224169987
 21
33.4256479802
  0
LWPOLYLINE
  5
22F
100
AcDbEntity
  8
RACCORDO
100
AcDbPolyline
 62
7
  6
CONTINUOUS
 90
11
 70
0
 10
-25.5316580029
 20
34.9070241479
 10
-25.5316236698
 20
34.9070344645
 10
-25.5296379127
 20
34.9072154491
 10
-25.5249626189
 20
34.907206377
 10
-25.5173276354
 20
34.9065082411
 10
-25.5065819475
 20
34.9046005584
 10
-25.4930968909
 20
34.9010949328
 10
-25.4775514644
 20
34.895838298
 10
-25.4603633805
 20
34.8887562832
 10
-25.441699001
 20
34.8797415066
 10
-25.424589705
 20
34.8703711513
  0
LINE
  5
230
100
AcDbEntity
  8
RACCORDO
100
AcDbLine
 62
7
  6
CONTINUOUS
 10
-21.5662042727
 20
32.5149436104
 11
-22.1723903547
 21
31.7511700899
  0
LWPOLYLINE
  5
231
100
AcDbEntity
  8
RACCORDO
100
AcDbPolyline
 62
7
  6
CONTINUOUS
 90
5
 70
0
 10
-24.1979189958
 20
28.7416029477
 10
-24.185884827
 20
28.7545229998
 10
-24.1154750616
 20
28.8252301213
 10
-24.0440214274
 20
28.8922138924
 10
-24.0263102827
 20
28.908098299
  0
LWPOLYLINE
  5
232
100
AcDbEntity
  8
RACCORDO
100
AcDbPolyline
 62
250
  6
CONTINUOUS
 90
8
 70
0
 10
-22.6114835684
 20
30.1656005062
 10
-22.6082685332
 20
30.1688560158
 10
-22.6032359602
 20
30.1763113597
 10
-22.5997452016
 20
30.1852829166
 10
-22.5978343966
 20
30.1956726653
 10
-22.5975244221
 20
30.2073670896
 10
-22.598818665
 20
30.2202384188
 10
-22.6017029846
 20
30.2341460237
  0
LWPOLYLINE
  5
233
100
AcDbEntity
  8
RACCORDO
100
AcDbPolyline
 62
250
  6
CONTINUOUS
 90
8
 70
0
 10
-24.0263000752
 20
28.9081131149
 10
-24.0230811113
 20
28.9113720319
 10
-24.0180484421
 20
28.9188273116
 10
-24.0145575869
 20
28.92779884
 10
-24.012646697
 20
28.9381886096
 10
-24.0123366635
 20
28.9498831151
 10
-24.0136308872
 20
28.9627545908
 10
-24.0165152405
 20
28.9766624113
  0
LWPOLYLINE
  5
234
100
AcDbEntity
  8
RACCORDO
100
AcDbPolyline
 62
250
  6
CONTINUOUS
 90
3
 70
0
 10
-24.0908872309
 20
28.9081285912
 10
-24.1635615746
 20
28.8366403071
 10
-24.1979189958
 20
28.8006050874
  0
LINE
  5
235
100
AcDbEntity
  8
RACCORDO
100
AcDbLine
 62
250
  6
CONTINUOUS
 10
-24.0165152405
 20
28.9766624113
 11
-24.0908872309
 21
28.9081285912
  0
LINE
  5
236
100
AcDbEntity
  8
RACCORDO
100
AcDbLine
 62
250
  6
CONTINUOUS
 10
-22.6017029846
 20
30.2341460237
 11
-24.0165152405
 21
28.9766624113
  0
LINE
  5
237
100
AcDbEntity
  8
RACCORDO
100
AcDbLine
 62
7
  6
CONTINUOUS
 10
-22.6114878194
 20
30.1655967273
 11
-24.0263000752
 21
28.9081131149
  0
LWPOLYLINE
  5
238
100
AcDbEntity
  8
RACCORDO
100
AcDbPolyline
 62
7
  6
CONTINUOUS
 90
7
 70
0
 10
-22.6114835684
 20
30.1656005062
 10
-22.5834429257
 20
30.18984042
 10
-22.5575861459
 20
30.2109986172
 10
-22.5317893411
 20
30.2309835291
 10
-22.5061060398
 20
30.2497760787
 10
-22.4805895827
 20
30.2673607538
 10
-22.4567246914
 20
30.282828074
  0
LWPOLYLINE
  5
239
100
AcDbEntity
  8
RACCORDO
100
AcDbPolyline
 62
250
  6
CONTINUOUS
 90
8
 70
0
 10
-20.2267359908
 20
31.683888813
 10
-20.2177405856
 20
31.6915992434
 10
-20.2100407056
 20
31.7010587582
 10
-20.2037206796
 20
31.7121637573
 10
-20.1988497244
 20
31.724792619
 10
-20.1954811865
 20
31.7388070324
 10
-20.1936519579
 20
31.7540535123
 10
-20.1933820724
 20
31.7703650797
  0
LWPOLYLINE
  5
23A
100
AcDbEntity
  8
RACCORDO
100
AcDbPolyline
 62
250
  6
CONTINUOUS
 90
5
 70
0
 10
-22.5492356265
 20
30.2787231982
 10
-22.5617975052
 20
30.2684133251
 10
-22.5747535862
 20
30.2575193774
 10
-22.5880554127
 20
30.2460969436
 10
-22.6017029846
 20
30.2341460237
  0
LINE
  5
23B
100
AcDbEntity
  8
RACCORDO
100
AcDbLine
 62
7
  6
CONTINUOUS
 10
-22.4313644335
 20
31.4966337183
 11
-24.1979189958
 21
30.1879402815
  0
LWPOLYLINE
  5
23C
100
AcDbEntity
  8
RACCORDO
100
AcDbPolyline
 62
250
  6
CONTINUOUS
 90
9
 70
0
 10
-22.4567145163
 20
30.2828344649
 10
-22.4538112611
 20
30.2847722743
 10
-22.4448158559
 20
30.2924827047
 10
-22.4371159759
 20
30.3019422195
 10
-22.4307959499
 20
30.3130472186
 10
-22.4259249947
 20
30.3256760803
 10
-22.4225564567
 20
30.3396904938
 10
-22.4207272282
 20
30.3549369737
 10
-22.4204573426
 20
30.3712485412
  0
LWPOLYLINE
  5
23D
100
AcDbEntity
  8
RACCORDO
100
AcDbPolyline
 62
7
  6
CONTINUOUS
 90
9
 70
0
 10
-20.229688433
 20
31.6819201343
 10
-20.2179372405
 20
31.6896904537
 10
-20.1990843695
 20
31.7038787129
 10
-20.1813375172
 20
31.7193866208
 10
-20.16458599
 20
31.7362504857
 10
-20.1488888488
 20
31.7543768374
 10
-20.1344596236
 20
31.7734631486
 10
-20.1212403899
 20
31.7935352305
 10
-20.1149177544
 20
31.8046331027
  0
LWPOLYLINE
  5
23E
100
AcDbEntity
  8
RACCORDO
100
AcDbPolyline
 62
250
  6
CONTINUOUS
 90
12
 70
0
 10
-22.4204573426
 20
30.3712485412
 10
-22.432190004
 20
30.363778553
 10
-22.4438666671
 20
30.356158637
 10
-22.4554873318
 20
30.3483887932
 10
-22.4670161322
 20
30.3404948362
 10
-22.4784889344
 20
30.3324509514
 10
-22.4900133359
 20
30.3241796949
 10
-22.501575611
 20
30.3157000351
 10
-22.5131894855
 20
30.3069930036
 10
-22.5250037346
 20
30.2979242518
 10
-22.5370194932
 20
30.2885045852
 10
-22.5492356265
 20
30.2787231982
  0
LINE
  5
23F
100
AcDbEntity
  8
RACCORDO
100
AcDbLine
 62
250
  6
CONTINUOUS
 10
-20.1933820724
 20
31.7703650797
 11
-22.4204573426
 21
30.3712485412
  0
LINE
  5
240
100
AcDbEntity
  8
RACCORDO
100
AcDbLine
 62
7
  6
CONTINUOUS
 10
-20.2296392461
 20
31.6819510035
 11
-22.4567145163
 21
30.2828344649
  0
LINE
  5
241
100
AcDbEntity
  8
RACCORDO
100
AcDbLine
 62
250
  6
CONTINUOUS
 10
-21.5662042727
 20
32.5149436104
 11
-21.4566246153
 21
32.5793178287
  0
LWPOLYLINE
  5
242
100
AcDbEntity
  8
RACCORDO
100
AcDbPolyline
 62
250
  6
CONTINUOUS
 90
10
 70
0
 10
-20.1459474002
 20
31.8225492313
 10
-20.1486993937
 20
31.817762131
 10
-20.153088916
 20
31.8108938579
 10
-20.1578385847
 20
31.8042309158
 10
-20.1629756815
 20
31.7977188074
 10
-20.1684729246
 20
31.7914120299
 10
-20.1742683788
 20
31.7855039334
 10
-20.1803413989
 20
31.7800589679
 10
-20.1867126301
 20
31.7750126833
 10
-20.1933820724
 20
31.7703650797
  0
LWPOLYLINE
  5
243
100
AcDbEntity
  8
RACCORDO
100
AcDbPolyline
 62
250
  6
CONTINUOUS
 90
7
 70
0
 10
-24.2340885869
 20
22.8062270753
 10
-24.2218787176
 20
22.8176565834
 10
-24.2120494909
 20
22.8298272441
 10
-24.2047338305
 20
22.8425744699
 10
-24.2000306681
 20
22.8557258767
 10
-24.1980036058
 20
22.8691036141
 10
-24.1979189968
 20
22.8724504263
  0
LWPOLYLINE
  5
244
100
AcDbEntity
  8
RACCORDO
100
AcDbPolyline
 62
250
  6
CONTINUOUS
 90
7
 70
0
 10
-24.001118676
 20
18.7758022062
 10
-23.9889088066
 20
18.7872317143
 10
-23.97907958
 20
18.7994023749
 10
-23.9717639196
 20
18.8121496008
 10
-23.9670607571
 20
18.8253010076
 10
-23.9650336948
 20
18.838678745
 10
-23.9649491445
 20
18.8419481358
  0
LWPOLYLINE
  5
245
100
AcDbEntity
  8
RACCORDO
100
AcDbPolyline
 62
250
  6
CONTINUOUS
 90
8
 70
0
 10
-24.001118676
 20
22.7118121393
 10
-23.9911233856
 20
22.7209337165
 10
-23.9826493486
 20
22.7305510694
 10
-23.9757690258
 20
22.7405797763
 10
-23.97054297
 20
22.7509269175
 10
-23.9670113634
 20
22.7615068106
 10
-23.9652019111
 20
22.7722427233
 10
-23.9649490877
 20
22.778027685
  0
LINE
  5
246
100
AcDbEntity
  8
RACCORDO
100
AcDbLine
 62
250
  6
CONTINUOUS
 10
-24.1624809418
 20
22.9427415682
 11
-24.1951598306
 21
22.9165943581
  0
LINE
  5
247
100
AcDbEntity
  8
RACCORDO
100
AcDbLine
 62
250
  6
CONTINUOUS
 10
-24.001118676
 20
22.7118121393
 11
-24.0337975647
 21
22.6856649292
  0
LWPOLYLINE
  5
248
100
AcDbEntity
  8
RACCORDO
100
AcDbPolyline
 62
250
  6
CONTINUOUS
 90
22
 70
0
 10
-24.0337975647
 20
22.6856649292
 10
-24.0490006904
 20
22.6743399528
 10
-24.0639043675
 20
22.6647448491
 10
-24.0785085963
 20
22.6568796181
 10
-24.0928734145
 20
22.6507314371
 10
-24.1069387843
 20
22.6463131288
 10
-24.1205245918
 20
22.6436631612
 10
-24.1336549037
 20
22.6428130689
 10
-24.1463056534
 20
22.6437313174
 10
-24.1582245268
 20
22.6463617713
 10
-24.1693642126
 20
22.6507305658
 10
-24.1797720222
 20
22.6568115658
 10
-24.1893375752
 20
22.6644702299
 10
-24.1980364936
 20
22.6736233983
 10
-24.2058931554
 20
22.6843542308
 10
-24.2128703147
 20
22.6967776655
 10
-24.2190333577
 20
22.7109640788
 10
-24.2243168981
 20
22.7268430944
 10
-24.2284875317
 20
22.744318521
 10
-24.231467457
 20
22.7633582948
 10
-24.2333344754
 20
22.7839944796
 10
-24.2340885869
 20
22.8062270753
  0
LWPOLYLINE
  5
249
100
AcDbEntity
  8
RACCORDO
100
AcDbPolyline
 62
250
  6
CONTINUOUS
 90
8
 70
0
 10
-0.1167024335
 20
35.7835200464
 10
-0.100167714
 20
35.7916109688
 10
-0.0838942716
 20
35.7973262069
 10
-0.0681058555
 20
35.8005871798
 10
-0.0530195462
 20
35.8013490514
 10
-0.0388427707
 20
35.7996013463
 10
-0.0257704505
 20
35.7953680945
 10
-0.0191657444
 20
35.7920280776
  0
LWPOLYLINE
  5
24A
100
AcDbEntity
  8
RACCORDO
100
AcDbPolyline
 62
250
  6
CONTINUOUS
 90
19
 70
0
 10
41.2370343003
 20
-60.3137454416
 10
41.2680810809
 20
-60.3302196427
 10
41.3014215228
 20
-60.3451248588
 10
41.3368185094
 20
-60.3583550842
 10
41.3740202979
 20
-60.3698162257
 10
41.41276231
 20
-60.3794267719
 10
41.452769013
 20
-60.3871183728
 10
41.49375588
 20
-60.3928363259
 10
41.5354314131
 20
-60.3965399651
 10
41.5774992167
 20
-60.3982029503
 10
41.6196601053
 20
-60.3978134543
 10
41.6616142314
 20
-60.3953742473
 10
41.703063218
 20
-60.3909026768
 10
41.7437122807
 20
-60.3844305445
 10
41.7832723239
 20
-60.3760038801
 10
41.8214619975
 20
-60.365682614
 10
41.858009697
 20
-60.3535401508
 10
41.892655496
 20
-60.3396628475
 10
41.9251529941
 20
-60.3241493991
  0
LWPOLYLINE
  5
24B
100
AcDbEntity
  8
RACCORDO
100
AcDbPolyline
 62
250
  6
CONTINUOUS
 90
28
 70
0
 10
40.5308965844
 20
-60.721381707
 10
40.5724683818
 20
-60.7438943162
 10
40.6134575257
 20
-60.7634177998
 10
40.6538640161
 20
-60.7799521578
 10
40.6937534524
 20
-60.7934998735
 10
40.7330602352
 20
-60.8040584637
 10
40.7715875662
 20
-60.8116204781
 10
40.8094006266
 20
-60.8161909786
 10
40.8464342352
 20
-60.8177649034
 10
40.8822960495
 20
-60.8163196166
 10
40.9169639022
 20
-60.8118227543
 10
40.9504599606
 20
-60.8043066805
 10
40.9824583839
 20
-60.7938458512
 10
41.0129471404
 20
-60.7804099772
 10
41.0419382618
 20
-60.7640293477
 10
41.0691420027
 20
-60.7448692864
 10
41.0945173271
 20
-60.7229565951
 10
41.1181052709
 20
-60.698264472
 10
41.1397391967
 20
-60.6708778351
 10
41.1594515879
 20
-60.6407452943
 10
41.177209961
 20
-60.6079182397
 10
41.1927502284
 20
-60.5726357598
 10
41.2060528471
 20
-60.534833465
 10
41.21713736
 20
-60.4945757449
 10
41.2257983078
 20
-60.4522948568
 10
41.2319672038
 20
-60.4081348864
 10
41.2357125347
 20
-60.361951748
 10
41.2370343003
 20
-60.3137454416
  0
LWPOLYLINE
  5
24C
100
AcDbEntity
  8
RACCORDO
100
AcDbPolyline
 62
7
  6
CONTINUOUS
 90
15
 70
0
 10
40.6344313101
 20
-60.9502463355
 10
40.6741298606
 20
-60.9723303008
 10
40.7463145013
 20
-61.0082724564
 10
40.8186790894
 20
-61.0389610276
 10
40.8910972798
 20
-61.0643893918
 10
40.9634031302
 20
-61.0845484169
 10
41.0353303034
 20
-61.0994175897
 10
41.1067230502
 20
-61.109012302
 10
41.1773544848
 20
-61.1133559845
 10
41.2467549203
 20
-61.1124989311
 10
41.3146499573
 20
-61.1065471755
 10
41.3807914748
 20
-61.0956401211
 10
41.444686453
 20
-61.0800172111
 10
41.5060008505
 20
-61.0599614336
 10
41.5674955429
 20
-61.0343932645
  0
LINE
  5
24D
100
AcDbEntity
  8
RACCORDO
100
AcDbLine
 62
7
  6
CONTINUOUS
 10
-43.9667485383
 20
-12.102585393
 11
40.6344379105
 21
-60.9502501466
  0
LINE
  5
24E
100
AcDbEntity
  8
RACCORDO
100
AcDbLine
 62
250
  6
CONTINUOUS
 10
-44.0702898488
 20
-11.8737169624
 11
40.5308965844
 21
-60.721381707
  0
LWPOLYLINE
  5
24F
100
AcDbEntity
  8
RACCORDO
100
AcDbPolyline
 62
250
  6
CONTINUOUS
 90
11
 70
0
 10
-44.7764275647
 20
-10.6506505626
 10
-44.8049596011
 20
-10.6327247349
 10
-44.8307743414
 20
-10.6134745744
 10
-44.8536881835
 20
-10.5930369803
 10
-44.8735381553
 20
-10.5715572971
 10
-44.8901830725
 20
-10.5491882828
 10
-44.903504544
 20
-10.526089022
 10
-44.9134078154
 20
-10.5024237921
 10
-44.9198224415
 20
-10.4783608979
 10
-44.922702788
 20
-10.4540714762
 10
-44.9228741741
 20
-10.4465132839
  0
LWPOLYLINE
  5
250
100
AcDbEntity
  8
RACCORDO
100
AcDbPolyline
 62
250
  6
CONTINUOUS
 90
25
 70
0
 10
-24.7138099833
 20
-7.738997708
 10
-24.7113983723
 20
-7.7704142681
 10
-24.7074144396
 20
-7.8023976395
 10
-24.7018998055
 20
-7.8347990904
 10
-24.6949117137
 20
-7.8673964586
 10
-24.6865071216
 20
-7.9001295532
 10
-24.6766987027
 20
-7.933101832
 10
-24.6654925836
 20
-7.9662425413
 10
-24.652943601
 20
-7.9993639322
 10
-24.639101547
 20
-8.0323960703
 10
-24.6240127977
 20
-8.065215675
 10
-24.6077247135
 20
-8.0976950166
 10
-24.5902852663
 20
-8.1297565796
 10
-24.5717734001
 20
-8.1612432846
 10
-24.5522344783
 20
-8.1920717379
 10
-24.5316492646
 20
-8.2222616891
 10
-24.5101204732
 20
-8.2516043269
 10
-24.4876746509
 20
-8.2800544801
 10
-24.4641234727
 20
-8.3078130705
 10
-24.4393626054
 20
-8.3348460207
 10
-24.4135804901
 20
-8.3607901193
 10
-24.387023168
 20
-8.385326778
 10
-24.359855064
 20
-8.408257545
 10
-24.3321380742
 20
-8.4294685354
 10
-24.3040024701
 20
-8.4488053908
  0
LINE
  5
251
100
AcDbEntity
  8
RACCORDO
100
AcDbLine
 62
250
  6
CONTINUOUS
 10
-26.0522775454
 20
-8.3319219555
 11
-26.0522775454
 21
34.6811644793
  0
LINE
  5
252
100
AcDbEntity
  8
RACCORDO
100
AcDbLine
 62
250
  6
CONTINUOUS
 10
-25.6317479999
 20
-8.3340409131
 11
-25.6317479999
 21
34.6790455217
  0
LINE
  5
253
100
AcDbEntity
  8
RACCORDO
100
AcDbLine
 62
7
  6
CONTINUOUS
 10
-24.9804767247
 20
-7.958006288
 11
-24.9804767247
 21
34.6139458724
  0
LINE
  5
254
100
AcDbEntity
  8
RACCORDO
100
AcDbLine
 62
250
  6
CONTINUOUS
 10
-24.7138096294
 20
34.4599756337
 11
-24.7138096294
 21
-7.7389975037
  0
LINE
  5
255
100
AcDbEntity
  8
RACCORDO
100
AcDbLine
 62
7
  6
CONTINUOUS
 10
-24.6870147102
 20
34.4445045832
 11
-24.6870147102
 21
-7.6812587904
  0
LWPOLYLINE
  5
256
100
AcDbEntity
  8
RACCORDO
100
AcDbPolyline
 62
250
  6
CONTINUOUS
 90
13
 70
0
 10
-25.6317478905
 20
34.6790455805
 10
-25.6312271233
 20
34.7052814822
 10
-25.6291727482
 20
34.7304460651
 10
-25.6256117764
 20
34.7544413761
 10
-25.6205867455
 20
34.7771448401
 10
-25.6141304167
 20
34.7985079445
 10
-25.6062461541
 20
34.8185378699
 10
-25.5969502624
 20
34.8371755151
 10
-25.5862924942
 20
34.8543062514
 10
-25.5743196725
 20
34.8698485669
 10
-25.5610798257
 20
34.8837386966
 10
-25.5466318287
 20
34.8959144124
 10
-25.5310517831
 20
34.9063149298
  0
LWPOLYLINE
  5
257
100
AcDbEntity
  8
RACCORDO
100
AcDbPolyline
 62
250
  6
CONTINUOUS
 90
25
 70
0
 10
-26.0522775454
 20
34.6811644793
 10
-26.0509723048
 20
34.7235911363
 10
-26.0473462665
 20
34.7639922968
 10
-26.0413994305
 20
34.8023679606
 10
-26.0330916119
 20
34.8388065186
 10
-26.0224629955
 20
34.87321958
 10
-26.009634136
 20
34.9053419728
 10
-25.9945721966
 20
34.9352077011
 10
-25.9773100141
 20
34.9627827608
 10
-25.9580666535
 20
34.9876999669
 10
-25.9368082663
 20
35.0099213453
 10
-25.9135687009
 20
35.0294848702
 10
-25.8886685679
 20
35.046137279
 10
-25.8621049534
 20
35.0598318211
 10
-25.8338807713
 20
35.0706152473
 10
-25.8043253735
 20
35.0783745469
 10
-25.7735190498
 20
35.0831152786
 10
-25.7413815106
 20
35.0848318838
 10
-25.7080012386
 20
35.0833946764
 10
-25.6732270214
 20
35.0787830465
 10
-25.6372100715
 20
35.0710176041
 10
-25.60049251
 20
35.0600304928
 10
-25.563255044
 20
35.045799094
 10
-25.5253169663
 20
35.0283460263
 10
-25.4866782771
 20
35.0076712899
  0
LWPOLYLINE
  5
258
100
AcDbEntity
  8
RACCORDO
100
AcDbPolyline
 62
250
  6
CONTINUOUS
 90
16
 70
0
 10
-25.4866782771
 20
-9.311568624
 10
-25.4855418114
 20
-9.2855921199
 10
-25.4821446046
 20
-9.2585816669
 10
-25.4765230769
 20
-9.2308266802
 10
-25.4687374811
 20
-9.202624551
 10
-25.4588712549
 20
-9.174277451
 10
-25.4470301236
 20
-9.1460890946
 10
-25.4333409743
 20
-9.1183615023
 10
-25.4179504905
 20
-9.0913917494
 10
-25.4010235727
 20
-9.065468775
 10
-25.3827415903
 20
-9.0408703178
 10
-25.3633004264
 20
-9.0178599187
 10
-25.3429083666
 20
-8.9966840877
 10
-25.3217838913
 20
-8.9775696922
 10
-25.3001533373
 20
-8.9607215224
 10
-25.2782484572
 20
-8.9463200809
  0
LINE
  5
259
100
AcDbEntity
  8
RACCORDO
100
AcDbLine
 62
250
  6
CONTINUOUS
 10
-23.9996336482
 20
10.7145950887
 11
-23.9954307305
 21
10.7798159537
  0
LWPOLYLINE
  5
25A
100
AcDbEntity
  8
RACCORDO
100
AcDbPolyline
 62
250
  6
CONTINUOUS
 90
15
 70
0
 10
-23.9954307305
 20
10.7798159537
 10
-23.9885099229
 20
10.8464176074
 10
-23.9788425476
 20
10.9145714676
 10
-23.9664572824
 20
10.9841061164
 10
-23.9514401607
 20
11.0545073013
 10
-23.9337676026
 20
11.1258672998
 10
-23.913463188
 20
11.1980938344
 10
-23.8906836898
 20
11.2703958195
 10
-23.8654580347
 20
11.3426917266
 10
-23.8377572959
 20
11.4150630844
 10
-23.8076514667
 20
11.486963393
 10
-23.7749741278
 20
11.5586870036
 10
-23.7398916985
 20
11.6299395652
 10
-23.7029734297
 20
11.6992915247
 10
-23.6644090714
 20
11.7662663644
  0
LWPOLYLINE
  5
25B
100
AcDbEntity
  8
RACCORDO
100
AcDbPolyline
 62
250
  6
CONTINUOUS
 90
16
 70
0
 10
-23.5817728362
 20
18.2236237453
 10
-23.5780664822
 20
18.2426781012
 10
-23.5760370533
 20
18.2622046149
 10
-23.57570484
 20
18.2820078372
 10
-23.5770731445
 20
18.3018895499
 10
-23.5801282487
 20
18.321650761
 10
-23.5848395553
 20
18.3410936956
 10
-23.5911598895
 20
18.3600237555
 10
-23.599025975
 20
18.3782514839
 10
-23.6083590741
 20
18.3955944697
 10
-23.6190657553
 20
18.4118791323
 10
-23.6310388542
 20
18.4269425078
 10
-23.6441585658
 20
18.4406338829
 10
-23.6582935951
 20
18.4528162392
 10
-23.6733024594
 20
18.463367637
 10
-23.6890349423
 20
18.4721824739
  0
LWPOLYLINE
  5
25C
100
AcDbEntity
  8
RACCORDO
100
AcDbPolyline
 62
250
  6
CONTINUOUS
 90
3
 70
0
 10
-24.2224280941
 20
6.3410688995
 10
-24.2160587918
 20
6.3685179269
 10
-24.2084295182
 20
6.3960721186
  0
LWPOLYLINE
  5
25D
100
AcDbEntity
  8
RACCORDO
100
AcDbPolyline
 62
250
  6
CONTINUOUS
 90
5
 70
0
 10
-24.2084295182
 20
6.3960721186
 10
-24.1995125097
 20
6.4238114755
 10
-24.1893355298
 20
6.4516559967
 10
-24.1780925054
 20
6.4790207545
 10
-24.165840032
 20
6.5057992099
  0
LINE
  5
25E
100
AcDbEntity
  8
RACCORDO
100
AcDbLine
 62
250
  6
CONTINUOUS
 10
-23.6644090714
 20
11.7662663644
 11
-23.6240088736
 21
11.8313406021
  0
LWPOLYLINE
  5
25F
100
AcDbEntity
  8
RACCORDO
100
AcDbPolyline
 62
7
  6
CONTINUOUS
 90
16
 70
0
 10
-23.5521654581
 20
11.8900746361
 10
-23.5183662987
 20
11.9443912863
 10
-23.4861469692
 20
12.0007077224
 10
-23.4556461329
 20
12.0587782142
 10
-23.4269983182
 20
12.1183287089
 10
-23.4003126491
 20
12.1791402587
 10
-23.3757071951
 20
12.2409564544
 10
-23.3533280035
 20
12.3034362698
 10
-23.3332794591
 20
12.3663287865
 10
-23.3156581427
 20
12.4293670466
 10
-23.3005823963
 20
12.4922081295
 10
-23.2881316445
 20
12.5545996726
 10
-23.2783777626
 20
12.6163232399
 10
-23.2714022009
 20
12.6771481141
 10
-23.2672680787
 20
12.7368560325
 10
-23.2660394858
 20
12.7900558572
  0
LWPOLYLINE
  5
260
100
AcDbEntity
  8
RACCORDO
100
AcDbPolyline
 62
250
  6
CONTINUOUS
 90
18
 70
0
 10
-23.5548974511
 20
11.9346858388
 10
-23.5291941648
 20
11.9758595881
 10
-23.5046629774
 20
12.0180354854
 10
-23.481265895
 20
12.061324549
 10
-23.4590409114
 20
12.1056157607
 10
-23.4381020085
 20
12.1505760658
 10
-23.4184555494
 20
12.1961372768
 10
-23.4000951709
 20
12.2423675813
 10
-23.3831157657
 20
12.2891384877
 10
-23.3674814148
 20
12.3364200711
 10
-23.3532280372
 20
12.3842422563
 10
-23.3405582819
 20
12.4325663274
 10
-23.329391261
 20
12.4817232998
 10
-23.3198078624
 20
12.531382158
 10
-23.3122534
 20
12.5805111389
 10
-23.3068763116
 20
12.6287663214
 10
-23.3035281593
 20
12.6764916266
 10
-23.3022089431
 20
12.7236870544
  0
LINE
  5
261
100
AcDbEntity
  8
RACCORDO
100
AcDbLine
 62
250
  6
CONTINUOUS
 10
-23.6240088736
 20
11.8313406021
 11
-23.5548974511
 21
11.9346858388
  0
LWPOLYLINE
  5
262
100
AcDbEntity
  8
RACCORDO
100
AcDbPolyline
 62
250
  6
CONTINUOUS
 90
7
 70
0
 10
-23.3022089431
 20
17.8555047714
 10
-23.2899992928
 20
17.8669340454
 10
-23.2801701541
 20
17.8791044949
 10
-23.2728544738
 20
17.8918515484
 10
-23.2681512114
 20
17.9050028362
 10
-23.2661240021
 20
17.9183805141
 10
-23.2660394819
 20
17.9216083047
  0
LWPOLYLINE
  5
263
100
AcDbEntity
  8
RACCORDO
100
AcDbPolyline
 62
250
  6
CONTINUOUS
 90
6
 70
0
 10
-23.3022089431
 20
12.7236870544
 10
-23.2899990737
 20
12.7351165625
 10
-23.2801698471
 20
12.7472872232
 10
-23.2728541867
 20
12.760034449
 10
-23.2681510242
 20
12.7731858558
 10
-23.2661239619
 20
12.7865635932
  0
LWPOLYLINE
  5
264
100
AcDbEntity
  8
RACCORDO
100
AcDbPolyline
 62
250
  6
CONTINUOUS
 90
6
 70
0
 10
-22.5426570821
 20
-8.9100919013
 10
-22.5430641586
 20
-8.9017799342
 10
-22.5436960186
 20
-8.895174105
 10
-22.5445467805
 20
-8.8903358945
 10
-22.5456085253
 20
-8.8873103313
 10
-22.5469595016
 20
-8.8861127014
  0
LWPOLYLINE
  5
265
100
AcDbEntity
  8
RACCORDO
100
AcDbPolyline
 62
250
  6
CONTINUOUS
 90
6
 70
0
 10
-21.8081812128
 20
-8.9848609206
 10
-21.8085882139
 20
-8.9765500115
 10
-21.8092199363
 20
-8.9699447435
 10
-21.8100705019
 20
-8.9651065787
 10
-21.8111319509
 20
-8.9620806184
 10
-21.8124760052
 20
-8.960882526
  0
LWPOLYLINE
  5
266
100
AcDbEntity
  8
RACCORDO
100
AcDbPolyline
 62
250
  6
CONTINUOUS
 90
9
 70
0
 10
-25.4866782771
 20
35.0076712899
 10
-25.4855418532
 20
34.9830075897
 10
-25.4821447576
 20
34.9599204577
 10
-25.4765233878
 20
34.9386572566
 10
-25.4687379728
 20
34.9194458069
 10
-25.4588719281
 20
34.9024919458
 10
-25.4470309613
 20
34.8879773224
 10
-25.4333419403
 20
34.8760574506
 10
-25.424589705
 20
34.8703711513
  0
LWPOLYLINE
  5
267
100
AcDbEntity
  8
RACCORDO
100
AcDbPolyline
 62
7
  6
CONTINUOUS
 90
12
 70
0
 10
-20.0683847981
 20
4.1917956291
 10
-20.0694682727
 20
4.2168150564
 10
-20.0728652791
 20
4.2421922685
 10
-20.0786069629
 20
4.2669879108
 10
-20.0866935914
 20
4.2909608828
 10
-20.0971140886
 20
4.3139498538
 10
-20.1097911588
 20
4.3356821368
 10
-20.1246025082
 20
4.3558967894
 10
-20.141389508
 20
4.3743717598
 10
-20.1599097833
 20
4.3908636495
 10
-20.179890231
 20
4.4051825383
 10
-20.1889177039
 20
4.4106705565
  0
LWPOLYLINE
  5
268
100
AcDbEntity
  8
RACCORDO
100
AcDbPolyline
 62
250
  6
CONTINUOUS
 90
19
 70
0
 10
-20.1257347082
 20
4.1108544049
 10
-20.1260350557
 20
4.1178004541
 10
-20.1268012919
 20
4.1242629336
 10
-20.1280334167
 20
4.1302418436
 10
-20.129745089
 20
4.1357485203
 10
-20.1319226499
 20
4.1407716275
 10
-20.1345251234
 20
4.1452771558
 10
-20.1375617298
 20
4.1492791122
 10
-20.1410232488
 20
4.1527634897
 10
-20.1448410427
 20
4.1556542586
 10
-20.1490013553
 20
4.1579438202
 10
-20.1535179428
 20
4.1596397733
 10
-20.1583634362
 20
4.1606888845
 10
-20.1635622905
 20
4.1610951936
 10
-20.1690900507
 20
4.1608546609
 10
-20.1748459824
 20
4.1599019337
 10
-20.1807965075
 20
4.1582152278
 10
-20.1869752042
 20
4.1558163274
 10
-20.1933820724
 20
4.1527052326
  0
LWPOLYLINE
  5
269
100
AcDbEntity
  8
RACCORDO
100
AcDbPolyline
 62
250
  6
CONTINUOUS
 90
5
 70
0
 10
-24.001118676
 20
22.7118121393
 10
-24.0018108024
 20
22.7294196197
 10
-24.0042919703
 20
22.7475603718
 10
-24.0085349702
 20
22.7660354568
 10
-24.0144939257
 20
22.7846440589
  0
LWPOLYLINE
  5
26A
100
AcDbEntity
  8
RACCORDO
100
AcDbPolyline
 62
250
  6
CONTINUOUS
 90
15
 70
0
 10
-24.0337975647
 20
22.6856649292
 10
-24.0344858991
 20
22.7032296353
 10
-24.0369547841
 20
22.7213255213
 10
-24.0411772694
 20
22.7397550858
 10
-24.0471072658
 20
22.7583171856
 10
-24.0546800486
 20
22.7768092332
 10
-24.063812965
 20
22.7950294072
 10
-24.0744063341
 20
22.8127788524
 10
-24.0863445366
 20
22.8298638529
 10
-24.0994972782
 20
22.8460979472
 10
-24.1137210077
 20
22.8613039579
 10
-24.1288604859
 20
22.8753159296
 10
-24.1447504833
 20
22.887980941
 10
-24.1612175775
 20
22.8991607693
 10
-24.178082046
 20
22.9087333994
  0
LWPOLYLINE
  5
26B
100
AcDbEntity
  8
RACCORDO
100
AcDbPolyline
 62
7
  6
CONTINUOUS
 90
15
 70
0
 10
-20.0683848022
 20
0.8381516276
 10
-20.0692468285
 20
0.866725139
 10
-20.0721759285
 20
0.8973806996
 10
-20.0771456736
 20
0.9270047783
 10
-20.0841445655
 20
0.9555703159
 10
-20.0931550566
 20
0.9830122218
 10
-20.1041398811
 20
1.0092307208
 10
-20.1170479128
 20
1.0341040921
 10
-20.1318106257
 20
1.0575010204
 10
-20.148347588
 20
1.0793100678
 10
-20.1665405675
 20
1.0993989005
 10
-20.1862521326
 20
1.11764387
 10
-20.2073339796
 20
1.1339389773
 10
-20.2296010481
 20
1.1481858226
 10
-20.2322567207
 20
1.1497055571
  0
LWPOLYLINE
  5
26C
100
AcDbEntity
  8
RACCORDO
100
AcDbPolyline
 62
250
  6
CONTINUOUS
 90
3
 70
0
 10
-23.3022089431
 20
17.8555047714
 10
-23.3032741416
 20
17.8966431311
 10
-23.3060772333
 20
17.935510171
  0
LWPOLYLINE
  5
26D
100
AcDbEntity
  8
RACCORDO
100
AcDbPolyline
 62
7
  6
CONTINUOUS
 90
14
 70
0
 10
-23.2660394819
 20
17.9216083047
 10
-23.267290136
 20
17.9736205262
 10
-23.2717317242
 20
18.0303631245
 10
-23.2793596073
 20
18.0844561257
 10
-23.2901595086
 20
18.135805746
 10
-23.3041326704
 20
18.1844002494
 10
-23.3213350784
 20
18.2302591826
 10
-23.3417815452
 20
18.2732295453
 10
-23.365398756
 20
18.3130315727
 10
-23.3922153214
 20
18.3495791128
 10
-23.4221197105
 20
18.3826016611
 10
-23.454601473
 20
18.4115647396
 10
-23.4894081483
 20
18.4363593501
 10
-23.5025790948
 20
18.4443171834
  0
LWPOLYLINE
  5
26E
100
AcDbEntity
  8
RACCORDO
100
AcDbPolyline
 62
250
  6
CONTINUOUS
 90
16
 70
0
 10
-22.4204573426
 20
2.9347688954
 10
-22.4207272326
 20
2.9525677731
 10
-22.4225564768
 20
2.9710581546
 10
-22.4259250381
 20
2.9900375311
 10
-22.4307960205
 20
3.0092980387
 10
-22.4371160739
 20
3.0286287362
 10
-22.444815979
 20
3.0478179157
 10
-22.4538114038
 20
3.0666554178
 10
-22.4640038286
 20
3.084934936
 10
-22.4752816261
 20
3.1024562775
 10
-22.4875212808
 20
3.1190275506
 10
-22.5005887438
 20
3.1344672694
 10
-22.514340903
 20
3.1486063437
 10
-22.5286271462
 20
3.1612899254
 10
-22.5432910104
 20
3.1723791053
 10
-22.5581718983
 20
3.1817524369
  0
LWPOLYLINE
  5
26F
100
AcDbEntity
  8
RACCORDO
100
AcDbPolyline
 62
250
  6
CONTINUOUS
 90
16
 70
0
 10
-20.1933820724
 20
4.1527052326
 10
-20.1936519579
 20
4.1705040338
 10
-20.1954811865
 20
4.1889943469
 10
-20.1988497244
 20
4.2079736667
 10
-20.2037206796
 20
4.2272341324
 10
-20.2100407056
 20
4.2465648039
 10
-20.2177405856
 20
4.2657539724
 10
-20.2267359908
 20
4.2845914789
 10
-20.2369284038
 20
4.3028710156
 10
-20.2482061978
 20
4.3203923857
 10
-20.2604458586
 20
4.3369636957
 10
-20.273513338
 20
4.3524034572
 10
-20.2872655214
 20
4.3665425745
 10
-20.3015517954
 20
4.3792261966
 10
-20.3162156971
 20
4.3903154127
 10
-20.3310966281
 20
4.3996887742
  0
LWPOLYLINE
  5
270
100
AcDbEntity
  8
RACCORDO
100
AcDbPolyline
 62
7
  6
CONTINUOUS
 90
12
 70
0
 10
-21.8361517511
 20
5.2124769105
 10
-21.8362158719
 20
5.2185912069
 10
-21.8379236673
 20
5.2443909031
 10
-21.8419892655
 20
5.2698160922
 10
-21.8484380503
 20
5.2945914149
 10
-21.857259384
 20
5.3184624282
 10
-21.8684276888
 20
5.3412556885
 10
-21.8818602092
 20
5.3627128822
 10
-21.8974221576
 20
5.3825679279
 10
-21.9149416701
 20
5.4005941435
 10
-21.934179689
 20
5.416564642
 10
-21.9567410804
 20
5.431390174
  0
LINE
  5
271
100
AcDbEntity
  8
RACCORDO
100
AcDbLine
 62
250
  6
CONTINUOUS
 10
-24.2923310647
 20
-7.2129160317
 11
-24.2923310647
 21
-6.9476778845
  0
LINE
  5
272
100
AcDbEntity
  8
RACCORDO
100
AcDbLine
 62
7
  6
CONTINUOUS
 10
-24.2561614735
 20
-7.1466808626
 11
-24.2561614735
 21
-6.8814427132
  0
LINE
  5
273
100
AcDbEntity
  8
RACCORDO
100
AcDbLine
 62
250
  6
CONTINUOUS
 10
-24.2340885869
 20
-6.5437602998
 11
-24.2340885869
 21
6.2361186076
  0
LINE
  5
274
100
AcDbEntity
  8
RACCORDO
100
AcDbLine
 62
250
  6
CONTINUOUS
 10
-24.2340885869
 20
22.8062270753
 11
-24.2340885869
 21
34.1829907161
  0
LINE
  5
275
100
AcDbEntity
  8
RACCORDO
100
AcDbLine
 62
7
  6
CONTINUOUS
 10
-24.1979189958
 20
-6.4775251306
 11
-24.1979189958
 21
6.3023537745
  0
LINE
  5
276
100
AcDbEntity
  8
RACCORDO
100
AcDbLine
 62
7
  6
CONTINUOUS
 10
-24.1979189958
 20
22.8724622445
 11
-24.1979189958
 21
34.1621068475
  0
LINE
  5
277
100
AcDbEntity
  8
RACCORDO
100
AcDbLine
 62
250
  6
CONTINUOUS
 10
-24.001118676
 20
6.7147450794
 11
-24.001118676
 21
10.6507550124
  0
LINE
  5
278
100
AcDbEntity
  8
RACCORDO
100
AcDbLine
 62
250
  6
CONTINUOUS
 10
-24.001118676
 20
18.7758022062
 11
-24.001118676
 21
22.7118121393
  0
LINE
  5
279
100
AcDbEntity
  8
RACCORDO
100
AcDbLine
 62
7
  6
CONTINUOUS
 10
-23.9649490848
 20
6.7809802485
 11
-23.9649490848
 21
10.7169901817
  0
LINE
  5
27A
100
AcDbEntity
  8
RACCORDO
100
AcDbLine
 62
7
  6
CONTINUOUS
 10
-23.9649490848
 20
18.8420373754
 11
-23.9649490848
 21
22.7780473084
  0
LINE
  5
27B
100
AcDbEntity
  8
RACCORDO
100
AcDbLine
 62
250
  6
CONTINUOUS
 10
-23.3022089431
 20
12.7236870544
 11
-23.3022089431
 21
17.8555047714
  0
LINE
  5
27C
100
AcDbEntity
  8
RACCORDO
100
AcDbLine
 62
7
  6
CONTINUOUS
 10
-23.2660393519
 20
12.7899222236
 11
-23.2660393519
 21
17.9217399422
  0
LINE
  5
27D
100
AcDbEntity
  8
RACCORDO
100
AcDbLine
 62
250
  6
CONTINUOUS
 10
-21.8935016612
 20
5.1315408883
 11
-21.8935016612
 21
4.7365636935
  0
LINE
  5
27E
100
AcDbEntity
  8
RACCORDO
100
AcDbLine
 62
7
  6
CONTINUOUS
 10
-21.836151751
 20
5.2124801332
 11
-21.836151751
 21
4.8155123394
  0
LINE
  5
27F
100
AcDbEntity
  8
RACCORDO
100
AcDbLine
 62
250
  6
CONTINUOUS
 10
-20.1257347082
 20
0.7572360589
 11
-20.1257347082
 21
0.0493680382
  0
LINE
  5
280
100
AcDbEntity
  8
RACCORDO
100
AcDbLine
 62
250
  6
CONTINUOUS
 10
-20.1257347082
 20
3.4029863842
 11
-20.1257347082
 21
4.1108544049
  0
LINE
  5
281
100
AcDbEntity
  8
RACCORDO
100
AcDbLine
 62
7
  6
CONTINUOUS
 10
-20.068384798
 20
0.8381753039
 11
-20.068384798
 21
0.1303072793
  0
LINE
  5
282
100
AcDbEntity
  8
RACCORDO
100
AcDbLine
 62
7
  6
CONTINUOUS
 10
-20.068384798
 20
3.4839256291
 11
-20.068384798
 21
4.1917936768
  0
LINE
  5
283
100
AcDbEntity
  8
RACCORDO
100
AcDbLine
 62
7
  6
CONTINUOUS
 10
-23.2660394819
 20
17.9216083047
 11
-23.2660393519
 21
17.9217399422
  0
LWPOLYLINE
  5
284
100
AcDbEntity
  8
RACCORDO
100
AcDbPolyline
 62
7
  6
CONTINUOUS
 90
21
 70
0
 10
-23.9649491055
 20
10.7170426349
 10
-23.9648004725
 20
10.7357552605
 10
-23.9629183204
 20
10.7878539895
 10
-23.9588388927
 20
10.8422153756
 10
-23.9525296403
 20
10.8985552199
 10
-23.9439780181
 20
10.9565847721
 10
-23.9331908251
 20
11.0160420277
 10
-23.9201878954
 20
11.0766572499
 10
-23.9049994826
 20
11.1381670998
 10
-23.8876616817
 20
11.2003389482
 10
-23.8682268987
 20
11.2629056404
 10
-23.8467646909
 20
11.3255768518
 10
-23.8233496125
 20
11.3880948307
 10
-23.7980790206
 20
11.4501695869
 10
-23.7710484822
 20
11.5115390947
 10
-23.7423405757
 20
11.5719934052
 10
-23.7120719208
 20
11.6312666429
 10
-23.6803648621
 20
11.6890987757
 10
-23.6473311389
 20
11.7452707049
 10
-23.6131269188
 20
11.7995113634
 10
-23.5521654581
 20
11.8900746361
  0
LINE
  5
285
100
AcDbEntity
  8
RACCORDO
100
AcDbLine
 62
250
  6
CONTINUOUS
 10
-24.2341575321
 20
-6.5518504237
 11
-24.2340885869
 21
-6.5437602998
  0
LWPOLYLINE
  5
286
100
AcDbEntity
  8
RACCORDO
100
AcDbPolyline
 62
7
  6
CONTINUOUS
 90
9
 70
0
 10
-24.256161481
 20
-6.8814112498
 10
-24.2560138144
 20
-6.8679640889
 10
-24.2549013505
 20
-6.8412040515
 10
-24.2526268277
 20
-6.812677222
 10
-24.2491239177
 20
-6.7825731513
 10
-24.2443396769
 20
-6.7510448228
 10
-24.2382269471
 20
-6.7182171833
 10
-24.2307490479
 20
-6.6842336258
 10
-24.2222526871
 20
-6.6506360047
  0
LWPOLYLINE
  5
287
100
AcDbEntity
  8
RACCORDO
100
AcDbPolyline
 62
250
  6
CONTINUOUS
 90
5
 70
0
 10
-24.2923310647
 20
-6.9476778845
 10
-24.2919620852
 20
-6.920583835
 10
-24.2905822269
 20
-6.8923667937
 10
-24.2881914899
 20
-6.8630267607
 10
-24.2848290327
 20
-6.8325070012
  0
LWPOLYLINE
  5
288
100
AcDbEntity
  8
RACCORDO
100
AcDbPolyline
 62
7
  6
CONTINUOUS
 90
23
 70
0
 10
-24.1979189962
 20
6.3023466318
 10
-24.1977710186
 20
6.3103208061
 10
-24.1971206458
 20
6.3214791453
 10
-24.1958593572
 20
6.334029144
 10
-24.1939045638
 20
6.3478670573
 10
-24.1911914548
 20
6.3628783646
 10
-24.187676101
 20
6.3788765172
 10
-24.1833244988
 20
6.3957068149
 10
-24.1781185603
 20
6.4132160554
 10
-24.1720636572
 20
6.4312060779
 10
-24.1651578579
 20
6.4495248351
 10
-24.1574539008
 20
6.4679234818
 10
-24.1490851103
 20
6.4860374928
 10
-24.1401227871
 20
6.5036866323
 10
-24.1306856377
 20
6.5206367294
 10
-24.1210471213
 20
6.5364592258
 10
-24.1113423123
 20
6.5510282056
 10
-24.1017413831
 20
6.5641957117
 10
-24.0926343826
 20
6.5755929057
 10
-24.0842029524
 20
6.5852008279
 10
-24.0766106004
 20
6.5930457997
 10
-24.0702133557
 20
6.5990146696
 10
-24.0681729162
 20
6.6007825135
  0
LINE
  5
289
100
AcDbEntity
  8
RACCORDO
100
AcDbLine
 62
250
  6
CONTINUOUS
 10
-24.001118676
 20
10.6507550124
 11
-23.9996336482
 21
10.7145950887
  0
LINE
  5
28A
100
AcDbEntity
  8
RACCORDO
100
AcDbLine
 62
250
  6
CONTINUOUS
 10
-24.1980036058
 20
-6.4808837611
 11
-24.1979189958
 21
-6.4775251306
  0
LWPOLYLINE
  5
28B
100
AcDbEntity
  8
RACCORDO
100
AcDbPolyline
 62
250
  6
CONTINUOUS
 90
5
 70
0
 10
-24.2340885869
 20
6.2361186076
 10
-24.2332385954
 20
6.2616523029
 10
-24.2310179959
 20
6.2876360875
 10
-24.2274267884
 20
6.3140699614
 10
-24.2224280941
 20
6.3410688995
  0
LWPOLYLINE
  5
28C
100
AcDbEntity
  8
RACCORDO
100
AcDbPolyline
 62
250
  6
CONTINUOUS
 90
9
 70
0
 10
-21.8361517511
 20
5.2124769104
 10
-21.8363792909
 20
5.2069732918
 10
-21.8384529736
 20
5.1950129129
 10
-21.8426687071
 20
5.1832417899
 10
-21.8489808142
 20
5.171787462
 10
-21.8573209036
 20
5.1607740361
 10
-21.8675986113
 20
5.1503208417
 10
-21.879702579
 20
5.1405411383
 10
-21.8935016612
 20
5.1315408883
  0
LWPOLYLINE
  5
28D
100
AcDbEntity
  8
RACCORDO
100
AcDbPolyline
 62
250
  6
CONTINUOUS
 90
9
 70
0
 10
-20.068384798
 20
0.1303072793
 10
-20.0686123343
 20
0.1248004823
 10
-20.0706860093
 20
0.112840102
 10
-20.0749017364
 20
0.1010689756
 10
-20.0812138393
 20
0.0896146427
 10
-20.0895539277
 20
0.0786012101
 10
-20.0998316383
 20
0.068148008
 10
-20.1119356135
 20
0.0583682964
 10
-20.1257347082
 20
0.0493680382
  0
LWPOLYLINE
  5
28E
100
AcDbEntity
  8
RACCORDO
100
AcDbPolyline
 62
250
  6
CONTINUOUS
 90
9
 70
0
 10
-20.0683848022
 20
0.8381516276
 10
-20.0686123379
 20
0.8326684624
 10
-20.0706860207
 20
0.8207080835
 10
-20.0749017541
 20
0.8089369605
 10
-20.0812138612
 20
0.7974826327
 10
-20.0895539507
 20
0.7864692068
 10
-20.0998316583
 20
0.7760160123
 10
-20.111935626
 20
0.7662363089
 10
-20.1257347082
 20
0.7572360589
  0
LWPOLYLINE
  5
28F
100
AcDbEntity
  8
RACCORDO
100
AcDbPolyline
 62
250
  6
CONTINUOUS
 90
7
 70
0
 10
-24.0337975647
 20
6.6869986085
 10
-24.0344858908
 20
6.6704961225
 10
-24.0369547515
 20
6.6548966362
 10
-24.0411772018
 20
6.6403704027
 10
-24.0471071577
 20
6.6270759615
 10
-24.0546798996
 20
6.6151584082
 10
-24.0638127785
 20
6.6047478111
  0
LWPOLYLINE
  5
290
100
AcDbEntity
  8
RACCORDO
100
AcDbPolyline
 62
250
  6
CONTINUOUS
 90
7
 70
0
 10
-24.001118676
 20
6.7147450794
 10
-24.0018108644
 20
6.6982033776
 10
-24.0042922258
 20
6.6825695438
 10
-24.0085355352
 20
6.6680150314
 10
-24.0144948752
 20
6.6546982813
 10
-24.0221045535
 20
6.642766762
 10
-24.0306408486
 20
6.6330775911
  0
LWPOLYLINE
  5
291
100
AcDbEntity
  8
RACCORDO
100
AcDbPolyline
 62
250
  6
CONTINUOUS
 90
19
 70
0
 10
-20.1257347082
 20
0.0493680382
 10
-20.1260708166
 20
0.0418909132
 10
-20.1268584179
 20
0.0344213885
 10
-20.128097512
 20
0.0269594642
 10
-20.1298015552
 20
0.0195007862
 10
-20.1319570913
 20
0.0120497086
 10
-20.1345237514
 20
0.0046192932
 10
-20.1375117087
 20
-0.0028377096
 10
-20.14091079
 20
-0.0102740503
 10
-20.1446501071
 20
-0.0175349186
 10
-20.1486993937
 20
-0.024578664
 10
-20.153088916
 20
-0.031446937
 10
-20.1578385847
 20
-0.0381098791
 10
-20.1629756815
 20
-0.0446219875
 10
-20.1684729246
 20
-0.050928765
 10
-20.1742683788
 20
-0.0568368615
 10
-20.1803413989
 20
-0.0622818271
 10
-20.1867126301
 20
-0.0673281116
 10
-20.1933820724
 20
-0.0719757152
  0
LWPOLYLINE
  5
292
100
AcDbEntity
  8
RACCORDO
100
AcDbPolyline
 62
250
  6
CONTINUOUS
 90
9
 70
0
 10
-21.0799185769
 20
2.0806751498
 10
-21.0807075662
 20
2.0639612049
 10
-21.0830680486
 20
2.0483289581
 10
-21.0869738954
 20
2.0339515937
 10
-21.092381859
 20
2.0209883959
 10
-21.0992320492
 20
2.0095829912
 10
-21.1074485929
 20
1.999861754
 10
-21.1169404829
 20
1.9919323954
 10
-21.121240601
 20
1.9891828921
  0
LWPOLYLINE
  5
293
100
AcDbEntity
  8
RACCORDO
100
AcDbPolyline
 62
250
  6
CONTINUOUS
 90
6
 70
0
 10
-24.687014758
 20
-7.6813386281
 10
-24.6877758581
 20
-7.6913238923
 10
-24.6908578142
 20
-7.7037877893
 10
-24.6962714992
 20
-7.7159838563
 10
-24.7039525441
 20
-7.727767116
 10
-24.7138096294
 20
-7.7389975037
  0
LINE
  5
294
100
AcDbEntity
  8
RACCORDO
100
AcDbLine
 62
250
  6
CONTINUOUS
 10
-24.2848290327
 20
-6.8325070012
 11
-24.2804556968
 21
-6.8008642498
  0
LWPOLYLINE
  5
295
100
AcDbEntity
  8
RACCORDO
100
AcDbPolyline
 62
250
  6
CONTINUOUS
 90
7
 70
0
 10
-24.2393997305
 20
-6.6080433357
 10
-24.2378967636
 20
-6.5977603764
 10
-24.2366653083
 20
-6.5878478535
 10
-24.2357066657
 20
-6.578303218
 10
-24.2349743235
 20
-6.5691225381
 10
-24.2344527776
 20
-6.5603045031
 10
-24.2341575321
 20
-6.5518504237
  0
LWPOLYLINE
  5
296
100
AcDbEntity
  8
RACCORDO
100
AcDbPolyline
 62
250
  6
CONTINUOUS
 90
16
 70
0
 10
-24.0165152405
 20
2.4538154029
 10
-24.0136308652
 20
2.4729129748
 10
-24.012336654
 20
2.4926861612
 10
-24.0126467261
 20
2.5129189074
 10
-24.0145576717
 20
2.5333901383
 10
-24.0180485901
 20
2.5538761863
 10
-24.0230813225
 20
2.5741532355
 10
-24.0296008632
 20
2.5939997425
 10
-24.0375359651
 20
2.6131988775
 10
-24.0467999254
 20
2.6315409027
 10
-24.0572915175
 20
2.6488254264
 10
-24.0688961053
 20
2.6648636167
 10
-24.0814869106
 20
2.6794802773
 10
-24.0949263742
 20
2.6925157264
 10
-24.109067655
 20
2.7038275469
 10
-24.1237562506
 20
2.7132921611
  0
LWPOLYLINE
  5
297
100
AcDbEntity
  8
RACCORDO
100
AcDbPolyline
 62
250
  6
CONTINUOUS
 90
16
 70
0
 10
-22.6017029846
 20
2.8588882978
 10
-22.598818665
 20
2.8779853523
 10
-22.5975244221
 20
2.8977580808
 10
-22.5978343966
 20
2.917990451
 10
-22.5997452016
 20
2.9384614084
 10
-22.6032359602
 20
2.9589472919
 10
-22.6082685332
 20
2.9792242772
 10
-22.6147879357
 20
2.9990708225
 10
-22.6227229382
 20
3.0182700889
 10
-22.6319868446
 20
3.0366123094
 10
-22.6424784395
 20
3.053897081
 10
-22.6540830941
 20
3.0699355542
 10
-22.6666740185
 20
3.084552496
 10
-22.6801136471
 20
3.097588205
 10
-22.6942551414
 20
3.108900256
 10
-22.7089439947
 20
3.118365056
  0
LWPOLYLINE
  5
298
100
AcDbEntity
  8
RACCORDO
100
AcDbPolyline
 62
250
  6
CONTINUOUS
 90
3
 70
0
 10
-24.2804556968
 20
-6.8008642498
 10
-24.2749540062
 20
-6.7682687111
 10
-24.2682848022
 20
-6.7347771198
  0
LINE
  5
299
100
AcDbEntity
  8
RACCORDO
100
AcDbLine
 62
250
  6
CONTINUOUS
 10
-24.2682848022
 20
-6.7347771198
 11
-24.2604872436
 21
-6.7003327412
  0
LWPOLYLINE
  5
29A
100
AcDbEntity
  8
RACCORDO
100
AcDbPolyline
 62
7
  6
CONTINUOUS
 90
6
 70
0
 10
-24.2222597043
 20
-6.6506619301
 10
-24.2145129591
 20
-6.6192692087
 10
-24.2075971611
 20
-6.5846142782
 10
-24.2024303718
 20
-6.5497389698
 10
-24.1991571792
 20
-6.5148309802
 10
-24.1979193377
 20
-6.4773116032
  0
LWPOLYLINE
  5
29B
100
AcDbEntity
  8
RACCORDO
100
AcDbPolyline
 62
250
  6
CONTINUOUS
 90
6
 70
0
 10
-24.2604872436
 20
-6.7003327412
 10
-24.2484758311
 20
-6.6528292784
 10
-24.2457135605
 20
-6.6410871537
 10
-24.2432745184
 20
-6.6297092012
 10
-24.2411755102
 20
-6.6186941823
 10
-24.2393997305
 20
-6.6080433357
  0
LWPOLYLINE
  5
29C
100
AcDbEntity
  8
RACCORDO
100
AcDbPolyline
 62
250
  6
CONTINUOUS
 90
7
 70
0
 10
-24.165840032
 20
6.5057992099
 10
-24.1525215141
 20
6.5320979019
 10
-24.1381610925
 20
6.5576515205
 10
-24.1226323568
 20
6.5826604126
 10
-24.1060617174
 20
6.6069242314
 10
-24.0888525455
 20
6.6295766258
 10
-24.0711392983
 20
6.6503288124
  0
LINE
  5
29D
100
AcDbEntity
  8
RACCORDO
100
AcDbLine
 62
250
  6
CONTINUOUS
 10
-24.0711392983
 20
6.6503288124
 11
-24.0527875186
 21
6.6694695748
  0
LWPOLYLINE
  5
29E
100
AcDbEntity
  8
RACCORDO
100
AcDbPolyline
 62
250
  6
CONTINUOUS
 90
7
 70
0
 10
-24.001118676
 20
10.6507550124
 10
-23.9889085081
 20
10.6621848402
 10
-23.9790791629
 20
10.6743557874
 10
-23.9717635307
 20
10.687103245
 10
-23.967060505
 20
10.7002548077
 10
-23.9650336411
 20
10.7136326182
 10
-23.9649490848
 20
10.7169901817
  0
LWPOLYLINE
  5
29F
100
AcDbEntity
  8
RACCORDO
100
AcDbPolyline
 62
250
  6
CONTINUOUS
 90
7
 70
0
 10
-24.2340885869
 20
6.2361186076
 10
-24.2218787058
 20
6.2475481275
 10
-24.2120494746
 20
6.2597187989
 10
-24.2047338152
 20
6.2724660335
 10
-24.2000306581
 20
6.2856174462
 10
-24.1980036036
 20
6.2989951864
 10
-24.1979189962
 20
6.3023466318
  0
LINE
  5
2A0
100
AcDbEntity
  8
RACCORDO
100
AcDbLine
 62
250
  6
CONTINUOUS
 10
-24.0527875186
 20
6.6694695748
 11
-24.0337972064
 21
6.6869989128
  0
LWPOLYLINE
  5
2A1
100
AcDbEntity
  8
RACCORDO
100
AcDbPolyline
 62
250
  6
CONTINUOUS
 90
8
 70
0
 10
-24.001118676
 20
6.7147450794
 10
-23.9911445494
 20
6.7238451884
 10
-23.9826820223
 20
6.7334422236
 10
-23.9758047007
 20
6.7434527195
 10
-23.9705720479
 20
6.7537904632
 10
-23.9670302104
 20
6.7643647349
 10
-23.965210236
 20
6.7750809347
 10
-23.9649490848
 20
6.7809802485
  0
LINE
  5
2A2
100
AcDbEntity
  8
RACCORDO
100
AcDbLine
 62
250
  6
CONTINUOUS
 10
-24.0638127785
 20
6.6047478111
 11
-24.0681729162
 21
6.6007825135
  0
LINE
  5
2A3
100
AcDbEntity
  8
RACCORDO
100
AcDbLine
 62
250
  6
CONTINUOUS
 10
-24.031278325
 20
6.6323540198
 11
-24.0355022576
 21
6.6285219955
  0
LINE
  5
2A4
100
AcDbEntity
  8
RACCORDO
100
AcDbLine
 62
250
  6
CONTINUOUS
 10
-24.0337972064
 20
6.6869989128
 11
-24.001118676
 21
6.7147450794
  0
LINE
  5
2A5
100
AcDbEntity
  8
RACCORDO
100
AcDbLine
 62
7
  6
CONTINUOUS
 10
-24.0681811463
 20
6.6007755247
 11
-24.0355022576
 21
6.6285219955
  0
LINE
  5
2A6
100
AcDbEntity
  8
RACCORDO
100
AcDbLine
 62
250
  6
CONTINUOUS
 10
21.9472850126
 20
-36.6993445403
 11
-25.4866782771
 21
-9.311568624
  0
LINE
  5
2A7
100
AcDbEntity
  8
RACCORDO
100
AcDbLine
 62
250
  6
CONTINUOUS
 10
22.1557148325
 20
-36.3340959972
 11
-25.2782484572
 21
-8.9463200809
  0
LINE
  5
2A8
100
AcDbEntity
  8
RACCORDO
100
AcDbLine
 62
7
  6
CONTINUOUS
 10
-24.626977182
 20
-8.5702854558
 11
22.4250163153
 21
-35.7375168011
  0
LWPOLYLINE
  5
2A9
100
AcDbEntity
  8
RACCORDO
100
AcDbPolyline
 62
7
  6
CONTINUOUS
 90
26
 70
0
 10
-24.2406721788
 20
-8.4544248485
 10
-24.2505564634
 20
-8.4485848188
 10
-24.2783793085
 20
-8.4307549872
 10
-24.3066647415
 20
-8.4105268099
 10
-24.3351747771
 20
-8.3879583195
 10
-24.3636649703
 20
-8.36314577
 10
-24.3919317503
 20
-8.3361915898
 10
-24.4197873529
 20
-8.3072035391
 10
-24.4470455276
 20
-8.2763086012
 10
-24.4735155864
 20
-8.2436707632
 10
-24.4990157101
 20
-8.2094673381
 10
-24.5233880976
 20
-8.1738699703
 10
-24.5464730102
 20
-8.1370886249
 10
-24.5681177991
 20
-8.0993511716
 10
-24.5881970757
 20
-8.0608751021
 10
-24.6065937373
 20
-8.0219060883
 10
-24.6232082119
 20
-7.9826887951
 10
-24.6379694991
 20
-7.9434495004
 10
-24.6508198746
 20
-7.9044321719
 10
-24.6617156487
 20
-7.8658845062
 10
-24.670639682
 20
-7.8280371815
 10
-24.6775976627
 20
-7.7911018237
 10
-24.6826068585
 20
-7.7553020632
 10
-24.6857081541
 20
-7.7209007481
 10
-24.686973783
 20
-7.6881330722
 10
-24.687014758
 20
-7.6813386085
  0
LWPOLYLINE
  5
2AA
100
AcDbEntity
  8
RACCORDO
100
AcDbPolyline
 62
250
  6
CONTINUOUS
 90
25
 70
0
 10
-25.2782483478
 20
-8.9463200177
 10
-25.3017065428
 20
-8.9321742656
 10
-25.3249611135
 20
-8.9163752806
 10
-25.3479162106
 20
-8.8990095935
 10
-25.3704492932
 20
-8.880197075
 10
-25.3925009367
 20
-8.8600098643
 10
-25.4140696332
 20
-8.8384527158
 10
-25.4350980721
 20
-8.8155775468
 10
-25.4554641725
 20
-8.7915122926
 10
-25.4750682313
 20
-8.7663685852
 10
-25.4938303318
 20
-8.7402480241
 10
-25.5116697606
 20
-8.7132651929
 10
-25.5284942852
 20
-8.6855612173
 10
-25.5442248641
 20
-8.6572735873
 10
-25.5588108564
 20
-8.6285040879
 10
-25.5722087472
 20
-8.5993440323
 10
-25.5843321792
 20
-8.5699906851
 10
-25.595164728
 20
-8.5404912997
 10
-25.6047386233
 20
-8.5107112005
 10
-25.6130069661
 20
-8.4806589287
 10
-25.6198549104
 20
-8.4505897926
 10
-25.6251994718
 20
-8.4207436902
 10
-25.6289881877
 20
-8.3912927367
 10
-25.6311834087
 20
-8.3623444241
 10
-25.6317478756
 20
-8.3340408413
  0
LWPOLYLINE
  5
2AB
100
AcDbEntity
  8
RACCORDO
100
AcDbPolyline
 62
250
  6
CONTINUOUS
 90
25
 70
0
 10
-25.4866782771
 20
-9.311568624
 10
-25.524074707
 20
-9.2884692806
 10
-25.5608774599
 20
-9.2630329788
 10
-25.5970865358
 20
-9.2352597187
 10
-25.6327985801
 20
-9.2050472983
 10
-25.6679169474
 20
-9.1724979194
 10
-25.7021517015
 20
-9.1379181878
 10
-25.7355487118
 20
-9.1012437034
 10
-25.7680621087
 20
-9.0625388662
 10
-25.7992643476
 20
-9.0223034815
 10
-25.8291394668
 20
-8.9805076817
 10
-25.8577034278
 20
-8.9371813345
 10
-25.8845765713
 20
-8.8929138475
 10
-25.9097198657
 20
-8.8477243927
 10
-25.9331723425
 20
-8.8015937981
 10
-25.9546714367
 20
-8.7550539563
 10
-25.9741818135
 20
-8.7082179767
 10
-25.9917388078
 20
-8.6609727498
 10
-26.0071858586
 20
-8.6135108401
 10
-26.0205807303
 20
-8.5656242952
 10
-26.0318656586
 20
-8.5175210675
 10
-26.0407107897
 20
-8.4700175775
 10
-26.0470061722
 20
-8.4233859657
 10
-26.0508617574
 20
-8.3773540917
 10
-26.0522775454
 20
-8.3319219555
  0
LWPOLYLINE
  5
2AC
100
AcDbEntity
  8
RACCORDO
100
AcDbPolyline
 62
250
  6
CONTINUOUS
 90
5
 70
0
 10
-24.1979189958
 20
4.0274381763
 10
-24.1936919476
 20
4.0107238128
 10
-24.1903234097
 20
3.991744493
 10
-24.1884941811
 20
3.9732541799
 10
-24.1882242956
 20
3.9554553787
  0
LWPOLYLINE
  5
2AD
100
AcDbEntity
  8
RACCORDO
100
AcDbPolyline
 62
250
  6
CONTINUOUS
 90
3
 70
0
 10
-23.3060772333
 20
17.935510171
 10
-23.3106182181
 20
17.9721058908
 10
-23.3169220436
 20
18.0064218802
  0
LWPOLYLINE
  5
2AE
100
AcDbEntity
  8
RACCORDO
100
AcDbPolyline
 62
250
  6
CONTINUOUS
 90
12
 70
0
 10
-20.1776090196
 20
3.2113752318
 10
-20.1695769871
 20
3.2274706386
 10
-20.1621142128
 20
3.2438917768
 10
-20.1551816836
 20
3.2606663793
 10
-20.1488184127
 20
3.2777667133
 10
-20.1431434164
 20
3.2951660557
 10
-20.1381241647
 20
3.3129592566
 10
-20.1337931878
 20
3.331051466
 10
-20.130367093
 20
3.3491314108
 10
-20.1279180826
 20
3.3670953332
 10
-20.1263739544
 20
3.385046991
 10
-20.1257347082
 20
3.4029863842
  0
LWPOLYLINE
  5
2AF
100
AcDbEntity
  8
RACCORDO
100
AcDbPolyline
 62
7
  6
CONTINUOUS
 90
11
 70
0
 10
-20.1951864707
 20
3.1144963671
 10
-20.1712763997
 20
3.1502893315
 10
-20.1509542908
 20
3.184872458
 10
-20.1324941229
 20
3.2207134146
 10
-20.1161028292
 20
3.2574835567
 10
-20.1018758757
 20
3.2950745021
 10
-20.0899462621
 20
3.3333294143
 10
-20.0805038521
 20
3.371903683
 10
-20.0736717912
 20
3.4106472761
 10
-20.0695807443
 20
3.4495049048
 10
-20.0683848039
 20
3.4839536294
  0
LWPOLYLINE
  5
2B0
100
AcDbEntity
  8
RACCORDO
100
AcDbPolyline
 62
250
  6
CONTINUOUS
 90
5
 70
0
 10
-20.2154079829
 20
3.1496296828
 10
-20.2051074853
 20
3.1646668933
 10
-20.1953742687
 20
3.1799733592
 10
-20.1862083332
 20
3.1955490805
 10
-20.1776090196
 20
3.2113752318
  0
LINE
  5
2B1
100
AcDbEntity
  8
RACCORDO
100
AcDbLine
 62
250
  6
CONTINUOUS
 10
-20.7583062692
 20
2.387789286
 11
-20.2154079829
 21
3.1496296828
  0
LINE
  5
2B2
100
AcDbEntity
  8
RACCORDO
100
AcDbLine
 62
7
  6
CONTINUOUS
 10
-20.7380809986
 20
2.352661236
 11
-20.1951827128
 21
3.1145016322
  0
LINE
  5
2B3
100
AcDbEntity
  8
RACCORDO
100
AcDbLine
 62
7
  6
CONTINUOUS
 10
-21.5662042727
 20
0.6726028155
 11
-22.1723903547
 21
-0.091170705
  0
LWPOLYLINE
  5
2B4
100
AcDbEntity
  8
RACCORDO
100
AcDbPolyline
 62
250
  6
CONTINUOUS
 90
3
 70
0
 10
-20.826254979
 20
2.3005888375
 10
-20.7919866577
 20
2.3428389038
 10
-20.7583062692
 20
2.387789286
  0
LWPOLYLINE
  5
2B5
100
AcDbEntity
  8
RACCORDO
100
AcDbPolyline
 62
7
  6
CONTINUOUS
 90
5
 70
0
 10
-24.1979189958
 20
-3.1007361145
 10
-24.1859897604
 20
-3.0879273323
 10
-24.1155494476
 20
-3.017183442
 10
-24.0440626813
 20
-2.9501644885
 10
-24.0263103066
 20
-2.9342426987
  0
LWPOLYLINE
  5
2B6
100
AcDbEntity
  8
RACCORDO
100
AcDbPolyline
 62
250
  6
CONTINUOUS
 90
8
 70
0
 10
-22.6114835684
 20
-1.6767402887
 10
-22.6082685332
 20
-1.6734847792
 10
-22.6032359602
 20
-1.6660294352
 10
-22.5997452016
 20
-1.6570578783
 10
-22.5978343966
 20
-1.6466681296
 10
-22.5975244221
 20
-1.6349737053
 10
-22.598818665
 20
-1.6221023761
 10
-22.6017029846
 20
-1.6081947712
  0
LWPOLYLINE
  5
2B7
100
AcDbEntity
  8
RACCORDO
100
AcDbPolyline
 62
250
  6
CONTINUOUS
 90
8
 70
0
 10
-24.0263000752
 20
-2.93422768
 10
-24.0230811401
 20
-2.9309687963
 10
-24.0180484623
 20
-2.9235135223
 10
-24.0145575985
 20
-2.9145419965
 10
-24.012646701
 20
-2.904152225
 10
-24.0123366622
 20
-2.8924577123
 10
-24.0136308842
 20
-2.8795862234
 10
-24.0165152405
 20
-2.8656783837
  0
LWPOLYLINE
  5
2B8
100
AcDbEntity
  8
RACCORDO
100
AcDbPolyline
 62
250
  6
CONTINUOUS
 90
3
 70
0
 10
-24.0896611918
 20
-2.9329333986
 10
-24.1614691329
 20
-3.0034841255
 10
-24.1979189958
 20
-3.041680453
  0
LINE
  5
2B9
100
AcDbEntity
  8
RACCORDO
100
AcDbLine
 62
7
  6
CONTINUOUS
 10
-23.7136181604
 20
3.7041543089
 11
-21.8935016612
 21
4.7365636935
  0
LINE
  5
2BA
100
AcDbEntity
  8
RACCORDO
100
AcDbLine
 62
250
  6
CONTINUOUS
 10
-24.1979189958
 20
4.2724500402
 11
-22.098863581
 21
5.4203752575
  0
LINE
  5
2BB
100
AcDbEntity
  8
RACCORDO
100
AcDbLine
 62
250
  6
CONTINUOUS
 10
-24.1882242956
 20
3.9554553787
 11
-21.9611490254
 21
5.1733917159
  0
LINE
  5
2BC
100
AcDbEntity
  8
RACCORDO
100
AcDbLine
 62
250
  6
CONTINUOUS
 10
-24.1979189958
 20
3.9502732866
 11
-24.1882242956
 21
3.9554553787
  0
LINE
  5
2BD
100
AcDbEntity
  8
RACCORDO
100
AcDbLine
 62
7
  6
CONTINUOUS
 10
-24.1979189958
 20
4.6724219105
 11
-22.4654440474
 21
5.586171106
  0
LINE
  5
2BE
100
AcDbEntity
  8
RACCORDO
100
AcDbLine
 62
250
  6
CONTINUOUS
 10
-24.1979189958
 20
4.6097501705
 11
-22.3672057116
 21
5.5753126406
  0
LWPOLYLINE
  5
2BF
100
AcDbEntity
  8
RACCORDO
100
AcDbPolyline
 62
250
  6
CONTINUOUS
 90
15
 70
0
 10
-22.3672057116
 20
5.5753126406
 10
-22.3536764924
 20
5.5820370266
 10
-22.3407078551
 20
5.5875387392
 10
-22.3283373515
 20
5.5919047081
 10
-22.3166167567
 20
5.5952192996
 10
-22.3055387046
 20
5.5975846136
 10
-22.2950418298
 20
5.5991014415
 10
-22.285129195
 20
5.5998475073
 10
-22.2758058018
 20
5.599899359
 10
-22.2670124414
 20
5.5993276427
 10
-22.2587364771
 20
5.5981942096
 10
-22.2509800856
 20
5.5965615853
 10
-22.2437075603
 20
5.5944821653
 10
-22.2369026965
 20
5.5920073939
 10
-22.2305592725
 20
5.5891909952
  0
LWPOLYLINE
  5
2C0
100
AcDbEntity
  8
RACCORDO
100
AcDbPolyline
 62
250
  6
CONTINUOUS
 90
9
 70
0
 10
-22.465396809
 20
5.5861959977
 10
-22.4622592234
 20
5.5877490446
 10
-22.4505319526
 20
5.591987594
 10
-22.4379461451
 20
5.5942250075
 10
-22.4246396399
 20
5.5944367792
 10
-22.4107581699
 20
5.5926205884
 10
-22.3964537649
 20
5.5887963246
 10
-22.3818830862
 20
5.5830058701
 10
-22.3672057116
 20
5.5753126406
  0
LWPOLYLINE
  5
2C1
100
AcDbEntity
  8
RACCORDO
100
AcDbPolyline
 62
250
  6
CONTINUOUS
 90
10
 70
0
 10
-22.098863581
 20
5.4203752575
 10
-22.0802268517
 20
5.4294882463
 10
-22.0621284173
 20
5.4364719395
 10
-22.0446901703
 20
5.4413843162
 10
-22.0281259709
 20
5.4442877995
 10
-22.0124073459
 20
5.4453100521
 10
-21.997302979
 20
5.4445179571
 10
-21.982814736
 20
5.4418896332
 10
-21.9691510287
 20
5.4374396483
 10
-21.9567452728
 20
5.4313926118
  0
LWPOLYLINE
  5
2C2
100
AcDbEntity
  8
RACCORDO
100
AcDbPolyline
 62
250
  6
CONTINUOUS
 90
6
 70
0
 10
-24.2406722009
 20
-8.4544248358
 10
-24.2497006531
 20
-8.4500916438
 10
-24.2620350528
 20
-8.4465298304
 10
-24.2753034335
 20
-8.445121276
 10
-24.2893480697
 20
-8.4458827244
 10
-24.3040020083
 20
-8.4488051241
  0
LINE
  5
2C3
100
AcDbEntity
  8
RACCORDO
100
AcDbLine
 62
250
  6
CONTINUOUS
 10
-22.7534893995
 20
-8.854994082
 11
-22.7721472368
 21
-8.8458868295
  0
LWPOLYLINE
  5
2C4
100
AcDbEntity
  8
RACCORDO
100
AcDbPolyline
 62
250
  6
CONTINUOUS
 90
16
 70
0
 10
-26.0522775454
 20
-8.3319219555
 10
-26.0292127756
 20
-8.3439269507
 10
-26.0041222811
 20
-8.3544910069
 10
-25.9772748892
 20
-8.3635009376
 10
-25.948958251
 20
-8.3708602076
 10
-25.9194757597
 20
-8.3764899673
 10
-25.8891432997
 20
-8.380329898
 10
-25.8582858624
 20
-8.3823388572
 10
-25.8272340639
 20
-8.3824953205
 10
-25.7963206025
 20
-8.3807976115
 10
-25.7658766946
 20
-8.3772639199
 10
-25.7362285257
 20
-8.3719321067
 10
-25.7076937552
 20
-8.3648592987
 10
-25.6805781135
 20
-8.3561212761
 10
-25.6551721259
 20
-8.3458116608
 10
-25.6317479999
 20
-8.3340409131
  0
LINE
  5
2C5
100
AcDbEntity
  8
RACCORDO
100
AcDbLine
 62
250
  6
CONTINUOUS
 10
-22.7721472368
 20
-8.8458868295
 11
-22.7901444555
 21
-8.8361440895
  0
LINE
  5
2C6
100
AcDbEntity
  8
RACCORDO
100
AcDbLine
 62
250
  6
CONTINUOUS
 10
-24.3040020083
 20
-8.4488051241
 11
22.4250163153
 21
-35.429554652
  0
LINE
  5
2C7
100
AcDbEntity
  8
RACCORDO
100
AcDbLine
 62
7
  6
CONTINUOUS
 10
-24.2406722009
 20
-8.4544248358
 11
22.4250163153
 21
-35.3986084659
  0
LINE
  5
2C8
100
AcDbEntity
  8
RACCORDO
100
AcDbLine
 62
250
  6
CONTINUOUS
 10
-22.7901444555
 20
-8.8361440895
 11
-23.6376950323
 21
-8.3467790088
  0
LINE
  5
2C9
100
AcDbEntity
  8
RACCORDO
100
AcDbLine
 62
7
  6
CONTINUOUS
 10
-22.7146971843
 20
-8.8379342782
 11
-23.5624419635
 21
-8.3484570674
  0
LINE
  5
2CA
100
AcDbEntity
  8
RACCORDO
100
AcDbLine
 62
250
  6
CONTINUOUS
 10
22.4250163153
 20
-34.5245548012
 11
-21.8081812128
 21
-8.9848609206
  0
LINE
  5
2CB
100
AcDbEntity
  8
RACCORDO
100
AcDbLine
 62
7
  6
CONTINUOUS
 10
22.4250163153
 20
-34.482782681
 11
-21.7327339416
 21
-8.9866511093
  0
LWPOLYLINE
  5
2CC
100
AcDbEntity
  8
RACCORDO
100
AcDbPolyline
 62
250
  6
CONTINUOUS
 90
43
 70
0
 10
-23.6376950323
 20
-8.3467790088
 10
-23.6555199348
 20
-8.3361298519
 10
-23.6738800561
 20
-8.3246231696
 10
-23.6927557201
 20
-8.3122188301
 10
-23.7120458077
 20
-8.2989307478
 10
-23.7318008301
 20
-8.2846679513
 10
-23.7522245259
 20
-8.2692067941
 10
-23.773328767
 20
-8.2524394689
 10
-23.7950231299
 20
-8.234329937
 10
-23.8173500327
 20
-8.2147385195
 10
-23.8402630048
 20
-8.1936079009
 10
-23.8636878716
 20
-8.1709030545
 10
-23.8876109307
 20
-8.1465221867
 10
-23.9119887845
 20
-8.1203768731
 10
-23.9366737567
 20
-8.0924822724
 10
-23.9614937518
 20
-8.0628961417
 10
-23.9864714406
 20
-8.0314492181
 10
-24.0113926617
 20
-7.9982573989
 10
-24.0357711429
 20
-7.9638601187
 10
-24.0595648615
 20
-7.9282432243
 10
-24.0826584124
 20
-7.8915154357
 10
-24.1045389788
 20
-7.8545073158
 10
-24.1251200199
 20
-7.817452852
 10
-24.1444394729
 20
-7.7803687833
 10
-24.1622705507
 20
-7.7438063621
 10
-24.1786025186
 20
-7.7079796099
 10
-24.1935482775
 20
-7.6728488097
 10
-24.2071289233
 20
-7.6385719485
 10
-24.2194001438
 20
-7.6052316612
 10
-24.2304358852
 20
-7.5728543711
 10
-24.240294786
 20
-7.5415105337
 10
-24.2490226531
 20
-7.5113313379
 10
-24.2567110624
 20
-7.4822855671
 10
-24.2634729181
 20
-7.4542027956
 10
-24.2692995208
 20
-7.4273977556
 10
-24.2743131697
 20
-7.4016040668
 10
-24.2787292109
 20
-7.3758052721
 10
-24.2825307893
 20
-7.3500657753
 10
-24.2857161458
 20
-7.3244103666
 10
-24.2883724953
 20
-7.2978457716
 10
-24.2904357006
 20
-7.270143048
 10
-24.2917823625
 20
-7.2417841215
 10
-24.2923310647
 20
-7.2129160317
  0
LWPOLYLINE
  5
2CD
100
AcDbEntity
  8
RACCORDO
100
AcDbPolyline
 62
7
  6
CONTINUOUS
 90
26
 70
0
 10
-23.562269058
 20
-8.3485566941
 10
-23.5951662487
 20
-8.3284894325
 10
-23.6383169838
 20
-8.299484193
 10
-23.6814355024
 20
-8.2673865416
 10
-23.7242741668
 20
-8.2322499866
 10
-23.7666999571
 20
-8.1940910206
 10
-23.8085244566
 20
-8.1530962862
 10
-23.8494656314
 20
-8.1095262382
 10
-23.8893288834
 20
-8.0635477531
 10
-23.9279102882
 20
-8.0153756216
 10
-23.9650136171
 20
-7.9652357876
 10
-24.0005070853
 20
-7.9132812651
 10
-24.0342120965
 20
-7.8597740902
 10
-24.0659662872
 20
-7.8049936654
 10
-24.095666035
 20
-7.7491152361
 10
-24.123153346
 20
-7.6924046085
 10
-24.148281432
 20
-7.6351546536
 10
-24.1709691664
 20
-7.5775858731
 10
-24.1911148969
 20
-7.5199809955
 10
-24.2086318409
 20
-7.4626196586
 10
-24.2234701764
 20
-7.4057911614
 10
-24.2355454586
 20
-7.3498669307
 10
-24.2447956341
 20
-7.2950869782
 10
-24.2512619749
 20
-7.2416240398
 10
-24.2550275686
 20
-7.1896907673
 10
-24.2561621228
 20
-7.1465172287
  0
LWPOLYLINE
  5
2CE
100
AcDbEntity
  8
RACCORDO
100
AcDbPolyline
 62
250
  6
CONTINUOUS
 90
9
 70
0
 10
22.512884281
 20
-36.3728377296
 10
22.4920919974
 20
-36.3595201636
 10
22.4737954799
 20
-36.3450329745
 10
22.4581907453
 20
-36.329531397
 10
22.4454449681
 20
-36.3131815341
 10
22.4356946845
 20
-36.2961585718
 10
22.4290443344
 20
-36.2786449013
 10
22.4255651469
 20
-36.2608281757
 10
22.4250163259
 20
-36.2504013062
  0
LWPOLYLINE
  5
2CF
100
AcDbEntity
  8
RACCORDO
100
AcDbPolyline
 62
250
  6
CONTINUOUS
 90
3
 70
0
 10
-20.2173022364
 20
1.1028370927
 10
-20.2093091332
 20
1.0853982576
 10
-20.2029535279
 20
1.0668669994
  0
LWPOLYLINE
  5
2D0
100
AcDbEntity
  8
RACCORDO
100
AcDbPolyline
 62
250
  6
CONTINUOUS
 90
7
 70
0
 10
-23.9477382661
 20
18.4442743541
 10
-23.9637489956
 20
18.4908748687
 10
-23.9771750709
 20
18.5416057989
 10
-23.9876606599
 20
18.5955551929
 10
-23.9950871517
 20
18.6524190668
 10
-23.999573157
 20
18.7125014046
 10
-24.001118676
 20
18.7758022062
  0
LWPOLYLINE
  5
2D1
100
AcDbEntity
  8
RACCORDO
100
AcDbPolyline
 62
250
  6
CONTINUOUS
 90
7
 70
0
 10
-23.5817728362
 20
11.8945142376
 10
-23.5780666139
 20
11.8835880179
 10
-23.5760371488
 20
11.8734340215
 10
-23.5757047695
 20
11.8641538819
 10
-23.5770728197
 20
11.8558404869
 10
-23.5801276242
 20
11.8485770527
 10
-23.5814794461
 20
11.8464542898
  0
LWPOLYLINE
  5
2D2
100
AcDbEntity
  8
RACCORDO
100
AcDbPolyline
 62
250
  6
CONTINUOUS
 90
15
 70
0
 10
-23.3169220436
 20
18.0064218802
 10
-23.3249637622
 20
18.0384665497
 10
-23.3346685317
 20
18.0682651309
 10
-23.3460278645
 20
18.0959109068
 10
-23.3590502481
 20
18.1213105943
 10
-23.3736863024
 20
18.1442095763
 10
-23.3898501232
 20
18.1646150134
 10
-23.4076276147
 20
18.1825197449
 10
-23.4272271099
 20
18.1976476713
 10
-23.4487821265
 20
18.2101262549
 10
-23.4721591469
 20
18.2198280333
 10
-23.4971659501
 20
18.2260945202
 10
-23.5237384626
 20
18.2287062201
 10
-23.551940758
 20
18.2278826285
 10
-23.5817728362
 20
18.2236237453
  0
LWPOLYLINE
  5
2D3
100
AcDbEntity
  8
RACCORDO
100
AcDbPolyline
 62
250
  6
CONTINUOUS
 90
9
 70
0
 10
-20.2029535279
 20
1.0668669994
 10
-20.1983053667
 20
1.0474473232
 10
-20.1954158015
 20
1.0273530284
 10
-20.1943166188
 20
1.0068053248
 10
-20.1950198954
 20
0.9860304031
 10
-20.1975178659
 20
0.9652569609
 10
-20.2017830084
 20
0.9447136692
 10
-20.2077683498
 20
0.9246266554
 10
-20.2154079829
 20
0.9052170217
  0
LWPOLYLINE
  5
2D4
100
AcDbEntity
  8
RACCORDO
100
AcDbPolyline
 62
250
  6
CONTINUOUS
 90
6
 70
0
 10
-24.2340885869
 20
-6.5437602998
 10
-24.2218787176
 20
-6.5323307917
 10
-24.2120494909
 20
-6.5201601311
 10
-24.2047338305
 20
-6.5074129052
 10
-24.2000306681
 20
-6.4942614985
 10
-24.1980465384
 20
-6.481167098
  0
LWPOLYLINE
  5
2D5
100
AcDbEntity
  8
RACCORDO
100
AcDbPolyline
 62
250
  6
CONTINUOUS
 90
7
 70
0
 10
-24.2923310647
 20
-6.9476778845
 10
-24.2801210118
 20
-6.9362481793
 10
-24.2702917122
 20
-6.9240773418
 10
-24.262976069
 20
-6.9113299727
 10
-24.2582729905
 20
-6.8981784691
 10
-24.2562460504
 20
-6.8848006855
 10
-24.2561614735
 20
-6.8814427132
  0
LWPOLYLINE
  5
2D6
100
AcDbEntity
  8
RACCORDO
100
AcDbPolyline
 62
250
  6
CONTINUOUS
 90
7
 70
0
 10
-24.2923310647
 20
-7.2129160317
 10
-24.2801211953
 20
-7.2014865236
 10
-24.2702919687
 20
-7.189315863
 10
-24.2629763083
 20
-7.1765686371
 10
-24.2582731458
 20
-7.1634172304
 10
-24.2562460835
 20
-7.150039493
 10
-24.2561614735
 20
-7.1466808626
  0
LINE
  5
2D7
100
AcDbEntity
  8
RACCORDO
100
AcDbLine
 62
250
  6
CONTINUOUS
 10
-24.0165152405
 20
-2.8656783837
 11
-24.0896611918
 21
-2.9329333986
  0
LINE
  5
2D8
100
AcDbEntity
  8
RACCORDO
100
AcDbLine
 62
250
  6
CONTINUOUS
 10
-22.6017029846
 20
-1.6081947712
 11
-24.0165152405
 21
-2.8656783837
  0
LINE
  5
2D9
100
AcDbEntity
  8
RACCORDO
100
AcDbLine
 62
7
  6
CONTINUOUS
 10
-22.6114878194
 20
-1.6767440677
 11
-24.0263000752
 21
-2.93422768
  0
LWPOLYLINE
  5
2DA
100
AcDbEntity
  8
RACCORDO
100
AcDbPolyline
 62
7
  6
CONTINUOUS
 90
7
 70
0
 10
-22.6114835684
 20
-1.6767402887
 10
-22.5834429257
 20
-1.652500375
 10
-22.5575861459
 20
-1.6313421777
 10
-22.5317893411
 20
-1.6113572658
 10
-22.5061060398
 20
-1.5925647162
 10
-22.4805895827
 20
-1.5749800412
 10
-22.4567246914
 20
-1.559512721
  0
LWPOLYLINE
  5
2DB
100
AcDbEntity
  8
RACCORDO
100
AcDbPolyline
 62
250
  6
CONTINUOUS
 90
8
 70
0
 10
-20.2267359908
 20
-0.1584519819
 10
-20.2177405856
 20
-0.1507415515
 10
-20.2100407056
 20
-0.1412820367
 10
-20.2037206796
 20
-0.1301770376
 10
-20.1988497244
 20
-0.117548176
 10
-20.1954811865
 20
-0.1035337625
 10
-20.1936519579
 20
-0.0882872826
 10
-20.1933820724
 20
-0.0719757152
  0
LINE
  5
2DC
100
AcDbEntity
  8
RACCORDO
100
AcDbLine
 62
7
  6
CONTINUOUS
 10
-24.2923310647
 20
-7.2129160317
 11
-24.6870147102
 21
-7.5381218798
  0
LWPOLYLINE
  5
2DD
100
AcDbEntity
  8
RACCORDO
100
AcDbPolyline
 62
250
  6
CONTINUOUS
 90
5
 70
0
 10
-22.5492356265
 20
-1.5636175968
 10
-22.5617975052
 20
-1.5739274698
 10
-22.5747535862
 20
-1.5848214176
 10
-22.5880554127
 20
-1.5962438513
 10
-22.6017029846
 20
-1.6081947712
  0
LINE
  5
2DE
100
AcDbEntity
  8
RACCORDO
100
AcDbLine
 62
7
  6
CONTINUOUS
 10
-22.4313644335
 20
-0.3457070767
 11
-24.1979189958
 21
-1.6544005134
  0
LWPOLYLINE
  5
2DF
100
AcDbEntity
  8
RACCORDO
100
AcDbPolyline
 62
250
  6
CONTINUOUS
 90
9
 70
0
 10
-22.4567145163
 20
-1.55950633
 10
-22.4538112611
 20
-1.5575685206
 10
-22.4448158559
 20
-1.5498580902
 10
-22.4371159759
 20
-1.5403985754
 10
-22.4307959499
 20
-1.5292935763
 10
-22.4259249947
 20
-1.5166647146
 10
-22.4225564567
 20
-1.5026503011
 10
-22.4207272282
 20
-1.4874038212
 10
-22.4204573426
 20
-1.4710922538
  0
LWPOLYLINE
  5
2E0
100
AcDbEntity
  8
RACCORDO
100
AcDbPolyline
 62
7
  6
CONTINUOUS
 90
16
 70
0
 10
-20.229688433
 20
-0.1604206606
 10
-20.2179372405
 20
-0.1526503413
 10
-20.1990843695
 20
-0.138462082
 10
-20.1813375172
 20
-0.1229541741
 10
-20.16458599
 20
-0.1060903092
 10
-20.1488888488
 20
-0.0879639575
 10
-20.1344596236
 20
-0.0688776463
 10
-20.1212403899
 20
-0.0488055644
 10
-20.109242033
 20
-0.0277453227
 10
-20.0987044293
 20
-0.0061047869
 10
-20.0896184627
 20
0.0161105569
 10
-20.0820064357
 20
0.0389543132
 10
-20.0760236042
 20
0.0620803112
 10
-20.0717249356
 20
0.0853995612
 10
-20.0691446863
 20
0.1090405334
 10
-20.0683848002
 20
0.1303243768
  0
LWPOLYLINE
  5
2E1
100
AcDbEntity
  8
RACCORDO
100
AcDbPolyline
 62
250
  6
CONTINUOUS
 90
9
 70
0
 10
-20.1257347082
 20
4.1108544049
 10
-20.1119356444
 20
4.1198546481
 10
-20.0998316879
 20
4.1296343438
 10
-20.0895539848
 20
4.1400875303
 10
-20.0812138941
 20
4.151100949
 10
-20.0749017811
 20
4.1625552708
 10
-20.0706860381
 20
4.1743263895
 10
-20.0686123436
 20
4.1862867664
 10
-20.068384798
 20
4.1917936768
  0
LWPOLYLINE
  5
2E2
100
AcDbEntity
  8
RACCORDO
100
AcDbPolyline
 62
250
  6
CONTINUOUS
 90
9
 70
0
 10
-20.1257347082
 20
3.4029863842
 10
-20.111935626
 20
3.4119866342
 10
-20.0998316583
 20
3.4217663376
 10
-20.0895539507
 20
3.432219532
 10
-20.0812138612
 20
3.4432329579
 10
-20.0749017541
 20
3.4546872858
 10
-20.0706860207
 20
3.4664584088
 10
-20.0686123379
 20
3.4784187877
 10
-20.068384798
 20
3.4839256291
  0
LWPOLYLINE
  5
2E3
100
AcDbEntity
  8
RACCORDO
100
AcDbPolyline
 62
250
  6
CONTINUOUS
 90
12
 70
0
 10
-22.4204573426
 20
-1.4710922538
 10
-22.432190004
 20
-1.4785622419
 10
-22.4438666671
 20
-1.4861821579
 10
-22.4554873318
 20
-1.4939520017
 10
-22.4670161322
 20
-1.5018459587
 10
-22.4784889344
 20
-1.5098898435
 10
-22.4900133359
 20
-1.5181611
 10
-22.501575611
 20
-1.5266407598
 10
-22.5131894855
 20
-1.5353477913
 10
-22.5250037346
 20
-1.5444165431
 10
-22.5370194932
 20
-1.5538362098
 10
-22.5492356265
 20
-1.5636175968
  0
LINE
  5
2E4
100
AcDbEntity
  8
RACCORDO
100
AcDbLine
 62
250
  6
CONTINUOUS
 10
-20.1933820724
 20
-0.0719757152
 11
-22.4204573426
 21
-1.4710922538
  0
LINE
  5
2E5
100
AcDbEntity
  8
RACCORDO
100
AcDbLine
 62
7
  6
CONTINUOUS
 10
-20.2296392461
 20
-0.1603897914
 11
-22.4567145163
 21
-1.55950633
  0
LWPOLYLINE
  5
2E6
100
AcDbEntity
  8
RACCORDO
100
AcDbPolyline
 62
250
  6
CONTINUOUS
 90
8
 70
0
 10
-21.0799185769
 20
2.0806751498
 10
-21.0427244012
 20
2.1039217025
 10
-21.0058207395
 20
2.1298938966
 10
-20.9692075919
 20
2.1585917321
 10
-20.9327858187
 20
2.1900236509
 10
-20.8966545595
 20
2.224181211
 10
-20.861111233
 20
2.2610390872
 10
-20.826254979
 20
2.3005888375
  0
LWPOLYLINE
  5
2E7
100
AcDbEntity
  8
RACCORDO
100
AcDbPolyline
 62
7
  6
CONTINUOUS
 90
12
 70
0
 10
-21.1212568082
 20
1.9891733711
 10
-21.0875428718
 20
2.0099252357
 10
-21.0469784564
 20
2.0374149885
 10
-21.0072363107
 20
2.0670869351
 10
-20.9683961338
 20
2.0988120363
 10
-20.9305251398
 20
2.1324695288
 10
-20.8936893688
 20
2.1679313925
 10
-20.8579513533
 20
2.2050788912
 10
-20.8233622956
 20
2.2438084066
 10
-20.789997496
 20
2.2839758702
 10
-20.7579387302
 20
2.3254312297
 10
-20.7380779826
 20
2.3526654737
  0
LINE
  5
2E8
100
AcDbEntity
  8
RACCORDO
100
AcDbLine
 62
250
  6
CONTINUOUS
 10
-21.5662042727
 20
1.7949130242
 11
-21.0799185769
 21
2.0806751498
  0
LINE
  5
2E9
100
AcDbEntity
  8
RACCORDO
100
AcDbLine
 62
7
  6
CONTINUOUS
 10
-21.4355457794
 20
1.8044838219
 11
-21.121240601
 21
1.9891828921
  0
LINE
  5
2EA
100
AcDbEntity
  8
RACCORDO
100
AcDbLine
 62
250
  6
CONTINUOUS
 10
-21.4635899619
 20
1.062351726
 11
-21.2238027852
 21
1.2032183102
  0
LINE
  5
2EB
100
AcDbEntity
  8
RACCORDO
100
AcDbLine
 62
250
  6
CONTINUOUS
 10
-21.5662042727
 20
0.6726028155
 11
-21.0799185769
 21
0.9582786631
  0
LWPOLYLINE
  5
2EC
100
AcDbEntity
  8
RACCORDO
100
AcDbPolyline
 62
250
  6
CONTINUOUS
 90
10
 70
0
 10
-21.0799185769
 20
0.9582786631
 10
-21.0434564774
 20
0.978429617
 10
-21.0071080462
 20
0.9956262607
 10
-20.9708732833
 20
1.0098685943
 10
-20.9346612801
 20
1.0213117481
 10
-20.8985629451
 20
1.0298005917
 10
-20.862851004
 20
1.0348697343
 10
-20.8276163652
 20
1.0363640456
 10
-20.7927681203
 20
1.0344386558
 10
-20.7583062692
 20
1.029093565
  0
LWPOLYLINE
  5
2ED
100
AcDbEntity
  8
RACCORDO
100
AcDbPolyline
 62
250
  6
CONTINUOUS
 90
10
 70
0
 10
-21.2238027852
 20
1.2032183102
 10
-21.1785235892
 20
1.2280523007
 10
-21.1329575315
 20
1.249580596
 10
-21.0873077796
 20
1.267599441
 10
-21.0419268353
 20
1.2818773893
 10
-20.9968944055
 20
1.2922938564
 10
-20.9520437751
 20
1.2987176344
 10
-20.9075219836
 20
1.3008792095
 10
-20.863761688
 20
1.2984979452
 10
-20.8210776086
 20
1.2913364944
  0
LINE
  5
2EE
100
AcDbEntity
  8
RACCORDO
100
AcDbLine
 62
250
  6
CONTINUOUS
 10
-20.3310966281
 20
4.3996887742
 11
-22.5581718983
 21
3.1817524369
  0
LINE
  5
2EF
100
AcDbEntity
  8
RACCORDO
100
AcDbLine
 62
250
  6
CONTINUOUS
 10
-20.1933820724
 20
4.1527052326
 11
-22.4204573426
 21
2.9347688954
  0
LWPOLYLINE
  5
2F0
100
AcDbEntity
  8
RACCORDO
100
AcDbPolyline
 62
250
  6
CONTINUOUS
 90
10
 70
0
 10
-22.5581718983
 20
3.1817524369
 10
-22.577444742
 20
3.1714848459
 10
-22.596098786
 20
3.1621405834
 10
-22.6141241459
 20
3.1536692998
 10
-22.6315075821
 20
3.1460232575
 10
-22.6482494844
 20
3.1391500299
 10
-22.6643634686
 20
3.1329944151
 10
-22.6798533401
 20
3.1275077351
 10
-22.6947131369
 20
3.1226462637
 10
-22.7089439947
 20
3.118365056
  0
LINE
  5
2F1
100
AcDbEntity
  8
RACCORDO
100
AcDbLine
 62
7
  6
CONTINUOUS
 10
-20.69767709
 20
4.5654846251
 11
-22.9639653497
 21
3.3701893765
  0
LINE
  5
2F2
100
AcDbEntity
  8
RACCORDO
100
AcDbLine
 62
250
  6
CONTINUOUS
 10
-20.5994387587
 20
4.5546261573
 11
-22.8657270184
 21
3.3593309087
  0
LWPOLYLINE
  5
2F3
100
AcDbEntity
  8
RACCORDO
100
AcDbPolyline
 62
250
  6
CONTINUOUS
 90
10
 70
0
 10
-22.4204573426
 20
2.9347688954
 10
-22.4436407862
 20
2.9225714437
 10
-22.4660611624
 20
2.9113609826
 10
-22.487718471
 20
2.9011375123
 10
-22.508610302
 20
2.8919615956
 10
-22.5287390656
 20
2.8837726695
 10
-22.5481119925
 20
2.8763890456
 10
-22.5667314931
 20
2.8697501609
 10
-22.5845951571
 20
2.8639165783
 10
-22.6017029846
 20
2.8588882978
  0
LWPOLYLINE
  5
2F4
100
AcDbEntity
  8
RACCORDO
100
AcDbPolyline
 62
250
  6
CONTINUOUS
 90
15
 70
0
 10
-22.8657270184
 20
3.3593309087
 10
-22.8758114004
 20
3.3541129512
 10
-22.8858322573
 20
3.3490895163
 10
-22.8957877647
 20
3.3442588092
 10
-22.9056425945
 20
3.33963449
 10
-22.9154287148
 20
3.335198052
 10
-22.9252449399
 20
3.330904371
 10
-22.93507829
 20
3.3267610186
 10
-22.9449376182
 20
3.3227661487
 10
-22.9549532382
 20
3.3188723157
 10
-22.9651173213
 20
3.3150912954
 10
-22.9754311991
 20
3.3114314576
 10
-22.986036627
 20
3.3078554255
 10
-22.9969766085
 20
3.3043673743
 10
-23.0081966716
 20
3.3010040845
  0
LWPOLYLINE
  5
2F5
100
AcDbEntity
  8
RACCORDO
100
AcDbPolyline
 62
7
  6
CONTINUOUS
 90
7
 70
0
 10
-22.9639808858
 20
3.3701811799
 10
-22.9873670968
 20
3.3582995736
 10
-23.0119163768
 20
3.3468127475
 10
-23.0360696906
 20
3.3365198835
 10
-23.0597664107
 20
3.327422764
 10
-23.0829244997
 20
3.3195246515
 10
-23.1074574375
 20
3.3122735862
  0
LWPOLYLINE
  5
2F6
100
AcDbEntity
  8
RACCORDO
100
AcDbPolyline
 62
250
  6
CONTINUOUS
 90
19
 70
0
 10
-21.9611490254
 20
5.1733917159
 10
-21.9549149757
 20
5.1764092175
 10
-21.9489308138
 20
5.1787638271
 10
-21.9431965396
 20
5.1804555448
 10
-21.937715672
 20
5.1814667608
 10
-21.9324846922
 20
5.1818150848
 10
-21.9274930433
 20
5.1815533465
 10
-21.9227056697
 20
5.1806888605
 10
-21.9181576269
 20
5.1792143121
 10
-21.9139435254
 20
5.1771605867
 10
-21.9100827868
 20
5.1745523416
 10
-21.9065559895
 20
5.1713649194
 10
-21.9033994784
 20
5.1675552336
 10
-21.9005812002
 20
5.1631090152
 10
-21.8981332082
 20
5.1580405331
 10
-21.8961880078
 20
5.1523495074
 10
-21.8947897673
 20
5.1460358447
 10
-21.8938943185
 20
5.1390996383
 10
-21.8935016612
 20
5.1315408883
  0
LINE
  5
2F7
100
AcDbEntity
  8
RACCORDO
100
AcDbLine
 62
7
  6
CONTINUOUS
 10
-24.1979189958
 20
3.4885766499
 11
-23.7928756423
 21
3.6644469418
  0
LINE
  5
2F8
100
AcDbEntity
  8
RACCORDO
100
AcDbLine
 62
7
  6
CONTINUOUS
 10
-24.1979189958
 20
1.0293686174
 11
-22.4313644335
 21
1.7965667139
  0
LINE
  5
2F9
100
AcDbEntity
  8
RACCORDO
100
AcDbLine
 62
250
  6
CONTINUOUS
 10
-21.8081812128
 20
-8.9848609206
 11
-22.5426570821
 21
-8.9100919013
  0
LINE
  5
2FA
100
AcDbEntity
  8
RACCORDO
100
AcDbLine
 62
7
  6
CONTINUOUS
 10
-21.8124836258
 20
-8.9608817213
 11
-22.5469595016
 21
-8.8861127014
  0
LWPOLYLINE
  5
2FB
100
AcDbEntity
  8
RACCORDO
100
AcDbPolyline
 62
250
  6
CONTINUOUS
 90
3
 70
0
 10
-22.5426570821
 20
-8.9100919013
 10
-22.5647843527
 20
-8.9075076234
 10
-22.5867003672
 20
-8.904288811
  0
LWPOLYLINE
  5
2FC
100
AcDbEntity
  8
RACCORDO
100
AcDbPolyline
 62
7
  6
CONTINUOUS
 90
13
 70
0
 10
-22.5469602038
 20
-8.8861126301
 10
-22.5655362157
 20
-8.8839022719
 10
-22.5831200849
 20
-8.8812144599
 10
-22.6002915518
 20
-8.8780173061
 10
-22.6169527108
 20
-8.8743521672
 10
-22.6329850471
 20
-8.8702667362
 10
-22.6482447827
 20
-8.8658273521
 10
-22.6626023834
 20
-8.8611073066
 10
-22.6759596582
 20
-8.8561800413
 10
-22.6882050022
 20
-8.8511384277
 10
-22.6991841462
 20
-8.8461089045
 10
-22.708796195
 20
-8.8412173635
 10
-22.714660128
 20
-8.8379556899
  0
LWPOLYLINE
  5
2FD
100
AcDbEntity
  8
RACCORDO
100
AcDbPolyline
 62
250
  6
CONTINUOUS
 90
4
 70
0
 10
-21.7658969848
 20
-8.9773562356
 10
-21.7530937384
 20
-8.9789313778
 10
-21.7411827271
 20
-8.9825353191
 10
-21.7327497362
 20
-8.9866419926
  0
LWPOLYLINE
  5
2FE
100
AcDbEntity
  8
RACCORDO
100
AcDbPolyline
 62
250
  6
CONTINUOUS
 90
3
 70
0
 10
-22.5867003672
 20
-8.904288811
 10
-22.6084051255
 20
-8.9004354641
 10
-22.6298996036
 20
-8.8959670016
  0
LWPOLYLINE
  5
2FF
100
AcDbEntity
  8
RACCORDO
100
AcDbPolyline
 62
250
  6
CONTINUOUS
 90
7
 70
0
 10
-22.6298996036
 20
-8.8959670016
 10
-22.6511828255
 20
-8.8908640047
 10
-22.6722518633
 20
-8.8850682165
 10
-22.6932545523
 20
-8.8785411167
 10
-22.7140430572
 20
-8.8713212256
 10
-22.7341709434
 20
-8.8634658469
 10
-22.7534893995
 20
-8.854994082
  0
LINE
  5
300
100
AcDbEntity
  8
RACCORDO
100
AcDbLine
 62
7
  6
CONTINUOUS
 10
-22.613174949
 20
1.7176081103
 11
-21.4635899619
 21
1.062351726
  0
LINE
  5
301
100
AcDbEntity
  8
RACCORDO
100
AcDbLine
 62
250
  6
CONTINUOUS
 10
-24.1979189958
 20
0.6628949897
 11
-22.4313644335
 21
-0.3457070767
  0
LINE
  5
302
100
AcDbEntity
  8
RACCORDO
100
AcDbLine
 62
250
  6
CONTINUOUS
 10
-24.1621838258
 20
1.0448880669
 11
-22.1723903547
 21
-0.091170705
  0
LINE
  5
303
100
AcDbEntity
  8
RACCORDO
100
AcDbLine
 62
250
  6
CONTINUOUS
 10
-24.1979189958
 20
2.7561128007
 11
-24.1237562506
 21
2.7132921611
  0
LWPOLYLINE
  5
304
100
AcDbEntity
  8
RACCORDO
100
AcDbPolyline
 62
250
  6
CONTINUOUS
 90
16
 70
0
 10
-21.2238027852
 20
1.2032183102
 10
-21.2088027691
 20
1.1939525688
 10
-21.1939552782
 20
1.1829726173
 10
-21.1794247988
 20
1.1704001036
 10
-21.1653722997
 20
1.1563743128
 10
-21.1519534626
 20
1.1410506375
 10
-21.1393169555
 20
1.1245988605
 10
-21.1276027644
 20
1.1072012484
 10
-21.1169406546
 20
1.0890505413
 10
-21.107448742
 20
1.0703478352
 10
-21.0992321691
 20
1.0513003276
 10
-21.0923819465
 20
1.0321190285
 10
-21.0869739505
 20
1.0130164372
 10
-21.0830680754
 20
0.9942041716
 10
-21.0807075733
 20
0.9758906245
 10
-21.0799185769
 20
0.9582786631
  0
LWPOLYLINE
  5
305
100
AcDbEntity
  8
RACCORDO
100
AcDbPolyline
 62
250
  6
CONTINUOUS
 90
16
 70
0
 10
-20.8210776086
 20
1.2913364944
 10
-20.8065398324
 20
1.2819287912
 10
-20.7930414057
 20
1.2706288344
 10
-20.780730921
 20
1.2575610154
 10
-20.7697438937
 20
1.2428691866
 10
-20.7602012705
 20
1.2267150774
 10
-20.7522080979
 20
1.2092765146
 10
-20.7458523656
 20
1.1907454639
 10
-20.7412040385
 20
1.1713259178
 10
-20.7383142859
 20
1.1512316491
 10
-20.7372149186
 20
1.1306838582
 10
-20.7379180387
 20
1.1099087378
 10
-20.740415906
 20
1.0891349832
 10
-20.7446810237
 20
1.0685912746
 10
-20.7506664409
 20
1.0485037599
 10
-20.7583062692
 20
1.029093565
  0
LWPOLYLINE
  5
306
100
AcDbEntity
  8
RACCORDO
100
AcDbPolyline
 62
250
  6
CONTINUOUS
 90
6
 70
0
 10
-20.2781793224
 20
1.1674599511
 10
-20.263641245
 20
1.1580520248
 10
-20.2501425944
 20
1.1467517936
 10
-20.2378319637
 20
1.1336836692
 10
-20.2268448622
 20
1.1189915179
 10
-20.2173022364
 20
1.1028370927
  0
LWPOLYLINE
  5
307
100
AcDbEntity
  8
RACCORDO
100
AcDbPolyline
 62
250
  6
CONTINUOUS
 90
7
 70
0
 10
-20.7583062692
 20
2.387789286
 10
-20.7506664409
 20
2.3791703428
 10
-20.7446810237
 20
2.3715372678
 10
-20.740415906
 20
2.3649740871
 10
-20.7379180387
 20
2.3595530489
 10
-20.7372149186
 20
2.3553338288
 10
-20.7380779827
 20
2.3526654736
  0
LWPOLYLINE
  5
308
100
AcDbEntity
  8
RACCORDO
100
AcDbPolyline
 62
250
  6
CONTINUOUS
 90
7
 70
0
 10
-20.2154079829
 20
3.1496296828
 10
-20.2077681582
 20
3.1410107435
 10
-20.2017827425
 20
3.133377671
 10
-20.1975176244
 20
3.1268144912
 10
-20.1950197552
 20
3.1213934527
 10
-20.1943166324
 20
3.1171742312
 10
-20.1951827128
 20
3.1145016322
  0
LWPOLYLINE
  5
309
100
AcDbEntity
  8
RACCORDO
100
AcDbPolyline
 62
7
  6
CONTINUOUS
 90
10
 70
0
 10
-24.1979380043
 20
22.8526987162
 10
-24.197324494
 20
22.8514520496
 10
-24.1961095135
 20
22.8486675793
 10
-24.1956862903
 20
22.84749475
 10
-24.1958153715
 20
22.8479940372
 10
-24.1962602264
 20
22.8500869554
 10
-24.1968472846
 20
22.8537994441
 10
-24.1974130732
 20
22.8591224893
 10
-24.1978051754
 20
22.8658840524
 10
-24.1979189968
 20
22.8724504263
  0
LWPOLYLINE
  5
30A
100
AcDbEntity
  8
RACCORDO
100
AcDbPolyline
 62
250
  6
CONTINUOUS
 90
5
 70
0
 10
-24.0144939257
 20
22.7846440589
 10
-24.022103152
 20
22.8031803051
 10
-24.0312763225
 20
22.8214356698
 10
-24.041909373
 20
22.8392069715
 10
-24.0538862676
 20
22.8563036518
  0
LINE
  5
30B
100
AcDbEntity
  8
RACCORDO
100
AcDbLine
 62
250
  6
CONTINUOUS
 10
-24.7138096294
 20
-7.7389975037
 11
-24.9804767247
 21
-7.8929786348
  0
LINE
  5
30C
100
AcDbEntity
  8
RACCORDO
100
AcDbLine
 62
250
  6
CONTINUOUS
 10
-25.6317479999
 20
-8.3340409131
 11
-24.9804767247
 21
-7.958006288
  0
LINE
  5
30D
100
AcDbEntity
  8
RACCORDO
100
AcDbLine
 62
250
  6
CONTINUOUS
 10
-25.2782484572
 20
-8.9463200809
 11
-24.626977182
 21
-8.5702854558
  0
LINE
  5
30E
100
AcDbEntity
  8
RACCORDO
100
AcDbLine
 62
250
  6
CONTINUOUS
 10
-24.3040020083
 20
-8.4488051241
 11
-24.5706784377
 21
-8.6027916451
  0
LINE
  5
30F
100
AcDbEntity
  8
RACCORDO
100
AcDbLine
 62
250
  6
CONTINUOUS
 10
-22.7089439947
 20
3.118365056
 11
-24.1237562506
 21
2.7132921611
  0
LINE
  5
310
100
AcDbEntity
  8
RACCORDO
100
AcDbLine
 62
250
  6
CONTINUOUS
 10
-22.6017029846
 20
2.8588882978
 11
-24.0165152405
 21
2.4538154029
  0
LWPOLYLINE
  5
311
100
AcDbEntity
  8
RACCORDO
100
AcDbPolyline
 62
250
  6
CONTINUOUS
 90
4
 70
0
 10
-20.2781792775
 20
1.1674599257
 10
-20.2557678793
 20
1.1607075877
 10
-20.2347736054
 20
1.1511097203
 10
-20.2323776833
 20
1.1497817219
  0
LWPOLYLINE
  5
312
100
AcDbEntity
  8
RACCORDO
100
AcDbPolyline
 62
250
  6
CONTINUOUS
 90
13
 70
0
 10
-20.2154079829
 20
0.9052170217
 10
-20.2019275584
 20
0.9011381959
 10
-20.1894500655
 20
0.8954437876
 10
-20.1779755042
 20
0.8881337968
 10
-20.1674447505
 20
0.8791461322
 10
-20.1579169285
 20
0.868542885
 10
-20.1495694105
 20
0.8565103292
 10
-20.1424202363
 20
0.8430155928
 10
-20.1364513663
 20
0.8280915478
 10
-20.1317860531
 20
0.812023083
 10
-20.1284653812
 20
0.7949051614
 10
-20.1264482662
 20
0.7766428201
 10
-20.1257347082
 20
0.7572360589
  0
LWPOLYLINE
  5
313
100
AcDbEntity
  8
RACCORDO
100
AcDbPolyline
 62
250
  6
CONTINUOUS
 90
7
 70
0
 10
-23.019690378
 20
3.2977861231
 10
-23.0345246106
 20
3.3053675829
 10
-23.0495836395
 20
3.3109155481
 10
-23.064702933
 20
3.3143694027
 10
-23.0797173011
 20
3.3156914108
 10
-23.0944627
 20
3.3148671284
 10
-23.1074574375
 20
3.3122735862
  0
LWPOLYLINE
  5
314
100
AcDbEntity
  8
RACCORDO
100
AcDbPolyline
 62
250
  6
CONTINUOUS
 90
10
 70
0
 10
-20.1889338585
 20
4.4106804905
 10
-20.1972063296
 20
4.4149509432
 10
-20.2107810934
 20
4.4200357463
 10
-20.2254240946
 20
4.4232836984
 10
-20.241123284
 20
4.424602402
 10
-20.2577366036
 20
4.4238937176
 10
-20.2751621208
 20
4.4210905117
 10
-20.2932847077
 20
4.4161415384
 10
-20.3119765093
 20
4.4090125576
 10
-20.3310966281
 20
4.3996887742
  0
LWPOLYLINE
  5
315
100
AcDbEntity
  8
RACCORDO
100
AcDbPolyline
 62
250
  6
CONTINUOUS
 90
10
 70
0
 10
-20.4564198705
 20
4.5651235668
 10
-20.4640202859
 20
4.5690905703
 10
-20.4773756203
 20
4.5742505204
 10
-20.4918022383
 20
4.577649339
 10
-20.5072565346
 20
4.5791870713
 10
-20.5236421345
 20
4.5787680331
 10
-20.5411260151
 20
4.576262755
 10
-20.5597099122
 20
4.5714886874
 10
-20.5791951722
 20
4.5643150539
 10
-20.5994387587
 20
4.5546261573
  0
LWPOLYLINE
  5
316
100
AcDbEntity
  8
RACCORDO
100
AcDbPolyline
 62
250
  6
CONTINUOUS
 90
9
 70
0
 10
-22.8657270184
 20
3.3593309087
 10
-22.880404366
 20
3.3670241268
 10
-22.8949750217
 20
3.3728145778
 10
-22.9092794081
 20
3.3766388448
 10
-22.923160864
 20
3.3784550445
 10
-22.9364673602
 20
3.378243286
 10
-22.9490531646
 20
3.3760058885
 10
-22.9607804376
 20
3.3717673559
 10
-22.9639653497
 20
3.3701893765
  0
LWPOLYLINE
  5
317
100
AcDbEntity
  8
RACCORDO
100
AcDbPolyline
 62
250
  6
CONTINUOUS
 90
8
 70
0
 10
-20.5994387587
 20
4.5546261573
 10
-20.6141161064
 20
4.5623193754
 10
-20.6286867622
 20
4.5681098264
 10
-20.6429911486
 20
4.5719340934
 10
-20.6568726045
 20
4.5737502931
 10
-20.6701791008
 20
4.5735385345
 10
-20.6827649052
 20
4.571301137
 10
-20.6944921782
 20
4.5670626043
  0
LWPOLYLINE
  5
318
100
AcDbEntity
  8
RACCORDO
100
AcDbPolyline
 62
7
  6
CONTINUOUS
 90
13
 70
0
 10
-20.4563019983
 20
4.5650547048
 10
-20.4700501111
 20
4.5724015817
 10
-20.4893504437
 20
4.5808484806
 10
-20.5095985536
 20
4.5876107934
 10
-20.5306282328
 20
4.5925664716
 10
-20.5522659643
 20
4.5956180835
 10
-20.5743514408
 20
4.5966977918
 10
-20.5967286094
 20
4.5957559103
 10
-20.6191816278
 20
4.5927656285
 10
-20.6415132953
 20
4.587731083
 10
-20.6635758948
 20
4.5806836774
 10
-20.6852268104
 20
4.5716685498
 10
-20.6976204236
 20
4.5655144792
  0
LWPOLYLINE
  5
319
100
AcDbEntity
  8
RACCORDO
100
AcDbPolyline
 62
7
  6
CONTINUOUS
 90
13
 70
0
 10
-22.2241144046
 20
5.5857681978
 10
-22.2376936871
 20
5.5930295908
 10
-22.2565758848
 20
5.6013292657
 10
-22.2763926003
 20
5.6080210633
 10
-22.2969889184
 20
5.6129844017
 10
-22.3182023369
 20
5.6161237717
 10
-22.339883718
 20
5.6173660267
 10
-22.3618842652
 20
5.6166562721
 10
-22.3839929907
 20
5.6139627113
 10
-22.4060132492
 20
5.6092882129
 10
-22.4278093012
 20
5.6026475334
 10
-22.4492521578
 20
5.5940699704
 10
-22.4653968091
 20
5.5861959977
  0
LINE
  5
31A
100
AcDbEntity
  8
RACCORDO
100
AcDbLine
 62
250
  6
CONTINUOUS
 10
-21.2238027852
 20
1.2032183102
 11
-22.3350613333
 21
1.8301568198
  0
LINE
  5
31B
100
AcDbEntity
  8
RACCORDO
100
AcDbLine
 62
250
  6
CONTINUOUS
 10
-20.8210776086
 20
1.2913364944
 11
-21.7397834777
 21
1.8096425982
  0
LINE
  5
31C
100
AcDbEntity
  8
RACCORDO
100
AcDbLine
 62
250
  6
CONTINUOUS
 10
-20.2781793224
 20
1.1674599511
 11
-21.4208086065
 21
1.8131440105
  0
LINE
  5
31D
100
AcDbEntity
  8
RACCORDO
100
AcDbLine
 62
7
  6
CONTINUOUS
 10
-20.2323761752
 20
1.1497808697
 11
-21.4136918879
 21
1.8173260966
  0
LINE
  5
31E
100
AcDbEntity
  8
RACCORDO
100
AcDbLine
 62
250
  6
CONTINUOUS
 10
-23.1588016947
 20
3.2983405913
 11
-23.7928756423
 21
3.6644469418
  0
LINE
  5
31F
100
AcDbEntity
  8
RACCORDO
100
AcDbLine
 62
250
  6
CONTINUOUS
 10
-23.019690378
 20
3.2977861231
 11
-22.7089439947
 21
3.118365056
  0
LINE
  5
320
100
AcDbEntity
  8
RACCORDO
100
AcDbLine
 62
250
  6
CONTINUOUS
 10
-23.0606312045
 20
3.3271278244
 11
-23.7136181604
 21
3.7041543089
  0
LINE
  5
321
100
AcDbEntity
  8
RACCORDO
100
AcDbLine
 62
250
  6
CONTINUOUS
 10
-22.8657270184
 20
3.3593309087
 11
-22.5581718983
 21
3.1817524369
  0
LINE
  5
322
100
AcDbEntity
  8
RACCORDO
100
AcDbLine
 62
7
  6
CONTINUOUS
 10
-21.836151751
 20
4.8625098473
 11
-21.0238103059
 21
4.393474078
  0
LINE
  5
323
100
AcDbEntity
  8
RACCORDO
100
AcDbLine
 62
250
  6
CONTINUOUS
 10
-20.3310966281
 20
4.3996887742
 11
-20.5994387587
 21
4.5546261573
  0
LINE
  5
324
100
AcDbEntity
  8
RACCORDO
100
AcDbLine
 62
250
  6
CONTINUOUS
 10
-22.098863581
 20
5.4203752575
 11
-22.3672057116
 21
5.5753126406
  0
LINE
  5
325
100
AcDbEntity
  8
RACCORDO
100
AcDbLine
 62
7
  6
CONTINUOUS
 10
-20.1889076029
 20
4.4106653362
 11
-20.4564198836
 21
4.5651235743
  0
LINE
  5
326
100
AcDbEntity
  8
RACCORDO
100
AcDbLine
 62
7
  6
CONTINUOUS
 10
-21.956674479
 20
5.4313517751
 11
-22.2241869361
 21
5.5858101151
  0
LWPOLYLINE
  5
327
100
AcDbEntity
  8
RACCORDO
100
AcDbPolyline
 62
250
  6
CONTINUOUS
 90
16
 70
0
 10
-22.098863581
 20
5.4203752575
 10
-22.0839826614
 20
5.4110019048
 10
-22.0693187692
 20
5.399912699
 10
-22.0550325027
 20
5.3872290881
 10
-22.0412803248
 20
5.373089982
 10
-22.0282128485
 20
5.357650231
 10
-22.0159731883
 20
5.3410789298
 10
-22.0046953926
 20
5.3235575661
 10
-21.994502976
 20
5.3052780329
 10
-21.9855075655
 20
5.2864405264
 10
-21.9778076793
 20
5.267251354
 10
-21.9714876468
 20
5.2479206751
 10
-21.9666166855
 20
5.2286601986
 10
-21.9632481426
 20
5.2096808648
 10
-21.9614189111
 20
5.1911905352
 10
-21.9611490254
 20
5.1733917159
  0
LINE
  5
328
100
AcDbEntity
  8
RACCORDO
100
AcDbLine
 62
7
  6
CONTINUOUS
 10
-23.6376950323
 20
-8.3467790088
 11
-24.1166730672
 21
-8.5260203209
  0
LWPOLYLINE
  5
329
100
AcDbEntity
  8
RACCORDO
100
AcDbPolyline
 62
250
  6
CONTINUOUS
 90
6
 70
0
 10
-24.2515613303
 20
-6.6649355752
 10
-24.2405965469
 20
-6.662969349
 10
-24.2320554914
 20
-6.6601119638
 10
-24.2260565943
 20
-6.6564030405
 10
-24.2226830359
 20
-6.6518940078
 10
-24.2222597043
 20
-6.6506619301
  0
LINE
  5
32A
100
AcDbEntity
  8
RACCORDO
100
AcDbLine
 62
7
  6
CONTINUOUS
 10
-22.1723903547
 20
1.8463527271
 11
-21.5662042727
 21
1.7949130242
  0
LINE
  5
32B
100
AcDbEntity
  8
RACCORDO
100
AcDbLine
 62
250
  6
CONTINUOUS
 10
-20.7583062692
 20
1.029093565
 11
-20.2154079829
 21
0.9052170217
  0
LINE
  5
32C
100
AcDbEntity
  8
RACCORDO
100
AcDbLine
 62
250
  6
CONTINUOUS
 10
-20.8210776086
 20
1.2913364944
 11
-20.2781793224
 21
1.1674599511
  0
LWPOLYLINE
  5
32D
100
AcDbEntity
  8
RACCORDO
100
AcDbPolyline
 62
250
  6
CONTINUOUS
 90
7
 70
0
 10
-24.0538862676
 20
22.8563036518
 10
-24.0670788376
 20
22.8725438578
 10
-24.0813595778
 20
22.8877665665
 10
-24.0965574056
 20
22.9017856514
 10
-24.1124545863
 20
22.9144098549
 10
-24.1288540946
 20
22.9255040221
 10
-24.1455904209
 20
22.9349766821
  0
LWPOLYLINE
  5
32E
100
AcDbEntity
  8
RACCORDO
100
AcDbPolyline
 62
250
  6
CONTINUOUS
 90
4
 70
0
 10
-21.8081812128
 20
-8.9848609206
 10
-21.7935958225
 20
-8.980338169
 10
-21.7794481897
 20
-8.9778270938
 10
-21.7658969848
 20
-8.9773562356
  0
LWPOLYLINE
  5
32F
100
AcDbEntity
  8
RACCORDO
100
AcDbPolyline
 62
250
  6
CONTINUOUS
 90
7
 70
0
 10
-23.6376950323
 20
-8.3467790088
 10
-23.6217120112
 20
-8.3419073264
 10
-23.6062856216
 20
-8.3394631735
 10
-23.5916248484
 20
-8.3394793743
 10
-23.5779291265
 20
-8.341955016
 10
-23.5653835657
 20
-8.3468566613
 10
-23.5624419635
 20
-8.3484570674
  0
LWPOLYLINE
  5
330
100
AcDbEntity
  8
RACCORDO
100
AcDbPolyline
 62
250
  6
CONTINUOUS
 90
7
 70
0
 10
-22.7901444555
 20
-8.8361440895
 10
-22.7741419141
 20
-8.831283682
 10
-22.7586878786
 20
-8.8288554762
 10
-22.7439913382
 20
-8.8288923095
 10
-22.7302510384
 20
-8.8313936838
 10
-22.7176527931
 20
-8.8363257723
 10
-22.7146971843
 20
-8.8379342782
  0
LWPOLYLINE
  5
331
100
AcDbEntity
  8
RACCORDO
100
AcDbPolyline
 62
7
  6
CONTINUOUS
 90
6
 70
0
 10
-23.8044555161
 20
18.6186166491
 10
-23.832808973
 20
18.6337348021
 10
-23.8692023208
 20
18.6497575369
 10
-23.9071067925
 20
18.6628331197
 10
-23.946340419
 20
18.6728656951
 10
-23.9502798164
 20
18.6735416771
  0
LWPOLYLINE
  5
332
100
AcDbEntity
  8
RACCORDO
100
AcDbPolyline
 62
250
  6
CONTINUOUS
 90
7
 70
0
 10
-23.5025857665
 20
18.4443211404
 10
-23.5156402205
 20
18.4513326496
 10
-23.5460783424
 20
18.4640077326
 10
-23.578748421
 20
18.4726565921
 10
-23.6135254655
 20
18.4770435063
 10
-23.6503324743
 20
18.4769545984
 10
-23.6890345016
 20
18.4721822398
  0
LWPOLYLINE
  5
333
100
AcDbEntity
  8
RACCORDO
100
AcDbPolyline
 62
250
  6
CONTINUOUS
 90
6
 70
0
 10
-23.804467205
 20
18.6186237288
 10
-23.8173694808
 20
18.6257073619
 10
-23.8535410984
 20
18.6420024161
 10
-23.8924731372
 20
18.6544391399
 10
-23.9340075928
 20
18.6627346064
 10
-23.9483966983
 20
18.6640147101
  0
LINE
  5
334
100
AcDbEntity
  8
RACCORDO
100
AcDbLine
 62
250
  6
CONTINUOUS
 10
-23.936013714
 20
18.6147849416
 11
-23.6890349173
 21
18.4721824797
  0
LINE
  5
335
100
AcDbEntity
  8
RACCORDO
100
AcDbLine
 62
7
  6
CONTINUOUS
 10
-23.8044452209
 20
18.6186110365
 11
-23.5024895613
 21
18.4442656231
  0
LINE
  5
336
100
AcDbEntity
  8
RACCORDO
100
AcDbLine
 62
7
  6
CONTINUOUS
 10
-23.8602569989
 20
18.4912518699
 11
-23.8605057465
 21
18.4913957225
  0
LWPOLYLINE
  5
337
100
AcDbEntity
  8
RACCORDO
100
AcDbPolyline
 62
7
  6
CONTINUOUS
 90
15
 70
0
 10
-23.8605041677
 20
18.491394588
 10
-23.8673415228
 20
18.4958937133
 10
-23.8763070439
 20
18.503397146
 10
-23.8861587503
 20
18.5138170645
 10
-23.896839168
 20
18.5278933317
 10
-23.9077107286
 20
18.545581096
 10
-23.9183828222
 20
18.5669044814
 10
-23.9285493015
 20
18.5919252683
 10
-23.9378805533
 20
18.6205021143
 10
-23.9460831681
 20
18.6523102255
 10
-23.9529701252
 20
18.6871523392
 10
-23.9583999321
 20
18.7248897266
 10
-23.9622581891
 20
18.7653517689
 10
-23.9644500423
 20
18.8083754065
 10
-23.9649491445
 20
18.8419481358
  0
LINE
  5
338
100
AcDbEntity
  8
RACCORDO
100
AcDbLine
 62
7
  6
CONTINUOUS
 10
42.2402309452
 20
11.3271572499
 11
42.1983565807
 21
11.3037784454
  0
LWPOLYLINE
  5
339
100
AcDbEntity
  8
RACCORDO
100
AcDbPolyline
 62
250
  6
CONTINUOUS
 90
7
 70
0
 10
42.2483566324
 20
11.3224345475
 10
42.2647864119
 20
11.330586915
 10
42.280935568
 20
11.3363749094
 10
42.2965820552
 20
11.3397189548
 10
42.3115107322
 20
11.3405730812
 10
42.3255163413
 20
11.3389255451
 10
42.3384063298
 20
11.3347989908
  0
LWPOLYLINE
  5
33A
100
AcDbEntity
  8
RACCORDO
100
AcDbPolyline
 62
250
  6
CONTINUOUS
 90
8
 70
0
 10
42.2389731648
 20
11.3278834769
 10
42.2555078509
 20
11.3359743812
 10
42.2717812539
 20
11.3416896006
 10
42.2875696251
 20
11.344950557
 10
42.3026558852
 20
11.3457124169
 10
42.3168326081
 20
11.3439647078
 10
42.3299048731
 20
11.3397314627
 10
42.336500693
 20
11.3363965676
  0
LINE
  5
33B
100
AcDbEntity
  8
RACCORDO
100
AcDbLine
 62
250
  6
CONTINUOUS
 10
-23.0081966716
 20
3.3010040845
 11
-23.019690378
 21
3.2977861231
  0
LINE
  5
33C
100
AcDbEntity
  8
RACCORDO
100
AcDbLine
 62
250
  6
CONTINUOUS
 10
-23.019690378
 20
3.2977861231
 11
-24.1979189958
 21
2.9780569633
  0
LINE
  5
33D
100
AcDbEntity
  8
RACCORDO
100
AcDbLine
 62
7
  6
CONTINUOUS
 10
-23.1074780259
 20
3.3122680017
 11
-24.1979189958
 21
3.0163612737
  0
LWPOLYLINE
  5
33E
100
AcDbEntity
  8
RACCORDO
100
AcDbPolyline
 62
250
  6
CONTINUOUS
 90
4
 70
0
 10
-24.0165152405
 20
2.4538154029
 10
-24.0899766837
 20
2.4350621767
 10
-24.1620381781
 20
2.4212067393
 10
-24.1979189958
 20
2.4166581867
  0
LINE
  5
33F
100
AcDbEntity
  8
RACCORDO
100
AcDbLine
 62
250
  6
CONTINUOUS
 10
-24.1237562506
 20
2.7132921611
 11
-24.1979189958
 21
2.6945618645
  0
LINE
  5
340
100
AcDbEntity
  8
RACCORDO
100
AcDbLine
 62
250
  6
CONTINUOUS
 10
-24.1455904209
 20
22.9349766821
 11
-24.1624809418
 21
22.9427415682
  0
LINE
  5
341
100
AcDbEntity
  8
RACCORDO
100
AcDbLine
 62
250
  6
CONTINUOUS
 10
-24.178082046
 20
22.9087333994
 11
-24.1951598306
 21
22.9165943581
  0
LWPOLYLINE
  5
342
100
AcDbEntity
  8
RACCORDO
100
AcDbPolyline
 62
250
  6
CONTINUOUS
 90
9
 70
0
 10
-24.0649442528
 20
22.9512495993
 10
-24.0693453447
 20
22.9535762886
 10
-24.0806299629
 20
22.9578272697
 10
-24.0928179992
 20
22.9601520189
 10
-24.1057788745
 20
22.9605256316
 10
-24.1193737209
 20
22.958944105
 10
-24.1334568781
 20
22.955424384
 10
-24.1478774542
 20
22.9500041804
 10
-24.1624809418
 20
22.9427415682
  0
LINE
  5
343
100
AcDbEntity
  8
RACCORDO
100
AcDbLine
 62
250
  6
CONTINUOUS
 10
-24.1979189958
 20
22.9632030564
 11
-24.1624809418
 21
22.9427415682
  0
LINE
  5
344
100
AcDbEntity
  8
RACCORDO
100
AcDbLine
 62
7
  6
CONTINUOUS
 10
-24.1979189958
 20
23.0280275494
 11
-24.0649442528
 21
22.9512495993
  0
LWPOLYLINE
  5
345
100
AcDbEntity
  8
RACCORDO
100
AcDbPolyline
 62
250
  6
CONTINUOUS
 90
7
 70
0
 10
43.0833268083
 20
9.8762237629
 10
43.0986013508
 20
9.886379024
 10
43.1116878939
 20
9.8974730991
 10
43.1224065071
 20
9.9093534587
 10
43.130609818
 20
9.9218567698
 10
43.1361850382
 20
9.9348111198
 10
43.139055514
 20
9.9480383806
  0
LINE
  5
346
100
AcDbEntity
  8
RACCORDO
100
AcDbLine
 62
7
  6
CONTINUOUS
 10
43.0833536863
 20
9.8668258621
 11
43.0421837119
 21
9.8422560396
  0
LINE
  5
347
100
AcDbEntity
  8
RACCORDO
100
AcDbLine
 62
250
  6
CONTINUOUS
 10
40.8659464202
 20
10.7831729544
 11
42.0016667211
 21
11.4389173108
  0
LINE
  5
348
100
AcDbEntity
  8
RACCORDO
100
AcDbLine
 62
250
  6
CONTINUOUS
 10
44.3738167142
 20
12.1569859828
 11
42.6022494225
 21
11.1341017194
  0
LINE
  5
349
100
AcDbEntity
  8
RACCORDO
100
AcDbLine
 62
250
  6
CONTINUOUS
 10
44.868716074
 20
11.299795148
 11
43.097199572
 21
10.27694021
  0
LINE
  5
34A
100
AcDbEntity
  8
RACCORDO
100
AcDbLine
 62
250
  6
CONTINUOUS
 10
41.9251529941
 20
8.9485733546
 11
43.060873295
 21
9.604317711
  0
LWPOLYLINE
  5
34B
100
AcDbEntity
  8
RACCORDO
100
AcDbPolyline
 62
250
  6
CONTINUOUS
 90
8
 70
0
 10
43.0833541947
 20
9.8653732244
 10
43.098627904
 20
9.8756482271
 10
43.1117135294
 20
9.8868848937
 10
43.1224311499
 20
9.8989287288
 10
43.1306334026
 20
9.9116141382
 10
43.1362075096
 20
9.9247667066
 10
43.1390768276
 20
9.9382055965
 10
43.1394855281
 20
9.945586453
  0
LWPOLYLINE
  5
34C
100
AcDbEntity
  8
RACCORDO
100
AcDbPolyline
 62
250
  6
CONTINUOUS
 90
16
 70
0
 10
-26.0522775454
 20
34.6811644793
 10
-26.0292123303
 20
34.6691592755
 10
-26.004121399
 20
34.6585950956
 10
-25.9772736088
 20
34.6495851175
 10
-25.94895664
 20
34.6422258655
 10
-25.919473904
 20
34.6365961739
 10
-25.8891412913
 20
34.6327563451
 10
-25.8582838053
 20
34.6307475058
 10
-25.8272320635
 20
34.6305911642
 10
-25.796318745
 20
34.6322889819
 10
-25.765875062
 20
34.6358227561
 10
-25.7362271874
 20
34.6411546138
 10
-25.7076927445
 20
34.6482274236
 10
-25.6805774423
 20
34.6569654024
 10
-25.6551717975
 20
34.6672749227
 10
-25.6317479999
 20
34.6790455217
  0
LINE
  5
34D
100
AcDbEntity
  8
RACCORDO
100
AcDbLine
 62
250
  6
CONTINUOUS
 10
-24.1979189958
 20
32.5052357846
 11
-22.4313644335
 21
31.4966337183
  0
LINE
  5
34E
100
AcDbEntity
  8
RACCORDO
100
AcDbLine
 62
250
  6
CONTINUOUS
 10
-24.1621838258
 20
32.8872288618
 11
-22.1723903547
 21
31.7511700899
  0
LINE
  5
34F
100
AcDbEntity
  8
RACCORDO
100
AcDbLine
 62
7
  6
CONTINUOUS
 10
-25.4245534908
 20
34.8703502315
 11
22.0094097992
 21
7.4825743151
  0
LINE
  5
350
100
AcDbEntity
  8
RACCORDO
100
AcDbLine
 62
250
  6
CONTINUOUS
 10
-25.4866782771
 20
35.0076712899
 11
21.9472850126
 21
7.6198953736
  0
LWPOLYLINE
  5
351
100
AcDbEntity
  8
RACCORDO
100
AcDbPolyline
 62
7
  6
CONTINUOUS
 90
27
 70
0
 10
22.0094291498
 20
7.4825631452
 10
22.0206439728
 20
7.4758755177
 10
22.0416924248
 20
7.4622132011
 10
22.0639904512
 20
7.4462046582
 10
22.0871592362
 20
7.4279250664
 10
22.1109915818
 20
7.4073696321
 10
22.1352995646
 20
7.3845399366
 10
22.1597476482
 20
7.3596103743
 10
22.1841345276
 20
7.3326683906
 10
22.2082658151
 20
7.3038173121
 10
22.2318483952
 20
7.2733168837
 10
22.2547018634
 20
7.2413331714
 10
22.2766565868
 20
7.2080443299
 10
22.2974777451
 20
7.1737711215
 10
22.3170294512
 20
7.1387289471
 10
22.3351890449
 20
7.1031414108
 10
22.3517907556
 20
7.0673705666
 10
22.3667603575
 20
7.0316522067
 10
22.3800394855
 20
6.9962253096
 10
22.3915437525
 20
6.9614727054
 10
22.4012753273
 20
6.9276161927
 10
22.4092533479
 20
6.8948765188
 10
22.4154874688
 20
6.8636333295
 10
22.4200643183
 20
6.8340556864
 10
22.4230857691
 20
6.8063243337
 10
22.4246685905
 20
6.7808064332
 10
22.4250163198
 20
6.7627608802
  0
LWPOLYLINE
  5
352
100
AcDbEntity
  8
RACCORDO
100
AcDbPolyline
 62
250
  6
CONTINUOUS
 90
5
 70
0
 10
21.9472850126
 20
7.6198953736
 10
21.9846814425
 20
7.5967960302
 10
22.0214841954
 20
7.5713597285
 10
22.0576932713
 20
7.5435864683
 10
22.0934053157
 20
7.5133740479
  0
LWPOLYLINE
  5
353
100
AcDbEntity
  8
RACCORDO
100
AcDbPolyline
 62
250
  6
CONTINUOUS
 90
9
 70
0
 10
22.512884281
 20
6.6402487051
 10
22.4920923589
 20
6.6535660142
 10
22.4737960556
 20
6.6680529512
 10
22.4581914033
 20
6.6835542989
 10
22.4454455951
 20
6.6999039709
 10
22.4356951933
 20
6.7169267918
 10
22.4290446668
 20
6.7344403741
 10
22.4255652715
 20
6.7522570716
 10
22.4250163153
 20
6.7627310831
  0
LWPOLYLINE
  5
354
100
AcDbEntity
  8
RACCORDO
100
AcDbPolyline
 62
250
  6
CONTINUOUS
 90
21
 70
0
 10
22.0934053157
 20
7.5133740479
 10
22.128523683
 20
7.480824669
 10
22.1627584371
 20
7.4462449374
 10
22.1961554473
 20
7.409570453
 10
22.2286688443
 20
7.3708656158
 10
22.2598710832
 20
7.3306302311
 10
22.2897462023
 20
7.2888344313
 10
22.3183101634
 20
7.2455080841
 10
22.3451833068
 20
7.2012405972
 10
22.3703266012
 20
7.1560511423
 10
22.393779078
 20
7.1099205477
 10
22.4152781722
 20
7.0633807059
 10
22.4347885491
 20
7.0165447263
 10
22.4523455433
 20
6.9692994995
 10
22.4677925942
 20
6.9218375897
 10
22.4811874659
 20
6.8739510449
 10
22.4924723942
 20
6.8258478171
 10
22.5013175252
 20
6.7783443272
 10
22.5076129077
 20
6.7317127153
 10
22.511468493
 20
6.6856808413
 10
22.512884281
 20
6.6402487051
  0
LWPOLYLINE
  5
355
100
AcDbEntity
  8
RACCORDO
100
AcDbPolyline
 62
250
  6
CONTINUOUS
 90
9
 70
0
 10
21.9472850126
 20
7.6198953736
 10
21.9484214785
 20
7.5952312317
 10
21.9518186855
 20
7.5721437881
 10
21.9574402134
 20
7.5508804008
 10
21.9652258091
 20
7.5316688824
 10
21.9750920353
 20
7.5147150532
 10
21.9869331666
 20
7.5002005383
 10
22.0006223158
 20
7.4882808325
 10
22.0094097992
 20
7.4825743151
  0
LINE
  5
356
100
AcDbEntity
  8
RACCORDO
100
AcDbLine
 62
7
  6
CONTINUOUS
 10
22.4250163153
 20
6.7627310831
 11
22.4250163153
 21
-36.2503553519
  0
LINE
  5
357
100
AcDbEntity
  8
RACCORDO
100
AcDbLine
 62
250
  6
CONTINUOUS
 10
22.512884281
 20
6.6402487051
 11
22.512884281
 21
-36.3728377296
  0
LWPOLYLINE
  5
358
100
AcDbEntity
  8
RACCORDO
100
AcDbPolyline
 62
7
  6
CONTINUOUS
 90
9
 70
0
 10
22.4250163259
 20
-36.2504013062
 10
22.4245871593
 20
-36.2696578655
 10
22.4230711966
 20
-36.2903655603
 10
22.4206162594
 20
-36.3088259881
 10
22.4173984706
 20
-36.3249491603
 10
22.41369128
 20
-36.3384111934
 10
22.4099672144
 20
-36.3486968486
 10
22.4067490585
 20
-36.3556773589
 10
22.4062000395
 20
-36.3567103922
  0
LWPOLYLINE
  5
359
100
AcDbEntity
  8
RACCORDO
100
AcDbPolyline
 62
250
  6
CONTINUOUS
 90
25
 70
0
 10
22.512884281
 20
-36.3728377296
 10
22.5115790404
 20
-36.4152643867
 10
22.5079530021
 20
-36.4556655471
 10
22.5020061661
 20
-36.494041211
 10
22.4936983474
 20
-36.530479769
 10
22.4830697311
 20
-36.5648928304
 10
22.4702408716
 20
-36.5970152231
 10
22.4551789322
 20
-36.6268809515
 10
22.4379167497
 20
-36.6544560112
 10
22.4186733891
 20
-36.6793732173
 10
22.3974150018
 20
-36.7015945957
 10
22.3741754365
 20
-36.7211581205
 10
22.3492753035
 20
-36.7378105294
 10
22.322711689
 20
-36.7515050715
 10
22.2944875068
 20
-36.7622884976
 10
22.2649321091
 20
-36.7700477973
 10
22.2341257854
 20
-36.774788529
 10
22.2019882461
 20
-36.7765051342
 10
22.1686079742
 20
-36.7750679268
 10
22.133833757
 20
-36.7704562969
 10
22.0978168071
 20
-36.7626908544
 10
22.0610992456
 20
-36.7517037432
 10
22.0238617795
 20
-36.7374723443
 10
21.9859237019
 20
-36.7200192767
 10
21.9472850126
 20
-36.6993445403
  0
LWPOLYLINE
  5
35A
100
AcDbEntity
  8
RACCORDO
100
AcDbPolyline
 62
250
  6
CONTINUOUS
 90
16
 70
0
 10
21.9472850126
 20
-36.6993445403
 10
21.9484214365
 20
-36.6733685263
 10
21.9518185321
 20
-36.6463585134
 10
21.957439902
 20
-36.6186038954
 10
21.9652253169
 20
-36.5904020436
 10
21.9750913617
 20
-36.5620551213
 10
21.9869323284
 20
-36.5338668463
 10
22.0006213494
 20
-36.5061392362
 10
22.0160117562
 20
-36.4791693733
 10
22.0329386513
 20
-36.4532462209
 10
22.0512206748
 20
-36.4286475277
 10
22.0706619475
 20
-36.4056368515
 10
22.0910541695
 20
-36.3844607359
 10
22.1121788523
 20
-36.3653460683
 10
22.1338096597
 20
-36.348497649
 10
22.1557148325
 20
-36.3340959972
  0
LWPOLYLINE
  5
35B
100
AcDbEntity
  8
RACCORDO
100
AcDbPolyline
 62
250
  6
CONTINUOUS
 90
7
 70
0
 10
-23.6890349173
 20
18.4721824797
 10
-23.7214047127
 20
18.4659568902
 10
-23.7526646645
 20
18.4637146937
 10
-23.7826668742
 20
18.4654047833
 10
-23.8112110535
 20
18.470936161
 10
-23.838235071
 20
18.480245139
 10
-23.8602569989
 20
18.4912518699
  0
LWPOLYLINE
  5
35C
100
AcDbEntity
  8
RACCORDO
100
AcDbPolyline
 62
250
  6
CONTINUOUS
 90
13
 70
0
 10
-23.5817728362
 20
18.2236237453
 10
-23.6226432867
 20
18.2172947958
 10
-23.6617715386
 20
18.2155511077
 10
-23.6991575918
 20
18.2183926811
 10
-23.7348878816
 20
18.2258774924
 10
-23.7688759728
 20
18.2379475651
 10
-23.8008625593
 20
18.2544289706
 10
-23.8308535615
 20
18.2753131098
 10
-23.8588430589
 20
18.3006085818
 10
-23.8845539848
 20
18.3301672553
 10
-23.907996011
 20
18.3639840153
 10
-23.9291594656
 20
18.402063977
 10
-23.9477382661
 20
18.4442743541
  0
LWPOLYLINE
  5
35D
100
AcDbEntity
  8
RACCORDO
100
AcDbPolyline
 62
250
  6
CONTINUOUS
 90
11
 70
0
 10
-44.7764275647
 20
58.6220721912
 10
-44.8049598798
 20
58.6399982132
 10
-44.8307748082
 20
58.6592485665
 10
-44.8536887544
 20
58.6796863429
 10
-44.8735387549
 20
58.7011661894
 10
-44.8901836368
 20
58.7235353416
 10
-44.9035050221
 20
58.7466347105
 10
-44.9134081693
 20
58.7703000138
 10
-44.9198226473
 20
58.7943629443
 10
-44.9227028366
 20
58.8186523669
 10
-44.922874174
 20
58.8262033935
  0
LINE
  5
35E
100
AcDbEntity
  8
RACCORDO
100
AcDbLine
 62
250
  6
CONTINUOUS
 10
42.3384063298
 20
11.3347989908
 11
42.3448498039
 21
11.3315528236
  0
LWPOLYLINE
  5
35F
100
AcDbEntity
  8
RACCORDO
100
AcDbPolyline
 62
250
  6
CONTINUOUS
 90
19
 70
0
 10
41.2370343003
 20
8.9589773122
 10
41.2680807506
 20
8.9425032757
 10
41.3014208644
 20
8.9275981715
 10
41.3368175402
 20
8.9143680091
 10
41.3740190502
 20
8.9029068866
 10
41.4127608271
 20
8.8932963221
 10
41.4527673455
 20
8.885604673
 10
41.4937540873
 20
8.8798866494
 10
41.5354295589
 20
8.8761829253
 10
41.5774973612
 20
8.8745198496
 10
41.6196583106
 20
8.8749092568
 10
41.661612557
 20
8.8773483848
 10
41.7030617106
 20
8.8818198919
 10
41.7437109829
 20
8.8882919824
 10
41.7832712709
 20
8.8967186317
 10
41.8214612057
 20
8.9070399113
 10
41.8580091719
 20
8.9191824177
 10
41.8926552378
 20
8.9330597968
 10
41.9251529941
 20
8.9485733546
  0
LWPOLYLINE
  5
360
100
AcDbEntity
  8
RACCORDO
100
AcDbPolyline
 62
250
  6
CONTINUOUS
 90
28
 70
0
 10
-44.0702898488
 20
59.0297084567
 10
-44.1118616462
 20
59.0522210658
 10
-44.1528507902
 20
59.0717445494
 10
-44.1932572805
 20
59.0882789074
 10
-44.2331467169
 20
59.1018266232
 10
-44.2724534997
 20
59.1123852133
 10
-44.3109808306
 20
59.1199472277
 10
-44.348793891
 20
59.1245177282
 10
-44.3858274996
 20
59.126091653
 10
-44.4216893139
 20
59.1246463662
 10
-44.4563571666
 20
59.1201495039
 10
-44.489853225
 20
59.1126334301
 10
-44.5218516483
 20
59.1021726008
 10
-44.5523404048
 20
59.0887367268
 10
-44.5813315263
 20
59.0723560974
 10
-44.6085352672
 20
59.0531960361
 10
-44.6339105915
 20
59.0312833448
 10
-44.6574985353
 20
59.0065912216
 10
-44.6791324611
 20
58.9792045847
 10
-44.6988448523
 20
58.9490720439
 10
-44.7166032255
 20
58.9162449893
 10
-44.7321434928
 20
58.8809625094
 10
-44.7454461115
 20
58.8431602146
 10
-44.7565306245
 20
58.8029024945
 10
-44.7651915722
 20
58.7606216064
 10
-44.7713604683
 20
58.716461636
 10
-44.7751057991
 20
58.6702784976
 10
-44.7764275647
 20
58.6220721912
  0
LINE
  5
361
100
AcDbEntity
  8
RACCORDO
100
AcDbLine
 62
250
  6
CONTINUOUS
 10
40.5308965844
 20
10.182043712
 11
-44.0702898488
 21
59.0297084567
  0
LINE
  5
362
100
AcDbEntity
  8
RACCORDO
100
AcDbLine
 62
250
  6
CONTINUOUS
 10
40.8659464202
 20
10.7831729544
 11
-43.735240013
 21
59.630837699
  0
LINE
  5
363
100
AcDbEntity
  8
RACCORDO
100
AcDbLine
 62
7
  6
CONTINUOUS
 10
42.0016667211
 20
11.4389173108
 11
-42.7126328608
 21
60.3518921699
  0
LINE
  5
364
100
AcDbEntity
  8
RACCORDO
100
AcDbLine
 62
250
  6
CONTINUOUS
 10
42.2402309452
 20
11.3271572499
 11
-42.4736364111
 21
60.2398825472
  0
LINE
  5
365
100
AcDbEntity
  8
RACCORDO
100
AcDbLine
 62
7
  6
CONTINUOUS
 10
42.336509512
 20
11.3363914765
 11
-42.3748422502
 21
60.2476643014
  0
LINE
  5
366
100
AcDbEntity
  8
RACCORDO
100
AcDbLine
 62
250
  6
CONTINUOUS
 10
-42.3814466495
 20
60.2510049504
 11
-42.3748435215
 21
60.2476650355
  0
LWPOLYLINE
  5
367
100
AcDbEntity
  8
RACCORDO
100
AcDbPolyline
 62
250
  6
CONTINUOUS
 90
16
 70
0
 10
-43.735240013
 20
59.630837699
 10
-43.7982527858
 20
59.6638644554
 10
-43.8607304927
 20
59.6925119752
 10
-43.9224617613
 20
59.7167397787
 10
-43.9831430016
 20
59.7364984883
 10
-44.0426815298
 20
59.7518181454
 10
-44.1011781676
 20
59.7627396134
 10
-44.1585365833
 20
59.7692302199
 10
-44.2144524606
 20
59.7712401948
 10
-44.2687081154
 20
59.7687537602
 10
-44.321109378
 20
59.7617838553
 10
-44.3714946253
 20
59.7503577671
 10
-44.419707626
 20
59.7345100398
 10
-44.4655932606
 20
59.7142903905
 10
-44.508992497
 20
59.6897683285
 10
-44.5292447043
 20
59.6762493794
  0
LWPOLYLINE
  5
368
100
AcDbEntity
  8
RACCORDO
100
AcDbPolyline
 62
250
  6
CONTINUOUS
 90
9
 70
0
 10
44.4711881874
 20
12.1655890929
 10
44.4669530667
 20
12.1678203397
 10
44.4556684925
 20
12.1720714618
 10
44.4434804402
 20
12.1743963513
 10
44.4305194921
 20
12.1747700807
 10
44.4169245273
 20
12.1731886307
 10
44.4028412121
 20
12.1696689364
 10
44.3884204369
 20
12.1642486987
 10
44.3738167142
 20
12.1569859828
  0
LWPOLYLINE
  5
369
100
AcDbEntity
  8
RACCORDO
100
AcDbPolyline
 62
250
  6
CONTINUOUS
 90
9
 70
0
 10
-40.1739861742
 20
61.0386522307
 10
-40.1783850716
 20
61.0409776327
 10
-40.1896696684
 20
61.0452285648
 10
-40.2018576841
 20
61.0475532786
 10
-40.2148185325
 20
61.0479268665
 10
-40.2284133472
 20
61.0463453257
 10
-40.2424964691
 20
61.0428256013
 10
-40.2569170073
 20
61.0374054047
 10
-40.2715204559
 20
61.0301428096
  0
LWPOLYLINE
  5
36A
100
AcDbEntity
  8
RACCORDO
100
AcDbPolyline
 62
7
  6
CONTINUOUS
 90
13
 70
0
 10
-40.1739861743
 20
61.0386522308
 10
-40.2108767867
 20
61.0584011209
 10
-40.2514487275
 20
61.0766173886
 10
-40.2919273777
 20
61.0911951977
 10
-40.3322071487
 20
61.1021358507
 10
-40.3721346058
 20
61.1094468214
 10
-40.4114430696
 20
61.1131387494
 10
-40.4499689758
 20
61.1132577183
 10
-40.4875127465
 20
61.1098737191
 10
-40.5236763459
 20
61.1031301007
 10
-40.5581808468
 20
61.0932253015
 10
-40.5908996181
 20
61.0803517472
 10
-40.6144598683
 20
61.0687318986
  0
LINE
  5
36B
100
AcDbEntity
  8
RACCORDO
100
AcDbLine
 62
7
  6
CONTINUOUS
 10
-42.3831864341
 20
60.252459083
 11
-42.4314701914
 21
60.2784441478
  0
LWPOLYLINE
  5
36C
100
AcDbEntity
  8
RACCORDO
100
AcDbPolyline
 62
250
  6
CONTINUOUS
 90
14
 70
0
 10
-42.4817163621
 20
60.2445167789
 10
-42.4907436583
 20
60.2495970799
 10
-42.4999635225
 20
60.2546723473
 10
-42.5093744826
 20
60.259734402
 10
-42.5189404265
 20
60.2647559162
 10
-42.5286940973
 20
60.2697480529
 10
-42.53873675
 20
60.2747556064
 10
-42.5490902911
 20
60.2797775942
 10
-42.5597272901
 20
60.2847859462
 10
-42.5706740791
 20
60.2897782575
 10
-42.581913089
 20
60.2947319328
 10
-42.5934539581
 20
60.2996351336
 10
-42.6053625752
 20
60.3044956033
 10
-42.6176524687
 20
60.3092975724
  0
LINE
  5
36D
100
AcDbEntity
  8
RACCORDO
100
AcDbLine
 62
250
  6
CONTINUOUS
 10
-42.4736354529
 20
60.2398831852
 11
-42.4817163621
 21
60.2445167789
  0
LINE
  5
36E
100
AcDbEntity
  8
RACCORDO
100
AcDbLine
 62
7
  6
CONTINUOUS
 10
-42.3748431683
 20
60.2476656472
 11
-42.3834340548
 21
60.2526014222
  0
LINE
  5
36F
100
AcDbEntity
  8
RACCORDO
100
AcDbLine
 62
250
  6
CONTINUOUS
 10
-40.2715204559
 20
61.0301428096
 11
44.3738167142
 21
12.1569859828
  0
LINE
  5
370
100
AcDbEntity
  8
RACCORDO
100
AcDbLine
 62
7
  6
CONTINUOUS
 10
-40.1739837668
 20
61.0386508408
 11
44.4713533985
 21
12.1654940168
  0
LINE
  5
371
100
AcDbEntity
  8
RACCORDO
100
AcDbLine
 62
7
  6
CONTINUOUS
 10
42.3451722912
 20
11.3313658671
 11
42.3378775176
 21
11.3356019064
  0
LINE
  5
372
100
AcDbEntity
  8
RACCORDO
100
AcDbLine
 62
250
  6
CONTINUOUS
 10
42.2483566325
 20
11.322434549
 11
42.2402319018
 21
11.3271578886
  0
LWPOLYLINE
  5
373
100
AcDbEntity
  8
RACCORDO
100
AcDbPolyline
 62
250
  6
CONTINUOUS
 90
4
 70
0
 10
44.3738167142
 20
12.1569859828
 10
44.4108850334
 20
12.1341906525
 10
44.4476752267
 20
12.1083826907
 10
44.4839829089
 20
12.0797189557
  0
LWPOLYLINE
  5
374
100
AcDbEntity
  8
RACCORDO
100
AcDbPolyline
 62
250
  6
CONTINUOUS
 90
13
 70
0
 10
42.376901265
 20
11.2360859687
 10
42.3657070673
 20
11.2444975387
 10
42.3548220298
 20
11.2525073045
 10
42.3441711581
 20
11.260186561
 10
42.3338313934
 20
11.2674932853
 10
42.3237324627
 20
11.2744898137
 10
42.3135761664
 20
11.2813889907
 10
42.3033576333
 20
11.2881936962
 10
42.2930845444
 20
11.2948957925
 10
42.2824752613
 20
11.3016689717
 10
42.2714361806
 20
11.3085565093
 10
42.2600627885
 20
11.3154835231
 10
42.2483566325
 20
11.322434549
  0
LWPOLYLINE
  5
375
100
AcDbEntity
  8
RACCORDO
100
AcDbPolyline
 62
250
  6
CONTINUOUS
 90
11
 70
0
 10
40.5308965844
 20
-60.721381707
 10
40.5321537946
 20
-60.7550523605
 10
40.5359164841
 20
-60.7870318046
 10
40.5421579035
 20
-60.8170925989
 10
40.5508336747
 20
-60.845020947
 10
40.5618821063
 20
-60.8706182157
 10
40.5752246312
 20
-60.8937023481
 10
40.5907663674
 20
-60.9141091618
 10
40.6083967907
 20
-60.9316935134
 10
40.6279905188
 20
-60.9463303304
 10
40.6344313101
 20
-60.9502463354
  0
LWPOLYLINE
  5
376
100
AcDbEntity
  8
RACCORDO
100
AcDbPolyline
 62
250
  6
CONTINUOUS
 90
19
 70
0
 10
40.5308965844
 20
10.182043712
 10
40.5321538171
 20
10.2171665213
 10
40.5359165739
 20
10.2534913585
 10
40.5421580941
 20
10.2907598822
 10
40.5508339881
 20
10.3287070393
 10
40.5618825532
 20
10.3670629503
 10
40.575225212
 20
10.4055548285
 10
40.5907670719
 20
10.4439089205
 10
40.6083975995
 20
10.4818524526
 10
40.6279914066
 20
10.519115571
 10
40.6494091426
 20
10.5554332612
 10
40.6724984849
 20
10.5905472324
 10
40.6970952223
 20
10.6242077546
 10
40.7230244235
 20
10.6561754347
 10
40.7501016804
 20
10.6862229193
 10
40.77813442
 20
10.7141365111
 10
40.8069232739
 20
10.7397176891
 10
40.8362634963
 20
10.7627845205
 10
40.8659464202
 20
10.7831729544
  0
LWPOLYLINE
  5
377
100
AcDbEntity
  8
RACCORDO
100
AcDbPolyline
 62
7
  6
CONTINUOUS
 90
5
 70
0
 10
-42.4314701914
 20
60.2784441478
 10
-42.4850386486
 20
60.3036926285
 10
-42.5389737874
 20
60.3252473677
 10
-42.5930059485
 20
60.3428358524
 10
-42.6465597417
 20
60.3562514462
  0
LWPOLYLINE
  5
378
100
AcDbEntity
  8
RACCORDO
100
AcDbPolyline
 62
250
  6
CONTINUOUS
 90
19
 70
0
 10
44.4839829089
 20
12.0797189557
 10
44.5195776464
 20
12.048397141
 10
44.5542975412
 20
12.0145802419
 10
44.5880423467
 20
11.9783747995
 10
44.6206651673
 20
11.9399220135
 10
44.6519363502
 20
11.8994736981
 10
44.6816397777
 20
11.8573114292
 10
44.7095751491
 20
11.8137361738
 10
44.7356366305
 20
11.7689285539
 10
44.7597539633
 20
11.7229985689
 10
44.7817873304
 20
11.676176514
 10
44.8015901018
 20
11.6287332411
 10
44.8190658969
 20
11.580838732
 10
44.8341023651
 20
11.532706069
 10
44.8465601143
 20
11.4846651752
 10
44.8563192224
 20
11.4370673401
 10
44.8632993541
 20
11.3902157553
 10
44.8674465128
 20
11.3443659423
 10
44.8687161059
 20
11.2997951664
  0
LWPOLYLINE
  5
379
100
AcDbEntity
  8
RACCORDO
100
AcDbPolyline
 62
250
  6
CONTINUOUS
 90
28
 70
0
 10
41.9251529941
 20
8.9485733546
 10
41.9222465945
 20
9.0206108458
 10
41.9158150956
 20
9.0942085434
 10
41.9059291352
 20
9.1690986317
 10
41.8926977583
 20
9.2448952896
 10
41.8761933289
 20
9.3214480375
 10
41.856400822
 20
9.3988591672
 10
41.8333401115
 20
9.4770198463
 10
41.8071202659
 20
9.5555347292
 10
41.7778364737
 20
9.6340860571
 10
41.7455970351
 20
9.7123926892
 10
41.7105064009
 20
9.7902194186
 10
41.6726726115
 20
9.8673174346
 10
41.632216292
 20
9.9434382662
 10
41.5892771645
 20
10.0183238362
 10
41.5440038724
 20
10.0917155682
 10
41.4966215354
 20
10.1632602424
 10
41.4472173048
 20
10.2328372136
 10
41.3957195613
 20
10.3005187646
 10
41.3421942238
 20
10.3661457335
 10
41.2868766145
 20
10.4293592193
 10
41.2299396571
 20
10.4899080061
 10
41.1715189887
 20
10.5475788739
 10
41.1118393469
 20
10.6020895298
 10
41.0512243845
 20
10.6531130421
 10
40.9899204298
 20
10.7004144768
 10
40.9280910018
 20
10.7438295033
 10
40.8659464202
 20
10.7831729544
  0
LWPOLYLINE
  5
37A
100
AcDbEntity
  8
RACCORDO
100
AcDbPolyline
 62
7
  6
CONTINUOUS
 90
23
 70
0
 10
43.1394654126
 20
9.9551677201
 10
43.1373881109
 20
10.0199577487
 10
43.1315811724
 20
10.0886902264
 10
43.1219295058
 20
10.15903864
 10
43.1083565696
 20
10.2306064788
 10
43.0909687094
 20
10.3028162676
 10
43.0698626028
 20
10.3754372441
 10
43.0451267835
 20
10.4482251526
 10
43.0169618547
 20
10.5206016963
 10
42.9855136561
 20
10.5922152229
 10
42.9508510783
 20
10.6628878091
 10
42.9131061057
 20
10.7322975843
 10
42.8724341111
 20
10.800129067
 10
42.8290150253
 20
10.8660760986
 10
42.7830216009
 20
10.9298854279
 10
42.7345604512
 20
10.9913927987
 10
42.6838642378
 20
11.0502598719
 10
42.6313289144
 20
11.1059987964
 10
42.57711579
 20
11.1583912958
 10
42.5213714603
 20
11.2072088968
 10
42.4645533492
 20
11.2520159814
 10
42.4070594621
 20
11.2926239176
 10
42.3448498575
 20
11.3315527935
  0
LWPOLYLINE
  5
37B
100
AcDbEntity
  8
RACCORDO
100
AcDbPolyline
 62
250
  6
CONTINUOUS
 90
28
 70
0
 10
41.2370343003
 20
8.9589773122
 10
41.2357435122
 20
9.0077240275
 10
41.232155337
 20
9.0571244566
 10
41.2262697746
 20
9.1071785997
 10
41.2180561728
 20
9.1579799002
 10
41.2075451839
 20
9.2094349145
 10
41.1948287642
 20
9.2612633124
 10
41.1798787037
 20
9.3135566446
 10
41.1627232126
 20
9.3662233603
 10
41.1435388771
 20
9.4187084774
 10
41.122308753
 20
9.4709961835
 10
41.0990497845
 20
9.523102291
 10
41.0739893908
 20
9.5745192546
 10
41.0471073562
 20
9.6252448539
 10
41.0184238962
 20
9.6752813092
 10
40.9882270768
 20
9.7241277366
 10
40.9565606297
 20
9.771711503
 10
40.9233808231
 20
9.8181052415
 10
40.8888445274
 20
9.8630259667
 10
40.8528909926
 20
9.9065462625
 10
40.8155809688
 20
9.9485935451
 10
40.7772535759
 20
9.9886670784
 10
40.7378628213
 20
10.0267708525
 10
40.6974546977
 20
10.0629008774
 10
40.6565063025
 20
10.0965444464
 10
40.6151766681
 20
10.1275306575
 10
40.573306762
 20
10.1560304127
 10
40.5308965844
 20
10.182043712
  0
LWPOLYLINE
  5
37C
100
AcDbEntity
  8
RACCORDO
100
AcDbPolyline
 62
7
  6
CONTINUOUS
 90
20
 70
0
 10
44.9248478334
 20
11.3798191556
 10
44.9241385398
 20
11.4110757295
 10
44.9201690136
 20
11.4609860273
 10
44.9128577721
 20
11.5111978772
 10
44.9023361083
 20
11.5615275808
 10
44.888739834
 20
11.6117920745
 10
44.872185181
 20
11.6618047415
 10
44.8527859907
 20
11.7113544894
 10
44.8306984716
 20
11.760145793
 10
44.8060378093
 20
11.8079539359
 10
44.7789315559
 20
11.8545517888
 10
44.7495653816
 20
11.899616554
 10
44.7180648648
 20
11.9429308385
 10
44.6845709984
 20
11.9842723917
 10
44.649279274
 20
12.0233372445
 10
44.6123167072
 20
12.0599232395
 10
44.5737858272
 20
12.0938388055
 10
44.5337962926
 20
12.1248648542
 10
44.4924489128
 20
12.1527969523
 10
44.4711881874
 20
12.1655890929
  0
LWPOLYLINE
  5
37D
100
AcDbEntity
  8
RACCORDO
100
AcDbPolyline
 62
250
  6
CONTINUOUS
 90
70
 70
0
 10
43.0833268096
 20
9.8762237622
 10
43.0832109348
 20
9.8868850382
 10
43.0829927593
 20
9.8978209031
 10
43.0826660677
 20
9.9090332157
 10
43.0822255858
 20
9.9204766624
 10
43.0816646488
 20
9.9321995181
 10
43.0809707256
 20
9.9443457911
 10
43.0801310797
 20
9.9569601533
 10
43.0791353377
 20
9.9700047214
 10
43.0779693589
 20
9.9835016003
 10
43.0766234975
 20
9.9974286134
 10
43.075082216
 20
10.0118133216
 10
43.0733181234
 20
10.0267535412
 10
43.0713111234
 20
10.0422735086
 10
43.069045791
 20
10.0583553069
 10
43.0664970114
 20
10.0750350462
 10
43.0636405997
 20
10.0923432388
 10
43.0604611838
 20
10.1102554762
 10
43.0569470513
 20
10.1287248796
 10
43.053084336
 20
10.1477274928
 10
43.0488500918
 20
10.1672888916
 10
43.0442193027
 20
10.1874353749
 10
43.0391816503
 20
10.2081245939
 10
43.0337070334
 20
10.2293971577
 10
43.0277326878
 20
10.2514037848
 10
43.0212352267
 20
10.2741260711
 10
43.0141834822
 20
10.2975704623
 10
43.0064874468
 20
10.3219227703
 10
42.9980973228
 20
10.3472079145
 10
42.9889863462
 20
10.373375736
 10
42.9790849574
 20
10.400495716
 10
42.9683007324
 20
10.4286749254
 10
42.9566350313
 20
10.4577596723
 10
42.9441707908
 20
10.487426085
 10
42.9308681489
 20
10.5176797799
 10
42.9167143266
 20
10.5484577118
 10
42.9018709053
 20
10.5793365212
 10
42.8863707137
 20
10.6102168145
 10
42.870178465
 20
10.6411395657
 10
42.853386959
 20
10.6718987506
 10
42.8359923916
 20
10.7024867968
 10
42.8180202915
 20
10.732851596
 10
42.7996295387
 20
10.7627307708
 10
42.7807822693
 20
10.7921935807
 10
42.7615594189
 20
10.8211259148
 10
42.7423331389
 20
10.8490210405
 10
42.7231990733
 20
10.8758135233
 10
42.7041484067
 20
10.9015846457
 10
42.6854272267
 20
10.9260839021
 10
42.6671710226
 20
10.9492257574
 10
42.649334714
 20
10.971150434
 10
42.6318984594
 20
10.9919574226
 10
42.6149289189
 20
11.0116375295
 10
42.5984280328
 20
11.0302533935
 10
42.582267693
 20
11.0480015401
 10
42.5664585986
 20
11.0649138
 10
42.5510327536
 20
11.0809979507
 10
42.5358834648
 20
11.0963999305
 10
42.520999029
 20
11.1111602945
 10
42.5064176306
 20
11.1252688558
 10
42.4921019174
 20
11.1387868862
 10
42.4780376529
 20
11.1517505269
 10
42.4642567696
 20
11.1641528836
 10
42.4507896939
 20
11.1759893707
 10
42.4376560405
 20
11.18726552
 10
42.4248512956
 20
11.1980082975
 10
42.4123689887
 20
11.2082455881
 10
42.4002239204
 20
11.2179852326
 10
42.388412877
 20
11.2272496562
 10
42.376901265
 20
11.2360859687
  0
LINE
  5
37E
100
AcDbEntity
  8
RACCORDO
100
AcDbLine
 62
250
  6
CONTINUOUS
 10
41.2370343003
 20
-60.3137454416
 11
41.2370343003
 21
8.9589773122
  0
LINE
  5
37F
100
AcDbEntity
  8
RACCORDO
100
AcDbLine
 62
250
  6
CONTINUOUS
 10
41.9251529941
 20
-60.3241493991
 11
41.9251529941
 21
8.9485733546
  0
LINE
  5
380
100
AcDbEntity
  8
RACCORDO
100
AcDbLine
 62
7
  6
CONTINUOUS
 10
43.060873295
 20
-59.7990126488
 11
43.060873295
 21
9.604317711
  0
LINE
  5
381
100
AcDbEntity
  8
RACCORDO
100
AcDbLine
 62
250
  6
CONTINUOUS
 10
44.868716074
 20
11.299795148
 11
44.868716074
 21
-58.0239068431
  0
LINE
  5
382
100
AcDbEntity
  8
RACCORDO
100
AcDbLine
 62
7
  6
CONTINUOUS
 10
44.9248481139
 20
11.3800125554
 11
44.9248481139
 21
-57.9436894302
  0
LINE
  5
383
100
AcDbEntity
  8
RACCORDO
100
AcDbLine
 62
7
  6
CONTINUOUS
 10
43.1394648373
 20
-59.4642866549
 11
43.1394648786
 21
9.9556076308
  0
LINE
  5
384
100
AcDbEntity
  8
RACCORDO
100
AcDbLine
 62
250
  6
CONTINUOUS
 10
43.0833268096
 20
-59.5453195482
 11
43.0833268096
 21
9.8762237622
  0
LWPOLYLINE
  5
385
100
AcDbEntity
  8
RACCORDO
100
AcDbPolyline
 62
250
  6
CONTINUOUS
 90
9
 70
0
 10
44.9248478334
 20
11.3798191556
 10
44.9246627998
 20
11.3750426168
 10
44.9227025805
 20
11.3631432534
 10
44.9186224878
 20
11.3514246328
 10
44.9124662369
 20
11.340012312
 10
44.9042997879
 20
11.3290285662
 10
44.8942106385
 20
11.3185910784
 10
44.8823068871
 20
11.3088116791
 10
44.868716074
 20
11.299795148
  0
LINE
  5
386
100
AcDbEntity
  8
RACCORDO
100
AcDbLine
 62
250
  6
CONTINUOUS
 10
43.139055514
 20
9.9480383806
 11
43.1394654126
 21
9.9551677201
  0
LWPOLYLINE
  5
387
100
AcDbEntity
  8
RACCORDO
100
AcDbPolyline
 62
250
  6
CONTINUOUS
 90
8
 70
0
 10
43.0833539655
 20
-24.8345896326
 10
43.0986276963
 20
-24.8243146138
 10
43.1117133319
 20
-24.8130779324
 10
43.1224309534
 20
-24.8010340855
 10
43.1306332004
 20
-24.7883486684
 10
43.1362072974
 20
-24.7751960971
 10
43.139076604
 20
-24.7617572111
 10
43.1394860054
 20
-24.7543722253
  0
LINE
  5
388
100
AcDbEntity
  8
RACCORDO
100
AcDbLine
 62
250
  6
CONTINUOUS
 10
22.1557148325
 20
-36.3340959972
 11
22.4250163153
 21
-36.1675559206
  0
LINE
  5
389
100
AcDbEntity
  8
RACCORDO
100
AcDbLine
 62
7
  6
CONTINUOUS
 10
22.4085135327
 20
-36.3572208016
 11
22.4084150926
 21
-36.3572816313
  0
LWPOLYLINE
  5
38A
100
AcDbEntity
  8
RACCORDO
100
AcDbPolyline
 62
250
  6
CONTINUOUS
 90
14
 70
0
 10
22.4084150926
 20
-36.3572816313
 10
22.4054528749
 20
-36.359068505
 10
22.3888390748
 20
-36.3676394267
 10
22.3712796276
 20
-36.374342729
 10
22.3528299536
 20
-36.379160166
 10
22.3336176047
 20
-36.3820656708
 10
22.313677482
 20
-36.3830604301
 10
22.292908996
 20
-36.3821235795
 10
22.2712971236
 20
-36.3791922919
 10
22.2490040046
 20
-36.3742275764
 10
22.226191394
 20
-36.3672270098
 10
22.2029821557
 20
-36.3582009553
 10
22.1794543903
 20
-36.3471510349
 10
22.1557149526
 20
-36.3340959229
  0
LWPOLYLINE
  5
38B
100
AcDbEntity
  8
RACCORDO
100
AcDbPolyline
 62
250
  6
CONTINUOUS
 90
5
 70
0
 10
-42.6176524687
 20
60.3092975724
 10
-42.6302979233
 20
60.3140088767
 10
-42.6433051234
 20
60.318608008
 10
-42.6566789835
 20
60.3230735082
 10
-42.6698996663
 20
60.3272185589
  0
LWPOLYLINE
  5
38C
100
AcDbEntity
  8
RACCORDO
100
AcDbPolyline
 62
250
  6
CONTINUOUS
 90
10
 70
0
 10
44.868716074
 20
-58.0239068431
 10
44.8675100368
 20
-58.0656101368
 10
44.8635558251
 20
-58.1054314928
 10
44.8568870839
 20
-58.1431609917
 10
44.847559799
 20
-58.1785744773
 10
44.8356341762
 20
-58.2115209386
 10
44.8211523574
 20
-58.2419028313
 10
44.8041631742
 20
-58.2695817372
 10
44.784769874
 20
-58.2943578398
 10
44.763108247
 20
-58.3160571931
  0
LWPOLYLINE
  5
38D
100
AcDbEntity
  8
RACCORDO
100
AcDbPolyline
 62
250
  6
CONTINUOUS
 90
9
 70
0
 10
44.9248481139
 20
-57.9436921104
 10
44.9246628801
 20
-57.9486582916
 10
44.9227028366
 20
-57.9605577311
 10
44.9186228777
 20
-57.9722764724
 10
44.9124666995
 20
-57.9836889518
 10
44.9043002541
 20
-57.9946728749
 10
44.8942110342
 20
-58.005110547
 10
44.8823071287
 20
-58.0148901327
 10
44.868716074
 20
-58.0239068431
  0
LINE
  5
38E
100
AcDbEntity
  8
RACCORDO
100
AcDbLine
 62
250
  6
CONTINUOUS
 10
43.1390761339
 20
-59.4617208936
 11
43.1394855282
 21
-59.4543359827
  0
LWPOLYLINE
  5
38F
100
AcDbEntity
  8
RACCORDO
100
AcDbPolyline
 62
250
  6
CONTINUOUS
 90
14
 70
0
 10
43.0706226707
 20
-59.7005233513
 10
43.0725448035
 20
-59.6884450246
 10
43.0742565511
 20
-59.6766112701
 10
43.0757743995
 20
-59.6650165841
 10
43.0771248647
 20
-59.6535653568
 10
43.078309318
 20
-59.6423431853
 10
43.0793456985
 20
-59.6312831389
 10
43.0802700612
 20
-59.6200490141
 10
43.0810813798
 20
-59.6086305202
 10
43.0817750768
 20
-59.5970377708
 10
43.082360232
 20
-59.5849499425
 10
43.082825955
 20
-59.5722523367
 10
43.0831530013
 20
-59.5590443835
 10
43.0833268096
 20
-59.5453195482
  0
LWPOLYLINE
  5
390
100
AcDbEntity
  8
RACCORDO
100
AcDbPolyline
 62
250
  6
CONTINUOUS
 90
5
 70
0
 10
43.060873295
 20
-59.7494957037
 10
43.0634388696
 20
-59.7381208588
 10
43.0660902266
 20
-59.7253497486
 10
43.0684791927
 20
-59.7128137045
 10
43.0706226707
 20
-59.7005233513
  0
LWPOLYLINE
  5
391
100
AcDbEntity
  8
RACCORDO
100
AcDbPolyline
 62
7
  6
CONTINUOUS
 90
3
 70
0
 10
-42.6465597417
 20
60.3562514462
 10
-42.6994443138
 20
60.3655054636
 10
-42.7461732927
 20
60.3701047994
  0
LWPOLYLINE
  5
392
100
AcDbEntity
  8
RACCORDO
100
AcDbPolyline
 62
7
  6
CONTINUOUS
 90
6
 70
0
 10
43.0958683573
 20
-59.7493648389
 10
43.1112468117
 20
-59.69706781
 10
43.1233556924
 20
-59.6421332839
 10
43.1320655035
 20
-59.5849751298
 10
43.1374105521
 20
-59.5258831207
 10
43.1394655425
 20
-59.4640424974
  0
LWPOLYLINE
  5
393
100
AcDbEntity
  8
RACCORDO
100
AcDbPolyline
 62
7
  6
CONTINUOUS
 90
3
 70
0
 10
43.059884647
 20
-59.8367789115
 10
43.0773586233
 20
-59.7988816982
 10
43.0958683573
 20
-59.7493648389
  0
LWPOLYLINE
  5
394
100
AcDbEntity
  8
RACCORDO
100
AcDbPolyline
 62
250
  6
CONTINUOUS
 90
3
 70
0
 10
44.763108247
 20
-58.3160571931
 10
44.7393387867
 20
-58.3345410618
 10
44.7308456527
 20
-58.340051289
  0
LWPOLYLINE
  5
395
100
AcDbEntity
  8
RACCORDO
100
AcDbPolyline
 62
250
  6
CONTINUOUS
 90
8
 70
0
 10
43.0833268083
 20
-59.5453195474
 10
43.0986013428
 20
-59.5349245006
 10
43.1116878837
 20
-59.5235454976
 10
43.1224064997
 20
-59.5113389839
 10
43.1306098168
 20
-59.4984727748
 10
43.1361850448
 20
-59.4851237725
 10
43.1390555277
 20
-59.4714755327
 10
43.1394648373
 20
-59.4642866549
  0
LWPOLYLINE
  5
396
100
AcDbEntity
  8
RACCORDO
100
AcDbPolyline
 62
250
  6
CONTINUOUS
 90
7
 70
0
 10
43.0833536865
 20
-59.5345531091
 10
43.0986273851
 20
-59.5242781101
 10
43.111712985
 20
-59.5130414533
 10
43.1224305697
 20
-59.500997637
 10
43.130632782
 20
-59.4883122565
 10
43.1362068491
 20
-59.4751597286
 10
43.1390761339
 20
-59.4617208936
  0
LWPOLYLINE
  5
397
100
AcDbEntity
  8
RACCORDO
100
AcDbPolyline
 62
7
  6
CONTINUOUS
 90
13
 70
0
 10
44.7306603805
 20
-58.3401619001
 10
44.7525358184
 20
-58.3255449508
 10
44.7800584943
 20
-58.3036305909
 10
44.8059002172
 20
-58.2786819086
 10
44.8298299034
 20
-58.2507117275
 10
44.8515369423
 20
-58.219863784
 10
44.8706990636
 20
-58.1864120996
 10
44.8871540466
 20
-58.1504931726
 10
44.9007798536
 20
-58.1122263422
 10
44.9114347751
 20
-58.071839206
 10
44.9190353063
 20
-58.0294599058
 10
44.9235267708
 20
-57.9851774272
 10
44.9248481139
 20
-57.9436921104
  0
LINE
  5
398
100
AcDbEntity
  8
RACCORDO
100
AcDbLine
 62
250
  6
CONTINUOUS
 10
44.868716074
 20
-58.0239068431
 11
43.1394855803
 21
-59.0932889194
  0
LINE
  5
399
100
AcDbEntity
  8
RACCORDO
100
AcDbLine
 62
7
  6
CONTINUOUS
 10
44.7308455764
 20
-58.3400513362
 11
43.139485547
 21
-59.3241722493
  0
LINE
  5
39A
100
AcDbEntity
  8
RACCORDO
100
AcDbLine
 62
7
  6
CONTINUOUS
 10
43.0833536861
 20
-59.5360054234
 11
43.060873295
 21
-59.5494740102
  0
LWPOLYLINE
  5
39B
100
AcDbEntity
  8
RACCORDO
100
AcDbPolyline
 62
250
  6
CONTINUOUS
 90
16
 70
0
 10
41.5675314771
 20
-61.0343789607
 10
41.5810706934
 20
-61.0278495078
 10
41.6244539508
 20
-61.0033366718
 10
41.6653762613
 20
-60.9745056881
 10
41.7036442886
 20
-60.9415087799
 10
41.7391971277
 20
-60.9044153418
 10
41.7720615657
 20
-60.863153454
 10
41.8021327229
 20
-60.8177373034
 10
41.8292174443
 20
-60.7683288871
 10
41.8531846335
 20
-60.7150475163
 10
41.8739174562
 20
-60.6579935902
 10
41.8912838115
 20
-60.597354156
 10
41.9051624008
 20
-60.533423825
 10
41.9154729352
 20
-60.4664509742
 10
41.9221548643
 20
-60.3966155144
 10
41.9251529941
 20
-60.3241493991
  0
LINE
  5
39C
100
AcDbEntity
  8
RACCORDO
100
AcDbLine
 62
250
  6
CONTINUOUS
 10
41.9251529941
 20
-60.3241493991
 11
43.060873295
 21
-59.7990126488
  0
LINE
  5
39D
100
AcDbEntity
  8
RACCORDO
100
AcDbLine
 62
7
  6
CONTINUOUS
 10
41.5669723741
 20
-61.0346378975
 11
42.7106845634
 21
-60.5058058409
  0
ARC
  5
39E
100
AcDbEntity
  8
RACCORDO
100
AcDbCircle
 62
7
  6
CONTINUOUS
 10
-24.1649490848
 20
22.7780473084
 40
0.2
100
AcDbArc
 50
359.9943782842
 51
59.9984015651
  0
ARC
  5
39F
100
AcDbEntity
  8
RACCORDO
100
AcDbCircle
 62
7
  6
CONTINUOUS
 10
-24.1649490848
 20
6.7809802485
 40
0.2
100
AcDbArc
 50
310.3324143786
 51
0.000887357
  0
ARC
  5
3A0
100
AcDbEntity
  8
RACCORDO
100
AcDbCircle
 62
7
  6
CONTINUOUS
 10
-21.8327387736
 20
-9.1598534002
 40
0.2
100
AcDbArc
 50
60.0036260417
 51
84.1851668152
  0
ELLIPSE
  5
3A1
100
AcDbEntity
  8
RACCORDO
100
AcDbEllipse
 62
7
  6
CONTINUOUS
 10
-21.7051842421
 20
1.8780089877
 30
0.0
 11
0.2794702762
 21
-0.0619931167
 31
0.0
 40
0.2112759811
 41
-1.0041115231
 42
-0.2232016425
  0
ELLIPSE
  5
3A2
100
AcDbEntity
  8
RACCORDO
100
AcDbEllipse
 62
7
  6
CONTINUOUS
 10
-22.5228712294
 20
0.933279245
 30
0.0
 11
0.4935667342
 21
0.8698228981
 31
0.0
 40
0.5722158713
 41
0.2575986682
 42
0.650282602
  0
ELLIPSE
  5
3A3
100
AcDbEntity
  8
RACCORDO
100
AcDbEllipse
 62
7
  6
CONTINUOUS
 10
-21.7051842421
 20
0.7556981279
 30
0.0
 11
0.2513937687
 21
0.2998440011
 31
0.0
 40
0.4094989963
 41
-1.5052842665
 42
0.0742383743
  0
ELLIPSE
  5
3A4
100
AcDbEntity
  8
RACCORDO
100
AcDbEllipse
 62
7
  6
CONTINUOUS
 10
-21.7051842421
 20
32.5980389228
 30
0.0
 11
0.2513937687
 21
0.2998440011
 31
0.0
 40
0.4094989963
 41
-1.5052842665
 42
-1.2154024065
  0
ELLIPSE
  5
3A5
100
AcDbEntity
  8
RACCORDO
100
AcDbEllipse
 62
7
  6
CONTINUOUS
 10
-23.7013851412
 20
4.5276877896
 30
0.0
 11
0.4935308613
 21
0.8697499888
 31
0.0
 40
0.5722717666
 41
-2.4913336956
 42
-2.3778872942
  0
ELLIPSE
  5
3A6
100
AcDbEntity
  8
RACCORDO
100
AcDbEllipse
 62
7
  6
CONTINUOUS
 10
-22.036151751
 20
4.8175278117
 30
0.0
 11
0.1999928968
 21
-0.0029716584
 31
0.0
 40
0.5672251703
 41
-0.7682434203
 42
0.0084280611
  0
ELLIPSE
  5
3A7
100
AcDbEntity
  8
RACCORDO
100
AcDbEllipse
 62
7
  6
CONTINUOUS
 10
-22.5228712294
 20
32.2523908641
 30
0.0
 11
0.4935173262
 21
0.869738684
 31
0.0
 40
0.5723276047
 41
-2.2295706808
 42
-1.836886747
  0
ELLIPSE
  5
3A8
100
AcDbEntity
  8
RACCORDO
100
AcDbEllipse
 62
7
  6
CONTINUOUS
 10
-22.5228712294
 20
0.4100500692
 30
0.0
 11
0.4935173262
 21
0.869738684
 31
0.0
 40
0.5723276047
 41
-2.2295706808
 42
-1.836886747
  0
ELLIPSE
  5
3A9
100
AcDbEntity
  8
RACCORDO
100
AcDbEllipse
 62
7
  6
CONTINUOUS
 10
41.9987575305
 20
-59.182401182
 30
0.0
 11
-0.752093153
 21
1.3025803154
 31
0.0
 40
0.5757524875
 41
-3.1938070556
 42
-2.3576120761
  0
ELLIPSE
  5
3AA
100
AcDbEntity
  8
RACCORDO
100
AcDbEllipse
 62
7
  6
CONTINUOUS
 10
41.9987575305
 20
10.2142109063
 30
0.0
 11
-0.7500365396
 21
1.2990170088
 31
0.0
 40
0.5789151826
 41
-2.3548735497
 42
-0.7868162787
  0
ELLIPSE
  5
3AB
100
AcDbEntity
  8
RACCORDO
100
AcDbEllipse
 62
7
  6
CONTINUOUS
 10
-42.7097236702
 20
59.1238263049
 30
0.0
 11
-0.752093153
 21
1.3025803154
 31
0.0
 40
0.5757524875
 41
-0.7840766935
 42
0.052214402
  0
ELLIPSE
  5
3AC
100
AcDbEntity
  8
RACCORDO
100
AcDbEllipse
 62
7
  6
CONTINUOUS
 10
-24.626869478
 20
-8.1620503186
 30
0.0
 11
-0.2500120911
 21
0.4330057209
 31
0.0
 40
0.5775075436
 41
0.7855021057
 42
2.355993846
  0
ENDSEC
  0
SECTION
  2
OBJECTS
  0
DICTIONARY
  5
C
100
AcDbDictionary
280
0
281
1
  3
ACAD_GROUP
350
D
  3
ACAD_MLINESTYLE
350
17
  3
ACAD_LAYOUT
350
1A
  3
ACAD_PLOTSETTINGS
350
19
  3
ACAD_PLOTSTYLENAME
350
E
  0
DICTIONARY
  5
D
102
{ACAD_REACTORS
330
C
102
}
100
AcDbDictionary
280
0
281
1
  0
ACDBDICTIONARYWDFLT
  5
E
102
{ACAD_REACTORS
330
C
102
}
100
AcDbDictionary
281
1
  3
Normal
350
F
100
AcDbDictionaryWithDefault
340
F
  0
DICTIONARY
  5
17
102
{ACAD_REACTORS
330
C
102
}
100
AcDbDictionary
280
0
281
1
  3
Standard
350
18
  0
DICTIONARY
  5
19
102
{ACAD_REACTORS
330
C
102
}
100
AcDbDictionary
281
1
  0
DICTIONARY
  5
1A
102
{ACAD_REACTORS
330
C
102
}
100
AcDbDictionary
281
1
  3
Model
350
3AD
  3
Layout1
350
3AE
  0
ACDBPLACEHOLDER
  5
F
102
{ACAD_REACTORS
330
E
102
}
  0
MLINESTYLE
  5
18
102
{ACAD_REACTORS
330
17
102
}
100
AcDbMlineStyle
  2
STANDARD
 70
0
  3

 62
256
 51
90.0
 52
90.0
 71
2
 49
0.5
 62
256
  6
BYLAYER
 49
-0.5
 62
256
  6
BYLAYER
  0
LAYOUT
  5
3AD
102
{ACAD_REACTORS
330
1A
102
}
100
AcDbPlotSettings
  1

  2
none_device
  4
ISO_A4_(297.00_x_210.00_MM)
  6

 40
0.0
 41
0.0
 42
0.0
 43
0.0
 44
297.0
 45
210.0
 46
0.0
 47
0.0
 48
0.0
 49
0.0
140
0.0
141
0.0
142
1.0
143
1.0
 70
1024
 72
1
 73
0
 74
0
  7

 75
0
147
1.0
148
0.0
149
0.0
100
AcDbLayout
  1
Model
 70
0
 71
0
 10
0.0
 20
0.0
 11
297.0
 21
210.0
 12
0.0
 22
0.0
 32
0.0
 14
0.0
 24
0.0
 34
0.0
 15
0.0
 25
0.0
 35
0.0
146
0.0
 13
0.0
 23
0.0
 33
0.0
 16
1.0
 26
0.0
 36
0.0
 17
0.0
 27
1.0
 37
0.0
 76
0
330
213
345
0
346
0
  0
LAYOUT
  5
3AE
102
{ACAD_REACTORS
330
1A
102
}
100
AcDbPlotSettings
  1

  2
none_device
  4
ISO_A4_(297.00_x_210.00_MM)
  6

 40
0.0
 41
0.0
 42
0.0
 43
0.0
 44
297.0
 45
210.0
 46
0.0
 47
0.0
 48
0.0
 49
0.0
140
0.0
141
0.0
142
1.0
143
1.0
 70
0
 72
1
 73
0
 74
0
  7

 75
0
147
1.0
148
0.0
149
0.0
100
AcDbLayout
  1
Layout1
 70
0
 71
1
 10
0.0
 20
0.0
 11
297.0
 21
210.0
 12
0.0
 22
0.0
 32
0.0
 14
0.0
 24
0.0
 34
0.0
 15
0.0
 25
0.0
 35
0.0
146
0.0
 13
0.0
 23
0.0
 33
0.0
 16
1.0
 26
0.0
 36
0.0
 17
0.0
 27
1.0
 37
0.0
 76
0
330
214
345
0
346
0
  0
ENDSEC
  0
EOF
