  0
SECTION
  2
HEADER
  9
$ACADVER
  1
AC1024
  9
$DWGCODEPAGE
  3
ANSI_1252
  9
$EXTMAX
 10
297.0
 20
210.0
 30
0.0
  9
$EXTMIN
 10
0.0
 20
0.0
 30
0.0
  9
$LIMMIN
 10
0.0
 20
0.0
  9
$LIMMAX
 10
297.0
 20
210.0
  9
$VIEWCTR
 10
148.5
 20
105.0
  9
$VIEWSIZE
 40
210.0
  9
$CLAYER
  8
0
  9
$LTSCALE
 40
16.335
  9
$CELTYPE
  6
BYLAYER
  9
$DIMSCALE
 40
1.0
  9
$DIMASZ
 40
3.0
  9
$DIMEXO
 40
0.5
  9
$DIMDLI
 40
11.286
  9
$DIMEXE
 40
1.5
  9
$DIMCEN
 40
2.673
  9
$DIMLFAC
 40
1.0
  9
$DIMBLK
  1
_FILLED
  9
$DIMALT
 70
0
  9
$DIMALTF
 40
0.0393700787
  9
$DIMTXT
 40
3.0
  9
$DIMTOL
 70
1
  9
$DIMLIM
 70
0
  9
$DIMTFAC
 40
1.0
  9
$DIMTP
 40
0.01
  9
$DIMTM
 40
0.01
  9
$DIMGAP
 40
0.625
  9
$DIMDSEP
 70
44
  9
$AUNITS
 70
0
  9
$PDMODE
 70
3
  9
$PDSIZE
 40
3.0
  9
$HANDSEED
  5
2F9
  9
$TILEMODE
 70
1
  9
$MEASUREMENT
 70
1
  9
$INSUNITS
 70
4
  0
ENDSEC
  0
SECTION
  2
CLASSES
  0
CLASS
  1
ACDBDICTIONARYWDFLT
  2
AcDbDictionaryWithDefault
  3
AutoCAD 2000
 90
0
 91
1
280
0
281
0
  0
CLASS
  1
ACDBPLACEHOLDER
  2
AcDbPlaceHolder
  3
AutoCAD 2000
 90
0
 91
1
280
0
281
0
  0
CLASS
  1
LAYOUT
  2
AcDbLayout
  3
AutoCAD 2000
 90
0
 91
0
280
0
281
0
  0
ENDSEC
  0
SECTION
  2
TABLES
  0
TABLE
  2
VPORT
  5
8
100
AcDbSymbolTable
 70
2
  0
VPORT
  5
1F4
100
AcDbSymbolTableRecord
100
AcDbViewportTableRecord
  2
*ACTIVE
 70
0
 10
0.0
 20
0.0
 11
1.0
 21
1.0
 12
148.5
 22
105.0
 13
0.0
 23
0.0
 14
1.0
 24
1.0
 15
0.0
 25
0.0
 16
0.0
 26
0.0
 36
1.0
 17
0.0
 27
0.0
 37
0.0
 40
210.0
 41
1.4142857143
 42
50.0
 43
0.0
 44
0.0
 50
0.0
 51
0.0
 71
0
 72
100
 73
1
 74
1
 75
0
 76
0
 77
0
 78
0
  0
ENDTAB
  0
TABLE
  2
LTYPE
  5
5
100
AcDbSymbolTable
 70
6
  0
LTYPE
  5
14
100
AcDbSymbolTableRecord
100
AcDbLinetypeTableRecord
  2
BYBLOCK
 70
0
  3

 72
65
 73
0
 40
0.0
  0
LTYPE
  5
15
100
AcDbSymbolTableRecord
100
AcDbLinetypeTableRecord
  2
BYLAYER
 70
0
  3

 72
65
 73
0
 40
0.0
  0
LTYPE
  5
16
100
AcDbSymbolTableRecord
100
AcDbLinetypeTableRecord
  2
CONTINUOUS
 70
64
  3
Solid line
 72
65
 73
0
 40
0.0
  0
LTYPE
  5
1F5
100
AcDbSymbolTableRecord
100
AcDbLinetypeTableRecord
  2
CENTER
 70
64
  3
____ _ ____ _ ____ _ ____ _ ____ _ ____ _ ____
 72
65
 73
4
 40
0.6
 49
0.375
 74
0
 49
-0.075
 74
0
 49
0.075
 74
0
 49
-0.075
 74
0
  0
LTYPE
  5
1F6
100
AcDbSymbolTableRecord
100
AcDbLinetypeTableRecord
  2
HIDDEN
 70
64
  3
- - - - - - - - - - - - - - - - - - - -
 72
65
 73
2
 40
0.2
 49
0.1
 74
0
 49
-0.1
 74
0
  0
LTYPE
  5
1F7
100
AcDbSymbolTableRecord
100
AcDbLinetypeTableRecord
  2
PHANTOM
 70
64
  3
_____ _ _ _____ _ _ _____ _ _ _____
 72
65
 73
6
 40
0.8
 49
0.45
 74
0
 49
-0.05
 74
0
 49
0.1
 74
0
 49
-0.05
 74
0
 49
0.1
 74
0
 49
-0.05
 74
0
  0
LTYPE
  5
1F8
100
AcDbSymbolTableRecord
100
AcDbLinetypeTableRecord
  2
DOT
 70
64
  3
. . . . . . . . . . . . . . . . . . . .
 72
65
 73
2
 40
0.2
 49
0.1
 74
0
 49
-0.1
 74
0
  0
LTYPE
  5
1F9
100
AcDbSymbolTableRecord
100
AcDbLinetypeTableRecord
  2
DASHED
 70
64
  3
- - - - - - - - - - - - - - - - - - - -
 72
65
 73
2
 40
0.2
 49
0.1
 74
0
 49
-0.1
 74
0
  0
ENDTAB
  0
TABLE
  2
LAYER
  5
2
100
AcDbSymbolTable
 70
36
  0
LAYER
  5
10
100
AcDbSymbolTableRecord
100
AcDbLayerTableRecord
  2
0
 70
0
 62
7
  6
CONTINUOUS
370
-3
390
F
  0
LAYER
  5
1FA
100
AcDbSymbolTableRecord
100
AcDbLayerTableRecord
  2
DEFAULT_1
 70
0
 62
7
  6
CENTER
370
-3
390
F
  0
LAYER
  5
1FB
100
AcDbSymbolTableRecord
100
AcDbLayerTableRecord
  2
DEFAULT_2
 70
0
 62
7
  6
HIDDEN
370
-3
390
F
  0
LAYER
  5
1FC
100
AcDbSymbolTableRecord
100
AcDbLayerTableRecord
  2
DEFAULT_3
 70
0
 62
7
  6
PHANTOM
370
-3
390
F
  0
LAYER
  5
1FD
100
AcDbSymbolTableRecord
100
AcDbLayerTableRecord
  2
ASSI
 70
0
 62
7
  6
CONTINUOUS
370
-3
390
F
  0
LAYER
  5
1FE
100
AcDbSymbolTableRecord
100
AcDbLayerTableRecord
  2
COORDINATE
 70
0
 62
7
  6
CONTINUOUS
370
-3
390
F
  0
LAYER
  5
1FF
100
AcDbSymbolTableRecord
100
AcDbLayerTableRecord
  2
COPY_PUBLISH
 70
0
 62
7
  6
CONTINUOUS
370
-3
390
F
  0
LAYER
  5
200
100
AcDbSymbolTableRecord
100
AcDbLayerTableRecord
  2
COSMETICI
 70
0
 62
7
  6
CONTINUOUS
370
-3
390
F
  0
LAYER
  5
201
100
AcDbSymbolTableRecord
100
AcDbLayerTableRecord
  2
CURVE
 70
0
 62
7
  6
CONTINUOUS
370
-3
390
F
  0
LAYER
  5
202
100
AcDbSymbolTableRecord
100
AcDbLayerTableRecord
  2
DRAFT
 70
0
 62
7
  6
CONTINUOUS
370
-3
390
F
  0
LAYER
  5
203
100
AcDbSymbolTableRecord
100
AcDbLayerTableRecord
  2
IMPORT_IGES
 70
0
 62
7
  6
CONTINUOUS
370
-3
390
F
  0
LAYER
  5
204
100
AcDbSymbolTableRecord
100
AcDbLayerTableRecord
  2
INTF_1
 70
0
 62
7
  6
CONTINUOUS
370
-3
390
F
  0
LAYER
  5
205
100
AcDbSymbolTableRecord
100
AcDbLayerTableRecord
  2
INTF_11
 70
0
 62
7
  6
CONTINUOUS
370
-3
390
F
  0
LAYER
  5
206
100
AcDbSymbolTableRecord
100
AcDbLayerTableRecord
  2
INTF_13
 70
0
 62
7
  6
CONTINUOUS
370
-3
390
F
  0
LAYER
  5
207
100
AcDbSymbolTableRecord
100
AcDbLayerTableRecord
  2
INTF_2
 70
0
 62
7
  6
CONTINUOUS
370
-3
390
F
  0
LAYER
  5
208
100
AcDbSymbolTableRecord
100
AcDbLayerTableRecord
  2
NOTE
 70
0
 62
7
  6
CONTINUOUS
370
-3
390
F
  0
LAYER
  5
209
100
AcDbSymbolTableRecord
100
AcDbLayerTableRecord
  2
PIANI
 70
0
 62
7
  6
CONTINUOUS
370
-3
390
F
  0
LAYER
  5
20A
100
AcDbSymbolTableRecord
100
AcDbLayerTableRecord
  2
PUNTI
 70
0
 62
7
  6
CONTINUOUS
370
-3
390
F
  0
LAYER
  5
20B
100
AcDbSymbolTableRecord
100
AcDbLayerTableRecord
  2
RACCORDO
 70
0
 62
7
  6
CONTINUOUS
370
-3
390
F
  0
LAYER
  5
20C
100
AcDbSymbolTableRecord
100
AcDbLayerTableRecord
  2
SIMBOLI
 70
0
 62
7
  6
CONTINUOUS
370
-3
390
F
  0
LAYER
  5
20D
100
AcDbSymbolTableRecord
100
AcDbLayerTableRecord
  2
SMUSSO
 70
0
 62
7
  6
CONTINUOUS
370
-3
390
F
  0
LAYER
  5
20E
100
AcDbSymbolTableRecord
100
AcDbLayerTableRecord
  2
SUPERFICI
 70
0
 62
7
  6
CONTINUOUS
370
-3
390
F
  0
LAYER
  5
20F
100
AcDbSymbolTableRecord
100
AcDbLayerTableRecord
  2
TRASH
 70
0
 62
7
  6
CONTINUOUS
370
-3
390
F
  0
ENDTAB
  0
TABLE
  2
STYLE
  5
3
100
AcDbSymbolTable
 70
1
  0
STYLE
  5
11
100
AcDbSymbolTableRecord
100
AcDbTextStyleTableRecord
  2
STANDARD
 70
0
 40
0.0
 41
0.8
 50
0.0
 71
0
 42
0.2
  3
txt
  4

  0
STYLE
  5
210
100
AcDbSymbolTableRecord
100
AcDbTextStyleTableRecord
  2
TEXTSTYLE_1
 70
0
 40
0.0
 41
0.8
 50
0.0
 71
0
 42
0.2
  3
gdt
  4

  0
ENDTAB
  0
TABLE
  2
VIEW
  5
6
100
AcDbSymbolTable
 70
0
  0
ENDTAB
  0
TABLE
  2
UCS
  5
7
100
AcDbSymbolTable
 70
0
  0
ENDTAB
  0
TABLE
  2
APPID
  5
9
100
AcDbSymbolTable
 70
1
  0
APPID
  5
211
100
AcDbSymbolTableRecord
100
AcDbRegAppTableRecord
  2
ACAD
 70
0
  0
ENDTAB
  0
TABLE
  2
BLOCK_RECORD
  5
1
100
AcDbSymbolTable
 70
0
  0
BLOCK_RECORD
  5
212
100
AcDbSymbolTableRecord
100
AcDbBlockTableRecord
  2
*Model_Space
  0
BLOCK_RECORD
  5
213
100
AcDbSymbolTableRecord
100
AcDbBlockTableRecord
  2
*Paper_Space
  0
BLOCK_RECORD
  5
214
100
AcDbSymbolTableRecord
100
AcDbBlockTableRecord
  2
_FILLED
  0
ENDTAB
  0
TABLE
  2
DIMSTYLE
  5
A
100
AcDbSymbolTable
 70
1
100
AcDbDimStyleTable
 71
0
  0
DIMSTYLE
105
215
100
AcDbSymbolTableRecord
100
AcDbDimStyleTableRecord
  2
STANDARD
 70
0
  3

  4

 40
1.0
 41
3.0
 42
0.5
 43
0.38
 44
1.5
 45
0.0
 46
0.0
 47
0.01
 48
0.01
140
3.0
141
0.09
142
0.0
143
25.4
144
1.0
145
0.0
146
1.0
147
0.625
 71
1
 72
0
 73
0
 74
0
 75
0
 76
0
 77
1
 78
8
 79
2
170
0
171
1
172
0
173
0
174
0
175
0
176
0
177
0
178
0
270
2
179
2
271
2
272
2
273
2
274
2
275
0
280
0
281
0
282
0
283
1
284
8
285
0
286
0
287
3
288
0
340
11
278
44
341
214
342
214
343
214
344
214
  0
ENDTAB
  0
ENDSEC
  0
SECTION
  2
BLOCKS
  0
BLOCK
  5
20
100
AcDbEntity
  8
0
100
AcDbBlockBegin
  2
*Model_Space
 70
0
 10
0.0
 20
0.0
 30
0.0
  3
*Model_Space
  1

  0
ENDBLK
  5
21
100
AcDbEntity
  8
0
100
AcDbBlockEnd
  0
BLOCK
  5
1C
100
AcDbEntity
  8
0
100
AcDbBlockBegin
  2
*Paper_Space
 70
0
 10
0.0
 20
0.0
 30
0.0
  3
*Paper_Space
  1

  0
ENDBLK
  5
1D
100
AcDbEntity
  8
0
100
AcDbBlockEnd
  0
BLOCK
  5
216
100
AcDbEntity
  8
0
100
AcDbBlockBegin
  2
_FILLED
 70
64
 10
0.0
 20
0.0
  3
_FILLED
  1

  0
SOLID
  5
217
100
AcDbEntity
  8
0
  6
BYBLOCK
 62
0
100
AcDbTrace
 10
0.0
 20
0.0
 11
-1.0
 21
0.3166666667
 12
-1.0
 22
-0.3166666667
 13
-1.0
 23
-0.3166666667
  0
ENDBLK
  5
218
100
AcDbEntity
  8
0
  6
BYBLOCK
 62
0
100
AcDbBlockEnd
  0
ENDSEC
  0
SECTION
  2
ENTITIES
  0
LWPOLYLINE
  5
219
100
AcDbEntity
  8
RACCORDO
100
AcDbPolyline
 62
7
  6
CONTINUOUS
 90
15
 70
0
 10
-33.7057195974
 20
52.5475686136
 10
-33.7583147817
 20
52.5073327954
 10
-33.8062179379
 20
52.4644134789
 10
-33.8515944218
 20
52.4170646333
 10
-33.8940325021
 20
52.3654290736
 10
-33.9330798343
 20
52.3098108928
 10
-33.9684958048
 20
52.2503583499
 10
-34.0000497062
 20
52.1872515393
 10
-34.0274606037
 20
52.1208662542
 10
-34.050597847
 20
52.0513874
 10
-34.0693693774
 20
51.9789404475
 10
-34.0836566645
 20
51.9037621981
 10
-34.0933857156
 20
51.8260051633
 10
-34.0984995011
 20
51.7457842222
 10
-34.0993186579
 20
51.6975433656
  0
LINE
  5
21A
100
AcDbEntity
  8
RACCORDO
100
AcDbLine
 62
7
  6
CONTINUOUS
 10
-33.7061797325
 20
52.5472456165
 11
-32.6763774288
 21
53.2733734883
  0
LINE
  5
21B
100
AcDbEntity
  8
RACCORDO
100
AcDbLine
 62
250
  6
CONTINUOUS
 10
-32.9116844969
 20
52.502179385
 11
-31.8890773448
 21
53.2232338559
  0
LINE
  5
21C
100
AcDbEntity
  8
RACCORDO
100
AcDbLine
 62
250
  6
CONTINUOUS
 10
-31.6504179189
 20
53.1112816195
 11
-31.6731979864
 21
53.09858782
  0
LINE
  5
21D
100
AcDbEntity
  8
RACCORDO
100
AcDbLine
 62
7
  6
CONTINUOUS
 10
-31.4978921386
 20
53.0383680849
 11
-28.214668988
 21
54.8039792461
  0
LINE
  5
21E
100
AcDbEntity
  8
RACCORDO
100
AcDbLine
 62
250
  6
CONTINUOUS
 10
-31.2389568218
 20
52.9386711599
 11
-27.8473364909
 21
54.7625748167
  0
LINE
  5
21F
100
AcDbEntity
  8
RACCORDO
100
AcDbLine
 62
250
  6
CONTINUOUS
 10
-28.2146691553
 20
54.803979156
 11
-28.2116163376
 21
54.805593791
  0
LWPOLYLINE
  5
220
100
AcDbEntity
  8
RACCORDO
100
AcDbPolyline
 62
250
  6
CONTINUOUS
 90
8
 70
0
 10
-31.6504179189
 20
53.1112816195
 10
-31.6340909879
 20
53.1195286882
 10
-31.6180236806
 20
53.1253868509
 10
-31.6024379409
 20
53.1287751867
 10
-31.5875490606
 20
53.1296468913
 10
-31.5735627057
 20
53.1279899238
 10
-31.5606720747
 20
53.1238271727
 10
-31.5550415439
 20
53.1210191524
  0
LWPOLYLINE
  5
221
100
AcDbEntity
  8
RACCORDO
100
AcDbPolyline
 62
250
  6
CONTINUOUS
 90
7
 70
0
 10
-31.6342768552
 20
53.1020994996
 10
-31.61774214
 20
53.1101904265
 10
-31.6014687009
 20
53.1159056675
 10
-31.5856802873
 20
53.1191666419
 10
-31.5705939793
 20
53.1199285137
 10
-31.556417204
 20
53.1181808078
 10
-31.5433448829
 20
53.1139475543
  0
LWPOLYLINE
  5
222
100
AcDbEntity
  8
RACCORDO
100
AcDbPolyline
 62
250
  6
CONTINUOUS
 90
11
 70
0
 10
-28.2116163376
 20
54.805593791
 10
-28.1824803233
 20
54.8184750105
 10
-28.1514919462
 20
54.8277690409
 10
-28.1187653518
 20
54.8334091223
 10
-28.0841753323
 20
54.8353290717
 10
-28.0477357922
 20
54.8333743968
 10
-28.0097365575
 20
54.8274103175
 10
-27.9704669175
 20
54.8173696532
 10
-27.9301730867
 20
54.80322478
 10
-27.8890489466
 20
54.7849549764
 10
-27.847336456
 20
54.7625748355
  0
LWPOLYLINE
  5
223
100
AcDbEntity
  8
RACCORDO
100
AcDbPolyline
 62
250
  6
CONTINUOUS
 90
11
 70
0
 10
-33.2467343328
 20
-19.0023752764
 10
-33.2454771
 20
-19.0360462648
 10
-33.2417143432
 20
-19.0680259648
 10
-33.235472823
 20
-19.0980869375
 10
-33.226796929
 20
-19.1260153896
 10
-33.215748364
 20
-19.1516126946
 10
-33.2024057051
 20
-19.1746968048
 10
-33.1868638452
 20
-19.1951035465
 10
-33.1692333177
 20
-19.2126877873
 10
-33.1496395105
 20
-19.2273244684
 10
-33.1431930222
 20
-19.231243707
  0
LWPOLYLINE
  5
224
100
AcDbEntity
  8
RACCORDO
100
AcDbPolyline
 62
7
  6
CONTINUOUS
 90
24
 70
0
 10
-34.0992790025
 20
-17.5858313382
 10
-34.0961399471
 20
-17.6720532471
 10
-34.0881406633
 20
-17.7586964292
 10
-34.0754606737
 20
-17.845586519
 10
-34.0582749987
 20
-17.9324925374
 10
-34.0367955417
 20
-18.0190373737
 10
-34.0112037561
 20
-18.1049892786
 10
-33.9816520985
 20
-18.1901987221
 10
-33.9483356379
 20
-18.2743304128
 10
-33.9114531448
 20
-18.3570993955
 10
-33.8711226111
 20
-18.4383811576
 10
-33.8274427378
 20
-18.5180395275
 10
-33.7805470507
 20
-18.5958579226
 10
-33.7305545414
 20
-18.6716117441
 10
-33.6775358986
 20
-18.7451492022
 10
-33.6215364804
 20
-18.8163028606
 10
-33.5627055555
 20
-18.8847621173
 10
-33.5012335857
 20
-18.9501867555
 10
-33.4371725878
 20
-19.0123689666
 10
-33.3706327714
 20
-19.0710379048
 10
-33.3018336527
 20
-19.1258169302
 10
-33.2308907301
 20
-19.1764370725
 10
-33.1578663983
 20
-19.2226555037
 10
-33.1430248268
 20
-19.2313406904
  0
LWPOLYLINE
  5
225
100
AcDbEntity
  8
RACCORDO
100
AcDbPolyline
 62
250
  6
CONTINUOUS
 90
28
 70
0
 10
-33.9528720487
 20
-17.7793088766
 10
-33.951488389
 20
-17.8285238757
 10
-33.9478790726
 20
-17.8780746303
 10
-33.9420440993
 20
-17.9279611402
 10
-33.933960763
 20
-17.9781566559
 10
-33.92365177
 20
-18.028687927
 10
-33.9111852385
 20
-18.0796352025
 10
-33.8965240034
 20
-18.1312215013
 10
-33.8797052299
 20
-18.1832238045
 10
-33.860908532
 20
-18.2350533039
 10
-33.8401231608
 20
-18.286672099
 10
-33.817359865
 20
-18.3381180903
 10
-33.7928305055
 20
-18.3889161715
 10
-33.7665065373
 20
-18.4390792911
 10
-33.7384165052
 20
-18.4885945006
 10
-33.7088579049
 20
-18.5369478484
 10
-33.6779641175
 20
-18.5839675907
 10
-33.645601762
 20
-18.6298254713
 10
-33.6116681902
 20
-18.6745227703
 10
-33.5760508525
 20
-18.7182496343
 10
-33.5388622986
 20
-18.7608159168
 10
-33.5003375294
 20
-18.801652458
 10
-33.4603646588
 20
-18.8408226323
 10
-33.4190555729
 20
-18.8782630654
 10
-33.3769809314
 20
-18.9132144746
 10
-33.3343309541
 20
-18.9454237657
 10
-33.2909154213
 20
-18.975144033
 10
-33.2467343328
 20
-19.0023752764
  0
LINE
  5
226
100
AcDbEntity
  8
RACCORDO
100
AcDbLine
 62
7
  6
CONTINUOUS
 10
-34.0993186581
 20
51.6975511738
 11
-34.0992790025
 21
-17.5858313382
  0
LINE
  5
227
100
AcDbEntity
  8
RACCORDO
100
AcDbLine
 62
250
  6
CONTINUOUS
 10
-33.9528720487
 20
51.4934138772
 11
-33.9528720487
 21
-17.7793088766
  0
LINE
  5
228
100
AcDbEntity
  8
RACCORDO
100
AcDbLine
 62
7
  6
CONTINUOUS
 10
-34.0993186581
 20
-17.5751715979
 11
-34.099318535
 21
-17.5749689939
  0
LWPOLYLINE
  5
229
100
AcDbEntity
  8
RACCORDO
100
AcDbPolyline
 62
250
  6
CONTINUOUS
 90
19
 70
0
 10
-33.2467343328
 20
51.9010501427
 10
-33.245477129
 20
51.9361725873
 10
-33.2417144451
 20
51.9724970877
 10
-33.2354730307
 20
52.0097653137
 10
-33.2267972637
 20
52.0477122225
 10
-33.2157488357
 20
52.086067941
 10
-33.2024063136
 20
52.1245596851
 10
-33.1868645794
 20
52.162913705
 10
-33.1692341573
 20
52.2008572268
 10
-33.1496404296
 20
52.2381203897
 10
-33.1282227395
 20
52.2744381766
 10
-33.1051334044
 20
52.3095522907
 10
-33.0805366362
 20
52.3432129881
 10
-33.0546073635
 20
52.375180869
 10
-33.0275299936
 20
52.4052285709
 10
-32.9994971074
 20
52.4331423797
 10
-32.9707080778
 20
52.4587237642
 10
-32.9413676508
 20
52.4817907858
 10
-32.9116844969
 20
52.502179385
  0
LINE
  5
22A
100
AcDbEntity
  8
RACCORDO
100
AcDbLine
 62
250
  6
CONTINUOUS
 10
-18.3507844923
 20
29.8792626167
 11
-18.3435389722
 21
29.8834030874
  0
LINE
  5
22B
100
AcDbEntity
  8
RACCORDO
100
AcDbLine
 62
7
  6
CONTINUOUS
 10
-18.3435389722
 20
29.8834030874
 11
-18.3434326723
 21
29.8834603016
  0
LINE
  5
22C
100
AcDbEntity
  8
RACCORDO
100
AcDbLine
 62
250
  6
CONTINUOUS
 10
-18.449792407
 20
29.6530013633
 11
-18.1709646268
 21
29.8029459203
  0
LWPOLYLINE
  5
22D
100
AcDbEntity
  8
RACCORDO
100
AcDbPolyline
 62
250
  6
CONTINUOUS
 90
19
 70
0
 10
28.8674873934
 20
-54.0509970944
 10
28.898534174
 20
-54.0674712956
 10
28.9318746159
 20
-54.0823765117
 10
28.9672716025
 20
-54.095606737
 10
29.0044733911
 20
-54.1070678785
 10
29.0432154031
 20
-54.1166784248
 10
29.0832221061
 20
-54.1243700257
 10
29.1242089731
 20
-54.1300879787
 10
29.1658845062
 20
-54.133791618
 10
29.2079523098
 20
-54.1354546032
 10
29.2501131985
 20
-54.1350651072
 10
29.2920673246
 20
-54.1326259001
 10
29.3335163112
 20
-54.1281543296
 10
29.3741653738
 20
-54.1216821973
 10
29.4137254171
 20
-54.113255533
 10
29.4519150906
 20
-54.1029342669
 10
29.4884627902
 20
-54.0907918037
 10
29.5231085891
 20
-54.0769145003
 10
29.5556060872
 20
-54.061401052
  0
LWPOLYLINE
  5
22E
100
AcDbEntity
  8
RACCORDO
100
AcDbPolyline
 62
250
  6
CONTINUOUS
 90
28
 70
0
 10
28.1613496775
 20
-54.4586333599
 10
28.2032805934
 20
-54.4812460842
 10
28.2443893555
 20
-54.5008142228
 10
28.2846759636
 20
-54.5173377757
 10
28.3241058972
 20
-54.5307705931
 10
28.3627136768
 20
-54.5411588248
 10
28.4006028649
 20
-54.5486409203
 10
28.4379480234
 20
-54.5532747562
 10
28.4745745905
 20
-54.5550024558
 10
28.5100624424
 20
-54.5537888388
 10
28.5443733804
 20
-54.5495994382
 10
28.5775456033
 20
-54.5424687209
 10
28.6092735842
 20
-54.5324649073
 10
28.6395542635
 20
-54.5195532709
 10
28.6683907009
 20
-54.5037685382
 10
28.695486549
 20
-54.4852831092
 10
28.7207597656
 20
-54.4642036241
 10
28.744292393
 20
-54.4404234427
 10
28.7660342108
 20
-54.4137950445
 10
28.7860936159
 20
-54.3842510596
 10
28.8043622114
 20
-54.3518588579
 10
28.8204645867
 20
-54.3166730289
 10
28.8343996786
 20
-54.2785637681
 10
28.8461685502
 20
-54.23766088
 10
28.8553989796
 20
-54.1944083683
 10
28.861966893
 20
-54.148954234
 10
28.8659963643
 20
-54.1011504761
 10
28.8674873934
 20
-54.0509970944
  0
LWPOLYLINE
  5
22F
100
AcDbEntity
  8
RACCORDO
100
AcDbPolyline
 62
7
  6
CONTINUOUS
 90
15
 70
0
 10
28.264883538
 20
-54.6874974887
 10
28.3045812599
 20
-54.7095810029
 10
28.3767670749
 20
-54.7455236454
 10
28.4491328363
 20
-54.7762128278
 10
28.5215512299
 20
-54.8016415768
 10
28.5938565873
 20
-54.8218004839
 10
28.6657833155
 20
-54.8366692218
 10
28.7371762368
 20
-54.8462637883
 10
28.807808345
 20
-54.8506078043
 10
28.8772095311
 20
-54.8497507646
 10
28.9451051779
 20
-54.8437984373
 10
29.0112476143
 20
-54.8328913323
 10
29.0751436572
 20
-54.8172682012
 10
29.136459
 20
-54.7972112299
 10
29.1979604294
 20
-54.7716389497
  0
LWPOLYLINE
  5
230
100
AcDbEntity
  8
RACCORDO
100
AcDbPolyline
 62
250
  6
CONTINUOUS
 90
8
 70
0
 10
-0.8896981289
 20
35.350565063
 10
-0.8731634094
 20
35.3586559853
 10
-0.856889967
 20
35.3643712234
 10
-0.8411015509
 20
35.3676321964
 10
-0.8260152416
 20
35.368394068
 10
-0.8118384662
 20
35.3666463629
 10
-0.798766146
 20
35.3624131111
 10
-0.7921614399
 20
35.3590730942
  0
LWPOLYLINE
  5
231
100
AcDbEntity
  8
RACCORDO
100
AcDbPolyline
 62
7
  6
CONTINUOUS
 90
11
 70
0
 10
-18.3497038587
 20
29.8809797392
 10
-18.3496690863
 20
29.8809898924
 10
-18.3476830501
 20
29.8811713054
 10
-18.3430076446
 20
29.8811625222
 10
-18.3353727853
 20
29.8804641413
 10
-18.324628695
 20
29.8785570495
 10
-18.3111447636
 20
29.8750518917
 10
-18.2955976999
 20
29.8697943927
 10
-18.278407757
 20
29.8627116893
 10
-18.2597426328
 20
29.8536967804
 10
-18.2426339521
 20
29.8443269004
  0
LINE
  5
232
100
AcDbEntity
  8
RACCORDO
100
AcDbLine
 62
7
  6
CONTINUOUS
 10
-33.1431930222
 20
-19.231243707
 11
28.2648910036
 21
-54.6875017995
  0
LINE
  5
233
100
AcDbEntity
  8
RACCORDO
100
AcDbLine
 62
250
  6
CONTINUOUS
 10
-33.2467343328
 20
-19.0023752764
 11
28.1613496775
 21
-54.4586333599
  0
LWPOLYLINE
  5
234
100
AcDbEntity
  8
RACCORDO
100
AcDbPolyline
 62
250
  6
CONTINUOUS
 90
11
 70
0
 10
-33.9528720487
 20
-17.7793088766
 10
-33.981404085
 20
-17.761383049
 10
-34.0072188253
 20
-17.7421328884
 10
-34.0301326674
 20
-17.7216952943
 10
-34.0499826392
 20
-17.7002156111
 10
-34.0666275565
 20
-17.6778465968
 10
-34.0799490279
 20
-17.654747336
 10
-34.0898522994
 20
-17.6310821061
 10
-34.0962669255
 20
-17.6070192119
 10
-34.099147272
 20
-17.5827297902
 10
-34.0993186581
 20
-17.5751715979
  0
LINE
  5
235
100
AcDbEntity
  8
RACCORDO
100
AcDbLine
 62
250
  6
CONTINUOUS
 10
13.2193380289
 20
-32.5392103488
 11
-18.3047226842
 21
-14.3376127823
  0
LINE
  5
236
100
AcDbEntity
  8
RACCORDO
100
AcDbLine
 62
250
  6
CONTINUOUS
 10
13.4277678488
 20
-32.1739618057
 11
-18.0962928643
 21
-13.9723642393
  0
LWPOLYLINE
  5
237
100
AcDbEntity
  8
RACCORDO
100
AcDbPolyline
 62
250
  6
CONTINUOUS
 90
25
 70
0
 10
-18.0962927577
 20
-13.9723641777
 10
-18.1195569689
 20
-13.9583426084
 10
-18.1426171599
 20
-13.9426978157
 10
-18.1653799423
 20
-13.9255150616
 10
-18.1877240427
 20
-13.9069135875
 10
-18.2095937379
 20
-13.8869629652
 10
-18.2309935361
 20
-13.8656628845
 10
-18.251868865
 20
-13.8430622985
 10
-18.2720993932
 20
-13.819286471
 10
-18.2915894897
 20
-13.7944412996
 10
-18.3102638205
 20
-13.7686207907
 10
-18.3280399612
 20
-13.7419399628
 10
-18.3448207361
 20
-13.7145467225
 10
-18.3605241169
 20
-13.6865851681
 10
-18.3751072908
 20
-13.6581450163
 10
-18.3885368689
 20
-13.6292960878
 10
-18.4007018475
 20
-13.6002942243
 10
-18.4116146416
 20
-13.5711211008
 10
-18.4213700079
 20
-13.541432113
 10
-18.4299086569
 20
-13.5111794652
 10
-18.4370625684
 20
-13.4806806919
 10
-18.4427160578
 20
-13.4501515931
 10
-18.4467757895
 20
-13.4197728309
 10
-18.4491611598
 20
-13.3896917188
 10
-18.4497922728
 20
-13.360084994
  0
LWPOLYLINE
  5
238
100
AcDbEntity
  8
RACCORDO
100
AcDbPolyline
 62
250
  6
CONTINUOUS
 90
25
 70
0
 10
-18.3047226842
 20
-14.3376127823
 10
-18.3418052879
 20
-14.3147180081
 10
-18.3783009709
 20
-14.2895292531
 10
-18.4142097331
 20
-14.2620465173
 10
-18.449622554
 20
-14.232172693
 10
-18.4844484541
 20
-14.200004888
 10
-18.5184144951
 20
-14.1658344254
 10
-18.5515680338
 20
-14.1295981922
 10
-18.5838617135
 20
-14.0913593014
 10
-18.6148805252
 20
-14.0515984152
 10
-18.6446133501
 20
-14.0102790718
 10
-18.673071307
 20
-13.9674377331
 10
-18.6998727432
 20
-13.9236644466
 10
-18.7249716967
 20
-13.8789934769
 10
-18.7484141295
 20
-13.8333905596
 10
-18.7699562751
 20
-13.7873429484
 10
-18.789551706
 20
-13.7410600964
 10
-18.8072468496
 20
-13.6943325507
 10
-18.8229372225
 20
-13.6470192063
 10
-18.8367527506
 20
-13.5987985485
 10
-18.848563508
 20
-13.5499920922
 10
-18.8578752331
 20
-13.5014232766
 10
-18.8645231719
 20
-13.4533665816
 10
-18.8686720784
 20
-13.4055475274
 10
-18.8703219525
 20
-13.3579661139
  0
LINE
  5
239
100
AcDbEntity
  8
RACCORDO
100
AcDbLine
 62
250
  6
CONTINUOUS
 10
-16.7765166732
 20
-12.9169450371
 11
-16.7700647984
 21
-12.9233913223
  0
LWPOLYLINE
  5
23A
100
AcDbEntity
  8
RACCORDO
100
AcDbPolyline
 62
250
  6
CONTINUOUS
 90
11
 70
0
 10
-16.7700647984
 20
-12.9233913223
 10
-16.7668743776
 20
-12.9266884565
 10
-16.7637156286
 20
-12.9300184313
 10
-16.760580083
 20
-12.9333968954
 10
-16.75744213
 20
-12.9368709802
 10
-16.7542935645
 20
-12.9404399701
 10
-16.7511409784
 20
-12.9441027057
 10
-16.7479799776
 20
-12.9479047396
 10
-16.7448080594
 20
-12.9518601045
 10
-16.7416250975
 20
-12.9559517563
 10
-16.7095944452
 20
-12.9980295646
  0
LWPOLYLINE
  5
23B
100
AcDbEntity
  8
RACCORDO
100
AcDbPolyline
 62
250
  6
CONTINUOUS
 90
8
 70
0
 10
-16.687399433
 20
-12.9486121822
 10
-16.6883253591
 20
-12.9476451604
 10
-16.6921898827
 20
-12.9460180483
 10
-16.6979657214
 20
-12.9458936795
 10
-16.7055818632
 20
-12.9472735739
 10
-16.7149446732
 20
-12.9501407611
 10
-16.7259390413
 20
-12.9544599865
 10
-16.7384298024
 20
-12.9601781452
  0
LWPOLYLINE
  5
23C
100
AcDbEntity
  8
RACCORDO
100
AcDbPolyline
 62
7
  6
CONTINUOUS
 90
14
 70
0
 10
-16.7495093896
 20
-12.8757031867
 10
-16.7796804043
 20
-12.8425317832
 10
-16.816781853
 20
-12.7970091242
 10
-16.8506006997
 20
-12.7496801619
 10
-16.8809145651
 20
-12.7007960322
 10
-16.9075435052
 20
-12.6506008241
 10
-16.9303286097
 20
-12.5993441395
 10
-16.9491209353
 20
-12.5473452039
 10
-16.9637981114
 20
-12.4949693736
 10
-16.9743118547
 20
-12.4425465118
 10
-16.9806514491
 20
-12.3903704036
 10
-16.9828456539
 20
-12.3387578184
 10
-16.980957412
 20
-12.288019786
 10
-16.9774693719
 20
-12.2547257623
  0
LWPOLYLINE
  5
23D
100
AcDbEntity
  8
RACCORDO
100
AcDbPolyline
 62
250
  6
CONTINUOUS
 90
3
 70
0
 10
-16.8361541743
 20
-12.8526839238
 10
-16.8073407357
 20
-12.8853229107
 10
-16.7765166732
 20
-12.9169450371
  0
LWPOLYLINE
  5
23E
100
AcDbEntity
  8
RACCORDO
100
AcDbPolyline
 62
250
  6
CONTINUOUS
 90
8
 70
0
 10
-16.6793602387
 20
-13.0349670691
 10
-16.6477888623
 20
-13.0707797813
 10
-16.6149222173
 20
-13.1052857175
 10
-16.5808860425
 20
-13.138227038
 10
-16.5459021718
 20
-13.1692956958
 10
-16.5101433672
 20
-13.1982675792
 10
-16.473721586
 20
-13.2249796289
 10
-16.436799124
 20
-13.2492423783
  0
LINE
  5
23F
100
AcDbEntity
  8
RACCORDO
100
AcDbLine
 62
250
  6
CONTINUOUS
 10
-16.7095944452
 20
-12.9980295646
 11
-16.6793602387
 21
-13.0349670691
  0
LWPOLYLINE
  5
240
100
AcDbEntity
  8
RACCORDO
100
AcDbPolyline
 62
7
  6
CONTINUOUS
 90
6
 70
0
 10
-16.687399433
 20
-12.9486121822
 10
-16.6895522707
 20
-12.945745331
 10
-16.7062891814
 20
-12.9244799528
 10
-16.7240649338
 20
-12.9035134924
 10
-16.7425048172
 20
-12.8831343617
 10
-16.749500712
 20
-12.8757122832
  0
LWPOLYLINE
  5
241
100
AcDbEntity
  8
RACCORDO
100
AcDbPolyline
 62
250
  6
CONTINUOUS
 90
8
 70
0
 10
-16.749500712
 20
-12.8757122832
 10
-16.7491907679
 20
-12.87619464
 10
-16.749305807
 20
-12.8789740298
 10
-16.7512518747
 20
-12.8834541393
 10
-16.7550043974
 20
-12.889578397
 10
-16.7605159912
 20
-12.8972694703
 10
-16.7677170597
 20
-12.9064302421
 10
-16.7765166732
 20
-12.9169450371
  0
LWPOLYLINE
  5
242
100
AcDbEntity
  8
RACCORDO
100
AcDbPolyline
 62
250
  6
CONTINUOUS
 90
22
 70
0
 10
-17.5318545915
 20
-12.7650419825
 10
-17.5289250175
 20
-12.8012384914
 10
-17.523917059
 20
-12.8383001984
 10
-17.5168677896
 20
-12.876006093
 10
-17.5078269691
 20
-12.9140737527
 10
-17.4968672429
 20
-12.9523580601
 10
-17.4840447866
 20
-12.9908514594
 10
-17.4694019
 20
-13.0293848106
 10
-17.4530120739
 20
-13.0677245258
 10
-17.4349478712
 20
-13.1057663952
 10
-17.4152952321
 20
-13.1433064866
 10
-17.3941339838
 20
-13.1801591706
 10
-17.371513755
 20
-13.2162393472
 10
-17.3475227828
 20
-13.251372336
 10
-17.3222744845
 20
-13.2853432453
 10
-17.295851573
 20
-13.3179962497
 10
-17.2683265627
 20
-13.3492326904
 10
-17.2398882036
 20
-13.3787686054
 10
-17.2108351348
 20
-13.4062205257
 10
-17.1814057384
 20
-13.4314106397
 10
-17.1517453013
 20
-13.4543149424
 10
-17.1220470122
 20
-13.4748496271
  0
LINE
  5
243
100
AcDbEntity
  8
RACCORDO
100
AcDbLine
 62
250
  6
CONTINUOUS
 10
-17.2169925229
 20
8.4987007522
 11
-17.2129684771
 21
8.4281644001
  0
LINE
  5
244
100
AcDbEntity
  8
RACCORDO
100
AcDbLine
 62
250
  6
CONTINUOUS
 10
-17.2202890587
 20
8.5670738427
 11
-17.2169925229
 21
8.4987007522
  0
LWPOLYLINE
  5
245
100
AcDbEntity
  8
RACCORDO
100
AcDbPolyline
 62
250
  6
CONTINUOUS
 90
9
 70
0
 10
-18.3047226842
 20
29.9816271315
 10
-18.3035862603
 20
29.9569634313
 10
-18.3001891647
 20
29.9338762993
 10
-18.2945677948
 20
29.9126130983
 10
-18.2867823799
 20
29.8934016485
 10
-18.2769163351
 20
29.8764477874
 10
-18.2650753684
 20
29.861933164
 10
-18.2513863474
 20
29.8500132922
 10
-18.2426339521
 20
29.8443269004
  0
LWPOLYLINE
  5
246
100
AcDbEntity
  8
RACCORDO
100
AcDbPolyline
 62
250
  6
CONTINUOUS
 90
4
 70
0
 10
-17.2255272438
 20
8.7584118628
 10
-17.2245564191
 20
8.696929398
 10
-17.2228580846
 20
8.6332836715
 10
-17.2202890587
 20
8.5670738427
  0
LWPOLYLINE
  5
247
100
AcDbEntity
  8
RACCORDO
100
AcDbPolyline
 62
7
  6
CONTINUOUS
 90
6
 70
0
 10
-16.9577209252
 20
6.7197308938
 10
-16.9577599542
 20
6.7252171939
 10
-16.9582706949
 20
6.7402022425
 10
-16.9593696407
 20
6.7549415093
 10
-16.9610482345
 20
6.7693815338
 10
-16.9623418728
 20
6.7779650729
  0
LINE
  5
248
100
AcDbEntity
  8
RACCORDO
100
AcDbLine
 62
250
  6
CONTINUOUS
 10
-18.8703219525
 20
-13.3579661139
 11
-18.8703219525
 21
29.6551203209
  0
LINE
  5
249
100
AcDbEntity
  8
RACCORDO
100
AcDbLine
 62
250
  6
CONTINUOUS
 10
-18.449792407
 20
-13.3600850715
 11
-18.449792407
 21
29.6530013633
  0
LINE
  5
24A
100
AcDbEntity
  8
RACCORDO
100
AcDbLine
 62
7
  6
CONTINUOUS
 10
-17.7985211317
 20
29.587901714
 11
-17.7985211317
 21
-12.9840504464
  0
LINE
  5
24B
100
AcDbEntity
  8
RACCORDO
100
AcDbLine
 62
250
  6
CONTINUOUS
 10
-17.5318540365
 20
29.4339314753
 11
-17.5318540365
 21
-12.7650416621
  0
LINE
  5
24C
100
AcDbEntity
  8
RACCORDO
100
AcDbLine
 62
7
  6
CONTINUOUS
 10
-17.5050591172
 20
29.4184604248
 11
-17.5050591172
 21
-12.7073029778
  0
LINE
  5
24D
100
AcDbEntity
  8
RACCORDO
100
AcDbLine
 62
250
  6
CONTINUOUS
 10
-16.9938905163
 20
29.123318081
 11
-16.9938905163
 21
12.4328180783
  0
LINE
  5
24E
100
AcDbEntity
  8
RACCORDO
100
AcDbLine
 62
250
  6
CONTINUOUS
 10
-16.9938905163
 20
6.6534921718
 11
-16.9938905163
 21
-12.126409244
  0
LINE
  5
24F
100
AcDbEntity
  8
RACCORDO
100
AcDbLine
 62
7
  6
CONTINUOUS
 10
-16.9577209251
 20
29.1024342124
 11
-16.9577209251
 21
12.4990532513
  0
LINE
  5
250
100
AcDbEntity
  8
RACCORDO
100
AcDbLine
 62
7
  6
CONTINUOUS
 10
-16.9577209251
 20
6.719727341
 11
-16.9577209251
 21
-12.060174074
  0
LWPOLYLINE
  5
251
100
AcDbEntity
  8
RACCORDO
100
AcDbPolyline
 62
7
  6
CONTINUOUS
 90
9
 70
0
 10
-17.1904457176
 20
8.9469700497
 10
-17.1906759615
 20
9.8044757
 10
-17.1904227955
 20
9.8927418194
 10
-17.1897636136
 20
9.9766515206
 10
-17.1886291524
 20
10.0550225657
 10
-17.1869624112
 20
10.1289493795
 10
-17.1846225221
 20
10.2018831982
 10
-17.1814559426
 20
10.2750290111
 10
-17.1771996526
 20
10.350425525
  0
LWPOLYLINE
  5
252
100
AcDbEntity
  8
RACCORDO
100
AcDbPolyline
 62
250
  6
CONTINUOUS
 90
4
 70
0
 10
-17.2268742774
 20
9.7723894625
 10
-17.2269382849
 20
8.9378965046
 10
-17.2267181766
 20
8.8788954161
 10
-17.2255272438
 20
8.7584118628
  0
LINE
  5
253
100
AcDbEntity
  8
RACCORDO
100
AcDbLine
 62
250
  6
CONTINUOUS
 10
-17.2265608378
 20
9.8458072643
 11
-17.2268742774
 21
9.7723894625
  0
LWPOLYLINE
  5
254
100
AcDbEntity
  8
RACCORDO
100
AcDbPolyline
 62
250
  6
CONTINUOUS
 90
12
 70
0
 10
-16.9938905163
 20
-12.126409244
 10
-16.9939272108
 20
-12.1319835792
 10
-16.9940312055
 20
-12.1376131205
 10
-16.9942025006
 20
-12.1432978679
 10
-16.9944374053
 20
-12.1489968483
 10
-16.9947396103
 20
-12.1547510349
 10
-16.9951201877
 20
-12.1606833467
 10
-16.9955726146
 20
-12.166790122
 10
-16.996103414
 20
-12.1730750225
 10
-16.9967432264
 20
-12.1796719525
 10
-16.9975022655
 20
-12.186625547
 10
-16.9983703177
 20
-12.193891171
  0
LWPOLYLINE
  5
255
100
AcDbEntity
  8
RACCORDO
100
AcDbPolyline
 62
250
  6
CONTINUOUS
 90
10
 70
0
 10
-16.9938905163
 20
12.4328180783
 10
-16.9939152487
 20
12.429750437
 10
-16.9939889687
 20
12.4266387849
 10
-16.9941116764
 20
12.4234831219
 10
-16.9942834302
 20
12.4202816259
 10
-16.9945041716
 20
12.4170361191
 10
-16.9947737249
 20
12.4137520677
 10
-16.9950920316
 20
12.4104312939
 10
-16.9954591502
 20
12.4070719755
 10
-16.9958750807
 20
12.4036741126
  0
LWPOLYLINE
  5
256
100
AcDbEntity
  8
RACCORDO
100
AcDbPolyline
 62
250
  6
CONTINUOUS
 90
7
 70
0
 10
-17.1773110996
 20
8.5087037205
 10
-17.1774815346
 20
8.4948653268
 10
-17.1800220831
 20
8.4808760292
 10
-17.1849130576
 20
8.4670482638
 10
-17.1920960382
 20
8.4535471982
 10
-17.2014852279
 20
8.4405340979
 10
-17.2129684771
 20
8.4281644001
  0
LWPOLYLINE
  5
257
100
AcDbEntity
  8
RACCORDO
100
AcDbPolyline
 62
250
  6
CONTINUOUS
 90
13
 70
0
 10
-18.4497923004
 20
29.6530014206
 10
-18.449282081
 20
29.6790240343
 10
-18.4472640456
 20
29.7039888442
 10
-18.4437653369
 20
29.7278009232
 10
-18.4388285816
 20
29.7503394373
 10
-18.4324861682
 20
29.7715599019
 10
-18.4247400826
 20
29.7914753336
 10
-18.4156054321
 20
29.8100290282
 10
-18.4051305302
 20
29.8271076967
 10
-18.3933592698
 20
29.8426327908
 10
-18.380335395
 20
29.8565433106
 10
-18.3661173017
 20
29.8687747496
 10
-18.3507844923
 20
29.8792626167
  0
LWPOLYLINE
  5
258
100
AcDbEntity
  8
RACCORDO
100
AcDbPolyline
 62
250
  6
CONTINUOUS
 90
6
 70
0
 10
-16.9577209251
 20
12.4990532513
 10
-16.957805531
 20
12.4956947028
 10
-16.9598325789
 20
12.4823169559
 10
-16.9645357325
 20
12.4691655349
 10
-16.9718513916
 20
12.4564182909
 10
-16.9816806268
 20
12.4442476091
  0
LWPOLYLINE
  5
259
100
AcDbEntity
  8
RACCORDO
100
AcDbPolyline
 62
250
  6
CONTINUOUS
 90
7
 70
0
 10
-16.9577209251
 20
6.719727341
 10
-16.9578055351
 20
6.7163687105
 10
-16.9598325974
 20
6.7029909731
 10
-16.9645357599
 20
6.6898395664
 10
-16.9718514203
 20
6.6770923405
 10
-16.9816806469
 20
6.6649216799
 10
-16.9938905163
 20
6.6534921718
  0
LINE
  5
25A
100
AcDbEntity
  8
RACCORDO
100
AcDbLine
 62
250
  6
CONTINUOUS
 10
-16.9577209251
 20
-12.060174074
 11
-16.9578055351
 21
-12.0635327042
  0
LWPOLYLINE
  5
25B
100
AcDbEntity
  8
RACCORDO
100
AcDbPolyline
 62
250
  6
CONTINUOUS
 90
7
 70
0
 10
-17.1906910638
 20
9.772222783
 10
-17.1907754461
 20
9.7690383991
 10
-17.1928025084
 20
9.7556606617
 10
-17.1975056708
 20
9.742509255
 10
-17.2048213312
 20
9.7297620291
 10
-17.2146505578
 20
9.7175913685
 10
-17.2268604272
 20
9.7061618604
  0
LWPOLYLINE
  5
25C
100
AcDbEntity
  8
RACCORDO
100
AcDbPolyline
 62
250
  6
CONTINUOUS
 90
7
 70
0
 10
-17.1906910353
 20
9.0620091059
 10
-17.1907754615
 20
9.0588131393
 10
-17.1928025809
 20
9.0454354179
 10
-17.1975057828
 20
9.0322840481
 10
-17.2048214514
 20
9.0195368782
 10
-17.2146506439
 20
9.0073662865
 10
-17.2268604272
 20
8.995936854
  0
LWPOLYLINE
  5
25D
100
AcDbEntity
  8
RACCORDO
100
AcDbPolyline
 62
250
  6
CONTINUOUS
 90
25
 70
0
 10
-18.8703219525
 20
29.6551203209
 10
-18.8690369514
 20
29.6971963005
 10
-18.865471752
 20
29.7372780262
 10
-18.8596263542
 20
29.775365498
 10
-18.8514621517
 20
29.8115414758
 10
-18.8410177509
 20
29.8457231997
 10
-18.8284089707
 20
29.8776623903
 10
-18.8136048327
 20
29.9073958424
 10
-18.7966363153
 20
29.9348867611
 10
-18.7777121732
 20
29.9597764833
 10
-18.7567952686
 20
29.9820307276
 10
-18.7339227393
 20
30.0016837753
 10
-18.7094147531
 20
30.0184798071
 10
-18.6832780018
 20
30.0323696159
 10
-18.6555057938
 20
30.0434024088
 10
-18.6263982218
 20
30.0514699873
 10
-18.5961134672
 20
30.0566100752
 10
-18.5644933487
 20
30.0587849487
 10
-18.5313634152
 20
30.0577732386
 10
-18.4965101869
 20
30.0536017053
 10
-18.4601471435
 20
30.0462435883
 10
-18.4227402728
 20
30.0353972375
 10
-18.384444904
 20
30.0209621027
 10
-18.3451057077
 20
30.0030387341
 10
-18.3047226842
 20
29.9816271315
  0
LWPOLYLINE
  5
25E
100
AcDbEntity
  8
RACCORDO
100
AcDbPolyline
 62
250
  6
CONTINUOUS
 90
16
 70
0
 10
-18.3047226842
 20
-14.3376127823
 10
-18.3035862185
 20
-14.3116362783
 10
-18.3001890117
 20
-14.2846258253
 10
-18.2945674839
 20
-14.2568708386
 10
-18.2867818882
 20
-14.2286687094
 10
-18.2769156619
 20
-14.2003216094
 10
-18.2650745306
 20
-14.1721332529
 10
-18.2513853814
 20
-14.1444056607
 10
-18.2359948975
 20
-14.1174359078
 10
-18.2190679798
 20
-14.0915129334
 10
-18.2007859974
 20
-14.0669144761
 10
-18.1813448335
 20
-14.0439040771
 10
-18.1609527736
 20
-14.0227282461
 10
-18.1398282983
 20
-14.0036138506
 10
-18.1181977444
 20
-13.9867656808
 10
-18.0962928643
 20
-13.9723642393
  0
LWPOLYLINE
  5
25F
100
AcDbEntity
  8
RACCORDO
100
AcDbPolyline
 62
250
  6
CONTINUOUS
 90
7
 70
0
 10
-17.2129684771
 20
10.2968447728
 10
-17.2165537193
 20
10.2322332729
 10
-17.2195681191
 20
10.1678743007
 10
-17.2220116766
 20
10.1037678562
 10
-17.2238038328
 20
10.0405906214
 10
-17.2250251467
 20
9.9776659143
 10
-17.2265608378
 20
9.8458072643
  0
LINE
  5
260
100
AcDbEntity
  8
RACCORDO
100
AcDbLine
 62
7
  6
CONTINUOUS
 10
-17.1771996526
 20
10.350425525
 11
-17.1772024632
 21
10.3503808513
  0
LINE
  5
261
100
AcDbEntity
  8
RACCORDO
100
AcDbLine
 62
250
  6
CONTINUOUS
 10
-17.2075279781
 20
10.3795186599
 11
-17.2129684771
 21
10.2968447728
  0
LWPOLYLINE
  5
262
100
AcDbEntity
  8
RACCORDO
100
AcDbPolyline
 62
7
  6
CONTINUOUS
 90
8
 70
0
 10
-17.1772024632
 20
10.3503808513
 10
-17.1671788225
 20
10.4985761251
 10
-17.1502473728
 20
10.7191830219
 10
-17.130327273
 20
10.9489912139
 10
-17.1074577274
 20
11.1879622305
 10
-17.0817108743
 20
11.436002104
 10
-17.0531838264
 20
11.6929727442
 10
-17.0219822413
 20
11.958773301
  0
LINE
  5
263
100
AcDbEntity
  8
RACCORDO
100
AcDbLine
 62
250
  6
CONTINUOUS
 10
-17.197982956
 20
10.5131031013
 11
-17.2075279781
 21
10.3795186599
  0
LINE
  5
264
100
AcDbEntity
  8
RACCORDO
100
AcDbLine
 62
250
  6
CONTINUOUS
 10
-17.1865111077
 20
10.6599902769
 11
-17.197982956
 21
10.5131031013
  0
LINE
  5
265
100
AcDbEntity
  8
RACCORDO
100
AcDbLine
 62
250
  6
CONTINUOUS
 10
-17.172687542
 20
10.8228216073
 11
-17.1865111077
 21
10.6599902769
  0
LINE
  5
266
100
AcDbEntity
  8
RACCORDO
100
AcDbLine
 62
250
  6
CONTINUOUS
 10
-17.1619248735
 20
10.9415640979
 11
-17.172687542
 21
10.8228216073
  0
LWPOLYLINE
  5
267
100
AcDbEntity
  8
RACCORDO
100
AcDbPolyline
 62
250
  6
CONTINUOUS
 90
7
 70
0
 10
-17.1772024632
 20
10.3503808513
 10
-17.1774815775
 20
10.347363865
 10
-17.1800221791
 20
10.3363726848
 10
-17.1849131846
 20
10.3257005255
 10
-17.1920961646
 20
10.31547486
 10
-17.2014853141
 20
10.305817827
 10
-17.2129684771
 20
10.2968447728
  0
LINE
  5
268
100
AcDbEntity
  8
RACCORDO
100
AcDbLine
 62
250
  6
CONTINUOUS
 10
-17.1497811986
 20
11.0691947659
 11
-17.1619248735
 21
10.9415640979
  0
LWPOLYLINE
  5
269
100
AcDbEntity
  8
RACCORDO
100
AcDbPolyline
 62
7
  6
CONTINUOUS
 90
4
 70
0
 10
-16.9607628234
 20
12.4490561244
 10
-16.9588750948
 20
12.4685763888
 10
-16.9578684796
 20
12.4882836688
 10
-16.9577209291
 20
12.4990762189
  0
LINE
  5
26A
100
AcDbEntity
  8
RACCORDO
100
AcDbLine
 62
250
  6
CONTINUOUS
 10
-17.136086491
 20
11.2065429778
 11
-17.1497811986
 21
11.0691947659
  0
LINE
  5
26B
100
AcDbEntity
  8
RACCORDO
100
AcDbLine
 62
250
  6
CONTINUOUS
 10
-17.1122608431
 20
11.4325643743
 11
-17.136086491
 21
11.2065429778
  0
LINE
  5
26C
100
AcDbEntity
  8
RACCORDO
100
AcDbLine
 62
250
  6
CONTINUOUS
 10
-17.0839451564
 20
11.685344198
 11
-17.1122608431
 21
11.4325643743
  0
LINE
  5
26D
100
AcDbEntity
  8
RACCORDO
100
AcDbLine
 62
250
  6
CONTINUOUS
 10
-17.050401057
 20
11.9687623196
 11
-17.0839451564
 21
11.685344198
  0
LINE
  5
26E
100
AcDbEntity
  8
RACCORDO
100
AcDbLine
 62
7
  6
CONTINUOUS
 10
-17.0219822413
 20
11.958773301
 11
-16.9607628234
 21
12.4490561244
  0
LWPOLYLINE
  5
26F
100
AcDbEntity
  8
RACCORDO
100
AcDbPolyline
 62
250
  6
CONTINUOUS
 90
3
 70
0
 10
-16.9958750807
 20
12.4036741126
 10
-17.0106033029
 20
12.2885702497
 10
-17.050401057
 20
11.9687623196
  0
LWPOLYLINE
  5
270
100
AcDbEntity
  8
RACCORDO
100
AcDbPolyline
 62
250
  6
CONTINUOUS
 90
7
 70
0
 10
-16.9613519259
 20
12.4442994646
 10
-16.9616806159
 20
12.4422233702
 10
-16.9644086407
 20
12.4335502125
 10
-16.9692558335
 20
12.4252715976
 10
-16.9761695909
 20
12.417477356
 10
-16.9850748856
 20
12.4102520611
 10
-16.9958750808
 20
12.4036741126
  0
LINE
  5
271
100
AcDbEntity
  8
RACCORDO
100
AcDbLine
 62
250
  6
CONTINUOUS
 10
-16.9850748115
 20
6.6927815372
 11
-16.9958750807
 21
6.6793632147
  0
LINE
  5
272
100
AcDbEntity
  8
RACCORDO
100
AcDbLine
 62
250
  6
CONTINUOUS
 10
-16.9816806268
 20
12.4442476091
 11
-16.9938905163
 21
12.4328180783
  0
LWPOLYLINE
  5
273
100
AcDbEntity
  8
RACCORDO
100
AcDbPolyline
 62
250
  6
CONTINUOUS
 90
6
 70
0
 10
-17.0587517668
 20
-13.4804487669
 10
-17.0677450602
 20
-13.4761358022
 10
-17.0800794599
 20
-13.4725739888
 10
-17.0933478406
 20
-13.4711654343
 10
-17.1073924768
 20
-13.4719268828
 10
-17.1220464154
 20
-13.4748492825
  0
LWPOLYLINE
  5
274
100
AcDbEntity
  8
RACCORDO
100
AcDbPolyline
 62
250
  6
CONTINUOUS
 90
16
 70
0
 10
-18.8703219525
 20
-13.3579661139
 10
-18.8472571827
 20
-13.3699711091
 10
-18.8221666882
 20
-13.3805351653
 10
-18.7953192962
 20
-13.389545096
 10
-18.767002658
 20
-13.3969043659
 10
-18.7375201667
 20
-13.4025341257
 10
-18.7071877068
 20
-13.4063740563
 10
-18.6763302695
 20
-13.4083830156
 10
-18.6452784709
 20
-13.4085394789
 10
-18.6143650095
 20
-13.4068417699
 10
-18.5839211017
 20
-13.4033080782
 10
-18.5542729327
 20
-13.3979762651
 10
-18.5257381623
 20
-13.3909034571
 10
-18.4986225206
 20
-13.3821654345
 10
-18.473216533
 20
-13.3718558192
 10
-18.449792407
 20
-13.3600850715
  0
LWPOLYLINE
  5
275
100
AcDbEntity
  8
RACCORDO
100
AcDbPolyline
 62
250
  6
CONTINUOUS
 90
7
 70
0
 10
-16.3614307117
 20
-13.2509871065
 10
-16.3643074617
 20
-13.249424061
 10
-16.3769057069
 20
-13.2444919726
 10
-16.3906460067
 20
-13.2419905983
 10
-16.4053425471
 20
-13.241953765
 10
-16.4207965827
 20
-13.2443819707
 10
-16.436799124
 20
-13.2492423783
  0
LINE
  5
276
100
AcDbEntity
  8
RACCORDO
100
AcDbLine
 62
7
  6
CONTINUOUS
 10
-17.445021589
 20
-13.5963296141
 11
13.6970693316
 21
-31.5773826096
  0
LINE
  5
277
100
AcDbEntity
  8
RACCORDO
100
AcDbLine
 62
250
  6
CONTINUOUS
 10
-17.1220464154
 20
-13.4748492825
 11
13.6970693316
 21
-31.2694204605
  0
LINE
  5
278
100
AcDbEntity
  8
RACCORDO
100
AcDbLine
 62
7
  6
CONTINUOUS
 10
-17.0587517668
 20
-13.4804487669
 11
13.6970693316
 21
-31.2384742744
  0
LINE
  5
279
100
AcDbEntity
  8
RACCORDO
100
AcDbLine
 62
250
  6
CONTINUOUS
 10
-16.436799124
 20
-13.2492423783
 11
13.6970693316
 21
-30.6481603584
  0
LINE
  5
27A
100
AcDbEntity
  8
RACCORDO
100
AcDbLine
 62
7
  6
CONTINUOUS
 10
-16.3614307117
 20
-13.2509871065
 11
13.6970693316
 21
-30.6063882383
  0
LWPOLYLINE
  5
27B
100
AcDbEntity
  8
RACCORDO
100
AcDbPolyline
 62
7
  6
CONTINUOUS
 90
23
 70
0
 10
-17.058751738
 20
-13.4804487834
 10
-17.0762136374
 20
-13.4699536478
 10
-17.1079107151
 20
-13.448839666
 10
-17.1399842762
 20
-13.4247544248
 10
-17.1721110245
 20
-13.3978073245
 10
-17.2039952378
 20
-13.3681392453
 10
-17.2353609457
 20
-13.3359210801
 10
-17.2659433145
 20
-13.3013429638
 10
-17.2955095958
 20
-13.2646011015
 10
-17.3238037046
 20
-13.225963699
 10
-17.3505903525
 20
-13.185709945
 10
-17.3756929388
 20
-13.1440804008
 10
-17.3989140645
 20
-13.1013980895
 10
-17.4200766429
 20
-13.0579981692
 10
-17.4390647357
 20
-13.0141561492
 10
-17.45575953
 20
-12.9702153071
 10
-17.470062293
 20
-12.9265310578
 10
-17.4819250831
 20
-12.8834023921
 10
-17.491320854
 20
-12.8411508683
 10
-17.4982452071
 20
-12.8000968496
 10
-17.5027312475
 20
-12.7605664365
 10
-17.5048508143
 20
-12.7228960503
 10
-17.5050592347
 20
-12.707428114
  0
LWPOLYLINE
  5
27C
100
AcDbEntity
  8
RACCORDO
100
AcDbPolyline
 62
7
  6
CONTINUOUS
 90
11
 70
0
 10
-16.3614307118
 20
-13.2509871065
 10
-16.3853255127
 20
-13.2366053177
 10
-16.4213630882
 20
-13.2127359274
 10
-16.457745677
 20
-13.1859803493
 10
-16.4942092249
 20
-13.1564386145
 10
-16.5305086044
 20
-13.1242327191
 10
-16.5664293776
 20
-13.0894923388
 10
-16.6017750389
 20
-13.0523471846
 10
-16.6363584783
 20
-13.0129406869
 10
-16.669970449
 20
-12.9714668423
 10
-16.6873986512
 20
-12.9486132316
  0
LWPOLYLINE
  5
27D
100
AcDbEntity
  8
RACCORDO
100
AcDbPolyline
 62
250
  6
CONTINUOUS
 90
9
 70
0
 10
13.7849372972
 20
-32.2127035381
 10
13.7641450137
 20
-32.1993859721
 10
13.7458484961
 20
-32.184898783
 10
13.7302437616
 20
-32.1693972055
 10
13.7174979843
 20
-32.1530473426
 10
13.7077477007
 20
-32.1360243803
 10
13.7010973506
 20
-32.1185107098
 10
13.6976181631
 20
-32.1006939842
 10
13.6970693421
 20
-32.0902671712
  0
LWPOLYLINE
  5
27E
100
AcDbEntity
  8
RACCORDO
100
AcDbPolyline
 62
250
  6
CONTINUOUS
 90
7
 70
0
 10
-16.9623375019
 20
6.7779384104
 10
-16.9611013745
 20
6.7653751156
 10
-16.9616805696
 20
6.7506466259
 10
-16.9644085518
 20
6.7358633542
 10
-16.9692557209
 20
6.7211857155
 10
-16.976169481
 20
6.7067729784
 10
-16.9850748115
 20
6.6927815372
  0
LWPOLYLINE
  5
27F
100
AcDbEntity
  8
RACCORDO
100
AcDbPolyline
 62
250
  6
CONTINUOUS
 90
7
 70
0
 10
-16.9947750734
 20
6.6711145319
 10
-16.9945054433
 20
6.668276593
 10
-16.9942843997
 20
6.6653953059
 10
-16.994112345
 20
6.6624757157
 10
-16.9939894132
 20
6.6595195041
 10
-16.9939154703
 20
6.6565249895
 10
-16.9938905163
 20
6.6534921718
  0
LWPOLYLINE
  5
280
100
AcDbEntity
  8
RACCORDO
100
AcDbPolyline
 62
250
  6
CONTINUOUS
 90
15
 70
0
 10
-17.2129684771
 20
8.4281644001
 10
-17.2061952574
 20
8.3364205306
 10
-17.1984474345
 20
8.2414669951
 10
-17.1897250085
 20
8.1433037938
 10
-17.1800801577
 20
8.042066603
 10
-17.1694607037
 20
7.9376197464
 10
-17.157710111
 20
7.829556194
 10
-17.1448036553
 20
7.7177443933
 10
-17.1307660609
 20
7.6023158969
 10
-17.1155149646
 20
7.4832583319
 10
-17.0991149506
 20
7.3610607051
 10
-17.0815014347
 20
7.2352340096
 10
-17.0623983014
 20
7.1042988522
 10
-17.041713512
 20
6.9677621017
 10
-17.0195391051
 20
6.8261168892
  0
LWPOLYLINE
  5
281
100
AcDbEntity
  8
RACCORDO
100
AcDbPolyline
 62
7
  6
CONTINUOUS
 90
8
 70
0
 10
-17.1773110996
 20
8.5087037205
 10
-17.1778372408
 20
8.5162075183
 10
-17.1817542821
 20
8.5807915389
 10
-17.1848218655
 20
8.647990361
 10
-17.1870989413
 20
8.7167732743
 10
-17.1887213894
 20
8.7879453176
 10
-17.1898168879
 20
8.8643346746
 10
-17.1904457176
 20
8.9469700497
  0
LWPOLYLINE
  5
282
100
AcDbEntity
  8
RACCORDO
100
AcDbPolyline
 62
250
  6
CONTINUOUS
 90
16
 70
0
 10
-17.0156715325
 20
-12.3286102131
 10
-17.0175934379
 20
-12.3629679548
 10
-17.0176478404
 20
-12.397744209
 10
-17.0158099378
 20
-12.4329374778
 10
-17.0120478378
 20
-12.4684053479
 10
-17.0063504003
 20
-12.5038599854
 10
-16.9987663305
 20
-12.5390278883
 10
-16.9892819274
 20
-12.5740156239
 10
-16.977776077
 20
-12.6091005444
 10
-16.9642154066
 20
-12.6442286507
 10
-16.9485800076
 20
-12.6792716567
 10
-16.9306951038
 20
-12.7143813151
 10
-16.9103760318
 20
-12.7496441286
 10
-16.8877027489
 20
-12.7847269802
 10
-16.8629218664
 20
-12.8191506376
 10
-16.8361541743
 20
-12.8526839238
  0
LWPOLYLINE
  5
283
100
AcDbEntity
  8
RACCORDO
100
AcDbPolyline
 62
250
  6
CONTINUOUS
 90
6
 70
0
 10
-17.5050592347
 20
-12.7074281451
 10
-17.5058203331
 20
-12.7173685258
 10
-17.5089023456
 20
-12.7298323309
 10
-17.5143160453
 20
-12.7420282859
 10
-17.5219970518
 20
-12.7538114157
 10
-17.5318540365
 20
-12.7650416621
  0
LINE
  5
284
100
AcDbEntity
  8
RACCORDO
100
AcDbLine
 62
250
  6
CONTINUOUS
 10
-17.0119123783
 20
-12.2947378113
 11
-17.0156715325
 21
-12.3286102131
  0
LWPOLYLINE
  5
285
100
AcDbEntity
  8
RACCORDO
100
AcDbPolyline
 62
7
  6
CONTINUOUS
 90
6
 70
0
 10
-16.9650331453
 20
-12.1624126464
 10
-16.9632018292
 20
-12.1481478724
 10
-16.9604960736
 20
-12.1219618143
 10
-16.9586661251
 20
-12.0956800993
 10
-16.9577870356
 20
-12.0693998648
 10
-16.9577209452
 20
-12.060122305
  0
LINE
  5
286
100
AcDbEntity
  8
RACCORDO
100
AcDbLine
 62
250
  6
CONTINUOUS
 10
-16.9983703177
 20
-12.193891171
 11
-16.999347383
 21
-12.2014688246
  0
LINE
  5
287
100
AcDbEntity
  8
RACCORDO
100
AcDbLine
 62
250
  6
CONTINUOUS
 10
-16.999347383
 20
-12.2014688246
 11
-17.0119123783
 21
-12.2947378113
  0
LINE
  5
288
100
AcDbEntity
  8
RACCORDO
100
AcDbLine
 62
7
  6
CONTINUOUS
 10
-16.9774710742
 20
-12.2547386445
 11
-16.9650307315
 21
-12.1623950692
  0
LWPOLYLINE
  5
289
100
AcDbEntity
  8
RACCORDO
100
AcDbPolyline
 62
250
  6
CONTINUOUS
 90
6
 70
0
 10
-16.9578055351
 20
-12.0635327042
 10
-16.9598325973
 20
-12.0769104417
 10
-16.9645357598
 20
-12.0900618486
 10
-16.9718514202
 20
-12.1028090747
 10
-16.9816806468
 20
-12.1149797356
 10
-16.9938905163
 20
-12.126409244
  0
LWPOLYLINE
  5
28A
100
AcDbEntity
  8
RACCORDO
100
AcDbPolyline
 62
250
  6
CONTINUOUS
 90
6
 70
0
 10
-16.9774710742
 20
-12.2547386446
 10
-16.9787265968
 20
-12.2605474662
 10
-16.9830647359
 20
-12.2700965636
 10
-16.990113997
 20
-12.2790604039
 10
-16.9997751913
 20
-12.2873128591
 10
-17.0119123783
 20
-12.2947378113
  0
LWPOLYLINE
  5
28B
100
AcDbEntity
  8
RACCORDO
100
AcDbPolyline
 62
250
  6
CONTINUOUS
 90
6
 70
0
 10
-16.9650331455
 20
-12.1624126464
 10
-16.9662820332
 20
-12.168047954
 10
-16.9706120803
 20
-12.1774091152
 10
-16.9776379543
 20
-12.1861798403
 10
-16.9872612961
 20
-12.1942373438
 10
-16.9993473832
 20
-12.2014688245
  0
LINE
  5
28C
100
AcDbEntity
  8
RACCORDO
100
AcDbLine
 62
250
  6
CONTINUOUS
 10
-17.0195391051
 20
6.8261168892
 11
-16.9958750807
 21
6.6793632147
  0
LWPOLYLINE
  5
28D
100
AcDbEntity
  8
RACCORDO
100
AcDbPolyline
 62
7
  6
CONTINUOUS
 90
10
 70
0
 10
-16.9623375021
 20
6.7779384104
 10
-16.9898471536
 20
6.9487016424
 10
-17.0234593215
 20
7.1668105533
 10
-17.0545064947
 20
7.3803812113
 10
-17.0828699113
 20
7.5894612343
 10
-17.1084519985
 20
7.7941422142
 10
-17.1311672436
 20
7.9945557336
 10
-17.1509451415
 20
8.1907385473
 10
-17.1677377691
 20
8.3826336802
 10
-17.1773066841
 20
8.5086424374
  0
LWPOLYLINE
  5
28E
100
AcDbEntity
  8
RACCORDO
100
AcDbPolyline
 62
250
  6
CONTINUOUS
 90
4
 70
0
 10
-16.9958750807
 20
6.6793632147
 10
-16.995459825
 20
6.6766570019
 10
-16.995093156
 20
6.673907441
 10
-16.9947750734
 20
6.6711145319
  0
LINE
  5
28F
100
AcDbEntity
  8
RACCORDO
100
AcDbLine
 62
250
  6
CONTINUOUS
 10
28.4963995133
 20
17.0459213015
 11
29.6321198143
 21
17.7016656579
  0
LINE
  5
290
100
AcDbEntity
  8
RACCORDO
100
AcDbLine
 62
250
  6
CONTINUOUS
 10
30.2029576739
 20
17.4204950312
 11
33.5149111956
 21
19.3327820521
  0
LINE
  5
291
100
AcDbEntity
  8
RACCORDO
100
AcDbLine
 62
250
  6
CONTINUOUS
 10
29.8707792401
 20
17.5897134215
 11
29.8289664951
 21
17.5664139909
  0
LWPOLYLINE
  5
292
100
AcDbEntity
  8
RACCORDO
100
AcDbPolyline
 62
250
  6
CONTINUOUS
 90
8
 70
0
 10
29.8548805976
 20
17.5990306265
 10
29.8714152904
 20
17.6071215322
 10
29.887688708
 20
17.612836763
 10
29.9034771021
 20
17.6160977383
 10
29.9185633936
 20
17.616859622
 10
29.9327401563
 20
17.6151119388
 10
29.9458124699
 20
17.6108787181
 10
29.952417013
 20
17.6075388157
  0
LWPOLYLINE
  5
293
100
AcDbEntity
  8
RACCORDO
100
AcDbPolyline
 62
250
  6
CONTINUOUS
 90
7
 70
0
 10
29.8707792401
 20
17.5897134215
 10
29.8875947242
 20
17.5976784046
 10
29.9041438359
 20
17.603258379
 10
29.9201979758
 20
17.6063762664
 10
29.9355353819
 20
17.6069889982
 10
29.9499441927
 20
17.6050881106
 10
29.9632253738
 20
17.6006998612
  0
LWPOLYLINE
  5
294
100
AcDbEntity
  8
RACCORDO
100
AcDbPolyline
 62
250
  6
CONTINUOUS
 90
7
 70
0
 10
30.7136879657
 20
16.1297526885
 10
30.7289930194
 20
16.1403338123
 10
30.7420993543
 20
16.1518768483
 10
30.7528259277
 20
16.1642223481
 10
30.7610245693
 20
16.1771997784
 10
30.7665820286
 20
16.1906298771
 10
30.7694215383
 20
16.2043271289
  0
LWPOLYLINE
  5
295
100
AcDbEntity
  8
RACCORDO
100
AcDbPolyline
 62
250
  6
CONTINUOUS
 90
8
 70
0
 10
30.7138070586
 20
16.1113263715
 10
30.7290807935
 20
16.1216014088
 10
30.7421664311
 20
16.1328381049
 10
30.7528840527
 20
16.1448819621
 10
30.7610862985
 20
16.1575673848
 10
30.7666603934
 20
16.1707199564
 10
30.769529698
 20
16.184158838
 10
30.7699390985
 20
16.1915433841
  0
LINE
  5
296
100
AcDbEntity
  8
RACCORDO
100
AcDbLine
 62
250
  6
CONTINUOUS
 10
30.7136879657
 20
16.1297526885
 11
30.672618673
 21
16.105197267
  0
LINE
  5
297
100
AcDbEntity
  8
RACCORDO
100
AcDbLine
 62
250
  6
CONTINUOUS
 10
30.733357439
 20
16.5021631484
 11
34.0451605097
 21
18.4143633004
  0
LINE
  5
298
100
AcDbEntity
  8
RACCORDO
100
AcDbLine
 62
250
  6
CONTINUOUS
 10
29.5556060872
 20
15.2113217018
 11
30.6913263881
 21
15.8670660582
  0
LINE
  5
299
100
AcDbEntity
  8
RACCORDO
100
AcDbLine
 62
250
  6
CONTINUOUS
 10
-17.5050591172
 20
-12.5794863388
 11
-17.0119123783
 21
-12.2947378113
  0
LINE
  5
29A
100
AcDbEntity
  8
RACCORDO
100
AcDbLine
 62
250
  6
CONTINUOUS
 10
-17.5318540365
 20
-12.7650416621
 11
-17.7985211317
 21
-12.9190227932
  0
LINE
  5
29B
100
AcDbEntity
  8
RACCORDO
100
AcDbLine
 62
250
  6
CONTINUOUS
 10
-18.449792407
 20
-13.3600850715
 11
-17.7985211317
 21
-12.9840504464
  0
LINE
  5
29C
100
AcDbEntity
  8
RACCORDO
100
AcDbLine
 62
250
  6
CONTINUOUS
 10
-18.0962928643
 20
-13.9723642393
 11
-17.445021589
 21
-13.5963296141
  0
LINE
  5
29D
100
AcDbEntity
  8
RACCORDO
100
AcDbLine
 62
250
  6
CONTINUOUS
 10
-17.1220464154
 20
-13.4748492825
 11
-17.3887228448
 21
-13.6288358035
  0
LINE
  5
29E
100
AcDbEntity
  8
RACCORDO
100
AcDbLine
 62
250
  6
CONTINUOUS
 10
-16.9479824607
 20
-13.5444054423
 11
-16.436799124
 21
-13.2492423783
  0
LWPOLYLINE
  5
29F
100
AcDbEntity
  8
RACCORDO
100
AcDbPolyline
 62
250
  6
CONTINUOUS
 90
9
 70
0
 10
13.2193380289
 20
11.7800295651
 10
13.2204744948
 20
11.7553654232
 10
13.2238717017
 20
11.7322779796
 10
13.2294932296
 20
11.7110145923
 10
13.2372788254
 20
11.6918030739
 10
13.2471450515
 20
11.6748492447
 10
13.2589861828
 20
11.6603347298
 10
13.2726753321
 20
11.648415024
 10
13.2814628154
 20
11.6427085066
  0
LINE
  5
2A0
100
AcDbEntity
  8
RACCORDO
100
AcDbLine
 62
7
  6
CONTINUOUS
 10
13.6970693316
 20
10.9228652746
 11
13.6970693316
 21
-32.0902211604
  0
LINE
  5
2A1
100
AcDbEntity
  8
RACCORDO
100
AcDbLine
 62
250
  6
CONTINUOUS
 10
13.7849372972
 20
10.8003828966
 11
13.7849372972
 21
-32.2127035381
  0
LWPOLYLINE
  5
2A2
100
AcDbEntity
  8
RACCORDO
100
AcDbPolyline
 62
7
  6
CONTINUOUS
 90
9
 70
0
 10
13.6970693421
 20
-32.0902671713
 10
13.6966402216
 20
-32.1095232612
 10
13.6951243608
 20
-32.1302305727
 10
13.6926695518
 20
-32.1486905058
 10
13.6894518574
 20
-32.1648133466
 10
13.6857447436
 20
-32.1782756089
 10
13.6820207906
 20
-32.1885613005
 10
13.6788029268
 20
-32.1955413999
 10
13.6782540144
 20
-32.1965743729
  0
LWPOLYLINE
  5
2A3
100
AcDbEntity
  8
RACCORDO
100
AcDbPolyline
 62
250
  6
CONTINUOUS
 90
25
 70
0
 10
13.7849372972
 20
-32.2127035381
 10
13.7836522962
 20
-32.2547795177
 10
13.7800870967
 20
-32.2948612434
 10
13.774241699
 20
-32.3329487153
 10
13.7660774965
 20
-32.369124693
 10
13.7556330956
 20
-32.4033064169
 10
13.7430243154
 20
-32.4352456076
 10
13.7282201774
 20
-32.4649790596
 10
13.7112516601
 20
-32.4924699784
 10
13.692327518
 20
-32.5173597006
 10
13.6714106134
 20
-32.5396139449
 10
13.648538084
 20
-32.5592669926
 10
13.6240300978
 20
-32.5760630243
 10
13.5978933466
 20
-32.5899528331
 10
13.5701211385
 20
-32.600985626
 10
13.5410135665
 20
-32.6090532046
 10
13.510728812
 20
-32.6141932924
 10
13.4791086935
 20
-32.616368166
 10
13.4459787599
 20
-32.6153564559
 10
13.4111255316
 20
-32.6111849225
 10
13.3747624883
 20
-32.6038268056
 10
13.3373556175
 20
-32.5929804548
 10
13.2990602487
 20
-32.57854532
 10
13.2597210525
 20
-32.5606219513
 10
13.2193380289
 20
-32.5392103488
  0
LWPOLYLINE
  5
2A4
100
AcDbEntity
  8
RACCORDO
100
AcDbPolyline
 62
250
  6
CONTINUOUS
 90
16
 70
0
 10
13.2193380289
 20
-32.5392103488
 10
13.2204744528
 20
-32.5132343348
 10
13.2238715484
 20
-32.4862243219
 10
13.2294929182
 20
-32.4584697039
 10
13.2372783331
 20
-32.4302678521
 10
13.2471443779
 20
-32.4019209298
 10
13.2589853447
 20
-32.3737326548
 10
13.2726743656
 20
-32.3460050447
 10
13.2880647725
 20
-32.3190351818
 10
13.3049916676
 20
-32.2931120294
 10
13.3232736911
 20
-32.2685133362
 10
13.3427149637
 20
-32.24550266
 10
13.3631071857
 20
-32.2243265444
 10
13.3842318686
 20
-32.2052118768
 10
13.405862676
 20
-32.1883634575
 10
13.4277678488
 20
-32.1739618057
  0
LWPOLYLINE
  5
2A5
100
AcDbEntity
  8
RACCORDO
100
AcDbPolyline
 62
250
  6
CONTINUOUS
 90
16
 70
0
 10
-18.8703219525
 20
29.6551203209
 10
-18.8472567374
 20
29.6431151171
 10
-18.8221658061
 20
29.6325509372
 10
-18.7953180159
 20
29.6235409592
 10
-18.7670010471
 20
29.6161817071
 10
-18.7375183111
 20
29.6105520155
 10
-18.7071856984
 20
29.6067121867
 10
-18.6763282124
 20
29.6047033475
 10
-18.6452764706
 20
29.6045470059
 10
-18.6143631521
 20
29.6062448236
 10
-18.5839194691
 20
29.6097785977
 10
-18.5542715945
 20
29.6151104554
 10
-18.5257371516
 20
29.6221832652
 10
-18.4986218494
 20
29.630921244
 10
-18.4732162045
 20
29.6412307643
 10
-18.449792407
 20
29.6530013633
  0
LINE
  5
2A6
100
AcDbEntity
  8
RACCORDO
100
AcDbLine
 62
7
  6
CONTINUOUS
 10
-18.2425978978
 20
29.8443060732
 11
13.2814628154
 21
11.6427085066
  0
LINE
  5
2A7
100
AcDbEntity
  8
RACCORDO
100
AcDbLine
 62
250
  6
CONTINUOUS
 10
-18.3047226842
 20
29.9816271315
 11
13.2193380289
 21
11.7800295651
  0
LWPOLYLINE
  5
2A8
100
AcDbEntity
  8
RACCORDO
100
AcDbPolyline
 62
7
  6
CONTINUOUS
 90
24
 70
0
 10
13.2815004112
 20
11.6426868102
 10
13.2995928567
 20
11.6316913161
 10
13.3235172727
 20
11.6155241202
 10
13.3488516216
 20
11.5964404037
 10
13.3750845347
 20
11.574568346
 10
13.4019315636
 20
11.5499315093
 10
13.4291340332
 20
11.5225625911
 10
13.4562475351
 20
11.4927336343
 10
13.4829957248
 20
11.4606083291
 10
13.5091213914
 20
11.4263667227
 10
13.534252108
 20
11.3904006444
 10
13.5581617868
 20
11.3529729524
 10
13.5806447685
 20
11.3143614524
 10
13.6014238559
 20
11.2750386004
 10
13.6203559033
 20
11.2353186758
 10
13.6373194024
 20
11.1955291069
 10
13.6521520438
 20
11.156190657
 10
13.6648198545
 20
11.1176177788
 10
13.6753129102
 20
11.0801314221
 10
13.6836082788
 20
11.0442567125
 10
13.6897994229
 20
11.0102409917
 10
13.6940011574
 20
10.9783475509
 10
13.6963488759
 20
10.9490882725
 10
13.6970693442
 20
10.9229156396
  0
LWPOLYLINE
  5
2A9
100
AcDbEntity
  8
RACCORDO
100
AcDbPolyline
 62
250
  6
CONTINUOUS
 90
5
 70
0
 10
13.2193380289
 20
11.7800295651
 10
13.2564206327
 20
11.7571347908
 10
13.2929163156
 20
11.7319460358
 10
13.3288250778
 20
11.7044633
 10
13.3642378987
 20
11.6745894758
  0
LWPOLYLINE
  5
2AA
100
AcDbEntity
  8
RACCORDO
100
AcDbPolyline
 62
250
  6
CONTINUOUS
 90
9
 70
0
 10
13.7849372972
 20
10.8003828966
 10
13.7641453752
 20
10.8137002057
 10
13.7458490719
 20
10.8281871427
 10
13.7302444196
 20
10.8436884904
 10
13.7174986113
 20
10.8600381624
 10
13.7077482095
 20
10.8770609833
 10
13.7010976831
 20
10.8945745656
 10
13.6976182877
 20
10.9123912631
 10
13.6970693316
 20
10.9228652746
  0
LWPOLYLINE
  5
2AB
100
AcDbEntity
  8
RACCORDO
100
AcDbPolyline
 62
250
  6
CONTINUOUS
 90
21
 70
0
 10
13.3642378987
 20
11.6745894758
 10
13.3990637988
 20
11.6424216708
 10
13.4330298398
 20
11.6082512081
 10
13.4661833786
 20
11.5720149749
 10
13.4984770583
 20
11.5337760841
 10
13.52949587
 20
11.494015198
 10
13.5592286948
 20
11.4526958546
 10
13.5876866517
 20
11.4098545158
 10
13.6144880879
 20
11.3660812293
 10
13.6395870414
 20
11.3214102597
 10
13.6630294742
 20
11.2758073423
 10
13.6845716199
 20
11.2297597311
 10
13.7041670507
 20
11.1834768792
 10
13.7218621943
 20
11.1367493334
 10
13.7375525672
 20
11.089435989
 10
13.7513680954
 20
11.0412153313
 10
13.7631788528
 20
10.9924088749
 10
13.7724905778
 20
10.9438400594
 10
13.7791385166
 20
10.8957833644
 10
13.7832874231
 20
10.8479643101
 10
13.7849372972
 20
10.8003828966
  0
LWPOLYLINE
  5
2AC
100
AcDbEntity
  8
RACCORDO
100
AcDbPolyline
 62
250
  6
CONTINUOUS
 90
11
 70
0
 10
28.1613496775
 20
-54.4586333599
 10
28.1626068877
 20
-54.4923040134
 10
28.1663695772
 20
-54.5242834575
 10
28.1726109966
 20
-54.5543442517
 10
28.1812867679
 20
-54.5822725998
 10
28.1923351995
 20
-54.6078698685
 10
28.2056777243
 20
-54.6309540009
 10
28.2212194605
 20
-54.6513608147
 10
28.2388498838
 20
-54.6689451663
 10
28.2584436119
 20
-54.6835819832
 10
28.264883538
 20
-54.6874974887
  0
LWPOLYLINE
  5
2AD
100
AcDbEntity
  8
RACCORDO
100
AcDbPolyline
 62
250
  6
CONTINUOUS
 90
11
 70
0
 10
-33.9528720487
 20
51.4934138772
 10
-33.9814043638
 20
51.5113398992
 10
-34.0072192921
 20
51.5305902525
 10
-34.0301332383
 20
51.5510280289
 10
-34.0499832388
 20
51.5725078754
 10
-34.0666281208
 20
51.5948770276
 10
-34.0799495061
 20
51.6179763965
 10
-34.0898526532
 20
51.6416416998
 10
-34.0962671313
 20
51.6657046303
 10
-34.0991473206
 20
51.6899940529
 10
-34.0993186579
 20
51.6975433657
  0
LWPOLYLINE
  5
2AE
100
AcDbEntity
  8
RACCORDO
100
AcDbPolyline
 62
250
  6
CONTINUOUS
 90
28
 70
0
 10
29.5556060872
 20
15.2113217018
 10
29.552652727
 20
15.2840139422
 10
29.5461661024
 20
15.3578474204
 10
29.5362790135
 20
15.4325187773
 10
29.5231943805
 20
15.5074361081
 10
29.5070224079
 20
15.5826075775
 10
29.4876571992
 20
15.6586825505
 10
29.4650431902
 20
15.7357801697
 10
29.4393253776
 20
15.8133071312
 10
29.4106191028
 20
15.8908725866
 10
29.3790439256
 20
15.9681708434
 10
29.3446887844
 20
16.0450110971
 10
29.3076481555
 20
16.1211738577
 10
29.2680234193
 20
16.196443694
 10
29.2259589453
 20
16.2705475902
 10
29.1816278097
 20
16.343185896
 10
29.1353701804
 20
16.4138447337
 10
29.0871595752
 20
16.4825967058
 10
29.0365739747
 20
16.5499701937
 10
28.9835504415
 20
16.6158924474
 10
28.9283817763
 20
16.6798364716
 10
28.8711384333
 20
16.7415656974
 10
28.8118609281
 20
16.8008674508
 10
28.7508347084
 20
16.8572989478
 10
28.6885290388
 20
16.9103091771
 10
28.6252502929
 20
16.9595538862
 10
28.561129492
 20
17.004844682
 10
28.4963995133
 20
17.0459213015
  0
LWPOLYLINE
  5
2AF
100
AcDbEntity
  8
RACCORDO
100
AcDbPolyline
 62
250
  6
CONTINUOUS
 90
28
 70
0
 10
28.8674873934
 20
15.2217256593
 10
28.8661037338
 20
15.2709406585
 10
28.8624944173
 20
15.320491413
 10
28.856659444
 20
15.3703779229
 10
28.8485761078
 20
15.4205734387
 10
28.8382671147
 20
15.4711047098
 10
28.8258005832
 20
15.5220519853
 10
28.8111393481
 20
15.5736382841
 10
28.7943205747
 20
15.6256405873
 10
28.7755238767
 20
15.6774700867
 10
28.7547385055
 20
15.7290888817
 10
28.7319752098
 20
15.780534873
 10
28.7074458503
 20
15.8313329542
 10
28.681121882
 20
15.8814960738
 10
28.6530318499
 20
15.9310112833
 10
28.6234732496
 20
15.9793646312
 10
28.5925794623
 20
16.0263843734
 10
28.5602171067
 20
16.072242254
 10
28.5262835349
 20
16.116939553
 10
28.4906661972
 20
16.1606664171
 10
28.4534776433
 20
16.2032326995
 10
28.4149528742
 20
16.2440692408
 10
28.3749800035
 20
16.2832394151
 10
28.3336709176
 20
16.3206798481
 10
28.2915962761
 20
16.3556312573
 10
28.2489462989
 20
16.3878405484
 10
28.205530766
 20
16.4175608157
 10
28.1613496775
 20
16.4447920592
  0
LINE
  5
2B0
100
AcDbEntity
  8
RACCORDO
100
AcDbLine
 62
250
  6
CONTINUOUS
 10
28.8674873934
 20
-54.0509970944
 11
28.8674873934
 21
15.2217256593
  0
LINE
  5
2B1
100
AcDbEntity
  8
RACCORDO
100
AcDbLine
 62
250
  6
CONTINUOUS
 10
29.5556060872
 20
-54.061401052
 11
29.5556060872
 21
15.2113217018
  0
LINE
  5
2B2
100
AcDbEntity
  8
RACCORDO
100
AcDbLine
 62
7
  6
CONTINUOUS
 10
30.6913263881
 20
-53.5362643016
 11
30.6913263881
 21
15.8670660582
  0
LINE
  5
2B3
100
AcDbEntity
  8
RACCORDO
100
AcDbLine
 62
250
  6
CONTINUOUS
 10
30.7138070586
 20
-53.2550089425
 11
30.7138070586
 21
16.1113263715
  0
LWPOLYLINE
  5
2B4
100
AcDbEntity
  8
RACCORDO
100
AcDbPolyline
 62
250
  6
CONTINUOUS
 90
19
 70
0
 10
28.1613496775
 20
16.4447920592
 10
28.1626069102
 20
16.4799148684
 10
28.166369667
 20
16.5162397057
 10
28.1726111872
 20
16.5535082294
 10
28.1812870813
 20
16.5914553865
 10
28.1923356463
 20
16.6298112974
 10
28.2056783051
 20
16.6683031756
 10
28.2212201651
 20
16.7066572676
 10
28.2388506926
 20
16.7446007997
 10
28.2584444998
 20
16.7818639182
 10
28.2798622357
 20
16.8181816084
 10
28.302951578
 20
16.8532955795
 10
28.3275483155
 20
16.8869561017
 10
28.3534775167
 20
16.9189237819
 10
28.3805547735
 20
16.9489712664
 10
28.4085875131
 20
16.9768848582
 10
28.437376367
 20
17.0024660363
 10
28.4667165895
 20
17.0255328677
 10
28.4963995133
 20
17.0459213015
  0
LINE
  5
2B5
100
AcDbEntity
  8
RACCORDO
100
AcDbLine
 62
250
  6
CONTINUOUS
 10
30.7694215383
 20
16.2043271289
 11
30.7698064434
 21
16.2122803554
  0
LINE
  5
2B6
100
AcDbEntity
  8
RACCORDO
100
AcDbLine
 62
250
  6
CONTINUOUS
 10
29.9632253738
 20
17.6006998612
 11
29.970320557
 21
17.5970482072
  0
LWPOLYLINE
  5
2B7
100
AcDbEntity
  8
RACCORDO
100
AcDbPolyline
 62
250
  6
CONTINUOUS
 90
19
 70
0
 10
28.8674873934
 20
15.2217256593
 10
28.8985338438
 20
15.2052516228
 10
28.9318739575
 20
15.1903465186
 10
28.9672706334
 20
15.1771163562
 10
29.0044721433
 20
15.1656552338
 10
29.0432139202
 20
15.1560446692
 10
29.0832204387
 20
15.1483530202
 10
29.1242071804
 20
15.1426349965
 10
29.165882652
 20
15.1389312724
 10
29.2079504543
 20
15.1372681967
 10
29.2501114037
 20
15.137657604
 10
29.2920656501
 20
15.1400967319
 10
29.3335148037
 20
15.144568239
 10
29.374164076
 20
15.1510403295
 10
29.413724364
 20
15.1594669789
 10
29.4519142988
 20
15.1697882584
 10
29.488462265
 20
15.1819307649
 10
29.5231083309
 20
15.195808144
 10
29.5556060872
 20
15.2113217018
  0
LWPOLYLINE
  5
2B8
100
AcDbEntity
  8
RACCORDO
100
AcDbPolyline
 62
250
  6
CONTINUOUS
 90
28
 70
0
 10
-33.2467343328
 20
51.9010501427
 10
-33.2886652487
 20
51.9236628669
 10
-33.3297740107
 20
51.9432310055
 10
-33.3700606189
 20
51.9597545584
 10
-33.4094905524
 20
51.9731873758
 10
-33.4480983321
 20
51.9835756076
 10
-33.4859875202
 20
51.9910577031
 10
-33.5233326787
 20
51.9956915389
 10
-33.5599592457
 20
51.9974192386
 10
-33.5954470977
 20
51.9962056215
 10
-33.6297580356
 20
51.9920162209
 10
-33.6629302585
 20
51.9848855036
 10
-33.6946582395
 20
51.9748816901
 10
-33.7249389188
 20
51.9619700537
 10
-33.7537753561
 20
51.9461853209
 10
-33.7808712043
 20
51.927699892
 10
-33.8061444209
 20
51.9066204068
 10
-33.8296770482
 20
51.8828402254
 10
-33.8514188661
 20
51.8562118273
 10
-33.8714782711
 20
51.8266678423
 10
-33.8897468667
 20
51.7942756406
 10
-33.9058492419
 20
51.7590898117
 10
-33.9197843338
 20
51.7209805509
 10
-33.9315532054
 20
51.6800776628
 10
-33.9407836349
 20
51.636825151
 10
-33.9473515483
 20
51.5913710168
 10
-33.9513810196
 20
51.5435672588
 10
-33.9528720487
 20
51.4934138772
  0
LINE
  5
2B9
100
AcDbEntity
  8
RACCORDO
100
AcDbLine
 62
250
  6
CONTINUOUS
 10
-31.6342768552
 20
53.1020994996
 11
-31.6504179189
 21
53.1112816195
  0
LINE
  5
2BA
100
AcDbEntity
  8
RACCORDO
100
AcDbLine
 62
7
  6
CONTINUOUS
 10
-31.5404051094
 20
53.1127170577
 11
-31.5523419101
 21
53.1195018383
  0
LINE
  5
2BB
100
AcDbEntity
  8
RACCORDO
100
AcDbLine
 62
250
  6
CONTINUOUS
 10
28.1613496775
 20
16.4447920592
 11
-33.2467343328
 21
51.9010501427
  0
LINE
  5
2BC
100
AcDbEntity
  8
RACCORDO
100
AcDbLine
 62
250
  6
CONTINUOUS
 10
28.4963995133
 20
17.0459213015
 11
-32.9116844969
 21
52.502179385
  0
LINE
  5
2BD
100
AcDbEntity
  8
RACCORDO
100
AcDbLine
 62
7
  6
CONTINUOUS
 10
29.6321198143
 20
17.7016656579
 11
-31.8890773448
 21
53.2232338559
  0
LINE
  5
2BE
100
AcDbEntity
  8
RACCORDO
100
AcDbLine
 62
250
  6
CONTINUOUS
 10
29.8548805976
 20
17.5990306265
 11
-31.6342768552
 21
53.1020994996
  0
LINE
  5
2BF
100
AcDbEntity
  8
RACCORDO
100
AcDbLine
 62
7
  6
CONTINUOUS
 10
29.9568753828
 20
17.6049548534
 11
-31.5404051094
 21
53.1127170577
  0
LINE
  5
2C0
100
AcDbEntity
  8
RACCORDO
100
AcDbLine
 62
250
  6
CONTINUOUS
 10
29.8707792401
 20
17.5897134215
 11
29.8548805976
 21
17.5990306265
  0
LWPOLYLINE
  5
2C1
100
AcDbEntity
  8
RACCORDO
100
AcDbPolyline
 62
7
  6
CONTINUOUS
 90
3
 70
0
 10
29.9704934792
 20
17.5969457764
 10
29.9687187278
 20
17.5979991728
 10
29.9568753828
 20
17.6049548534
  0
LWPOLYLINE
  5
2C2
100
AcDbEntity
  8
RACCORDO
100
AcDbPolyline
 62
7
  6
CONTINUOUS
 90
24
 70
0
 10
30.7698064434
 20
16.2122803554
 10
30.76657811
 20
16.2854722485
 10
30.7593537824
 20
16.3569667411
 10
30.7482498006
 20
16.4293398565
 10
30.7333394606
 20
16.5022510626
 10
30.7147711451
 20
16.5751350212
 10
30.6927626331
 20
16.6474882952
 10
30.6674737234
 20
16.7191510582
 10
30.6390110992
 20
16.7900670099
 10
30.6075491039
 20
16.8600038181
 10
30.5732634357
 20
16.92873572
 10
30.536199677
 20
16.9962448151
 10
30.4965078186
 20
17.062267891
 10
30.4543443725
 20
17.1265331331
 10
30.4097033502
 20
17.1889893921
 10
30.3626985713
 20
17.2493623725
 10
30.3134454916
 20
17.3073806958
 10
30.2619313044
 20
17.3629314967
 10
30.2082259817
 20
17.415782584
 10
30.1526379192
 20
17.4655055358
 10
30.0955445173
 20
17.5117112258
 10
30.0372020811
 20
17.5541586619
 10
29.9775447634
 20
17.5927184958
 10
29.970320557
 20
17.5970482073
  0
LWPOLYLINE
  5
2C3
100
AcDbEntity
  8
RACCORDO
100
AcDbPolyline
 62
7
  6
CONTINUOUS
 90
20
 70
0
 10
34.1012922681
 20
18.4943869531
 10
34.1003021674
 20
18.532604849
 10
34.0957614686
 20
18.5858066221
 10
34.0877003964
 20
18.6393347465
 10
34.0762576499
 20
18.6929860672
 10
34.0615744286
 20
18.7465768309
 10
34.0437768966
 20
18.7998995677
 10
34.0229881846
 20
18.852723078
 10
33.9993667193
 20
18.9047546471
 10
33.9730377495
 20
18.9557497643
 10
33.9441388886
 20
19.0054621455
 10
33.9128551777
 20
19.0535722625
 10
33.8793224634
 20
19.0998422024
 10
33.8436947089
 20
19.1440318451
 10
33.8061650721
 20
19.1858375711
 10
33.7668728622
 20
19.2250358228
 10
33.7259336035
 20
19.2614190888
 10
33.6834509881
 20
19.2947651744
 10
33.6395367521
 20
19.3248528671
 10
33.6122805555
 20
19.3413863743
  0
LWPOLYLINE
  5
2C4
100
AcDbEntity
  8
RACCORDO
100
AcDbPolyline
 62
250
  6
CONTINUOUS
 90
70
 70
0
 10
30.7136879657
 20
16.1297526885
 10
30.7135254259
 20
16.1402138262
 10
30.7132598772
 20
16.150916046
 10
30.712886302
 20
16.1618608693
 10
30.7124024731
 20
16.1729670111
 10
30.711802023
 20
16.1843176675
 10
30.7110663436
 20
16.1961646741
 10
30.7101766225
 20
16.2085957298
 10
30.7091238294
 20
16.2215334505
 10
30.7078960734
 20
16.2349855609
 10
30.7064812324
 20
16.2489422924
 10
30.7048630579
 20
16.2634214164
 10
30.7030212784
 20
16.278472218
 10
30.7009375117
 20
16.2941129222
 10
30.6985955492
 20
16.3103326961
 10
30.6959760379
 20
16.3271372692
 10
30.6930592308
 20
16.3445392569
 10
30.6898275458
 20
16.3625302372
 10
30.6862651944
 20
16.3810831534
 10
30.6823595842
 20
16.4001699589
 10
30.6780869283
 20
16.41981769
 10
30.6734128511
 20
16.4400809948
 10
30.6683235394
 20
16.4609232764
 10
30.6627898519
 20
16.4823757971
 10
30.6567444503
 20
16.5045951794
 10
30.6501591766
 20
16.5275656377
 10
30.6430014788
 20
16.5512919817
 10
30.635180344
 20
16.5759611632
 10
30.6266390676
 20
16.6016032175
 10
30.6173487336
 20
16.6281653676
 10
30.6072457319
 20
16.6557068645
 10
30.596232051
 20
16.6843385672
 10
30.5843048577
 20
16.7139059227
 10
30.5715603302
 20
16.7440664697
 10
30.5579654037
 20
16.7748164378
 10
30.5435053957
 20
16.8060990413
 10
30.5283453726
 20
16.8374951596
 10
30.5125169339
 20
16.8689127764
 10
30.4959919781
 20
16.9003812767
 10
30.4788791188
 20
16.931671487
 10
30.4611804636
 20
16.9627700049
 10
30.442918371
 20
16.9936301714
 10
30.4242549853
 20
17.0239844696
 10
30.4051611907
 20
17.0538928378
 10
30.3857120424
 20
17.0832502091
 10
30.3662597918
 20
17.1115699405
 10
30.3468912614
 20
17.1387951559
 10
30.3276054581
 20
17.1649913158
 10
30.3086531521
 20
17.1898920057
 10
30.2901672519
 20
17.2134153818
 10
30.272106437
 20
17.2356970656
 10
30.2544663905
 20
17.2568137889
 10
30.2373189959
 20
17.2767561609
 10
30.2206632667
 20
17.2955972218
 10
30.2043748349
 20
17.3135280979
 10
30.1884673246
 20
17.3305809888
 10
30.1729717643
 20
17.3467709325
 10
30.1577791622
 20
17.3622483268
 10
30.1428847325
 20
17.377049248
 10
30.1283222993
 20
17.3911722824
 10
30.1140346434
 20
17.404701389
 10
30.1000103042
 20
17.4176707443
 10
30.0862811994
 20
17.4300745128
 10
30.072852556
 20
17.4419329205
 10
30.0597341977
 20
17.4532591815
 10
30.046932292
 20
17.4640691915
 10
30.0344453544
 20
17.4743865063
 10
30.0222773717
 20
17.4842273269
 10
30.0104363246
 20
17.4936034244
 10
29.9989257445
 20
17.5025310478
  0
LINE
  5
2C5
100
AcDbEntity
  8
RACCORDO
100
AcDbLine
 62
7
  6
CONTINUOUS
 10
30.7698951736
 20
16.2033807308
 11
30.7698040827
 21
16.2124937694
  0
LINE
  5
2C6
100
AcDbEntity
  8
RACCORDO
100
AcDbLine
 62
250
  6
CONTINUOUS
 10
30.7138070586
 20
16.1113263715
 11
30.7136879657
 21
16.1297526885
  0
LINE
  5
2C7
100
AcDbEntity
  8
RACCORDO
100
AcDbLine
 62
7
  6
CONTINUOUS
 10
30.7699390985
 20
16.1915433842
 11
30.7698951736
 21
16.2033807308
  0
LINE
  5
2C8
100
AcDbEntity
  8
RACCORDO
100
AcDbLine
 62
250
  6
CONTINUOUS
 10
34.0451605097
 20
18.4143633004
 11
34.0451605097
 21
-50.8054339308
  0
LINE
  5
2C9
100
AcDbEntity
  8
RACCORDO
100
AcDbLine
 62
7
  6
CONTINUOUS
 10
34.1012925496
 20
18.4945807078
 11
34.1012925496
 21
-50.7252165218
  0
LINE
  5
2CA
100
AcDbEntity
  8
RACCORDO
100
AcDbLine
 62
7
  6
CONTINUOUS
 10
30.7699323435
 20
-53.1794032121
 11
30.7699390985
 21
16.1915438132
  0
LINE
  5
2CB
100
AcDbEntity
  8
RACCORDO
100
AcDbLine
 62
250
  6
CONTINUOUS
 10
30.7136879657
 20
-53.2735776713
 11
30.7138070586
 21
-53.2550089425
  0
LWPOLYLINE
  5
2CC
100
AcDbEntity
  8
RACCORDO
100
AcDbPolyline
 62
7
  6
CONTINUOUS
 90
3
 70
0
 10
30.7698045573
 20
-53.1958460428
 10
30.7698367643
 20
-53.1930879327
 10
30.7699323435
 20
-53.1794032121
  0
LWPOLYLINE
  5
2CD
100
AcDbEntity
  8
RACCORDO
100
AcDbPolyline
 62
250
  6
CONTINUOUS
 90
9
 70
0
 10
34.1012922681
 20
18.4943869531
 10
34.1011072355
 20
18.4896107693
 10
34.0991470162
 20
18.4777114059
 10
34.0950669235
 20
18.4659927853
 10
34.0889106726
 20
18.4545804645
 10
34.0807442236
 20
18.4435967186
 10
34.0706550742
 20
18.4331592308
 10
34.0587513228
 20
18.4233798316
 10
34.0451605097
 20
18.4143633004
  0
LINE
  5
2CE
100
AcDbEntity
  8
RACCORDO
100
AcDbLine
 62
250
  6
CONTINUOUS
 10
30.7695296971
 20
-53.1821765231
 11
30.7699390985
 21
-53.1747915389
  0
LWPOLYLINE
  5
2CF
100
AcDbEntity
  8
RACCORDO
100
AcDbPolyline
 62
250
  6
CONTINUOUS
 90
8
 70
0
 10
30.7138070586
 20
-18.5718412855
 10
30.7290807894
 20
-18.5615662666
 10
30.742166425
 20
-18.5503295852
 10
30.7528840465
 20
-18.5382857384
 10
30.7610862935
 20
-18.5256003212
 10
30.7666603905
 20
-18.51244775
 10
30.7695296971
 20
-18.499008864
 10
30.7699390986
 20
-18.4916238781
  0
LINE
  5
2D0
100
AcDbEntity
  8
RACCORDO
100
AcDbLine
 62
250
  6
CONTINUOUS
 10
13.4277678488
 20
-32.1739618057
 11
13.6970693316
 21
-32.0074217291
  0
LINE
  5
2D1
100
AcDbEntity
  8
RACCORDO
100
AcDbLine
 62
7
  6
CONTINUOUS
 10
13.6805665189
 20
-32.1970866287
 11
13.6804696632
 21
-32.19714648
  0
LWPOLYLINE
  5
2D2
100
AcDbEntity
  8
RACCORDO
100
AcDbPolyline
 62
250
  6
CONTINUOUS
 90
13
 70
0
 10
13.6804696632
 20
-32.19714648
 10
13.6628447019
 20
-32.2066175828
 10
13.645563257
 20
-32.2134781463
 10
13.6273925904
 20
-32.2184932671
 10
13.6084967439
 20
-32.2216294892
 10
13.5888701702
 20
-32.2228979446
 10
13.5682661754
 20
-32.2222656073
 10
13.5466119465
 20
-32.2196219765
 10
13.5240963549
 20
-32.2148820975
 10
13.5008501247
 20
-32.207987872
 10
13.4769840403
 20
-32.1988954942
 10
13.4525852203
 20
-32.1875621953
 10
13.4277679784
 20
-32.1739617255
  0
LWPOLYLINE
  5
2D3
100
AcDbEntity
  8
RACCORDO
100
AcDbPolyline
 62
7
  6
CONTINUOUS
 90
5
 70
0
 10
-31.604671597
 20
53.147218892
 10
-31.6593619953
 20
53.1724461509
 10
-31.7139330539
 20
53.1938436919
 10
-31.7682386752
 20
53.211322947
 10
-31.8220295729
 20
53.2247805432
  0
LINE
  5
2D4
100
AcDbEntity
  8
RACCORDO
100
AcDbLine
 62
250
  6
CONTINUOUS
 10
-31.5433448829
 20
53.1139475543
 11
-31.5367401788
 21
53.1106075381
  0
LWPOLYLINE
  5
2D5
100
AcDbEntity
  8
RACCORDO
100
AcDbPolyline
 62
250
  6
CONTINUOUS
 90
16
 70
0
 10
-32.9116844969
 20
52.502179385
 10
-32.9752677783
 20
52.5354813206
 10
-33.0379247984
 20
52.5641687219
 10
-33.099451801
 20
52.5882772825
 10
-33.1594200503
 20
52.6077937612
 10
-33.2179051119
 20
52.6228890369
 10
-33.2754432743
 20
52.6337504797
 10
-33.3320960168
 20
52.6403494296
 10
-33.3874035555
 20
52.6425878367
 10
-33.4410940277
 20
52.6404419109
 10
-33.4929582783
 20
52.63392894
 10
-33.5428660013
 20
52.6230763817
 10
-33.5906796026
 20
52.6079138787
 10
-33.636262847
 20
52.5884798309
 10
-33.6794454674
 20
52.5648426265
 10
-33.7056920469
 20
52.547589055
  0
LWPOLYLINE
  5
2D6
100
AcDbEntity
  8
RACCORDO
100
AcDbPolyline
 62
250
  6
CONTINUOUS
 90
9
 70
0
 10
33.6122805555
 20
19.3413863743
 10
33.608047736
 20
19.3436163181
 10
33.5967631645
 20
19.3478674767
 10
33.5845751035
 20
19.3501923999
 10
33.5716141346
 20
19.350566156
 10
33.5580191402
 20
19.3489847231
 10
33.5439357882
 20
19.3454650345
 10
33.5295149688
 20
19.3400447895
 10
33.5149111956
 20
19.3327820521
  0
LINE
  5
2D7
100
AcDbEntity
  8
RACCORDO
100
AcDbLine
 62
7
  6
CONTINUOUS
 10
-31.5546455102
 20
53.1207951637
 11
-31.604671597
 21
53.147218892
  0
LWPOLYLINE
  5
2D8
100
AcDbEntity
  8
RACCORDO
100
AcDbPolyline
 62
250
  6
CONTINUOUS
 90
15
 70
0
 10
-31.6504179189
 20
53.1112816195
 10
-31.6596151509
 20
53.1164046059
 10
-31.6689565615
 20
53.1214926225
 10
-31.6784409772
 20
53.126539693
 10
-31.6879997524
 20
53.1315039952
 10
-31.6976989524
 20
53.1364168944
 10
-31.7077389227
 20
53.1413736983
 10
-31.7181856176
 20
53.1463918544
 10
-31.7289682978
 20
53.1514209149
 10
-31.740081396
 20
53.15644516
 10
-31.7515107398
 20
53.161443342
 10
-31.7632636508
 20
53.1664023363
 10
-31.775366033
 20
53.1713161676
 10
-31.7878214765
 20
53.1761678753
 10
-31.8006163122
 20
53.1809322168
  0
LINE
  5
2D9
100
AcDbEntity
  8
RACCORDO
100
AcDbLine
 62
7
  6
CONTINUOUS
 10
-31.5523419101
 20
53.1195018383
 11
-31.5550415439
 21
53.1210191524
  0
LINE
  5
2DA
100
AcDbEntity
  8
RACCORDO
100
AcDbLine
 62
250
  6
CONTINUOUS
 10
-27.8473364909
 20
54.7625748167
 11
33.5149111956
 21
19.3327820521
  0
LINE
  5
2DB
100
AcDbEntity
  8
RACCORDO
100
AcDbLine
 62
7
  6
CONTINUOUS
 10
-27.7497998019
 20
54.7710828479
 11
33.6124478833
 21
19.3412900841
  0
LWPOLYLINE
  5
2DC
100
AcDbEntity
  8
RACCORDO
100
AcDbPolyline
 62
250
  6
CONTINUOUS
 90
4
 70
0
 10
33.5149111956
 20
19.3327820521
 10
33.5550388839
 20
19.3080733783
 10
33.5946272213
 20
19.2802425946
 10
33.633461058
 20
19.2495178698
  0
LWPOLYLINE
  5
2DD
100
AcDbEntity
  8
RACCORDO
100
AcDbPolyline
 62
250
  6
CONTINUOUS
 90
13
 70
0
 10
29.9989257445
 20
17.5025310478
 10
29.9877828283
 20
17.5109997907
 10
29.9769793474
 20
17.5190482402
 10
29.9664194366
 20
17.5267616317
 10
29.9561834402
 20
17.5340941973
 10
29.9461967636
 20
17.5411120434
 10
29.93612897
 20
17.5480506258
 10
29.92596787
 20
17.5549148761
 10
29.9157280958
 20
17.5616907301
 10
29.9051176067
 20
17.5685593973
 10
29.8940394947
 20
17.5755636654
 10
29.8825928067
 20
17.5826215388
 10
29.8707792401
 20
17.5897134215
  0
LWPOLYLINE
  5
2DE
100
AcDbEntity
  8
RACCORDO
100
AcDbPolyline
 62
250
  6
CONTINUOUS
 90
10
 70
0
 10
34.0451605097
 20
-50.8054339308
 10
34.0438272473
 20
-50.8505897948
 10
34.0395203711
 20
-50.8934375223
 10
34.0323299023
 20
-50.9337855387
 10
34.0223944916
 20
-50.9713519771
 10
34.0098151512
 20
-51.0061180835
 10
33.9945681771
 20
-51.038247348
 10
33.9766427336
 20
-51.0676692304
 10
33.9561781577
 20
-51.0940751641
 10
33.9333424249
 20
-51.1172456469
  0
LWPOLYLINE
  5
2DF
100
AcDbEntity
  8
RACCORDO
100
AcDbPolyline
 62
250
  6
CONTINUOUS
 90
9
 70
0
 10
34.1012925496
 20
-50.7252179101
 10
34.1011073311
 20
-50.7301851788
 10
34.0991473206
 20
-50.7420846336
 10
34.0950673864
 20
-50.7538033982
 10
34.088911221
 20
-50.7652159076
 10
34.0807447756
 20
-50.7761998636
 10
34.0706555422
 20
-50.7866375692
 10
34.0587516083
 20
-50.7964171885
 10
34.0451605097
 20
-50.8054339308
  0
LWPOLYLINE
  5
2E0
100
AcDbEntity
  8
RACCORDO
100
AcDbPolyline
 62
250
  6
CONTINUOUS
 90
9
 70
0
 10
-27.7497998019
 20
54.7710828479
 10
-27.7542011067
 20
54.7734096398
 10
-27.7654857034
 20
54.7776605719
 10
-27.7776737191
 20
54.7799852858
 10
-27.7906345675
 20
54.7803588736
 10
-27.8042293822
 20
54.7787773328
 10
-27.8183125041
 20
54.7752576084
 10
-27.8327330424
 20
54.7698374118
 10
-27.8473364909
 20
54.7625748167
  0
LWPOLYLINE
  5
2E1
100
AcDbEntity
  8
RACCORDO
100
AcDbPolyline
 62
7
  6
CONTINUOUS
 90
13
 70
0
 10
-27.7497990839
 20
54.7710824333
 10
-27.7857203084
 20
54.7904455734
 10
-27.8288717474
 20
54.8101393032
 10
-27.8719077203
 20
54.8259620848
 10
-27.914708153
 20
54.8379096293
 10
-27.9571119185
 20
54.8459848155
 10
-27.9988576449
 20
54.8502005328
 10
-28.0397847573
 20
54.8505997803
 10
-28.0796794122
 20
54.8472432784
 10
-28.1181218574
 20
54.8402732202
 10
-28.1548169278
 20
54.8298914235
 10
-28.1896277967
 20
54.8162925894
 10
-28.2148367082
 20
54.803885742
  0
LWPOLYLINE
  5
2E2
100
AcDbEntity
  8
RACCORDO
100
AcDbPolyline
 62
250
  6
CONTINUOUS
 90
19
 70
0
 10
33.633461058
 20
19.2495178698
 10
33.671220268
 20
19.2162441349
 10
33.7078398743
 20
19.1805755423
 10
33.7434795898
 20
19.1423925058
 10
33.7780799063
 20
19.101716873
 10
33.8112985289
 20
19.0589071676
 10
33.8428639345
 20
19.0143141189
 10
33.8725424519
 20
18.9682981874
 10
33.9002596092
 20
18.9210048136
 10
33.9259848485
 20
18.8724726814
 10
33.9495296637
 20
18.823016415
 10
33.9707791586
 20
18.7728352943
 10
33.9897386254
 20
18.7217816708
 10
34.0062673126
 20
18.6699506937
 10
34.0201035665
 20
18.6178262863
 10
34.0310445465
 20
18.5658590793
 10
34.0389432096
 20
18.5144209315
 10
34.0436846595
 20
18.4638065689
 10
34.0451605434
 20
18.4143633199
  0
LWPOLYLINE
  5
2E3
100
AcDbEntity
  8
RACCORDO
100
AcDbPolyline
 62
250
  6
CONTINUOUS
 90
15
 70
0
 10
30.6978435277
 20
-53.4443457377
 10
30.7000907482
 20
-53.4315870147
 10
30.7021067626
 20
-53.4190896671
 10
30.7039022951
 20
-53.4069011632
 10
30.7054972571
 20
-53.3950026388
 10
30.7069186948
 20
-53.3832948581
 10
30.708167492
 20
-53.3718758931
 10
30.7092646556
 20
-53.3606672679
 10
30.7102504853
 20
-53.3492925272
 10
30.7111233779
 20
-53.3377351516
 10
30.7118786049
 20
-53.326010921
 10
30.7125277531
 20
-53.3137757374
 10
30.7130593587
 20
-53.3009065597
 10
30.7134515378
 20
-53.2875096817
 10
30.7136879657
 20
-53.2735776713
  0
LWPOLYLINE
  5
2E4
100
AcDbEntity
  8
RACCORDO
100
AcDbPolyline
 62
250
  6
CONTINUOUS
 90
4
 70
0
 10
30.6913263881
 20
-53.4761857406
 10
30.6925845793
 20
-53.4706161509
 10
30.6953468057
 20
-53.4573610586
 10
30.6978435277
 20
-53.4443457377
  0
LWPOLYLINE
  5
2E5
100
AcDbEntity
  8
RACCORDO
100
AcDbPolyline
 62
250
  6
CONTINUOUS
 90
4
 70
0
 10
-31.8006163122
 20
53.1809322168
 10
-31.8137495439
 20
53.1855879041
 10
-31.8272140378
 20
53.1901119248
 10
-31.8371806606
 20
53.1932693609
  0
LWPOLYLINE
  5
2E6
100
AcDbEntity
  8
RACCORDO
100
AcDbPolyline
 62
7
  6
CONTINUOUS
 90
6
 70
0
 10
30.7253620153
 20
-53.481386525
 10
30.740676073
 20
-53.4285127155
 10
30.7527994752
 20
-53.3732257901
 10
30.7616975627
 20
-53.3158103606
 10
30.7673817468
 20
-53.2564416919
 10
30.7698083251
 20
-53.1954401965
  0
LWPOLYLINE
  5
2E7
100
AcDbEntity
  8
RACCORDO
100
AcDbPolyline
 62
7
  6
CONTINUOUS
 90
3
 70
0
 10
-31.8220295729
 20
53.2247805432
 10
-31.8752406171
 20
53.234194361
 10
-31.9173946105
 20
53.2384820743
  0
LWPOLYLINE
  5
2E8
100
AcDbEntity
  8
RACCORDO
100
AcDbPolyline
 62
7
  6
CONTINUOUS
 90
3
 70
0
 10
30.6903787919
 20
-53.5681868218
 10
30.7068679852
 20
-53.5317771581
 10
30.7253620153
 20
-53.481386525
  0
LWPOLYLINE
  5
2E9
100
AcDbEntity
  8
RACCORDO
100
AcDbPolyline
 62
250
  6
CONTINUOUS
 90
3
 70
0
 10
33.9333424249
 20
-51.1172456469
 10
33.9083308661
 20
-51.137023227
 10
33.8973703226
 20
-51.1442045736
  0
LWPOLYLINE
  5
2EA
100
AcDbEntity
  8
RACCORDO
100
AcDbPolyline
 62
250
  6
CONTINUOUS
 90
7
 70
0
 10
30.7138070586
 20
-53.2550089425
 10
30.7290807894
 20
-53.244733924
 10
30.7421664251
 20
-53.233497243
 10
30.7528840466
 20
-53.2214533966
 10
30.7610862936
 20
-53.2087679797
 10
30.7666603905
 20
-53.1956154088
 10
30.7695296971
 20
-53.1821765231
  0
LWPOLYLINE
  5
2EB
100
AcDbEntity
  8
RACCORDO
100
AcDbPolyline
 62
7
  6
CONTINUOUS
 90
13
 70
0
 10
33.8971606268
 20
-51.1443302548
 10
33.920300858
 20
-51.1288551746
 10
33.9492816949
 20
-51.1057245748
 10
33.9764596625
 20
-51.079391066
 10
34.0015989447
 20
-51.0498707974
 10
34.0243829116
 20
-51.0173152199
 10
34.044482878
 20
-50.9820100391
 10
34.061734232
 20
-50.9440998974
 10
34.0760173171
 20
-50.9037020429
 10
34.087190505
 20
-50.8610400974
 10
34.0951675145
 20
-50.8162443809
 10
34.0998903478
 20
-50.7694125503
 10
34.1012925496
 20
-50.7252179101
  0
LWPOLYLINE
  5
2EC
100
AcDbEntity
  8
RACCORDO
100
AcDbPolyline
 62
250
  6
CONTINUOUS
 90
8
 70
0
 10
30.7136879657
 20
-53.2735776713
 10
30.7289930205
 20
-53.2635606632
 10
30.7420993559
 20
-53.2525739481
 10
30.7528259293
 20
-53.2407692897
 10
30.7610245706
 20
-53.2283097503
 10
30.7665820293
 20
-53.2153674386
 10
30.7694215384
 20
-53.2021211319
 10
30.7698045573
 20
-53.1958460428
  0
LINE
  5
2ED
100
AcDbEntity
  8
RACCORDO
100
AcDbLine
 62
250
  6
CONTINUOUS
 10
30.7699390985
 20
-52.8308799808
 11
34.0451605097
 21
-50.8054339308
  0
LINE
  5
2EE
100
AcDbEntity
  8
RACCORDO
100
AcDbLine
 62
7
  6
CONTINUOUS
 10
30.7267547316
 20
-53.1049608154
 11
33.8973704381
 21
-51.1442045022
  0
LINE
  5
2EF
100
AcDbEntity
  8
RACCORDO
100
AcDbLine
 62
250
  6
CONTINUOUS
 10
30.7136879657
 20
-53.2735776713
 11
30.6913263881
 21
-53.2869477083
  0
LWPOLYLINE
  5
2F0
100
AcDbEntity
  8
RACCORDO
100
AcDbPolyline
 62
250
  6
CONTINUOUS
 90
16
 70
0
 10
29.1979935872
 20
-54.7716264303
 10
29.2057631741
 20
-54.7679406669
 10
29.2489068304
 20
-54.7443259599
 10
29.2896477588
 20
-54.7165092772
 10
29.3277110141
 20
-54.6847265066
 10
29.3631462321
 20
-54.6489858196
 10
29.396199989
 20
-54.6089393
 10
29.4267778068
 20
-54.5644390866
 10
29.4545696938
 20
-54.5156413122
 10
29.4794059996
 20
-54.4625347554
 10
29.5011227968
 20
-54.4050699584
 10
29.5194793481
 20
-54.343428468
 10
29.5342331035
 20
-54.2780162411
 10
29.5452391241
 20
-54.2091163457
 10
29.552399769
 20
-54.136837035
 10
29.5556060872
 20
-54.061401052
  0
LINE
  5
2F1
100
AcDbEntity
  8
RACCORDO
100
AcDbLine
 62
250
  6
CONTINUOUS
 10
29.5556060872
 20
-54.061401052
 11
30.6913263881
 21
-53.5362643016
  0
LINE
  5
2F2
100
AcDbEntity
  8
RACCORDO
100
AcDbLine
 62
7
  6
CONTINUOUS
 10
29.1974252034
 20
-54.7718896723
 11
30.3411376565
 21
-54.2430574938
  0
ELLIPSE
  5
2F3
100
AcDbEntity
  8
RACCORDO
100
AcDbEllipse
 62
7
  6
CONTINUOUS
 10
29.6292106236
 20
-52.9196528348
 30
0.0
 11
-0.752093153
 21
1.3025803154
 31
0.0
 40
0.5757524875
 41
-3.193807042
 42
-2.3576120761
  0
ELLIPSE
  5
2F4
100
AcDbEntity
  8
RACCORDO
100
AcDbEllipse
 62
7
  6
CONTINUOUS
 10
29.6292106236
 20
16.4769592534
 30
0.0
 11
-0.7500365396
 21
1.2990170088
 31
0.0
 40
0.5789151826
 41
-2.3548735497
 42
-0.7868162787
  0
ELLIPSE
  5
2F5
100
AcDbEntity
  8
RACCORDO
100
AcDbEllipse
 62
7
  6
CONTINUOUS
 10
-31.8861681541
 20
51.9951679909
 30
0.0
 11
-0.752093153
 21
1.3025803154
 31
0.0
 40
0.5757524875
 41
-0.7840766935
 42
0.0522143884
  0
ELLIPSE
  5
2F6
100
AcDbEntity
  8
RACCORDO
100
AcDbEllipse
 62
7
  6
CONTINUOUS
 10
-17.444913885
 20
-13.188094477
 30
0.0
 11
-0.2500120911
 21
0.4330057209
 31
0.0
 40
0.5775075436
 41
0.7855021057
 42
2.355993846
  0
ENDSEC
  0
SECTION
  2
OBJECTS
  0
DICTIONARY
  5
C
100
AcDbDictionary
280
0
281
1
  3
ACAD_GROUP
350
D
  3
ACAD_MLINESTYLE
350
17
  3
ACAD_LAYOUT
350
1A
  3
ACAD_PLOTSETTINGS
350
19
  3
ACAD_PLOTSTYLENAME
350
E
  0
DICTIONARY
  5
D
102
{ACAD_REACTORS
330
C
102
}
100
AcDbDictionary
280
0
281
1
  0
ACDBDICTIONARYWDFLT
  5
E
102
{ACAD_REACTORS
330
C
102
}
100
AcDbDictionary
281
1
  3
Normal
350
F
100
AcDbDictionaryWithDefault
340
F
  0
DICTIONARY
  5
17
102
{ACAD_REACTORS
330
C
102
}
100
AcDbDictionary
280
0
281
1
  3
Standard
350
18
  0
DICTIONARY
  5
19
102
{ACAD_REACTORS
330
C
102
}
100
AcDbDictionary
281
1
  0
DICTIONARY
  5
1A
102
{ACAD_REACTORS
330
C
102
}
100
AcDbDictionary
281
1
  3
Model
350
2F7
  3
Layout1
350
2F8
  0
ACDBPLACEHOLDER
  5
F
102
{ACAD_REACTORS
330
E
102
}
  0
MLINESTYLE
  5
18
102
{ACAD_REACTORS
330
17
102
}
100
AcDbMlineStyle
  2
STANDARD
 70
0
  3

 62
256
 51
90.0
 52
90.0
 71
2
 49
0.5
 62
256
  6
BYLAYER
 49
-0.5
 62
256
  6
BYLAYER
  0
LAYOUT
  5
2F7
102
{ACAD_REACTORS
330
1A
102
}
100
AcDbPlotSettings
  1

  2
none_device
  4
ISO_A4_(297.00_x_210.00_MM)
  6

 40
0.0
 41
0.0
 42
0.0
 43
0.0
 44
297.0
 45
210.0
 46
0.0
 47
0.0
 48
0.0
 49
0.0
140
0.0
141
0.0
142
1.0
143
1.0
 70
1024
 72
1
 73
0
 74
0
  7

 75
0
147
1.0
148
0.0
149
0.0
100
AcDbLayout
  1
Model
 70
0
 71
0
 10
0.0
 20
0.0
 11
297.0
 21
210.0
 12
0.0
 22
0.0
 32
0.0
 14
0.0
 24
0.0
 34
0.0
 15
0.0
 25
0.0
 35
0.0
146
0.0
 13
0.0
 23
0.0
 33
0.0
 16
1.0
 26
0.0
 36
0.0
 17
0.0
 27
1.0
 37
0.0
 76
0
330
212
345
0
346
0
  0
LAYOUT
  5
2F8
102
{ACAD_REACTORS
330
1A
102
}
100
AcDbPlotSettings
  1

  2
none_device
  4
ISO_A4_(297.00_x_210.00_MM)
  6

 40
0.0
 41
0.0
 42
0.0
 43
0.0
 44
297.0
 45
210.0
 46
0.0
 47
0.0
 48
0.0
 49
0.0
140
0.0
141
0.0
142
1.0
143
1.0
 70
0
 72
1
 73
0
 74
0
  7

 75
0
147
1.0
148
0.0
149
0.0
100
AcDbLayout
  1
Layout1
 70
0
 71
1
 10
0.0
 20
0.0
 11
297.0
 21
210.0
 12
0.0
 22
0.0
 32
0.0
 14
0.0
 24
0.0
 34
0.0
 15
0.0
 25
0.0
 35
0.0
146
0.0
 13
0.0
 23
0.0
 33
0.0
 16
1.0
 26
0.0
 36
0.0
 17
0.0
 27
1.0
 37
0.0
 76
0
330
213
345
0
346
0
  0
ENDSEC
  0
EOF
