  0
SECTION
  2
HEADER
  9
$ACADVER
  1
AC1024
  9
$DWGCODEPAGE
  3
ANSI_1252
  9
$EXTMAX
 10
297.0
 20
210.0
 30
0.0
  9
$EXTMIN
 10
0.0
 20
0.0
 30
0.0
  9
$LIMMIN
 10
0.0
 20
0.0
  9
$LIMMAX
 10
297.0
 20
210.0
  9
$VIEWCTR
 10
148.5
 20
105.0
  9
$VIEWSIZE
 40
210.0
  9
$CLAYER
  8
0
  9
$LTSCALE
 40
16.335
  9
$CELTYPE
  6
BYLAYER
  9
$DIMSCALE
 40
1.0
  9
$DIMASZ
 40
3.0
  9
$DIMEXO
 40
0.5
  9
$DIMDLI
 40
11.286
  9
$DIMEXE
 40
1.5
  9
$DIMCEN
 40
2.673
  9
$DIMLFAC
 40
1.0
  9
$DIMBLK
  1
_FILLED
  9
$DIMALT
 70
0
  9
$DIMALTF
 40
0.0393700787
  9
$DIMTXT
 40
3.0
  9
$DIMTOL
 70
1
  9
$DIMLIM
 70
0
  9
$DIMTFAC
 40
1.0
  9
$DIMTP
 40
0.01
  9
$DIMTM
 40
0.01
  9
$DIMGAP
 40
0.625
  9
$DIMDSEP
 70
44
  9
$AUNITS
 70
0
  9
$PDMODE
 70
3
  9
$PDSIZE
 40
3.0
  9
$HANDSEED
  5
670
  9
$TILEMODE
 70
1
  9
$MEASUREMENT
 70
1
  9
$INSUNITS
 70
4
  0
ENDSEC
  0
SECTION
  2
CLASSES
  0
CLASS
  1
ACDBDICTIONARYWDFLT
  2
AcDbDictionaryWithDefault
  3
AutoCAD 2000
 90
0
 91
1
280
0
281
0
  0
CLASS
  1
ACDBPLACEHOLDER
  2
AcDbPlaceHolder
  3
AutoCAD 2000
 90
0
 91
1
280
0
281
0
  0
CLASS
  1
LAYOUT
  2
AcDbLayout
  3
AutoCAD 2000
 90
0
 91
0
280
0
281
0
  0
ENDSEC
  0
SECTION
  2
TABLES
  0
TABLE
  2
VPORT
  5
8
100
AcDbSymbolTable
 70
2
  0
VPORT
  5
1F4
100
AcDbSymbolTableRecord
100
AcDbViewportTableRecord
  2
*ACTIVE
 70
0
 10
0.0
 20
0.0
 11
1.0
 21
1.0
 12
148.5
 22
105.0
 13
0.0
 23
0.0
 14
1.0
 24
1.0
 15
0.0
 25
0.0
 16
0.0
 26
0.0
 36
1.0
 17
0.0
 27
0.0
 37
0.0
 40
210.0
 41
1.4142857143
 42
50.0
 43
0.0
 44
0.0
 50
0.0
 51
0.0
 71
0
 72
100
 73
1
 74
1
 75
0
 76
0
 77
0
 78
0
  0
ENDTAB
  0
TABLE
  2
LTYPE
  5
5
100
AcDbSymbolTable
 70
6
  0
LTYPE
  5
14
100
AcDbSymbolTableRecord
100
AcDbLinetypeTableRecord
  2
BYBLOCK
 70
0
  3

 72
65
 73
0
 40
0.0
  0
LTYPE
  5
15
100
AcDbSymbolTableRecord
100
AcDbLinetypeTableRecord
  2
BYLAYER
 70
0
  3

 72
65
 73
0
 40
0.0
  0
LTYPE
  5
16
100
AcDbSymbolTableRecord
100
AcDbLinetypeTableRecord
  2
CONTINUOUS
 70
64
  3
Solid line
 72
65
 73
0
 40
0.0
  0
LTYPE
  5
1F5
100
AcDbSymbolTableRecord
100
AcDbLinetypeTableRecord
  2
CENTER
 70
64
  3
____ _ ____ _ ____ _ ____ _ ____ _ ____ _ ____
 72
65
 73
4
 40
0.6
 49
0.375
 74
0
 49
-0.075
 74
0
 49
0.075
 74
0
 49
-0.075
 74
0
  0
LTYPE
  5
1F6
100
AcDbSymbolTableRecord
100
AcDbLinetypeTableRecord
  2
HIDDEN
 70
64
  3
- - - - - - - - - - - - - - - - - - - -
 72
65
 73
2
 40
0.2
 49
0.1
 74
0
 49
-0.1
 74
0
  0
LTYPE
  5
1F7
100
AcDbSymbolTableRecord
100
AcDbLinetypeTableRecord
  2
PHANTOM
 70
64
  3
_____ _ _ _____ _ _ _____ _ _ _____
 72
65
 73
6
 40
0.8
 49
0.45
 74
0
 49
-0.05
 74
0
 49
0.1
 74
0
 49
-0.05
 74
0
 49
0.1
 74
0
 49
-0.05
 74
0
  0
LTYPE
  5
1F8
100
AcDbSymbolTableRecord
100
AcDbLinetypeTableRecord
  2
DOT
 70
64
  3
. . . . . . . . . . . . . . . . . . . .
 72
65
 73
2
 40
0.2
 49
0.1
 74
0
 49
-0.1
 74
0
  0
LTYPE
  5
1F9
100
AcDbSymbolTableRecord
100
AcDbLinetypeTableRecord
  2
DASHED
 70
64
  3
- - - - - - - - - - - - - - - - - - - -
 72
65
 73
2
 40
0.2
 49
0.1
 74
0
 49
-0.1
 74
0
  0
ENDTAB
  0
TABLE
  2
LAYER
  5
2
100
AcDbSymbolTable
 70
36
  0
LAYER
  5
10
100
AcDbSymbolTableRecord
100
AcDbLayerTableRecord
  2
0
 70
0
 62
7
  6
CONTINUOUS
370
-3
390
F
  0
LAYER
  5
1FA
100
AcDbSymbolTableRecord
100
AcDbLayerTableRecord
  2
DEFAULT_1
 70
0
 62
7
  6
CENTER
370
-3
390
F
  0
LAYER
  5
1FB
100
AcDbSymbolTableRecord
100
AcDbLayerTableRecord
  2
DEFAULT_2
 70
0
 62
7
  6
HIDDEN
370
-3
390
F
  0
LAYER
  5
1FC
100
AcDbSymbolTableRecord
100
AcDbLayerTableRecord
  2
DEFAULT_3
 70
0
 62
7
  6
PHANTOM
370
-3
390
F
  0
LAYER
  5
1FD
100
AcDbSymbolTableRecord
100
AcDbLayerTableRecord
  2
201A_260000
 70
0
 62
7
  6
CONTINUOUS
370
-3
390
F
  0
LAYER
  5
1FE
100
AcDbSymbolTableRecord
100
AcDbLayerTableRecord
  2
201A_260000_1
 70
0
 62
7
  6
CONTINUOUS
370
-3
390
F
  0
LAYER
  5
1FF
100
AcDbSymbolTableRecord
100
AcDbLayerTableRecord
  2
201A_260000_2
 70
0
 62
7
  6
CONTINUOUS
370
-3
390
F
  0
LAYER
  5
200
100
AcDbSymbolTableRecord
100
AcDbLayerTableRecord
  2
2125-CC-RF-VIMAR_65000
 70
0
 62
7
  6
CONTINUOUS
370
-3
390
F
  0
LAYER
  5
201
100
AcDbSymbolTableRecord
100
AcDbLayerTableRecord
  2
2125-CC-RF-VIMAR_65000_1
 70
0
 62
7
  6
CONTINUOUS
370
-3
390
F
  0
LAYER
  5
202
100
AcDbSymbolTableRecord
100
AcDbLayerTableRecord
  2
2125-R1-RF-VIMAR_60000
 70
0
 62
7
  6
CONTINUOUS
370
-3
390
F
  0
LAYER
  5
203
100
AcDbSymbolTableRecord
100
AcDbLayerTableRecord
  2
2125-R1-RF-VIMAR_60000_1
 70
0
 62
7
  6
CONTINUOUS
370
-3
390
F
  0
LAYER
  5
204
100
AcDbSymbolTableRecord
100
AcDbLayerTableRecord
  2
2125-R1-RF-VIMAR_60000_2
 70
0
 62
7
  6
CONTINUOUS
370
-3
390
F
  0
LAYER
  5
205
100
AcDbSymbolTableRecord
100
AcDbLayerTableRecord
  2
3216-R1-RF-VIMAR_60000
 70
0
 62
7
  6
CONTINUOUS
370
-3
390
F
  0
LAYER
  5
206
100
AcDbSymbolTableRecord
100
AcDbLayerTableRecord
  2
43000463A0
 70
0
 62
7
  6
CONTINUOUS
370
-3
390
F
  0
LAYER
  5
207
100
AcDbSymbolTableRecord
100
AcDbLayerTableRecord
  2
ASSI
 70
0
 62
7
  6
CONTINUOUS
370
-3
390
F
  0
LAYER
  5
208
100
AcDbSymbolTableRecord
100
AcDbLayerTableRecord
  2
AX-D100-1-VIMAR_300000
 70
0
 62
7
  6
CONTINUOUS
370
-3
390
F
  0
LAYER
  5
209
100
AcDbSymbolTableRecord
100
AcDbLayerTableRecord
  2
AX-R5W-3-VIMAR_2200000
 70
0
 62
7
  6
CONTINUOUS
370
-3
390
F
  0
LAYER
  5
20A
100
AcDbSymbolTableRecord
100
AcDbLayerTableRecord
  2
BIDONE
 70
0
 62
7
  6
CONTINUOUS
370
-3
390
F
  0
LAYER
  5
20B
100
AcDbSymbolTableRecord
100
AcDbLayerTableRecord
  2
CASTELLO
 70
0
 62
7
  6
CONTINUOUS
370
-3
390
F
  0
LAYER
  5
20C
100
AcDbSymbolTableRecord
100
AcDbLayerTableRecord
  2
CN-1S-HEADER-PIH-1_254000
 70
0
 62
7
  6
CONTINUOUS
370
-3
390
F
  0
LAYER
  5
20D
100
AcDbSymbolTableRecord
100
AcDbLayerTableRecord
  2
CN-CSF_CSM_2-VIMAR_1150000
 70
0
 62
7
  6
CONTINUOUS
370
-3
390
F
  0
LAYER
  5
20E
100
AcDbSymbolTableRecord
100
AcDbLayerTableRecord
  2
CN-MKDSN2-VIMAR_1500000
 70
0
 62
7
  6
CONTINUOUS
370
-3
390
F
  0
LAYER
  5
20F
100
AcDbSymbolTableRecord
100
AcDbLayerTableRecord
  2
CN1-REF_SQUAREHOLE14_SPEA-VIMAR
 70
0
 62
7
  6
CONTINUOUS
370
-3
390
F
  0
LAYER
  5
210
100
AcDbSymbolTableRecord
100
AcDbLayerTableRecord
  2
CN1-REF_SQUAREHOLE14_SPEA-VIM_1
 70
0
 62
7
  6
CONTINUOUS
370
-3
390
F
  0
LAYER
  5
211
100
AcDbSymbolTableRecord
100
AcDbLayerTableRecord
  2
CN1-REF_SQUAREHOLE14_SPEA-VIM_2
 70
0
 62
7
  6
CONTINUOUS
370
-3
390
F
  0
LAYER
  5
212
100
AcDbSymbolTableRecord
100
AcDbLayerTableRecord
  2
CN1-REF_SQUAREHOLE14_SPEA-VIM_3
 70
0
 62
7
  6
CONTINUOUS
370
-3
390
F
  0
LAYER
  5
213
100
AcDbSymbolTableRecord
100
AcDbLayerTableRecord
  2
COLOR5
 70
0
 62
7
  6
CONTINUOUS
370
-3
390
F
  0
LAYER
  5
214
100
AcDbSymbolTableRecord
100
AcDbLayerTableRecord
  2
COLORE_MATERIALE
 70
0
 62
7
  6
CONTINUOUS
370
-3
390
F
  0
LAYER
  5
215
100
AcDbSymbolTableRecord
100
AcDbLayerTableRecord
  2
CONTATTO
 70
0
 62
7
  6
CONTINUOUS
370
-3
390
F
  0
LAYER
  5
216
100
AcDbSymbolTableRecord
100
AcDbLayerTableRecord
  2
CONT_MOBILE
 70
0
 62
7
  6
CONTINUOUS
370
-3
390
F
  0
LAYER
  5
217
100
AcDbSymbolTableRecord
100
AcDbLayerTableRecord
  2
COORDINATE
 70
0
 62
7
  6
CONTINUOUS
370
-3
390
F
  0
LAYER
  5
218
100
AcDbSymbolTableRecord
100
AcDbLayerTableRecord
  2
COORD_ORIGINE
 70
0
 62
7
  6
CONTINUOUS
370
-3
390
F
  0
LAYER
  5
219
100
AcDbSymbolTableRecord
100
AcDbLayerTableRecord
  2
COPERCHIO
 70
0
 62
7
  6
CONTINUOUS
370
-3
390
F
  0
LAYER
  5
21A
100
AcDbSymbolTableRecord
100
AcDbLayerTableRecord
  2
COPY_PUBLISH
 70
0
 62
7
  6
CONTINUOUS
370
-3
390
F
  0
LAYER
  5
21B
100
AcDbSymbolTableRecord
100
AcDbLayerTableRecord
  2
CORPO
 70
0
 62
7
  6
CONTINUOUS
370
-3
390
F
  0
LAYER
  5
21C
100
AcDbSymbolTableRecord
100
AcDbLayerTableRecord
  2
COSMETIC
 70
0
 62
7
  6
CONTINUOUS
370
-3
390
F
  0
LAYER
  5
21D
100
AcDbSymbolTableRecord
100
AcDbLayerTableRecord
  2
COSMETICI
 70
0
 62
7
  6
CONTINUOUS
370
-3
390
F
  0
LAYER
  5
21E
100
AcDbSymbolTableRecord
100
AcDbLayerTableRecord
  2
CP-DO-214AC-D-VIMAR_240000
 70
0
 62
7
  6
CONTINUOUS
370
-3
390
F
  0
LAYER
  5
21F
100
AcDbSymbolTableRecord
100
AcDbLayerTableRecord
  2
CP-DO-214AC-D-VIMAR_240000_1
 70
0
 62
7
  6
CONTINUOUS
370
-3
390
F
  0
LAYER
  5
220
100
AcDbSymbolTableRecord
100
AcDbLayerTableRecord
  2
CP-DO-214AC-D-VIMAR_240000_2
 70
0
 62
7
  6
CONTINUOUS
370
-3
390
F
  0
LAYER
  5
221
100
AcDbSymbolTableRecord
100
AcDbLayerTableRecord
  2
CURVE
 70
0
 62
7
  6
CONTINUOUS
370
-3
390
F
  0
LAYER
  5
222
100
AcDbSymbolTableRecord
100
AcDbLayerTableRecord
  2
DRAFT
 70
0
 62
7
  6
CONTINUOUS
370
-3
390
F
  0
LAYER
  5
223
100
AcDbSymbolTableRecord
100
AcDbLayerTableRecord
  2
E2_MARK_10000
 70
0
 62
7
  6
CONTINUOUS
370
-3
390
F
  0
LAYER
  5
224
100
AcDbSymbolTableRecord
100
AcDbLayerTableRecord
  2
FL-9_2X6X5_530000
 70
0
 62
7
  6
CONTINUOUS
370
-3
390
F
  0
LAYER
  5
225
100
AcDbSymbolTableRecord
100
AcDbLayerTableRecord
  2
IGES_SCRITTE
 70
0
 62
7
  6
CONTINUOUS
370
-3
390
F
  0
LAYER
  5
226
100
AcDbSymbolTableRecord
100
AcDbLayerTableRecord
  2
IMPORT_IGES
 70
0
 62
7
  6
CONTINUOUS
370
-3
390
F
  0
LAYER
  5
227
100
AcDbSymbolTableRecord
100
AcDbLayerTableRecord
  2
INTFCLR_1
 70
0
 62
7
  6
CONTINUOUS
370
-3
390
F
  0
LAYER
  5
228
100
AcDbSymbolTableRecord
100
AcDbLayerTableRecord
  2
INTFCLR_2849
 70
0
 62
7
  6
CONTINUOUS
370
-3
390
F
  0
LAYER
  5
229
100
AcDbSymbolTableRecord
100
AcDbLayerTableRecord
  2
INTFCLR_3437
 70
0
 62
7
  6
CONTINUOUS
370
-3
390
F
  0
LAYER
  5
22A
100
AcDbSymbolTableRecord
100
AcDbLayerTableRecord
  2
INTF_1
 70
0
 62
7
  6
CONTINUOUS
370
-3
390
F
  0
LAYER
  5
22B
100
AcDbSymbolTableRecord
100
AcDbLayerTableRecord
  2
INTF_15
 70
0
 62
7
  6
CONTINUOUS
370
-3
390
F
  0
LAYER
  5
22C
100
AcDbSymbolTableRecord
100
AcDbLayerTableRecord
  2
INTF_16
 70
0
 62
7
  6
CONTINUOUS
370
-3
390
F
  0
LAYER
  5
22D
100
AcDbSymbolTableRecord
100
AcDbLayerTableRecord
  2
INTF_18
 70
0
 62
7
  6
CONTINUOUS
370
-3
390
F
  0
LAYER
  5
22E
100
AcDbSymbolTableRecord
100
AcDbLayerTableRecord
  2
INTF_2
 70
0
 62
7
  6
CONTINUOUS
370
-3
390
F
  0
LAYER
  5
22F
100
AcDbSymbolTableRecord
100
AcDbLayerTableRecord
  2
INTF_24
 70
0
 62
7
  6
CONTINUOUS
370
-3
390
F
  0
LAYER
  5
230
100
AcDbSymbolTableRecord
100
AcDbLayerTableRecord
  2
INTF_3
 70
0
 62
7
  6
CONTINUOUS
370
-3
390
F
  0
LAYER
  5
231
100
AcDbSymbolTableRecord
100
AcDbLayerTableRecord
  2
INTF_4
 70
0
 62
7
  6
CONTINUOUS
370
-3
390
F
  0
LAYER
  5
232
100
AcDbSymbolTableRecord
100
AcDbLayerTableRecord
  2
INTF_5
 70
0
 62
7
  6
CONTINUOUS
370
-3
390
F
  0
LAYER
  5
233
100
AcDbSymbolTableRecord
100
AcDbLayerTableRecord
  2
INTF_6
 70
0
 62
7
  6
CONTINUOUS
370
-3
390
F
  0
LAYER
  5
234
100
AcDbSymbolTableRecord
100
AcDbLayerTableRecord
  2
INTF_8
 70
0
 62
7
  6
CONTINUOUS
370
-3
390
F
  0
LAYER
  5
235
100
AcDbSymbolTableRecord
100
AcDbLayerTableRecord
  2
INTF_9
 70
0
 62
7
  6
CONTINUOUS
370
-3
390
F
  0
LAYER
  5
236
100
AcDbSymbolTableRecord
100
AcDbLayerTableRecord
  2
INTF_CYAN
 70
0
 62
7
  6
CONTINUOUS
370
-3
390
F
  0
LAYER
  5
237
100
AcDbSymbolTableRecord
100
AcDbLayerTableRecord
  2
INTF_GREEN
 70
0
 62
7
  6
CONTINUOUS
370
-3
390
F
  0
LAYER
  5
238
100
AcDbSymbolTableRecord
100
AcDbLayerTableRecord
  2
LOGO_RESIST-RESTYLING_10000
 70
0
 62
7
  6
CONTINUOUS
370
-3
390
F
  0
LAYER
  5
239
100
AcDbSymbolTableRecord
100
AcDbLayerTableRecord
  2
MOLLA
 70
0
 62
7
  6
CONTINUOUS
370
-3
390
F
  0
LAYER
  5
23A
100
AcDbSymbolTableRecord
100
AcDbLayerTableRecord
  2
NO-PB_MARK_10000
 70
0
 62
7
  6
CONTINUOUS
370
-3
390
F
  0
LAYER
  5
23B
100
AcDbSymbolTableRecord
100
AcDbLayerTableRecord
  2
NOTE
 70
0
 62
7
  6
CONTINUOUS
370
-3
390
F
  0
LAYER
  5
23C
100
AcDbSymbolTableRecord
100
AcDbLayerTableRecord
  2
PERNO
 70
0
 62
7
  6
CONTINUOUS
370
-3
390
F
  0
LAYER
  5
23D
100
AcDbSymbolTableRecord
100
AcDbLayerTableRecord
  2
PIANI
 70
0
 62
7
  6
CONTINUOUS
370
-3
390
F
  0
LAYER
  5
23E
100
AcDbSymbolTableRecord
100
AcDbLayerTableRecord
  2
PIANI_DI_RIFERIMENTO
 70
0
 62
7
  6
CONTINUOUS
370
-3
390
F
  0
LAYER
  5
23F
100
AcDbSymbolTableRecord
100
AcDbLayerTableRecord
  2
PIANI_ORIGINE
 70
0
 62
7
  6
CONTINUOUS
370
-3
390
F
  0
LAYER
  5
240
100
AcDbSymbolTableRecord
100
AcDbLayerTableRecord
  2
POMELLO
 70
0
 62
7
  6
CONTINUOUS
370
-3
390
F
  0
LAYER
  5
241
100
AcDbSymbolTableRecord
100
AcDbLayerTableRecord
  2
PUNTI
 70
0
 62
7
  6
CONTINUOUS
370
-3
390
F
  0
LAYER
  5
242
100
AcDbSymbolTableRecord
100
AcDbLayerTableRecord
  2
RACCORDO
 70
0
 62
7
  6
CONTINUOUS
370
-3
390
F
  0
LAYER
  5
243
100
AcDbSymbolTableRecord
100
AcDbLayerTableRecord
  2
RD-CE35-1-VIMAR_1150000
 70
0
 62
7
  6
CONTINUOUS
370
-3
390
F
  0
LAYER
  5
244
100
AcDbSymbolTableRecord
100
AcDbLayerTableRecord
  2
RD-CE50-11-VIMAR_1250000
 70
0
 62
7
  6
CONTINUOUS
370
-3
390
F
  0
LAYER
  5
245
100
AcDbSymbolTableRecord
100
AcDbLayerTableRecord
  2
RD-CE50-11-VIMAR_1250000_1
 70
0
 62
7
  6
CONTINUOUS
370
-3
390
F
  0
LAYER
  5
246
100
AcDbSymbolTableRecord
100
AcDbLayerTableRecord
  2
RD-L50-4-VIMAR_950000
 70
0
 62
7
  6
CONTINUOUS
370
-3
390
F
  0
LAYER
  5
247
100
AcDbSymbolTableRecord
100
AcDbLayerTableRecord
  2
RD-ZNR75-1-VIMAR_0
 70
0
 62
7
  6
CONTINUOUS
370
-3
390
F
  0
LAYER
  5
248
100
AcDbSymbolTableRecord
100
AcDbLayerTableRecord
  2
RGB__255__255__255__
 70
0
 62
7
  6
CONTINUOUS
370
-3
390
F
  0
LAYER
  5
249
100
AcDbSymbolTableRecord
100
AcDbLayerTableRecord
  2
SIMBOLI
 70
0
 62
7
  6
CONTINUOUS
370
-3
390
F
  0
LAYER
  5
24A
100
AcDbSymbolTableRecord
100
AcDbLayerTableRecord
  2
SMD8C-VIMAR_343000
 70
0
 62
7
  6
CONTINUOUS
370
-3
390
F
  0
LAYER
  5
24B
100
AcDbSymbolTableRecord
100
AcDbLayerTableRecord
  2
SMUSSO
 70
0
 62
7
  6
CONTINUOUS
370
-3
390
F
  0
LAYER
  5
24C
100
AcDbSymbolTableRecord
100
AcDbLayerTableRecord
  2
SNAPLINE
 70
0
 62
7
  6
CONTINUOUS
370
-3
390
F
  0
LAYER
  5
24D
100
AcDbSymbolTableRecord
100
AcDbLayerTableRecord
  2
SUPERFICI
 70
0
 62
7
  6
CONTINUOUS
370
-3
390
F
  0
LAYER
  5
24E
100
AcDbSymbolTableRecord
100
AcDbLayerTableRecord
  2
SUPERFICI_SKEL
 70
0
 62
7
  6
CONTINUOUS
370
-3
390
F
  0
LAYER
  5
24F
100
AcDbSymbolTableRecord
100
AcDbLayerTableRecord
  2
SUPPORTO
 70
0
 62
7
  6
CONTINUOUS
370
-3
390
F
  0
LAYER
  5
250
100
AcDbSymbolTableRecord
100
AcDbLayerTableRecord
  2
TASTO
 70
0
 62
7
  6
CONTINUOUS
370
-3
390
F
  0
LAYER
  5
251
100
AcDbSymbolTableRecord
100
AcDbLayerTableRecord
  2
TR-29V-1-VIMAR_1400000
 70
0
 62
7
  6
CONTINUOUS
370
-3
390
F
  0
LAYER
  5
252
100
AcDbSymbolTableRecord
100
AcDbLayerTableRecord
  2
TRASH
 70
0
 62
7
  6
CONTINUOUS
370
-3
390
F
  0
LAYER
  5
253
100
AcDbSymbolTableRecord
100
AcDbLayerTableRecord
  2
TRECCIA
 70
0
 62
7
  6
CONTINUOUS
370
-3
390
F
  0
LAYER
  5
254
100
AcDbSymbolTableRecord
100
AcDbLayerTableRecord
  2
XSEC_DATUMS
 70
0
 62
7
  6
CONTINUOUS
370
-3
390
F
  0
LAYER
  5
255
100
AcDbSymbolTableRecord
100
AcDbLayerTableRecord
  2
___SHELL
 70
0
 62
7
  6
CONTINUOUS
370
-3
390
F
  0
ENDTAB
  0
TABLE
  2
STYLE
  5
3
100
AcDbSymbolTable
 70
1
  0
STYLE
  5
11
100
AcDbSymbolTableRecord
100
AcDbTextStyleTableRecord
  2
STANDARD
 70
0
 40
0.0
 41
0.8
 50
0.0
 71
0
 42
0.2
  3
txt
  4

  0
STYLE
  5
256
100
AcDbSymbolTableRecord
100
AcDbTextStyleTableRecord
  2
TEXTSTYLE_1
 70
0
 40
0.0
 41
0.8
 50
0.0
 71
0
 42
0.2
  3
gdt
  4

  0
ENDTAB
  0
TABLE
  2
VIEW
  5
6
100
AcDbSymbolTable
 70
0
  0
ENDTAB
  0
TABLE
  2
UCS
  5
7
100
AcDbSymbolTable
 70
0
  0
ENDTAB
  0
TABLE
  2
APPID
  5
9
100
AcDbSymbolTable
 70
1
  0
APPID
  5
257
100
AcDbSymbolTableRecord
100
AcDbRegAppTableRecord
  2
ACAD
 70
0
  0
ENDTAB
  0
TABLE
  2
BLOCK_RECORD
  5
1
100
AcDbSymbolTable
 70
0
  0
BLOCK_RECORD
  5
258
100
AcDbSymbolTableRecord
100
AcDbBlockTableRecord
  2
*Model_Space
  0
BLOCK_RECORD
  5
259
100
AcDbSymbolTableRecord
100
AcDbBlockTableRecord
  2
*Paper_Space
  0
BLOCK_RECORD
  5
25A
100
AcDbSymbolTableRecord
100
AcDbBlockTableRecord
  2
_FILLED
  0
ENDTAB
  0
TABLE
  2
DIMSTYLE
  5
A
100
AcDbSymbolTable
 70
1
100
AcDbDimStyleTable
 71
0
  0
DIMSTYLE
105
25B
100
AcDbSymbolTableRecord
100
AcDbDimStyleTableRecord
  2
STANDARD
 70
0
  3

  4

 40
1.0
 41
3.0
 42
0.5
 43
0.38
 44
1.5
 45
0.0
 46
0.0
 47
0.01
 48
0.01
140
3.0
141
0.09
142
0.0
143
25.4
144
1.0
145
0.0
146
1.0
147
0.625
 71
1
 72
0
 73
0
 74
0
 75
0
 76
0
 77
1
 78
8
 79
2
170
0
171
1
172
0
173
0
174
0
175
0
176
0
177
0
178
0
270
2
179
2
271
2
272
2
273
2
274
2
275
0
280
0
281
0
282
0
283
1
284
8
285
0
286
0
287
3
288
0
340
11
278
44
341
25A
342
25A
343
25A
344
25A
  0
ENDTAB
  0
ENDSEC
  0
SECTION
  2
BLOCKS
  0
BLOCK
  5
20
100
AcDbEntity
  8
0
100
AcDbBlockBegin
  2
*Model_Space
 70
0
 10
0.0
 20
0.0
 30
0.0
  3
*Model_Space
  1

  0
ENDBLK
  5
21
100
AcDbEntity
  8
0
100
AcDbBlockEnd
  0
BLOCK
  5
1C
100
AcDbEntity
  8
0
100
AcDbBlockBegin
  2
*Paper_Space
 70
0
 10
0.0
 20
0.0
 30
0.0
  3
*Paper_Space
  1

  0
ENDBLK
  5
1D
100
AcDbEntity
  8
0
100
AcDbBlockEnd
  0
BLOCK
  5
25C
100
AcDbEntity
  8
0
100
AcDbBlockBegin
  2
_FILLED
 70
64
 10
0.0
 20
0.0
  3
_FILLED
  1

  0
SOLID
  5
25D
100
AcDbEntity
  8
0
  6
BYBLOCK
 62
0
100
AcDbTrace
 10
0.0
 20
0.0
 11
-1.0
 21
0.3166666667
 12
-1.0
 22
-0.3166666667
 13
-1.0
 23
-0.3166666667
  0
ENDBLK
  5
25E
100
AcDbEntity
  8
0
  6
BYBLOCK
 62
0
100
AcDbBlockEnd
  0
ENDSEC
  0
SECTION
  2
ENTITIES
  0
LINE
  5
25F
100
AcDbEntity
  8
ASSI
100
AcDbLine
 62
7
  6
CONTINUOUS
 10
-23.0372691493
 20
22.5221576029
 11
-20.7522120218
 21
23.8013863478
  0
LINE
  5
260
100
AcDbEntity
  8
ASSI
100
AcDbLine
 62
250
  6
CONTINUOUS
 10
-22.8022810271
 20
22.5141086213
 11
-20.5209196507
 21
23.7912683979
  0
LINE
  5
261
100
AcDbEntity
  8
ASSI
100
AcDbLine
 62
250
  6
CONTINUOUS
 10
-23.0372691493
 20
22.5221576029
 11
-23.037162616
 21
22.5222171975
  0
LWPOLYLINE
  5
262
100
AcDbEntity
  8
ASSI
100
AcDbPolyline
 62
250
  6
CONTINUOUS
 90
8
 70
0
 10
-23.037162616
 20
22.5222171975
 10
-23.0129006558
 20
22.5336091232
 10
-22.9814413756
 20
22.542829605
 10
-22.94790614
 20
22.5470158027
 10
-22.9128043373
 20
22.5461348467
 10
-22.8765853299
 20
22.5402661279
 10
-22.8396091811
 20
22.5295333757
 10
-22.8022810271
 20
22.5141086213
  0
LINE
  5
263
100
AcDbEntity
  8
ASSI
100
AcDbLine
 62
7
  6
CONTINUOUS
 10
-23.0166328761
 20
-23.0714882243
 11
-8.1484187077
 21
-30.5055953084
  0
LINE
  5
264
100
AcDbEntity
  8
ASSI
100
AcDbLine
 62
250
  6
CONTINUOUS
 10
-23.1465794689
 20
-22.8010513241
 11
-8.2783653006
 21
-30.2351584082
  0
LINE
  5
265
100
AcDbEntity
  8
ASSI
100
AcDbLine
 62
250
  6
CONTINUOUS
 10
-23.0166328761
 20
-23.0714882243
 11
-23.0332448561
 21
-23.0620983677
  0
LWPOLYLINE
  5
266
100
AcDbEntity
  8
ASSI
100
AcDbPolyline
 62
250
  6
CONTINUOUS
 90
9
 70
0
 10
-23.0332448561
 20
-23.0620983677
 10
-23.0586380607
 20
-23.0428697244
 10
-23.0812172749
 20
-23.0192063316
 10
-23.1007432862
 20
-22.9913588877
 10
-23.1170092289
 20
-22.9596224189
 10
-23.1298427755
 20
-22.924333153
 10
-23.1391079628
 20
-22.8858649577
 10
-23.144706632
 20
-22.844625379
 10
-23.1465794689
 20
-22.8010513241
  0
LINE
  5
267
100
AcDbEntity
  8
ASSI
100
AcDbLine
 62
7
  6
CONTINUOUS
 10
-15.5072985022
 20
21.2844578236
 11
-16.0092714395
 21
20.8277451233
  0
LINE
  5
268
100
AcDbEntity
  8
ASSI
100
AcDbLine
 62
7
  6
CONTINUOUS
 10
-16.1276433043
 20
21.7661492634
 11
-16.3059684543
 21
21.6837927997
  0
LINE
  5
269
100
AcDbEntity
  8
ASSI
100
AcDbLine
 62
250
  6
CONTINUOUS
 10
-16.0413194193
 20
21.7589905222
 11
-16.2570764271
 21
21.6593467861
  0
LWPOLYLINE
  5
26A
100
AcDbEntity
  8
ASSI
100
AcDbPolyline
 62
250
  6
CONTINUOUS
 90
9
 70
0
 10
-23.2930260783
 20
-22.6242746288
 10
-23.2919113932
 20
-22.6409587723
 10
-23.2858233315
 20
-22.6665560292
 10
-23.2744764254
 20
-22.6917386252
 10
-23.2579963797
 20
-22.7162020714
 10
-23.2366502466
 20
-22.7395976504
 10
-23.2107555248
 20
-22.7616628647
 10
-23.1806113097
 20
-22.7822126613
 10
-23.1465794689
 20
-22.8010513241
  0
LINE
  5
26B
100
AcDbEntity
  8
ASSI
100
AcDbLine
 62
7
  6
CONTINUOUS
 10
-23.2930260783
 20
-22.6242746288
 11
-23.2930260783
 21
22.0858717765
  0
LINE
  5
26C
100
AcDbEntity
  8
ASSI
100
AcDbLine
 62
250
  6
CONTINUOUS
 10
-23.1465794689
 20
-22.8010513241
 11
-23.1465794689
 21
21.9090950812
  0
LWPOLYLINE
  5
26D
100
AcDbEntity
  8
ASSI
100
AcDbPolyline
 62
250
  6
CONTINUOUS
 90
16
 70
0
 10
-23.1465794689
 20
21.9090950812
 10
-23.144706632
 20
21.954541973
 10
-23.1391079628
 20
22.001380221
 10
-23.1298427755
 20
22.0491136036
 10
-23.1170092289
 20
22.097236416
 10
-23.1007432862
 20
22.1452388275
 10
-23.0812172749
 20
22.1926122827
 10
-23.0586380607
 20
22.2388548897
 10
-23.0332448561
 20
22.2834767376
 10
-23.0053066858
 20
22.3260050864
 10
-22.975119537
 20
22.3659893753
 10
-22.9430032233
 20
22.403005996
 10
-22.9092979969
 20
22.4366627807
 10
-22.8743609433
 20
22.466603157
 10
-22.8385621983
 20
22.4925099258
 10
-22.8022810271
 20
22.5141086213
  0
LWPOLYLINE
  5
26E
100
AcDbEntity
  8
ASSI
100
AcDbPolyline
 62
250
  6
CONTINUOUS
 90
8
 70
0
 10
-14.3772131716
 20
20.2858068745
 10
-14.3721924486
 20
20.2919538465
 10
-14.3681943108
 20
20.3001214575
 10
-14.3658133672
 20
20.3096974913
 10
-14.3650760454
 20
20.3205768135
 10
-14.3659903215
 20
20.3326404029
 10
-14.3685461734
 20
20.3457570939
 10
-14.3727157365
 20
20.3597839026
  0
LINE
  5
26F
100
AcDbEntity
  8
ASSI
100
AcDbLine
 62
250
  6
CONTINUOUS
 10
-14.3727157365
 20
20.3597839026
 11
-14.6107907207
 21
20.1285047639
  0
LINE
  5
270
100
AcDbEntity
  8
ASSI
100
AcDbLine
 62
7
  6
CONTINUOUS
 10
-14.3772246076
 20
20.2857957598
 11
-14.5634851787
 21
20.1048519929
  0
LINE
  5
271
100
AcDbEntity
  8
ASSI
100
AcDbLine
 62
250
  6
CONTINUOUS
 10
-11.8746793721
 20
21.0570995322
 11
-11.8582613523
 21
21.0664796933
  0
LWPOLYLINE
  5
272
100
AcDbEntity
  8
RACCORDO
100
AcDbPolyline
 62
7
  6
CONTINUOUS
 90
3
 70
0
 10
-11.2344241838
 20
21.801073337
 10
-11.2886741164
 20
21.7701324391
 10
-11.3380886806
 20
21.7415645066
  0
LINE
  5
273
100
AcDbEntity
  8
RACCORDO
100
AcDbLine
 62
7
  6
CONTINUOUS
 10
-11.1978253251
 20
21.8200758886
 11
-11.2344241838
 21
21.801073337
  0
LWPOLYLINE
  5
274
100
AcDbEntity
  8
ASSI
100
AcDbPolyline
 62
250
  6
CONTINUOUS
 90
13
 70
0
 10
-12.5016876439
 20
19.9506198286
 10
-12.489017911
 20
19.9570603382
 10
-12.4763677181
 20
19.9645924061
 10
-12.4638213092
 20
19.9731336762
 10
-12.4515672221
 20
19.9825017699
 10
-12.4395635538
 20
19.9926813336
 10
-12.4275717216
 20
20.0039121886
 10
-12.4155558602
 20
20.0163184027
 10
-12.4037817936
 20
20.0297163118
 10
-12.3924853133
 20
20.0439169808
 10
-12.3818030874
 20
20.0587769497
 10
-12.3717917018
 20
20.0742216521
 10
-12.3625460954
 20
20.0901260819
  0
LINE
  5
275
100
AcDbEntity
  8
ASSI
100
AcDbLine
 62
250
  6
CONTINUOUS
 10
-5.8749694782
 20
22.368517168
 11
-8.7407463854
 21
20.9356287144
  0
LINE
  5
276
100
AcDbEntity
  8
ASSI
100
AcDbLine
 62
250
  6
CONTINUOUS
 10
-5.733741935
 20
22.1337631692
 11
-8.5995188422
 21
20.7008747156
  0
LINE
  5
277
100
AcDbEntity
  8
ASSI
100
AcDbLine
 62
250
  6
CONTINUOUS
 10
-15.4330057492
 20
20.5396122781
 11
-14.5141155536
 21
20.9953885893
  0
LINE
  5
278
100
AcDbEntity
  8
ASSI
100
AcDbLine
 62
250
  6
CONTINUOUS
 10
-15.1177330215
 20
20.3819759143
 11
-14.3727157365
 21
20.75150998
  0
LINE
  5
279
100
AcDbEntity
  8
RACCORDO
100
AcDbLine
 62
7
  6
CONTINUOUS
 10
13.8141722037
 20
31.9594631018
 11
13.8092357298
 21
31.9570476268
  0
LINE
  5
27A
100
AcDbEntity
  8
ASSI
100
AcDbLine
 62
7
  6
CONTINUOUS
 10
-11.945214286
 20
21.0733834333
 11
-11.8039538065
 21
21.1415811653
  0
LINE
  5
27B
100
AcDbEntity
  8
ASSI
100
AcDbLine
 62
250
  6
CONTINUOUS
 10
-11.8582613523
 20
21.0664796933
 11
-11.7170009123
 21
21.1346774062
  0
LINE
  5
27C
100
AcDbEntity
  8
ASSI
100
AcDbLine
 62
7
  6
CONTINUOUS
 10
-13.4434540118
 20
19.5448364095
 11
-12.5886402295
 21
19.9575233938
  0
LINE
  5
27D
100
AcDbEntity
  8
ASSI
100
AcDbLine
 62
250
  6
CONTINUOUS
 10
-13.3937146228
 20
19.519966715
 11
-12.501687295
 21
19.9506196542
  0
LINE
  5
27E
100
AcDbEntity
  8
ASSI
100
AcDbLine
 62
7
  6
CONTINUOUS
 10
-6.3472942946
 20
22.5681068494
 11
-7.1144178015
 21
22.1977549748
  0
LINE
  5
27F
100
AcDbEntity
  8
ASSI
100
AcDbLine
 62
7
  6
CONTINUOUS
 10
-9.263358709
 20
21.1602892655
 11
-8.0322962439
 21
21.7546216349
  0
LINE
  5
280
100
AcDbEntity
  8
ASSI
100
AcDbLine
 62
250
  6
CONTINUOUS
 10
-6.2603413609
 20
22.5612031094
 11
-7.0274648679
 21
22.1908512348
  0
LINE
  5
281
100
AcDbEntity
  8
ASSI
100
AcDbLine
 62
250
  6
CONTINUOUS
 10
-9.1763316672
 20
21.1534213553
 11
-7.9453432774
 21
21.7477179107
  0
LINE
  5
282
100
AcDbEntity
  8
ASSI
100
AcDbLine
 62
250
  6
CONTINUOUS
 10
-11.945214286
 20
21.0733834333
 11
-11.9449730664
 21
21.0734993398
  0
LWPOLYLINE
  5
283
100
AcDbEntity
  8
ASSI
100
AcDbPolyline
 62
250
  6
CONTINUOUS
 90
16
 70
0
 10
-8.7407463854
 20
20.9356287144
 10
-8.7731221007
 20
20.9200810812
 10
-8.804725326
 20
20.906115649
 10
-8.8355313437
 20
20.8936568632
 10
-8.865276355
 20
20.8827154301
 10
-8.8941883209
 20
20.873111127
 10
-8.922977935
 20
20.8645590643
 10
-8.9516536308
 20
20.8570494982
 10
-8.9801660824
 20
20.8505949189
 10
-9.009121026
 20
20.8450875073
 10
-9.0385493754
 20
20.8405838089
 10
-9.0683496443
 20
20.8371681454
 10
-9.0989030889
 20
20.8348920544
 10
-9.1302928218
 20
20.8338765755
 10
-9.1623155431
 20
20.834257698
 10
-9.1949032052
 20
20.8361625211
  0
LINE
  5
284
100
AcDbEntity
  8
RACCORDO
100
AcDbLine
 62
7
  6
CONTINUOUS
 10
12.126865053
 20
32.6543172202
 11
-6.3805509796
 21
23.7966767045
  0
LINE
  5
285
100
AcDbEntity
  8
RACCORDO
100
AcDbLine
 62
250
  6
CONTINUOUS
 10
-6.1726112586
 20
23.7021931466
 11
12.4771644254
 21
32.627966991
  0
LINE
  5
286
100
AcDbEntity
  8
0
100
AcDbLine
 62
7
  6
CONTINUOUS
 10
13.4556823392
 20
31.3437006025
 11
14.1044191572
 21
31.654200315
  0
LWPOLYLINE
  5
287
100
AcDbEntity
  8
ASSI
100
AcDbPolyline
 62
7
  6
CONTINUOUS
 90
10
 70
0
 10
-9.2633629751
 20
21.1602980821
 10
-9.2727033505
 20
21.1558375572
 10
-9.3322179115
 20
21.1296038966
 10
-9.3910644566
 20
21.1074862032
 10
-9.4489169158
 20
21.0896479253
 10
-9.5053830239
 20
21.0762304654
 10
-9.5599979602
 20
21.0673061619
 10
-9.6124050913
 20
21.0628638999
 10
-9.6623950687
 20
21.0628390688
 10
-9.6711943268
 20
21.0633006842
  0
LWPOLYLINE
  5
288
100
AcDbEntity
  8
ASSI
100
AcDbPolyline
 62
250
  6
CONTINUOUS
 90
16
 70
0
 10
-8.5995188422
 20
20.7008747156
 10
-8.6362457476
 20
20.6833950882
 10
-8.6720422551
 20
20.667533484
 10
-8.7069083648
 20
20.653289903
 10
-8.7405907088
 20
20.6408006469
 10
-8.7733426551
 20
20.629929414
 10
-8.8059243067
 20
20.6202672996
 10
-8.8383820538
 20
20.611692941
 10
-8.8706695063
 20
20.6043277009
 10
-8.9034075976
 20
20.5981267619
 10
-8.936695843
 20
20.5929836645
 10
-8.9704347273
 20
20.5890048683
 10
-9.0049466373
 20
20.5864649343
 10
-9.0403390356
 20
20.5854553826
 10
-9.0765044598
 20
20.5858846931
 10
-9.1134429098
 20
20.5877528657
  0
LINE
  5
289
100
AcDbEntity
  8
ASSI
100
AcDbLine
 62
250
  6
CONTINUOUS
 10
-6.2516441547
 20
22.5653393886
 11
-6.2603413609
 21
22.5612031094
  0
LINE
  5
28A
100
AcDbEntity
  8
RACCORDO
100
AcDbLine
 62
7
  6
CONTINUOUS
 10
-11.4503840186
 20
21.701154981
 11
-11.4492067933
 21
21.7017127027
  0
LINE
  5
28B
100
AcDbEntity
  8
RACCORDO
100
AcDbLine
 62
7
  6
CONTINUOUS
 10
-7.0451458467
 20
23.7843394463
 11
-11.1978255465
 21
21.8200763402
  0
LINE
  5
28C
100
AcDbEntity
  8
ASSI
100
AcDbLine
 62
7
  6
CONTINUOUS
 10
-11.4492037221
 20
21.7017141531
 11
-12.45594346
 21
21.226284892
  0
LINE
  5
28D
100
AcDbEntity
  8
RACCORDO
100
AcDbLine
 62
250
  6
CONTINUOUS
 10
-10.8338434679
 20
21.6567850494
 11
-11.8327689471
 21
21.1850460579
  0
LINE
  5
28E
100
AcDbEntity
  8
RACCORDO
100
AcDbLine
 62
250
  6
CONTINUOUS
 10
-6.3772910096
 20
23.7396765222
 11
-10.5363789877
 21
21.7723370725
  0
LINE
  5
28F
100
AcDbEntity
  8
ASSI
100
AcDbLine
 62
7
  6
CONTINUOUS
 10
-12.4551358689
 20
21.2266654672
 11
-14.3370984866
 21
20.3415209576
  0
LINE
  5
290
100
AcDbEntity
  8
ASSI
100
AcDbLine
 62
250
  6
CONTINUOUS
 10
-11.8327097428
 20
21.1850164557
 11
-14.3529655534
 21
19.9995921802
  0
LINE
  5
291
100
AcDbEntity
  8
ASSI
100
AcDbLine
 62
250
  6
CONTINUOUS
 10
-11.7170009123
 20
21.1346774062
 11
-11.7042635778
 21
21.1406522535
  0
LWPOLYLINE
  5
292
100
AcDbEntity
  8
ASSI
100
AcDbPolyline
 62
7
  6
CONTINUOUS
 90
16
 70
0
 10
-7.1144271116
 20
22.1977504793
 10
-7.1203239996
 20
22.1950124321
 10
-7.1335227001
 20
22.189552773
 10
-7.1492109004
 20
22.1840198885
 10
-7.167483202
 20
22.178611059
 10
-7.1881370719
 20
22.1735925679
 10
-7.2106127494
 20
22.1692560773
 10
-7.2346392418
 20
22.1657630198
 10
-7.2599596408
 20
22.1632385987
 10
-7.2859134972
 20
22.161803143
 10
-7.3121526389
 20
22.1614972997
 10
-7.3383451664
 20
22.1623275893
 10
-7.3638300362
 20
22.1642437362
 10
-7.3882826167
 20
22.1671667194
 10
-7.4113981076
 20
22.1709824874
 10
-7.414974219
 20
22.1716704209
  0
LINE
  5
293
100
AcDbEntity
  8
ASSI
100
AcDbLine
 62
7
  6
CONTINUOUS
 10
-5.2005300988
 20
23.2590653305
 11
-7.5268798457
 21
22.1846799247
  0
LINE
  5
294
100
AcDbEntity
  8
ASSI
100
AcDbLine
 62
7
  6
CONTINUOUS
 10
-8.0388100408
 20
21.9482535959
 11
-9.5588501174
 21
21.2462487161
  0
LINE
  5
295
100
AcDbEntity
  8
RACCORDO
100
AcDbLine
 62
250
  6
CONTINUOUS
 10
-5.0926252425
 20
23.2501169039
 11
-7.4244713228
 21
22.1731931093
  0
LINE
  5
296
100
AcDbEntity
  8
RACCORDO
100
AcDbLine
 62
250
  6
CONTINUOUS
 10
-8.0590048976
 20
21.8801444767
 11
-9.4509442224
 21
21.2373007692
  0
LINE
  5
297
100
AcDbEntity
  8
RACCORDO
100
AcDbLine
 62
250
  6
CONTINUOUS
 10
-11.4492067933
 20
21.7017127027
 11
-11.4399948135
 21
21.7059549688
  0
LWPOLYLINE
  5
298
100
AcDbEntity
  8
ASSI
100
AcDbPolyline
 62
250
  6
CONTINUOUS
 90
13
 70
0
 10
-12.455127357
 20
21.2266694785
 10
-12.4461366318
 20
21.2307992155
 10
-12.3971214752
 20
21.2500335766
 10
-12.3461800423
 20
21.2646431524
 10
-12.2934894858
 20
21.2745783249
 10
-12.2392386161
 20
21.2798036657
 10
-12.1836272249
 20
21.2802980284
 10
-12.1268510778
 20
21.2760608156
 10
-12.0691119011
 20
21.2671086033
 10
-12.0106248794
 20
21.2534720706
 10
-11.9516008523
 20
21.2352012943
 10
-11.8922454121
 20
21.2123647116
 10
-11.8327689471
 20
21.1850460579
  0
LINE
  5
299
100
AcDbEntity
  8
RACCORDO
100
AcDbLine
 62
250
  6
CONTINUOUS
 10
-9.4509442224
 20
21.2373007692
 11
-9.4589975284
 21
21.233702369
  0
LINE
  5
29A
100
AcDbEntity
  8
0
100
AcDbLine
 62
7
  6
CONTINUOUS
 10
14.1396806861
 20
31.6698297589
 11
14.1044191572
 21
31.654200315
  0
LWPOLYLINE
  5
29B
100
AcDbEntity
  8
ASSI
100
AcDbPolyline
 62
250
  6
CONTINUOUS
 90
5
 70
0
 10
-7.0274648679
 20
22.1908512348
 10
-7.0561588442
 20
22.1782600421
 10
-7.0867115172
 20
22.1672182474
 10
-7.1191228869
 20
22.1577258508
 10
-7.1537641097
 20
22.1497016776
  0
LWPOLYLINE
  5
29C
100
AcDbEntity
  8
RACCORDO
100
AcDbPolyline
 62
250
  6
CONTINUOUS
 90
9
 70
0
 10
12.4771644254
 20
32.627966991
 10
12.526118901
 20
32.6493195174
 10
12.5746840539
 20
32.6652948228
 10
12.6224943893
 20
32.6757676648
 10
12.6691944033
 20
32.6806542223
 10
12.7144262743
 20
32.6799109595
 10
12.7578342975
 20
32.6735410293
 10
12.7990870855
 20
32.6615940674
 10
12.8299988278
 20
32.6482465643
  0
LINE
  5
29D
100
AcDbEntity
  8
RACCORDO
100
AcDbLine
 62
7
  6
CONTINUOUS
 10
13.8637794696
 20
31.980967448
 11
13.8141722037
 21
31.9594631018
  0
LWPOLYLINE
  5
29E
100
AcDbEntity
  8
RACCORDO
100
AcDbPolyline
 62
7
  6
CONTINUOUS
 90
22
 70
0
 10
-9.5588422876
 20
21.2462519087
 10
-9.5646273354
 20
21.2437441976
 10
-9.5745839744
 20
21.2400097376
 10
-9.5872971937
 20
21.2359914867
 10
-9.6023401044
 20
21.2320333001
 10
-9.6194235093
 20
21.228355346
 10
-9.6383997613
 20
21.2251081615
 10
-9.6589528063
 20
21.2224456023
 10
-9.6808316247
 20
21.2204795564
 10
-9.703814558
 20
21.2192983858
 10
-9.7276642461
 20
21.2189750593
 10
-9.7521256305
 20
21.2195659397
 10
-9.776945714
 20
21.221110288
 10
-9.801879026
 20
21.223632088
 10
-9.8266861528
 20
21.2271415817
 10
-9.8510515457
 20
21.2316195167
 10
-9.8745910253
 20
21.2370004747
 10
-9.8970050457
 20
21.2431973452
 10
-9.9180817971
 20
21.2501143669
 10
-9.9375830297
 20
21.2576131591
 10
-9.9552736366
 20
21.2655082715
 10
-9.9600515846
 20
21.2678493131
  0
LWPOLYLINE
  5
29F
100
AcDbEntity
  8
ASSI
100
AcDbPolyline
 62
250
  6
CONTINUOUS
 90
14
 70
0
 10
-11.7042635778
 20
21.1406522535
 10
-11.6919073621
 20
21.1459374454
 10
-11.6799451734
 20
21.1505712168
 10
-11.6683939685
 20
21.15459144
 10
-11.6572556049
 20
21.1580379389
 10
-11.646517235
 20
21.1609503296
 10
-11.6361810522
 20
21.1633657
 10
-11.6262525512
 20
21.1653197969
 10
-11.6167216916
 20
21.1668471421
 10
-11.607586802
 20
21.1679822994
 10
-11.598848895
 20
21.1687587945
 10
-11.5905003022
 20
21.1692075898
 10
-11.5825361693
 20
21.1693599605
 10
-11.57495453
 20
21.1692476013
  0
LWPOLYLINE
  5
2A0
100
AcDbEntity
  8
RACCORDO
100
AcDbPolyline
 62
250
  6
CONTINUOUS
 90
8
 70
0
 10
-9.558842448
 20
21.2462522577
 10
-9.5535953292
 20
21.2484827805
 10
-9.5381759934
 20
21.253020408
 10
-9.5218350476
 20
21.2549981783
 10
-9.5047514682
 20
21.2543944253
 10
-9.4871123574
 20
21.2512157606
 10
-9.4691108922
 20
21.2454969979
 10
-9.4509442223
 20
21.2373007693
  0
LWPOLYLINE
  5
2A1
100
AcDbEntity
  8
ASSI
100
AcDbPolyline
 62
250
  6
CONTINUOUS
 90
7
 70
0
 10
-12.5886402295
 20
19.9575233938
 10
-12.5821955286
 20
19.9602592663
 10
-12.5676200435
 20
19.9640119746
 10
-12.5520381419
 20
19.9649163667
 10
-12.5356876739
 20
19.9629586447
 10
-12.5188182238
 20
19.9581686994
 10
-12.501687295
 20
19.9506196542
  0
LWPOLYLINE
  5
2A2
100
AcDbEntity
  8
ASSI
100
AcDbPolyline
 62
250
  6
CONTINUOUS
 90
7
 70
0
 10
-7.1144178015
 20
22.1977549748
 10
-7.1079733811
 20
22.2004907439
 10
-7.0933978837
 20
22.2042435141
 10
-7.077815947
 20
22.2051479553
 10
-7.0614654226
 20
22.2031902613
 10
-7.0445958941
 20
22.1984003157
 10
-7.0274648678
 20
22.1908512348
  0
LWPOLYLINE
  5
2A3
100
AcDbEntity
  8
ASSI
100
AcDbPolyline
 62
250
  6
CONTINUOUS
 90
6
 70
0
 10
-8.0322962439
 20
21.7546216349
 10
-8.0258518313
 20
21.757357401
 10
-8.0112763323
 20
21.7611101732
 10
-7.9956943938
 20
21.7620146153
 10
-7.9793438678
 20
21.7600569217
 10
-7.9624743381
 20
21.7552669759
  0
LWPOLYLINE
  5
2A4
100
AcDbEntity
  8
ASSI
100
AcDbPolyline
 62
250
  6
CONTINUOUS
 90
7
 70
0
 10
-9.2632846
 20
21.1603250958
 10
-9.2568401794
 20
21.1630608649
 10
-9.2422646817
 20
21.1668136354
 10
-9.2266827449
 20
21.1677180766
 10
-9.2103322207
 20
21.1657603826
 10
-9.1934626927
 20
21.1609704367
 10
-9.1763316672
 20
21.1534213553
  0
LWPOLYLINE
  5
2A5
100
AcDbEntity
  8
ASSI
100
AcDbPolyline
 62
250
  6
CONTINUOUS
 90
7
 70
0
 10
-11.9449730664
 20
21.0734993398
 10
-11.9386282713
 20
21.0761712508
 10
-11.924007369
 20
21.079900621
 10
-11.9084092854
 20
21.0807694846
 10
-11.8920888793
 20
21.0787834271
 10
-11.8752873882
 20
21.0739906218
 10
-11.8582613523
 20
21.0664796933
  0
LWPOLYLINE
  5
2A6
100
AcDbEntity
  8
RACCORDO
100
AcDbPolyline
 62
250
  6
CONTINUOUS
 90
15
 70
0
 10
-9.4589975284
 20
21.233702369
 10
-9.4673527884
 20
21.2302197691
 10
-9.4760100023
 20
21.2268529696
 10
-9.4849658315
 20
21.2235998041
 10
-9.4942236146
 20
21.220462439
 10
-9.5037933672
 20
21.2174473733
 10
-9.5136850925
 20
21.214550867
 10
-9.5238887873
 20
21.21177666
 10
-9.5343844567
 20
21.2091424712
 10
-9.5451826861
 20
21.2066470621
 10
-9.5562728901
 20
21.2042916712
 10
-9.5676033176
 20
21.2020977319
 10
-9.579174524
 20
21.2000671095
 10
-9.5909859539
 20
21.1981979387
 10
-9.6029841895
 20
21.1965060574
  0
LWPOLYLINE
  5
2A7
100
AcDbEntity
  8
RACCORDO
100
AcDbPolyline
 62
250
  6
CONTINUOUS
 90
8
 70
0
 10
-5.0926252425
 20
23.2501169039
 10
-5.0747626685
 20
23.2575557152
 10
-5.0570228442
 20
23.262702643
 10
-5.0395945243
 20
23.2654672141
 10
-5.0226572007
 20
23.2657819057
 10
-5.006412626
 20
23.2636023332
 10
-4.991076955
 20
23.2589248538
 10
-4.9839070223
 20
23.2557077363
  0
LWPOLYLINE
  5
2A8
100
AcDbEntity
  8
ASSI
100
AcDbPolyline
 62
250
  6
CONTINUOUS
 90
8
 70
0
 10
-14.5141155536
 20
20.9953885893
 10
-14.4995121711
 20
21.0014500703
 10
-14.4850917001
 20
21.0055779115
 10
-14.4710086441
 20
21.0077278879
 10
-14.457413902
 20
21.0078769662
 10
-14.4444531186
 20
21.0060235533
 10
-14.4322651299
 20
21.0021874969
 10
-14.4271409774
 20
20.9998612552
  0
LINE
  5
2A9
100
AcDbEntity
  8
RACCORDO
100
AcDbLine
 62
250
  6
CONTINUOUS
 10
-6.986212049
 20
23.808340334
 11
-7.0451458467
 21
23.7843394463
  0
LWPOLYLINE
  5
2AA
100
AcDbEntity
  8
RACCORDO
100
AcDbPolyline
 62
250
  6
CONTINUOUS
 90
12
 70
0
 10
-11.4399948135
 20
21.7059549688
 10
-11.391804059
 20
21.724812493
 10
-11.3412500396
 20
21.7391144963
 10
-11.2882726912
 20
21.7487385185
 10
-11.233229506
 20
21.7534839191
 10
-11.1769548516
 20
21.7532646235
 10
-11.1196801123
 20
21.7481551816
 10
-11.0616342878
 20
21.7382445182
 10
-11.0037294272
 20
21.723832654
 10
-10.9464340601
 20
21.7052834413
 10
-10.889739321
 20
21.6828374702
 10
-10.8338434679
 20
21.6567850494
  0
LINE
  5
2AB
100
AcDbEntity
  8
RACCORDO
100
AcDbLine
 62
7
  6
CONTINUOUS
 10
-5.4235021163
 20
23.2627820756
 11
-9.6925033759
 21
21.6012346857
  0
LWPOLYLINE
  5
2AC
100
AcDbEntity
  8
RACCORDO
100
AcDbPolyline
 62
250
  6
CONTINUOUS
 90
6
 70
0
 10
-6.3772910096
 20
23.7396765222
 10
-6.3506452428
 20
23.7492090297
 10
-6.3246031368
 20
23.7543515642
 10
-6.2995811126
 20
23.7550219202
 10
-6.2759792671
 20
23.7512094027
 10
-6.2542290555
 20
23.7430020451
  0
LINE
  5
2AD
100
AcDbEntity
  8
RACCORDO
100
AcDbLine
 62
250
  6
CONTINUOUS
 10
-2.8541167188
 20
22.6764597113
 11
-2.903012572
 21
22.6593246319
  0
LINE
  5
2AE
100
AcDbEntity
  8
RACCORDO
100
AcDbLine
 62
250
  6
CONTINUOUS
 10
-2.903012572
 20
22.6593246319
 11
-2.9553836224
 21
22.6412583765
  0
LINE
  5
2AF
100
AcDbEntity
  8
RACCORDO
100
AcDbLine
 62
250
  6
CONTINUOUS
 10
-2.9553836224
 20
22.6412583765
 11
-3.0113524456
 21
22.6222610431
  0
LWPOLYLINE
  5
2B0
100
AcDbEntity
  8
ASSI
100
AcDbPolyline
 62
250
  6
CONTINUOUS
 90
4
 70
0
 10
-9.340547912
 20
21.0885826221
 10
-9.2873813011
 20
21.1064237999
 10
-9.2325995322
 20
21.1279867514
 10
-9.1763316672
 20
21.1534213553
  0
LINE
  5
2B1
100
AcDbEntity
  8
RACCORDO
100
AcDbLine
 62
250
  6
CONTINUOUS
 10
-3.0113524456
 20
22.6222610431
 11
-3.0708075082
 21
22.6024066665
  0
LINE
  5
2B2
100
AcDbEntity
  8
RACCORDO
100
AcDbLine
 62
250
  6
CONTINUOUS
 10
-3.0708075082
 20
22.6024066665
 11
-3.1337135776
 21
22.5817500308
  0
LWPOLYLINE
  5
2B3
100
AcDbEntity
  8
RACCORDO
100
AcDbPolyline
 62
250
  6
CONTINUOUS
 90
3
 70
0
 10
-3.1337135776
 20
22.5817500308
 10
-3.1999682963
 20
22.5603589699
 10
-3.2343761829
 20
22.5494023977
  0
LWPOLYLINE
  5
2B4
100
AcDbEntity
  8
CURVE
100
AcDbPolyline
 62
250
  6
CONTINUOUS
 90
9
 70
0
 10
-18.1339701635
 20
-17.6457417586
 10
-18.1271029422
 20
-17.6483507033
 10
-18.1204972911
 20
-17.6492109422
 10
-18.1144048177
 20
-17.648289709
 10
-18.1089701635
 20
-17.6455591102
 10
-18.1045904258
 20
-17.641218664
 10
-18.1013297533
 20
-17.6354011691
 10
-18.0993123438
 20
-17.6283282122
 10
-18.0986148245
 20
-17.620118156
  0
LWPOLYLINE
  5
2B5
100
AcDbEntity
  8
CURVE
100
AcDbPolyline
 62
250
  6
CONTINUOUS
 90
9
 70
0
 10
-18.6306808575
 20
-16.8221602141
 10
-18.6238136361
 20
-16.8247691588
 10
-18.6172079851
 20
-16.8256293976
 10
-18.6111155116
 20
-16.8247081645
 10
-18.6056808575
 20
-16.8219775656
 10
-18.6013011198
 20
-16.8176371194
 10
-18.5980404472
 20
-16.8118196246
 10
-18.5960230377
 20
-16.8047466676
 10
-18.5953255184
 20
-16.7965366115
  0
LWPOLYLINE
  5
2B6
100
AcDbEntity
  8
ASSI
100
AcDbPolyline
 62
7
  6
CONTINUOUS
 90
7
 70
0
 10
-5.0410225304
 20
-22.8961657435
 10
-5.0546552404
 20
-22.8903564875
 10
-5.0724407067
 20
-22.8854227088
 10
-5.090848815
 20
-22.8832195812
 10
-5.1096537651
 20
-22.8838804809
 10
-5.1286113051
 20
-22.8875191608
 10
-5.1474606483
 20
-22.8942256686
  0
LINE
  5
2B7
100
AcDbEntity
  8
CURVE
100
AcDbLine
 62
250
  6
CONTINUOUS
 10
-20.7862767881
 20
-16.3195884463
 11
-18.1339701635
 21
-17.6457417586
  0
LINE
  5
2B8
100
AcDbEntity
  8
CURVE
100
AcDbLine
 62
250
  6
CONTINUOUS
 10
-18.2754721299
 20
-17.3583856975
 11
-20.6447748216
 21
-16.1737343517
  0
LINE
  5
2B9
100
AcDbEntity
  8
CURVE
100
AcDbLine
 62
250
  6
CONTINUOUS
 10
-19.3375571219
 20
-16.4687220819
 11
-18.6306808575
 21
-16.8221602141
  0
LINE
  5
2BA
100
AcDbEntity
  8
CURVE
100
AcDbLine
 62
250
  6
CONTINUOUS
 10
-18.6306808575
 20
-16.6055551362
 11
-19.3375571219
 21
-16.252117004
  0
LINE
  5
2BB
100
AcDbEntity
  8
CURVE
100
AcDbLine
 62
250
  6
CONTINUOUS
 10
-19.3375571219
 20
-16.0358107049
 11
-18.6306808575
 21
-16.3892488371
  0
LINE
  5
2BC
100
AcDbEntity
  8
ASSI
100
AcDbLine
 62
250
  6
CONTINUOUS
 10
-4.789266967
 20
-23.0939660803
 11
-5.1690232815
 21
-22.904087923
  0
LINE
  5
2BD
100
AcDbEntity
  8
CURVE
100
AcDbLine
 62
250
  6
CONTINUOUS
 10
-18.6306808575
 20
-16.1726437593
 11
-19.3375571219
 21
-15.8192056271
  0
LINE
  5
2BE
100
AcDbEntity
  8
ASSI
100
AcDbLine
 62
7
  6
CONTINUOUS
 10
-4.6610823231
 20
-23.0861184713
 11
-5.0410015829
 21
-22.8961588414
  0
LWPOLYLINE
  5
2BF
100
AcDbEntity
  8
CURVE
100
AcDbPolyline
 62
250
  6
CONTINUOUS
 90
12
 70
0
 10
-19.8979738942
 20
-14.3313343416
 10
-19.9238766105
 20
-14.290068251
 10
-19.9543928762
 20
-14.2530140616
 10
-19.987864319
 20
-14.2224426776
 10
-20.0229236472
 20
-14.1996029247
 10
-20.0581387048
 20
-14.1854277955
 10
-20.0920709743
 20
-14.1804963368
 10
-20.1228252789
 20
-14.1848526399
 10
-20.1502206673
 20
-14.1984710733
 10
-20.1725717653
 20
-14.220800366
 10
-20.1889655418
 20
-14.2509283773
 10
-20.2007208509
 20
-14.2952407786
  0
LWPOLYLINE
  5
2C0
100
AcDbEntity
  8
CURVE
100
AcDbPolyline
 62
250
  6
CONTINUOUS
 90
12
 70
0
 10
-19.7568148746
 20
-14.2705637785
 10
-19.8094690019
 20
-14.1814798745
 10
-19.8727275363
 20
-14.1012114542
 10
-19.9417591869
 20
-14.0358889168
 10
-20.01573813
 20
-13.9862937141
 10
-20.0902213929
 20
-13.9558781938
 10
-20.1607111468
 20
-13.9460084735
 10
-20.2263641247
 20
-13.9568026245
 10
-20.283007823
 20
-13.9881085176
 10
-20.3274497038
 20
-14.0375429017
 10
-20.3591581101
 20
-14.1045143946
 10
-20.3758575685
 20
-14.1853101578
  0
LWPOLYLINE
  5
2C1
100
AcDbEntity
  8
CURVE
100
AcDbPolyline
 62
250
  6
CONTINUOUS
 90
13
 70
0
 10
-19.8664708729
 20
-14.3972720245
 10
-19.8199389525
 20
-14.4813262549
 10
-19.763598339
 20
-14.5588017346
 10
-19.7004120682
 20
-14.6250883847
 10
-19.6328733219
 20
-14.6775706895
 10
-19.5636470203
 20
-14.7141778206
 10
-19.4966363818
 20
-14.7332815881
 10
-19.4321002901
 20
-14.734808188
 10
-19.3737986754
 20
-14.7182011569
 10
-19.3240319824
 20
-14.6841157694
 10
-19.284763888
 20
-14.6338969547
 10
-19.2579106858
 20
-14.5707637654
 10
-19.2434821631
 20
-14.4939435922
  0
LINE
  5
2C2
100
AcDbEntity
  8
CURVE
100
AcDbLine
 62
250
  6
CONTINUOUS
 10
-19.8979738942
 20
-14.3313343416
 11
-19.8664708729
 21
-14.3972720245
  0
LWPOLYLINE
  5
2C3
100
AcDbEntity
  8
CURVE
100
AcDbPolyline
 62
250
  6
CONTINUOUS
 90
13
 70
0
 10
-19.7430885177
 20
-14.3011543209
 10
-19.7222550171
 20
-14.3464234136
 10
-19.6961249977
 20
-14.3884982669
 10
-19.6657658576
 20
-14.4256601438
 10
-19.6324177527
 20
-14.4563910004
 10
-19.596834036
 20
-14.4797593679
 10
-19.5616704601
 20
-14.4940211731
 10
-19.5277701643
 20
-14.4990594441
 10
-19.4965179588
 20
-14.4946683699
 10
-19.4687605912
 20
-14.4807137712
 10
-19.4465697029
 20
-14.4582371345
 10
-19.4303439033
 20
-14.4279987236
 10
-19.4187020092
 20
-14.3831227857
  0
LWPOLYLINE
  5
2C4
100
AcDbEntity
  8
CURVE
100
AcDbPolyline
 62
250
  6
CONTINUOUS
 90
7
 70
0
 10
-19.7430885177
 20
-14.3011543209
 10
-19.7450394318
 20
-14.296288042
 10
-19.7470673807
 20
-14.2914427847
 10
-19.7494778097
 20
-14.2859347987
 10
-19.7516666982
 20
-14.2811443101
 10
-19.7542576904
 20
-14.2757064435
 10
-19.7568144094
 20
-14.270563538
  0
LWPOLYLINE
  5
2C5
100
AcDbEntity
  8
CURVE
100
AcDbPolyline
 62
250
  6
CONTINUOUS
 90
9
 70
0
 10
-20.8216321271
 20
-16.2586095066
 10
-20.8209587902
 20
-16.2673567692
 10
-20.8189644265
 20
-16.2764441882
 10
-20.8157250009
 20
-16.2855256267
 10
-20.8112767881
 20
-16.2944057979
 10
-20.8059448082
 20
-16.3024358491
 10
-20.7998636795
 20
-16.3094699055
 10
-20.7932650303
 20
-16.315240042
 10
-20.7862767865
 20
-16.3195884471
  0
LWPOLYLINE
  5
2C6
100
AcDbEntity
  8
CURVE
100
AcDbPolyline
 62
250
  6
CONTINUOUS
 90
9
 70
0
 10
-19.3729124609
 20
-16.4077431421
 10
-19.372239124
 20
-16.4164904047
 10
-19.3702447604
 20
-16.4255778238
 10
-19.3670053347
 20
-16.4346592622
 10
-19.3625571219
 20
-16.4435394335
 10
-19.357225142
 20
-16.4515694847
 10
-19.3511440133
 20
-16.458603541
 10
-19.3445453642
 20
-16.4643736775
 10
-19.3375571203
 20
-16.4687220826
  0
LWPOLYLINE
  5
2C7
100
AcDbEntity
  8
CURVE
100
AcDbPolyline
 62
250
  6
CONTINUOUS
 90
9
 70
0
 10
-19.3729124609
 20
-15.9748317652
 10
-19.372239124
 20
-15.9835790278
 10
-19.3702447604
 20
-15.9926664468
 10
-19.3670053347
 20
-16.0017478853
 10
-19.3625571219
 20
-16.0106280565
 10
-19.357225142
 20
-16.0186581077
 10
-19.3511440133
 20
-16.0256921641
 10
-19.3445453642
 20
-16.0314623006
 10
-19.3375571203
 20
-16.0358107057
  0
LWPOLYLINE
  5
2C8
100
AcDbEntity
  8
CURVE
100
AcDbPolyline
 62
250
  6
CONTINUOUS
 90
9
 70
0
 10
-18.5953255184
 20
-16.6665340759
 10
-18.5959988554
 20
-16.6577868133
 10
-18.597993219
 20
-16.6486993943
 10
-18.6012326446
 20
-16.6396179558
 10
-18.6056808575
 20
-16.6307377846
 10
-18.6110128374
 20
-16.6227077334
 10
-18.6170939661
 20
-16.6156736771
 10
-18.6236926152
 20
-16.6099035406
 10
-18.630680859
 20
-16.6055551354
  0
LWPOLYLINE
  5
2C9
100
AcDbEntity
  8
CURVE
100
AcDbPolyline
 62
250
  6
CONTINUOUS
 90
9
 70
0
 10
-18.5953255184
 20
-16.233622699
 10
-18.5959988554
 20
-16.2248754364
 10
-18.597993219
 20
-16.2157880174
 10
-18.6012326446
 20
-16.2067065789
 10
-18.6056808575
 20
-16.1978264077
 10
-18.6110128374
 20
-16.1897963565
 10
-18.6170939661
 20
-16.1827623001
 10
-18.6236926152
 20
-16.1769921636
 10
-18.630680859
 20
-16.1726437585
  0
LWPOLYLINE
  5
2CA
100
AcDbEntity
  8
CURVE
100
AcDbPolyline
 62
250
  6
CONTINUOUS
 90
9
 70
0
 10
-18.0986148245
 20
-14.3717200882
 10
-18.0992881614
 20
-14.3629728256
 10
-18.101282525
 20
-14.3538854066
 10
-18.1045219506
 20
-14.3448039681
 10
-18.1089701635
 20
-14.3359237969
 10
-18.1143021434
 20
-14.3278937457
 10
-18.1203832721
 20
-14.3208596893
 10
-18.1269819212
 20
-14.3150895528
 10
-18.1339701651
 20
-14.3107411477
  0
LWPOLYLINE
  5
2CB
100
AcDbEntity
  8
ASSI
100
AcDbPolyline
 62
250
  6
CONTINUOUS
 90
9
 70
0
 10
-23.2930260783
 20
22.0858717765
 10
-23.2919095421
 20
22.0691738008
 10
-23.2858181181
 20
22.0435751883
 10
-23.2744679548
 20
22.0183926694
 10
-23.2579853305
 20
21.9939303633
 10
-23.236638119
 20
21.9705370924
 10
-23.2107445643
 20
21.9484752095
 10
-23.1806042461
 20
21.9279294105
 10
-23.1465794689
 20
21.9090950812
  0
LINE
  5
2CC
100
AcDbEntity
  8
CURVE
100
AcDbLine
 62
250
  6
CONTINUOUS
 10
-20.8216321271
 20
-13.0102114369
 11
-20.8216321271
 21
-16.2586095066
  0
LINE
  5
2CD
100
AcDbEntity
  8
CURVE
100
AcDbLine
 62
250
  6
CONTINUOUS
 10
-20.6447748216
 20
-16.1737343517
 11
-20.6447748216
 21
-15.7342593682
  0
LINE
  5
2CE
100
AcDbEntity
  8
CURVE
100
AcDbLine
 62
250
  6
CONTINUOUS
 10
-20.6447748216
 20
-15.4803597724
 11
-20.6447748216
 21
-13.2719430312
  0
LINE
  5
2CF
100
AcDbEntity
  8
CURVE
100
AcDbLine
 62
250
  6
CONTINUOUS
 10
-19.3729124609
 20
-15.8448292278
 11
-19.3729124609
 21
-15.9748317652
  0
LINE
  5
2D0
100
AcDbEntity
  8
CURVE
100
AcDbLine
 62
250
  6
CONTINUOUS
 10
-19.3729124609
 20
-16.2777406047
 11
-19.3729124609
 21
-16.4077431421
  0
LINE
  5
2D1
100
AcDbEntity
  8
CURVE
100
AcDbLine
 62
250
  6
CONTINUOUS
 10
-18.5953255184
 20
-16.7965366134
 11
-18.5953255184
 21
-16.6665340759
  0
LINE
  5
2D2
100
AcDbEntity
  8
CURVE
100
AcDbLine
 62
250
  6
CONTINUOUS
 10
-18.5953255184
 20
-16.3636252365
 11
-18.5953255184
 21
-16.233622699
  0
LWPOLYLINE
  5
2D3
100
AcDbEntity
  8
CURVE
100
AcDbPolyline
 62
250
  6
CONTINUOUS
 90
9
 70
0
 10
-19.2434822215
 20
-14.4939435526
 10
-19.2434563021
 20
-14.485054384
 10
-19.2449173218
 20
-14.4756033795
 10
-19.2478035302
 20
-14.4659899878
 10
-19.2520742259
 20
-14.4564661427
 10
-19.2574070456
 20
-14.447750729
 10
-19.263637173
 20
-14.4400501267
 10
-19.2706214422
 20
-14.433595201
 10
-19.277914063
 20
-14.428830331
  0
LWPOLYLINE
  5
2D4
100
AcDbEntity
  8
CURVE
100
AcDbPolyline
 62
250
  6
CONTINUOUS
 90
9
 70
0
 10
-20.3758578701
 20
-14.1853099513
 10
-20.3759640148
 20
-14.1943083921
 10
-20.3745312625
 20
-14.2039055126
 10
-20.3716222313
 20
-14.2136818727
 10
-20.3673640599
 20
-14.2232101985
 10
-20.3619428508
 20
-14.2320740564
 10
-20.3554834351
 20
-14.2400053196
 10
-20.3484791427
 20
-14.2463982479
 10
-20.3410745821
 20
-14.2511453407
  0
LWPOLYLINE
  5
2D5
100
AcDbEntity
  8
ASSI
100
AcDbPolyline
 62
250
  6
CONTINUOUS
 90
9
 70
0
 10
-12.4217137065
 20
20.1484689012
 10
-12.4219287954
 20
20.1479409978
 10
-12.4219653278
 20
20.1429406981
 10
-12.4190012461
 20
20.1366507039
 10
-12.4130854478
 20
20.1291747793
 10
-12.404315524
 20
20.1206362526
 10
-12.3928361497
 20
20.1111759812
 10
-12.3788366968
 20
20.1009500286
 10
-12.3625481101
 20
20.0901270892
  0
LWPOLYLINE
  5
2D6
100
AcDbEntity
  8
ASSI
100
AcDbPolyline
 62
250
  6
CONTINUOUS
 90
4
 70
0
 10
-11.9807358394
 20
20.9186399093
 10
-11.9716987037
 20
20.9399868362
 10
-11.9611275225
 20
20.9607020614
 10
-11.9491652525
 20
20.9805054472
  0
LINE
  5
2D7
100
AcDbEntity
  8
ASSI
100
AcDbLine
 62
7
  6
CONTINUOUS
 10
-12.4217137065
 20
20.1484689012
 11
-12.0399014358
 21
20.9769817212
  0
LINE
  5
2D8
100
AcDbEntity
  8
ASSI
100
AcDbLine
 62
250
  6
CONTINUOUS
 10
-12.3625481101
 20
20.0901270892
 11
-11.9807358394
 21
20.9186399093
  0
LWPOLYLINE
  5
2D9
100
AcDbEntity
  8
ASSI
100
AcDbPolyline
 62
7
  6
CONTINUOUS
 90
13
 70
0
 10
-12.4217136227
 20
20.1484690828
 10
-12.4338752461
 20
20.1239642932
 10
-12.447699786
 20
20.0996868689
 10
-12.4628891824
 20
20.0762054064
 10
-12.4791258789
 20
20.0539644587
 10
-12.4961221406
 20
20.0332842351
 10
-12.5132633636
 20
20.014748435
 10
-12.530097817
 20
19.9985935093
 10
-12.5463276886
 20
19.9848371814
 10
-12.5614950217
 20
19.9735749366
 10
-12.5753300915
 20
19.9646942224
 10
-12.5873930993
 20
19.9581325657
 10
-12.5886832513
 20
19.9575026062
  0
LWPOLYLINE
  5
2DA
100
AcDbEntity
  8
ASSI
100
AcDbPolyline
 62
250
  6
CONTINUOUS
 90
6
 70
0
 10
-11.9491652525
 20
20.9805054472
 10
-11.9359736628
 20
20.9991291866
 10
-11.9217311468
 20
21.0163214253
 10
-11.9066303102
 20
21.0318496675
 10
-11.8908753657
 20
21.0455039199
 10
-11.8746793721
 20
21.0570995322
  0
LINE
  5
2DB
100
AcDbEntity
  8
RACCORDO
100
AcDbLine
 62
250
  6
CONTINUOUS
 10
-6.0826242173
 20
20.6516337941
 11
-6.0611897416
 21
20.6652948558
  0
LINE
  5
2DC
100
AcDbEntity
  8
ASSI
100
AcDbLine
 62
250
  6
CONTINUOUS
 10
-3.1438516682
 20
20.079504274
 11
-3.1315579519
 21
20.0872543465
  0
LWPOLYLINE
  5
2DD
100
AcDbEntity
  8
RACCORDO
100
AcDbPolyline
 62
250
  6
CONTINUOUS
 90
15
 70
0
 10
-2.6461577762
 20
22.4826136769
 10
-2.6673911704
 20
22.4696880326
 10
-2.6894962232
 20
22.456427814
 10
-2.7124729344
 20
22.4428330211
 10
-2.7363109239
 20
22.4288972551
 10
-2.7610205719
 20
22.4146269147
 10
-2.7866330196
 20
22.4000411967
 10
-2.8131589633
 20
22.3851341998
 10
-2.8405877067
 20
22.3699118253
 10
-2.8689183018
 20
22.3544109736
 10
-2.8981503258
 20
22.3386317874
 10
-2.9282842016
 20
22.322574124
 10
-2.9593202501
 20
22.3062744563
 10
-2.9912585786
 20
22.2897449417
 10
-3.0240990798
 20
22.2729734226
  0
LWPOLYLINE
  5
2DE
100
AcDbEntity
  8
ASSI
100
AcDbPolyline
 62
250
  6
CONTINUOUS
 90
10
 70
0
 10
-8.1217071585
 20
19.1982025964
 10
-8.1381251718
 20
19.1888224395
 10
-8.1543211609
 20
19.1772268318
 10
-8.1700761027
 20
19.1635725835
 10
-8.1851769389
 20
19.1480443442
 10
-8.1994194561
 20
19.1308521066
 10
-8.2126110483
 20
19.1122283663
 10
-8.2245733215
 20
19.0924249775
 10
-8.2351445064
 20
19.0717097469
 10
-8.2441816456
 20
19.0503628124
  0
LWPOLYLINE
  5
2DF
100
AcDbEntity
  8
RACCORDO
100
AcDbPolyline
 62
250
  6
CONTINUOUS
 90
18
 70
0
 10
-3.8545648922
 20
21.857598332
 10
-3.8726346871
 20
21.8475338853
 10
-3.8904822053
 20
21.8355230103
 10
-3.9079721396
 20
21.8216360408
 10
-3.9250352859
 20
21.8058824928
 10
-3.9414641823
 20
21.788424438
 10
-3.9569406329
 20
21.7696421034
 10
-3.9713087444
 20
21.7497829259
 10
-3.9845442833
 20
21.7289621128
 10
-3.9965758397
 20
21.707429997
 10
-4.0072774985
 20
21.6855284478
 10
-4.0166982712
 20
21.6632731766
 10
-4.0249930466
 20
21.6403932616
 10
-4.0321038347
 20
21.6169429543
 10
-4.037917
 20
21.5931513473
 10
-4.0424173947
 20
21.568988063
 10
-4.0455198015
 20
21.5445575608
 10
-4.0471064598
 20
21.5201008771
  0
LWPOLYLINE
  5
2E0
100
AcDbEntity
  8
RACCORDO
100
AcDbPolyline
 62
250
  6
CONTINUOUS
 90
19
 70
0
 10
-4.0310993193
 20
22.1510408295
 10
-4.0647057729
 20
22.132361823
 10
-4.0975308028
 20
22.1104784992
 10
-4.1295744089
 20
22.0853908581
 10
-4.1611763863
 20
22.0567078876
 10
-4.19199694
 20
22.0248205999
 10
-4.2210166847
 20
21.9909020312
 10
-4.2480338449
 20
21.9549819857
 10
-4.2732501962
 20
21.9170306591
 10
-4.2962516801
 20
21.8781316756
 10
-4.3168864081
 20
21.8386159574
 10
-4.3353062687
 20
21.7981525821
 10
-4.3515528692
 20
21.7568324068
 10
-4.3657629415
 20
21.7145112914
 10
-4.3777997536
 20
21.671333376
 10
-4.3872947168
 20
21.6278219377
 10
-4.394124968
 20
21.5841514023
 10
-4.3984133702
 20
21.5401473441
 10
-4.4001599234
 20
21.495809763
  0
LWPOLYLINE
  5
2E1
100
AcDbEntity
  8
ASSI
100
AcDbPolyline
 62
250
  6
CONTINUOUS
 90
10
 70
0
 10
-4.6116142654
 20
20.6449760129
 10
-4.6214593798
 20
20.6395064822
 10
-4.6312924443
 20
20.6333674
 10
-4.6410822409
 20
20.6265724043
 10
-4.6508064284
 20
20.6191301021
 10
-4.660423808
 20
20.6110650293
 10
-4.6698758492
 20
20.602423223
 10
-4.6791237666
 20
20.5932411778
 10
-4.6881471931
 20
20.5835401712
 10
-4.6969174343
 20
20.5733510525
  0
LWPOLYLINE
  5
2E2
100
AcDbEntity
  8
ASSI
100
AcDbPolyline
 62
250
  6
CONTINUOUS
 90
35
 70
0
 10
-6.0831924172
 20
18.8971589548
 10
-6.09311499
 20
18.8917568188
 10
-6.1031218201
 20
18.8862315877
 10
-6.1131904663
 20
18.8805898357
 10
-6.1232788914
 20
18.8747981667
 10
-6.1333398671
 20
18.868891205
 10
-6.1434206217
 20
18.8628343262
 10
-6.1536208027
 20
18.8564902605
 10
-6.1639007499
 20
18.8499073384
 10
-6.1743001235
 20
18.8430372293
 10
-6.1850375522
 20
18.8355976718
 10
-6.1961557195
 20
18.82760082
 10
-6.2076119418
 20
18.8190345196
 10
-6.2194967968
 20
18.8095800468
 10
-6.2318717507
 20
18.7992350685
 10
-6.2446753372
 20
18.7880019177
 10
-6.2578137353
 20
18.7755688696
 10
-6.2713173651
 20
18.7619636596
 10
-6.2851558066
 20
18.7471585522
 10
-6.2991439786
 20
18.7307586168
 10
-6.3133560385
 20
18.7127547337
 10
-6.327717829
 20
18.6931560226
 10
-6.3418217973
 20
18.6715949115
 10
-6.3558431552
 20
18.6477231442
 10
-6.3696066909
 20
18.621888977
 10
-6.382179217
 20
18.594769607
 10
-6.393466727
 20
18.5660370037
 10
-6.4035632274
 20
18.5360191977
 10
-6.4118175508
 20
18.5063774771
 10
-6.4179388212
 20
18.4772758599
 10
-6.4222179146
 20
18.4485503282
 10
-6.4248762914
 20
18.421370117
 10
-6.4259877718
 20
18.3961249712
 10
-6.4254785355
 20
18.3724251458
 10
-6.4233485827
 20
18.3502706409
  0
LINE
  5
2E3
100
AcDbEntity
  8
ASSI
100
AcDbLine
 62
7
  6
CONTINUOUS
 10
-4.7272350418
 20
20.6500654441
 11
-3.9828407971
 21
21.0516832167
  0
LINE
  5
2E4
100
AcDbEntity
  8
ASSI
100
AcDbLine
 62
250
  6
CONTINUOUS
 10
-4.6116142654
 20
20.6449760129
 11
-3.8684607238
 21
21.0459243978
  0
LINE
  5
2E5
100
AcDbEntity
  8
ASSI
100
AcDbLine
 62
250
  6
CONTINUOUS
 10
-6.0635074329
 20
18.9076667836
 11
-6.0831924172
 21
18.8971589548
  0
LWPOLYLINE
  5
2E6
100
AcDbEntity
  8
ASSI
100
AcDbPolyline
 62
250
  6
CONTINUOUS
 90
10
 70
0
 10
-6.4233485811
 20
18.350270639
 10
-6.4063781834
 20
18.3592818864
 10
-6.3877050936
 20
18.3674426671
 10
-6.367580931
 20
18.3746430149
 10
-6.3462768679
 20
18.3807859049
 10
-6.3240799761
 20
18.3857885617
 10
-6.3012893585
 20
18.3895835744
 10
-6.2782121181
 20
18.3921198052
 10
-6.2551592205
 20
18.3933630782
 10
-6.2324413029
 20
18.3932966403
  0
LINE
  5
2E7
100
AcDbEntity
  8
ASSI
100
AcDbLine
 62
250
  6
CONTINUOUS
 10
-3.1467393196
 20
20.0469170558
 11
-3.130327077
 21
20.0555098858
  0
LWPOLYLINE
  5
2E8
100
AcDbEntity
  8
ASSI
100
AcDbPolyline
 62
250
  6
CONTINUOUS
 90
3
 70
0
 10
-6.0342286392
 20
18.9230061358
 10
-6.0439517078
 20
18.9179564198
 10
-6.0635074329
 20
18.9076667836
  0
LINE
  5
2E9
100
AcDbEntity
  8
ASSI
100
AcDbLine
 62
250
  6
CONTINUOUS
 10
-7.9853117325
 20
19.2688328163
 11
-8.1217071585
 21
19.1982025964
  0
LINE
  5
2EA
100
AcDbEntity
  8
ASSI
100
AcDbLine
 62
250
  6
CONTINUOUS
 10
-7.8419818415
 20
19.0415244513
 11
-7.9783772674
 21
18.9708942313
  0
LINE
  5
2EB
100
AcDbEntity
  8
ASSI
100
AcDbLine
 62
250
  6
CONTINUOUS
 10
-8.6213764291
 20
18.0104642212
 11
-8.7873832597
 21
17.9245002024
  0
LINE
  5
2EC
100
AcDbEntity
  8
ASSI
100
AcDbLine
 62
250
  6
CONTINUOUS
 10
-8.478046538
 20
17.7831558562
 11
-8.4911370928
 21
17.7763771189
  0
LINE
  5
2ED
100
AcDbEntity
  8
ASSI
100
AcDbLine
 62
250
  6
CONTINUOUS
 10
-4.1611545173
 20
19.8556235255
 11
-5.349747623
 21
19.2401293332
  0
LINE
  5
2EE
100
AcDbEntity
  8
ASSI
100
AcDbLine
 62
250
  6
CONTINUOUS
 10
-3.2748878692
 20
20.3145627302
 11
-2.5341841149
 21
20.6981244864
  0
LINE
  5
2EF
100
AcDbEntity
  8
ASSI
100
AcDbLine
 62
250
  6
CONTINUOUS
 10
-4.0178246261
 20
19.6283151605
 11
-5.2064177319
 21
19.0128209682
  0
LINE
  5
2F0
100
AcDbEntity
  8
ASSI
100
AcDbLine
 62
250
  6
CONTINUOUS
 10
-3.1315579459
 20
20.0872543819
 11
-2.3908542238
 21
20.4708161214
  0
LWPOLYLINE
  5
2F1
100
AcDbEntity
  8
ASSI
100
AcDbPolyline
 62
250
  6
CONTINUOUS
 90
10
 70
0
 10
-4.0146681745
 20
19.5975678194
 10
-3.9960957736
 20
19.6070911409
 10
-3.9755342624
 20
19.6156000061
 10
-3.9533114703
 20
19.6229587507
 10
-3.9297817142
 20
19.6290500478
 10
-3.9053201491
 20
19.6337767785
 10
-3.8803167868
 20
19.6370635803
 10
-3.8551702776
 20
19.6388580486
 10
-3.8302815538
 20
19.6391315726
 10
-3.8060474377
 20
19.6378797912
  0
LWPOLYLINE
  5
2F2
100
AcDbEntity
  8
ASSI
100
AcDbPolyline
 62
250
  6
CONTINUOUS
 90
13
 70
0
 10
-2.3908542238
 20
20.4708161214
 10
-2.3866204201
 20
20.4729551341
 10
-2.3823539632
 20
20.4749900536
 10
-2.3780548529
 20
20.4769208799
 10
-2.3737389022
 20
20.4787461539
 10
-2.3693902982
 20
20.4804673346
 10
-2.3649616028
 20
20.4820887997
 10
-2.3604493216
 20
20.4836176457
 10
-2.3558569488
 20
20.4850467761
 10
-2.3511475295
 20
20.4863592787
 10
-2.346308745
 20
20.4875495162
 10
-2.3413529138
 20
20.488623126
 10
-2.3362800359
 20
20.489580108
  0
LWPOLYLINE
  5
2F3
100
AcDbEntity
  8
ASSI
100
AcDbPolyline
 62
250
  6
CONTINUOUS
 90
6
 70
0
 10
-5.5831737581
 20
18.7853419215
 10
-5.5983603679
 20
18.777701149
 10
-5.6114108755
 20
18.7694343119
 10
-5.6221494453
 20
18.7606528129
 10
-5.6304313955
 20
18.7514749901
 10
-5.6352363669
 20
18.7435276396
  0
LINE
  5
2F4
100
AcDbEntity
  8
ASSI
100
AcDbLine
 62
250
  6
CONTINUOUS
 10
-8.2784574585
 20
20.6167290913
 11
-9.4018879091
 21
20.055013866
  0
LINE
  5
2F5
100
AcDbEntity
  8
ASSI
100
AcDbLine
 62
250
  6
CONTINUOUS
 10
-8.1372299153
 20
20.3819750925
 11
-9.0965201387
 21
19.9023299807
  0
LINE
  5
2F6
100
AcDbEntity
  8
RACCORDO
100
AcDbLine
 62
250
  6
CONTINUOUS
 10
-3.2343761829
 20
22.5494023977
 11
-4.0310993193
 21
22.1510408295
  0
LINE
  5
2F7
100
AcDbEntity
  8
RACCORDO
100
AcDbLine
 62
250
  6
CONTINUOUS
 10
-7.1549144926
 20
20.5891332429
 11
-6.4688806247
 21
20.9321501768
  0
LINE
  5
2F8
100
AcDbEntity
  8
RACCORDO
100
AcDbLine
 62
250
  6
CONTINUOUS
 10
-3.0240990798
 20
22.2729734226
 11
-3.8545648903
 21
21.857598331
  0
LINE
  5
2F9
100
AcDbEntity
  8
RACCORDO
100
AcDbLine
 62
250
  6
CONTINUOUS
 10
-6.8986903045
 20
20.3355356239
 11
-6.2923461957
 21
20.6387076783
  0
LINE
  5
2FA
100
AcDbEntity
  8
0
100
AcDbLine
 62
7
  6
CONTINUOUS
 10
12.9960629314
 20
29.8014532823
 11
7.373519299
 21
26.990181466
  0
LINE
  5
2FB
100
AcDbEntity
  8
0
100
AcDbLine
 62
7
  6
CONTINUOUS
 10
7.4601218394
 20
26.9468801958
 11
13.349616322
 21
29.8916274372
  0
LINE
  5
2FC
100
AcDbEntity
  8
ASSI
100
AcDbLine
 62
7
  6
CONTINUOUS
 10
-5.8748612146
 20
19.4635594679
 11
-3.0089987167
 21
20.8964907852
  0
LINE
  5
2FD
100
AcDbEntity
  8
ASSI
100
AcDbLine
 62
250
  6
CONTINUOUS
 10
-5.7853329048
 20
19.4579219741
 11
-2.9195559976
 21
20.8908104277
  0
LINE
  5
2FE
100
AcDbEntity
  8
0
100
AcDbLine
 62
7
  6
CONTINUOUS
 10
8.8743354017
 20
26.2397734146
 11
10.4504785192
 21
27.0278449734
  0
LINE
  5
2FF
100
AcDbEntity
  8
0
100
AcDbLine
 62
7
  6
CONTINUOUS
 10
12.0061134378
 20
27.8056624327
 11
13.9860124251
 21
28.7956119263
  0
LINE
  5
300
100
AcDbEntity
  8
DRAFT
100
AcDbLine
 62
7
  6
CONTINUOUS
 10
5.8896397805
 20
27.7321212253
 11
14.0905904399
 21
31.8163702718
  0
LINE
  5
301
100
AcDbEntity
  8
DRAFT
100
AcDbLine
 62
7
  6
CONTINUOUS
 10
13.5480168608
 20
30.2581445532
 11
7.1802057331
 21
27.086838249
  0
LWPOLYLINE
  5
302
100
AcDbEntity
  8
ASSI
100
AcDbPolyline
 62
250
  6
CONTINUOUS
 90
13
 70
0
 10
-2.5341841149
 20
20.6981244864
 10
-2.5270852437
 20
20.7016567391
 10
-2.5199306009
 20
20.7050286084
 10
-2.5127232946
 20
20.7082348162
 10
-2.5054967253
 20
20.7112581855
 10
-2.4982239755
 20
20.7141069049
 10
-2.4908183887
 20
20.7168066047
 10
-2.4832803252
 20
20.7193462675
 10
-2.4756185582
 20
20.7217111165
 10
-2.4677609602
 20
20.7239070832
 10
-2.4596885421
 20
20.7259194705
 10
-2.4514346123
 20
20.727720243
 10
-2.4430073866
 20
20.7292879232
  0
LWPOLYLINE
  5
303
100
AcDbEntity
  8
ASSI
100
AcDbPolyline
 62
250
  6
CONTINUOUS
 90
13
 70
0
 10
-5.2064177319
 20
19.0128209682
 10
-5.2411264654
 20
18.9956025285
 10
-5.2755118165
 20
18.9797985242
 10
-5.3095737854
 20
18.9654089551
 10
-5.3432861534
 20
18.9524686563
 10
-5.3766751391
 20
18.9409427927
 10
-5.4098193984
 20
18.9307268596
 10
-5.4427111654
 20
18.9218034392
 10
-5.4753582061
 20
18.9141899493
 10
-5.5078624739
 20
18.9078341381
 10
-5.5402579531
 20
18.9027185883
 10
-5.5725106595
 20
18.8988607173
 10
-5.6046205928
 20
18.8962605249
  0
LWPOLYLINE
  5
304
100
AcDbEntity
  8
ASSI
100
AcDbPolyline
 62
250
  6
CONTINUOUS
 90
9
 70
0
 10
-5.8970766646
 20
18.6990103163
 10
-5.9068048299
 20
18.6941909558
 10
-5.916662527
 20
18.6894954401
 10
-5.9266514487
 20
18.6849116241
 10
-5.9368016451
 20
18.6804171618
 10
-5.9470938304
 20
18.6760099811
 10
-5.9574497015
 20
18.6717031266
 10
-5.9678782444
 20
18.6674710138
 10
-5.9783728256
 20
18.6633026735
  0
LWPOLYLINE
  5
305
100
AcDbEntity
  8
ASSI
100
AcDbPolyline
 62
7
  6
CONTINUOUS
 90
10
 70
0
 10
-5.8748612144
 20
19.463559468
 10
-5.8836254984
 20
19.4592219357
 10
-5.9415420524
 20
19.4327728222
 10
-5.9989528873
 20
19.4104409004
 10
-6.0555643118
 20
19.3923837677
 10
-6.1110225903
 20
19.3787368378
 10
-6.1648671953
 20
19.3696038417
 10
-6.2167458471
 20
19.3649970954
 10
-6.2664382135
 20
19.3648665598
 10
-6.27534518
 20
19.3653257997
  0
LWPOLYLINE
  5
306
100
AcDbEntity
  8
ASSI
100
AcDbPolyline
 62
250
  6
CONTINUOUS
 90
10
 70
0
 10
-2.9195559976
 20
20.8908104277
 10
-2.9123439619
 20
20.8943284959
 10
-2.905103184
 20
20.8976836414
 10
-2.8978367816
 20
20.9008716645
 10
-2.890582269
 20
20.903874457
 10
-2.8833085059
 20
20.9067036245
 10
-2.8759163626
 20
20.9093913699
 10
-2.8684034079
 20
20.9119271273
 10
-2.8607811492
 20
20.9142957564
 10
-2.8529734237
 20
20.9165068584
  0
LWPOLYLINE
  5
307
100
AcDbEntity
  8
ASSI
100
AcDbPolyline
 62
250
  6
CONTINUOUS
 90
10
 70
0
 10
-5.349747623
 20
19.2401293332
 10
-5.4017399169
 20
19.2148438573
 10
-5.4532355556
 20
19.1932140793
 10
-5.5041146036
 20
19.1751760955
 10
-5.553944066
 20
19.1607400892
 10
-5.6029520534
 20
19.1496989251
 10
-5.6519936011
 20
19.1418330464
 10
-5.7012546919
 20
19.1372076275
 10
-5.7502865333
 20
19.135968026
 10
-5.798956364
 20
19.1381891005
  0
LINE
  5
308
100
AcDbEntity
  8
0
100
AcDbLine
 62
7
  6
CONTINUOUS
 10
9.9201484333
 20
25.8455699143
 11
17.3447696357
 21
29.3991569542
  0
LINE
  5
309
100
AcDbEntity
  8
ASSI
100
AcDbLine
 62
250
  6
CONTINUOUS
 10
-5.828746803
 20
19.4372376289
 11
-5.7853329048
 21
19.4579219741
  0
LWPOLYLINE
  5
30A
100
AcDbEntity
  8
ASSI
100
AcDbPolyline
 62
250
  6
CONTINUOUS
 90
13
 70
0
 10
-4.1611545173
 20
19.8556235255
 10
-4.133360362
 20
19.8687096034
 10
-4.1036000916
 20
19.8802797919
 10
-4.0718737062
 20
19.8903340911
 10
-4.0378159647
 20
19.898960127
 10
-4.0017921082
 20
19.9060702735
 10
-3.9648978599
 20
19.9114016521
 10
-3.9270939235
 20
19.9148746176
 10
-3.8884195953
 20
19.9165688152
 10
-3.8500884879
 20
19.9164603017
 10
-3.8125051388
 20
19.9145410963
 10
-3.7752650105
 20
19.9108191798
 10
-3.7106779833
 20
19.9011806937
  0
LWPOLYLINE
  5
30B
100
AcDbEntity
  8
ASSI
100
AcDbPolyline
 62
250
  6
CONTINUOUS
 90
8
 70
0
 10
-4.7272350418
 20
20.6500654441
 10
-4.7167064647
 20
20.6549368879
 10
-4.7010973845
 20
20.6595684717
 10
-4.684474981
 20
20.6616864025
 10
-4.6670210599
 20
20.6612676543
 10
-4.6489266735
 20
20.658316859
 10
-4.6303900773
 20
20.6528663942
 10
-4.6116142654
 20
20.6449760129
  0
LWPOLYLINE
  5
30C
100
AcDbEntity
  8
ASSI
100
AcDbPolyline
 62
250
  6
CONTINUOUS
 90
7
 70
0
 10
-5.8747756239
 20
19.4636023316
 10
-5.8689567172
 20
19.4662091024
 10
-5.8538953388
 20
19.4704866874
 10
-5.8377376402
 20
19.4717937947
 10
-5.8207419846
 20
19.4701095235
 10
-5.8031801342
 20
19.4654608055
 10
-5.7853329048
 20
19.4579219741
  0
LWPOLYLINE
  5
30D
100
AcDbEntity
  8
ASSI
100
AcDbPolyline
 62
250
  6
CONTINUOUS
 90
7
 70
0
 10
-3.0089599741
 20
20.8965101425
 10
-3.0031798097
 20
20.8990975561
 10
-2.9881184313
 20
20.903375141
 10
-2.9719607327
 20
20.9046822483
 10
-2.9549650771
 20
20.902997977
 10
-2.9374032269
 20
20.898349259
 10
-2.9195559976
 20
20.8908104277
  0
LWPOLYLINE
  5
30E
100
AcDbEntity
  8
RACCORDO
100
AcDbPolyline
 62
250
  6
CONTINUOUS
 90
10
 70
0
 10
-6.2923461991
 20
20.63870768
 10
-6.274663223
 20
20.6465780868
 10
-6.256964625
 20
20.6525332648
 10
-6.239371178
 20
20.6565309107
 10
-6.2219894726
 20
20.6585400076
 10
-6.2049493069
 20
20.6585444396
 10
-6.1884003516
 20
20.6565522607
 10
-6.1724887028
 20
20.6525945879
 10
-6.1572708934
 20
20.6467010763
 10
-6.1541887112
 20
20.6452295734
  0
LWPOLYLINE
  5
30F
100
AcDbEntity
  8
RACCORDO
100
AcDbPolyline
 62
250
  6
CONTINUOUS
 90
19
 70
0
 10
-6.4688806247
 20
20.9321501768
 10
-6.4361609675
 20
20.9466995788
 10
-6.40396258
 20
20.9576791738
 10
-6.3722854621
 20
20.9650889617
 10
-6.3409070656
 20
20.9689243031
 10
-6.3100499388
 20
20.9691898375
 10
-6.2803817265
 20
20.9658994829
 10
-6.2519873468
 20
20.95902817
 10
-6.2247818817
 20
20.9486009681
 10
-6.1991782217
 20
20.9347070038
 10
-6.1751439363
 20
20.9173278539
 10
-6.1527114561
 20
20.8964819416
 10
-6.1323909633
 20
20.8723136631
 10
-6.1141543842
 20
20.8445944188
 10
-6.0980297925
 20
20.8135528083
 10
-6.0846115921
 20
20.780019027
 10
-6.0740979173
 20
20.7442698068
 10
-6.0662906337
 20
20.7060284158
 10
-6.0611897413
 20
20.665294854
  0
LWPOLYLINE
  5
310
100
AcDbEntity
  8
ASSI
100
AcDbPolyline
 62
250
  6
CONTINUOUS
 90
13
 70
0
 10
-4.0178246262
 20
19.6283151596
 10
-4.0041620604
 20
19.6340059102
 10
-3.9892427182
 20
19.6389419232
 10
-3.9731953105
 20
19.643058673
 10
-3.9561277267
 20
19.6462999097
 10
-3.9382092599
 20
19.6486201154
 10
-3.9196777757
 20
19.6499821129
 10
-3.900741673
 20
19.6503778852
 10
-3.8815250721
 20
19.6498015705
 10
-3.862149279
 20
19.6482252739
 10
-3.8427734229
 20
19.6456383952
 10
-3.8236064232
 20
19.6420735996
 10
-3.8048487273
 20
19.637561671
  0
LINE
  5
311
100
AcDbEntity
  8
0
100
AcDbLine
 62
250
  6
CONTINUOUS
 10
-0.864996819
 20
20.9989576285
 11
0.0432217474
 21
21.3714175642
  0
LINE
  5
312
100
AcDbEntity
  8
0
100
AcDbLine
 62
250
  6
CONTINUOUS
 10
-0.7274251587
 20
20.7794431347
 11
0.1792773999
 21
21.1512813564
  0
LWPOLYLINE
  5
313
100
AcDbEntity
  8
ASSI
100
AcDbPolyline
 62
250
  6
CONTINUOUS
 90
27
 70
0
 10
-6.0297158482
 20
18.6433244265
 10
-6.0398298874
 20
18.6392910643
 10
-6.0500394572
 20
18.6350841699
 10
-6.0604261213
 20
18.630676766
 10
-6.0709474192
 20
18.6260504952
 10
-6.0815780627
 20
18.6210915483
 10
-6.092384227
 20
18.6157547631
 10
-6.1033457622
 20
18.6100206851
 10
-6.1143103918
 20
18.6037925867
 10
-6.1252717158
 20
18.597033974
 10
-6.1362448092
 20
18.5896970245
 10
-6.1470972965
 20
18.5816455239
 10
-6.1578158711
 20
18.5728335169
 10
-6.168372967
 20
18.5632201411
 10
-6.1785956389
 20
18.5526611829
 10
-6.1884824459
 20
18.5409876606
 10
-6.197915735
 20
18.5283148569
 10
-6.2065080186
 20
18.5149420974
 10
-6.2140790434
 20
18.5007727337
 10
-6.2205987783
 20
18.4859698362
 10
-6.2259061011
 20
18.4712569736
 10
-6.2298251554
 20
18.4567633118
 10
-6.2324124135
 20
18.4424864394
 10
-6.2339254689
 20
18.4289355308
 10
-6.234470326
 20
18.416286983
 10
-6.2339675736
 20
18.4044054798
 10
-6.2324406733
 20
18.3932965657
  0
LWPOLYLINE
  5
314
100
AcDbEntity
  8
ASSI
100
AcDbPolyline
 62
250
  6
CONTINUOUS
 90
3
 70
0
 10
-5.9783728256
 20
18.6633026735
 10
-6.0093614189
 20
18.6512693903
 10
-6.0297158482
 20
18.6433244265
  0
LWPOLYLINE
  5
315
100
AcDbEntity
  8
RACCORDO
100
AcDbPolyline
 62
250
  6
CONTINUOUS
 90
13
 70
0
 10
-4.4001599234
 20
21.495809763
 10
-4.3755893944
 20
21.5051512042
 10
-4.348427768
 20
21.5130215485
 10
-4.3191381702
 20
21.5192866006
 10
-4.2882200104
 20
21.5238395368
 10
-4.2562004661
 20
21.5266027261
 10
-4.2236254944
 20
21.527529054
 10
-4.1910505227
 20
21.5266027261
 10
-4.1590309784
 20
21.5238395368
 10
-4.1281128186
 20
21.5192866007
 10
-4.0988232208
 20
21.5130215485
 10
-4.0716615945
 20
21.5051512043
 10
-4.0470910654
 20
21.495809763
  0
LINE
  5
316
100
AcDbEntity
  8
RACCORDO
100
AcDbLine
 62
250
  6
CONTINUOUS
 10
-2.8086403795
 20
22.6926488922
 11
-2.8541167188
 21
22.6764597113
  0
LWPOLYLINE
  5
317
100
AcDbEntity
  8
ASSI
100
AcDbPolyline
 62
250
  6
CONTINUOUS
 90
4
 70
0
 10
-5.9491427583
 20
19.3909916304
 10
-5.9108418343
 20
19.4039136782
 10
-5.8706017857
 20
19.419295593
 10
-5.828746803
 20
19.4372376289
  0
LINE
  5
318
100
AcDbEntity
  8
ASSI
100
AcDbLine
 62
7
  6
CONTINUOUS
 10
-10.5436347303
 20
18.8026259377
 11
-11.4130773618
 21
18.5296480845
  0
LWPOLYLINE
  5
319
100
AcDbEntity
  8
ASSI
100
AcDbPolyline
 62
250
  6
CONTINUOUS
 90
13
 70
0
 10
-0.805747088
 20
20.7465202472
 10
-0.7987549498
 20
20.7487063063
 10
-0.7918619666
 20
20.7509738655
 10
-0.7850741229
 20
20.7533225469
 10
-0.7784262694
 20
20.7557399191
 10
-0.771894321
 20
20.7582369812
 10
-0.7654024238
 20
20.760850345
 10
-0.7589590228
 20
20.7635822178
 10
-0.7525825099
 20
20.7664326627
 10
-0.7462250463
 20
20.7694383163
 10
-0.7398876068
 20
20.7726133746
 10
-0.7336133697
 20
20.775947837
 10
-0.7274251587
 20
20.7794431347
  0
LWPOLYLINE
  5
31A
100
AcDbEntity
  8
CURVE
100
AcDbPolyline
 62
250
  6
CONTINUOUS
 90
9
 70
0
 10
-19.3375571219
 20
-16.252117004
 10
-19.3444243432
 20
-16.2495080593
 10
-19.3510299942
 20
-16.2486478204
 10
-19.3571224677
 20
-16.2495690536
 10
-19.3625571219
 20
-16.2522996524
 10
-19.3669368595
 20
-16.2566400986
 10
-19.3701975321
 20
-16.2624575935
 10
-19.3722149416
 20
-16.2695305504
 10
-19.3729124609
 20
-16.2777406066
  0
LWPOLYLINE
  5
31B
100
AcDbEntity
  8
CURVE
100
AcDbPolyline
 62
250
  6
CONTINUOUS
 90
9
 70
0
 10
-18.6306808575
 20
-16.3892488371
 10
-18.6238136361
 20
-16.3918577818
 10
-18.6172079851
 20
-16.3927180207
 10
-18.6111155116
 20
-16.3917967876
 10
-18.6056808575
 20
-16.3890661887
 10
-18.6013011198
 20
-16.3847257425
 10
-18.5980404472
 20
-16.3789082477
 10
-18.5960230377
 20
-16.3718352907
 10
-18.5953255184
 20
-16.3636252346
  0
LWPOLYLINE
  5
31C
100
AcDbEntity
  8
CURVE
100
AcDbPolyline
 62
250
  6
CONTINUOUS
 90
9
 70
0
 10
-19.3375571219
 20
-15.8192056271
 10
-19.3444243432
 20
-15.8165966824
 10
-19.3510299942
 20
-15.8157364435
 10
-19.3571224677
 20
-15.8166576767
 10
-19.3625571219
 20
-15.8193882755
 10
-19.3669368595
 20
-15.8237287217
 10
-19.3701975321
 20
-15.8295462166
 10
-19.3722149416
 20
-15.8366191735
 10
-19.3729124609
 20
-15.8448292297
  0
LWPOLYLINE
  5
31D
100
AcDbEntity
  8
CURVE
100
AcDbPolyline
 62
250
  6
CONTINUOUS
 90
9
 70
0
 10
-20.7862767881
 20
-12.9845878362
 10
-20.7931440094
 20
-12.9819788915
 10
-20.7997496604
 20
-12.9811186526
 10
-20.8058421339
 20
-12.9820398858
 10
-20.8112767881
 20
-12.9847704846
 10
-20.8156565257
 20
-12.9891109308
 10
-20.8189171983
 20
-12.9949284257
 10
-20.8209346078
 20
-13.0020013826
 10
-20.8216321271
 20
-13.0102114388
  0
LWPOLYLINE
  5
31E
100
AcDbEntity
  8
CURVE
100
AcDbPolyline
 62
250
  6
CONTINUOUS
 90
7
 70
0
 10
-20.2338870919
 20
-14.3059324524
 10
-20.2268927957
 20
-14.3086530656
 10
-20.220161811
 20
-14.3095641651
 10
-20.2138571477
 20
-14.308597051
 10
-20.2084442701
 20
-14.3058231239
 10
-20.2040226396
 20
-14.301351346
 10
-20.2007208509
 20
-14.2952407786
  0
LWPOLYLINE
  5
31F
100
AcDbEntity
  8
CURVE
100
AcDbPolyline
 62
250
  6
CONTINUOUS
 90
7
 70
0
 10
-19.3851001534
 20
-14.3725526409
 10
-19.3922225421
 20
-14.3696975258
 10
-19.3990835341
 20
-14.3687127122
 10
-19.4054028613
 20
-14.3696384293
 10
-19.4109223824
 20
-14.3724368619
 10
-19.4154166275
 20
-14.3769936955
 10
-19.4187020092
 20
-14.3831227857
  0
LINE
  5
320
100
AcDbEntity
  8
CURVE
100
AcDbLine
 62
250
  6
CONTINUOUS
 10
-20.6447748216
 20
-13.2719430312
 11
-18.2754721299
 21
-14.4565943771
  0
LINE
  5
321
100
AcDbEntity
  8
CURVE
100
AcDbLine
 62
250
  6
CONTINUOUS
 10
-18.1339701635
 20
-14.3107411485
 11
-20.7862767881
 21
-12.9845878362
  0
LINE
  5
322
100
AcDbEntity
  8
CURVE
100
AcDbLine
 62
250
  6
CONTINUOUS
 10
-20.3410745804
 20
-14.2511453252
 11
-20.2338870919
 21
-14.3059324524
  0
LINE
  5
323
100
AcDbEntity
  8
CURVE
100
AcDbLine
 62
250
  6
CONTINUOUS
 10
-19.2779140791
 20
-14.4288312228
 11
-19.3851001534
 21
-14.3725526409
  0
LINE
  5
324
100
AcDbEntity
  8
ASSI
100
AcDbLine
 62
7
  6
CONTINUOUS
 10
-4.6489456515
 20
-23.0931992067
 11
-4.6610977404
 21
-23.0861499919
  0
LINE
  5
325
100
AcDbEntity
  8
ASSI
100
AcDbLine
 62
7
  6
CONTINUOUS
 10
-4.2886405109
 20
-23.3356005713
 11
-4.6489456515
 21
-23.0931992067
  0
LINE
  5
326
100
AcDbEntity
  8
CURVE
100
AcDbLine
 62
250
  6
CONTINUOUS
 10
-18.2754721299
 20
-14.4565943771
 11
-18.2754721299
 21
-14.8957723138
  0
LINE
  5
327
100
AcDbEntity
  8
CURVE
100
AcDbLine
 62
250
  6
CONTINUOUS
 10
-18.2754721299
 20
-15.1496710436
 11
-18.2754721299
 21
-17.3583856975
  0
LINE
  5
328
100
AcDbEntity
  8
CURVE
100
AcDbLine
 62
250
  6
CONTINUOUS
 10
-18.0986148245
 20
-17.6201181579
 11
-18.0986148245
 21
-14.3717200882
  0
LINE
  5
329
100
AcDbEntity
  8
ASSI
100
AcDbLine
 62
7
  6
CONTINUOUS
 10
-15.5072985022
 20
21.2844578236
 11
-15.5072985022
 21
20.5767586546
  0
LWPOLYLINE
  5
32A
100
AcDbEntity
  8
ASSI
100
AcDbPolyline
 62
250
  6
CONTINUOUS
 90
9
 70
0
 10
-14.3165836965
 20
20.4292497396
 10
-14.3167514521
 20
20.4251548014
 10
-14.3186799827
 20
20.4148091712
 10
-14.322737186
 20
20.4046350572
 10
-14.3288767472
 20
20.394731262
 10
-14.3370384873
 20
20.3851943261
 10
-14.3471409869
 20
20.376124491
 10
-14.359075517
 20
20.3676235005
 10
-14.3727157365
 20
20.3597839026
  0
LWPOLYLINE
  5
32B
100
AcDbEntity
  8
ASSI
100
AcDbPolyline
 62
250
  6
CONTINUOUS
 90
9
 70
0
 10
-14.3165837008
 20
20.8209552808
 10
-14.3167516086
 20
20.8168789699
 10
-14.3186754926
 20
20.8065506409
 10
-14.3227319719
 20
20.7963714025
 10
-14.328879413
 20
20.7864537157
 10
-14.337050447
 20
20.7769082203
 10
-14.3471556426
 20
20.7678388841
 10
-14.3590869409
 20
20.7593422791
 10
-14.3727157365
 20
20.75150998
  0
LWPOLYLINE
  5
32C
100
AcDbEntity
  8
ASSI
100
AcDbPolyline
 62
250
  6
CONTINUOUS
 90
10
 70
0
 10
-12.0399014358
 20
20.9769817212
 10
-12.0404968444
 20
20.9735628365
 10
-12.039293679
 20
20.9690128931
 10
-12.0361715648
 20
20.9636636049
 10
-12.0311693695
 20
20.9575746024
 10
-12.0243445183
 20
20.950811449
 10
-12.015781055
 20
20.9434531822
 10
-12.0055803754
 20
20.9355821619
 10
-11.9938553479
 20
20.9272814928
 10
-11.9807358394
 20
20.9186399093
  0
LWPOLYLINE
  5
32D
100
AcDbEntity
  8
ASSI
100
AcDbPolyline
 62
250
  6
CONTINUOUS
 90
3
 70
0
 10
-10.6950023906
 20
20.7163956606
 10
-10.6894125541
 20
20.7409448826
 10
-10.6861854875
 20
20.7660895733
  0
LWPOLYLINE
  5
32E
100
AcDbEntity
  8
ASSI
100
AcDbPolyline
 62
250
  6
CONTINUOUS
 90
13
 70
0
 10
-8.02539532
 20
21.8078162021
 10
-8.0183198182
 20
21.8259887923
 10
-8.0093563843
 20
21.8437222666
 10
-7.9986032196
 20
21.8608223453
 10
-7.9861781351
 20
21.8771016799
 10
-7.9722172645
 20
21.8923819073
 10
-7.9568735659
 20
21.9064956142
 10
-7.9403151491
 20
21.9192881674
 10
-7.9227234303
 20
21.93061941
 10
-7.9042911449
 20
21.9403651963
 10
-7.8852202393
 20
21.9484187491
 10
-7.8657196589
 20
21.9546918304
 10
-7.846003056
 20
21.9591157101
  0
LWPOLYLINE
  5
32F
100
AcDbEntity
  8
ASSI
100
AcDbPolyline
 62
7
  6
CONTINUOUS
 90
9
 70
0
 10
-8.011103279
 20
21.7645817058
 10
-8.0101487899
 20
21.7660724238
 10
-8.0076201438
 20
21.7695092938
 10
-8.0069705327
 20
21.7702612154
 10
-8.0086384241
 20
21.7688125786
 10
-8.0128381096
 20
21.7656838791
 10
-8.0197996482
 20
21.7612594862
 10
-8.029576966
 20
21.7559597913
 10
-8.0323220378
 20
21.7546091684
  0
LWPOLYLINE
  5
330
100
AcDbEntity
  8
ASSI
100
AcDbPolyline
 62
250
  6
CONTINUOUS
 90
3
 70
0
 10
-3.1791631714
 20
20.0182688496
 10
-3.1717027336
 20
20.0277033702
 10
-3.1606048842
 20
20.0375986978
  0
LINE
  5
331
100
AcDbEntity
  8
ASSI
100
AcDbLine
 62
7
  6
CONTINUOUS
 10
-5.1584150706
 20
20.1473446913
 11
-4.8029733407
 21
20.5871803021
  0
LINE
  5
332
100
AcDbEntity
  8
ASSI
100
AcDbLine
 62
250
  6
CONTINUOUS
 10
-5.0749204287
 20
20.1055973703
 11
-4.6969174343
 21
20.5733510525
  0
LWPOLYLINE
  5
333
100
AcDbEntity
  8
ASSI
100
AcDbPolyline
 62
250
  6
CONTINUOUS
 90
9
 70
0
 10
-5.6046197601
 20
18.8962606408
 10
-5.6183645791
 20
18.8811960822
 10
-5.6299945187
 20
18.8656058532
 10
-5.6393529706
 20
18.8496998651
 10
-5.6463139107
 20
18.8336922798
 10
-5.6507835922
 20
18.8177986375
 10
-5.6527018139
 20
18.8022329549
 10
-5.6520427341
 20
18.7872048265
 10
-5.6488152145
 20
18.7729166032
  0
LWPOLYLINE
  5
334
100
AcDbEntity
  8
RACCORDO
100
AcDbPolyline
 62
250
  6
CONTINUOUS
 90
3
 70
0
 10
-6.1123168203
 20
20.6242955661
 10
-6.1006831763
 20
20.6368938452
 10
-6.0826242173
 20
20.6516337941
  0
LWPOLYLINE
  5
335
100
AcDbEntity
  8
ASSI
100
AcDbPolyline
 62
250
  6
CONTINUOUS
 90
10
 70
0
 10
-4.8029733407
 20
20.5871803021
 10
-4.8005885261
 20
20.5896809639
 10
-4.7938221421
 20
20.5939021446
 10
-4.7850317792
 20
20.596328889
 10
-4.7743172804
 20
20.5969371329
 10
-4.7617975649
 20
20.5957229931
 10
-4.7476271805
 20
20.5927062474
 10
-4.7319731219
 20
20.5879296679
 10
-4.7150068768
 20
20.5814520951
 10
-4.6969174343
 20
20.5733510525
  0
LINE
  5
336
100
AcDbEntity
  8
RACCORDO
100
AcDbLine
 62
7
  6
CONTINUOUS
 10
0.0810919266
 20
20.6632583194
 11
-0.6742809635
 21
20.0089108732
  0
LINE
  5
337
100
AcDbEntity
  8
ASSI
100
AcDbLine
 62
250
  6
CONTINUOUS
 10
-5.774246631
 20
18.7843487454
 11
-5.7943119585
 21
18.7674304023
  0
LWPOLYLINE
  5
338
100
AcDbEntity
  8
ASSI
100
AcDbPolyline
 62
250
  6
CONTINUOUS
 90
10
 70
0
 10
-5.7943119585
 20
18.7674304023
 10
-5.8021214293
 20
18.7609735518
 10
-5.8106464722
 20
18.7541719685
 10
-5.8199015236
 20
18.7470054888
 10
-5.8300433828
 20
18.7395203938
 10
-5.841184651
 20
18.7317849348
 10
-5.8533095225
 20
18.7238092627
 10
-5.8665284589
 20
18.7156340823
 10
-5.8810611031
 20
18.70734284
 10
-5.8970766646
 20
18.6990103163
  0
LINE
  5
339
100
AcDbEntity
  8
ASSI
100
AcDbLine
 62
250
  6
CONTINUOUS
 10
-3.1548556873
 20
20.0710167036
 11
-3.1438516682
 21
20.079504274
  0
LINE
  5
33A
100
AcDbEntity
  8
ASSI
100
AcDbLine
 62
250
  6
CONTINUOUS
 10
-3.1606048842
 20
20.0375986978
 11
-3.1467393196
 21
20.0469170558
  0
LINE
  5
33B
100
AcDbEntity
  8
ASSI
100
AcDbLine
 62
7
  6
CONTINUOUS
 10
-6.2529529071
 20
16.9127672201
 11
-6.0003909541
 21
17.0701240033
  0
LINE
  5
33C
100
AcDbEntity
  8
RACCORDO
100
AcDbLine
 62
250
  6
CONTINUOUS
 10
-6.1979560029
 20
16.885268768
 11
-5.904913975
 21
17.0678463507
  0
LWPOLYLINE
  5
33D
100
AcDbEntity
  8
ASSI
100
AcDbPolyline
 62
250
  6
CONTINUOUS
 90
16
 70
0
 10
-7.9340668588
 20
15.0800015371
 10
-7.97034803
 20
15.0584028417
 10
-8.0061467749
 20
15.0324960729
 10
-8.0410838285
 20
15.0025556965
 10
-8.0747890549
 20
14.9688989118
 10
-8.1069053686
 20
14.9318822911
 10
-8.1370925175
 20
14.8918980022
 10
-8.1650306878
 20
14.8493696534
 10
-8.1904238924
 20
14.8047478055
 10
-8.2130031065
 20
14.7585051985
 10
-8.2325291179
 20
14.7111317434
 10
-8.2487950605
 20
14.6631293318
 10
-8.2616286071
 20
14.6150065194
 10
-8.2708937944
 20
14.5672731368
 10
-8.2764924637
 20
14.5204348888
 10
-8.2783653006
 20
14.474987997
  0
LWPOLYLINE
  5
33E
100
AcDbEntity
  8
ASSI
100
AcDbPolyline
 62
250
  6
CONTINUOUS
 90
9
 70
0
 10
-5.1963729543
 20
16.1633385889
 10
-5.1827180411
 20
16.1711875767
 10
-5.1707707434
 20
16.1797010805
 10
-5.1606589029
 20
16.1887865285
 10
-5.1524946396
 20
16.198339457
 10
-5.1463579122
 20
16.2082617005
 10
-5.1423079518
 20
16.2184644265
 10
-5.1403965032
 20
16.2288607176
 10
-5.1402409143
 20
16.2328044259
  0
LWPOLYLINE
  5
33F
100
AcDbEntity
  8
ASSI
100
AcDbPolyline
 62
250
  6
CONTINUOUS
 90
8
 70
0
 10
-5.1841897575
 20
15.7786127568
 10
-5.1827665897
 20
15.7794304834
 10
-5.1708515531
 20
15.787910585
 10
-5.1607558211
 20
15.796961738
 10
-5.1525876248
 20
15.8064870095
 10
-5.1464350207
 20
15.8163838371
 10
-5.1423643588
 20
15.8265450353
 10
-5.1404938573
 20
15.8364631987
  0
LWPOLYLINE
  5
340
100
AcDbEntity
  8
RACCORDO
100
AcDbPolyline
 62
250
  6
CONTINUOUS
 90
6
 70
0
 10
1.9227398149
 20
19.5259609992
 10
1.9393837875
 20
19.5355015868
 10
1.9540838078
 20
19.5458914008
 10
1.9666543087
 20
19.5570344702
 10
1.9769339435
 20
19.5688319763
 10
1.9847670849
 20
19.5811599803
  0
LWPOLYLINE
  5
341
100
AcDbEntity
  8
ASSI
100
AcDbPolyline
 62
7
  6
CONTINUOUS
 90
6
 70
0
 10
-3.0926697946
 20
18.8011357148
 10
-3.1065472572
 20
18.7934668931
 10
-3.1185015287
 20
18.7852747182
 10
-3.128532609
 20
18.7765591901
 10
-3.136723809
 20
18.7672050623
 10
-3.138624096
 20
18.7642104831
  0
LINE
  5
342
100
AcDbEntity
  8
ASSI
100
AcDbLine
 62
7
  6
CONTINUOUS
 10
-5.1848873483
 20
16.3720033415
 11
-4.3543591746
 21
16.8279692929
  0
LINE
  5
343
100
AcDbEntity
  8
0
100
AcDbLine
 62
250
  6
CONTINUOUS
 10
-3.2730447364
 20
14.9710098835
 11
-0.861304826
 21
16.2380749631
  0
LWPOLYLINE
  5
344
100
AcDbEntity
  8
ASSI
100
AcDbPolyline
 62
7
  6
CONTINUOUS
 90
8
 70
0
 10
-5.5587689445
 20
17.5924815309
 10
-5.5712512123
 20
17.5859649622
 10
-5.5822160309
 20
17.579012909
 10
-5.5916634004
 20
17.5716253711
 10
-5.5996552477
 20
17.5637403388
 10
-5.6061296458
 20
17.5554198218
 10
-5.6109008141
 20
17.5468498498
 10
-5.6134978301
 20
17.5392839599
  0
LINE
  5
345
100
AcDbEntity
  8
RACCORDO
100
AcDbLine
 62
250
  6
CONTINUOUS
 10
-5.4101009618
 20
16.4913412474
 11
-5.0846448182
 21
16.6577117723
  0
LINE
  5
346
100
AcDbEntity
  8
ASSI
100
AcDbLine
 62
250
  6
CONTINUOUS
 10
-5.5300135817
 20
16.2958153634
 11
-7.9340668588
 21
15.0800015371
  0
LINE
  5
347
100
AcDbEntity
  8
ASSI
100
AcDbLine
 62
250
  6
CONTINUOUS
 10
-5.1765813451
 20
15.6862349258
 11
-7.5806346221
 21
14.4704210995
  0
LINE
  5
348
100
AcDbEntity
  8
RACCORDO
100
AcDbLine
 62
250
  6
CONTINUOUS
 10
-1.9243779215
 20
17.291985195
 11
-1.9663715384
 21
17.2710090387
  0
LINE
  5
349
100
AcDbEntity
  8
ASSI
100
AcDbLine
 62
250
  6
CONTINUOUS
 10
-5.3377727713
 20
16.4072171982
 11
-5.5461268918
 21
16.3038720184
  0
LINE
  5
34A
100
AcDbEntity
  8
RACCORDO
100
AcDbLine
 62
250
  6
CONTINUOUS
 10
-2.4627896723
 20
17.7432234942
 11
1.7459900436
 21
19.8308092609
  0
LINE
  5
34B
100
AcDbEntity
  8
ASSI
100
AcDbLine
 62
250
  6
CONTINUOUS
 10
-5.1963729543
 20
16.1633385889
 11
-5.3180450337
 21
16.1029883405
  0
LINE
  5
34C
100
AcDbEntity
  8
RACCORDO
100
AcDbLine
 62
250
  6
CONTINUOUS
 10
-2.286039901
 20
17.4383752326
 11
1.9227398149
 21
19.5259609992
  0
LINE
  5
34D
100
AcDbEntity
  8
ASSI
100
AcDbLine
 62
7
  6
CONTINUOUS
 10
-0.7514276401
 20
19.9589481161
 11
-3.0926697946
 21
18.8011357148
  0
LINE
  5
34E
100
AcDbEntity
  8
ASSI
100
AcDbLine
 62
7
  6
CONTINUOUS
 10
-3.8818612896
 20
18.4108575369
 11
-5.0897347347
 21
17.8135289517
  0
LINE
  5
34F
100
AcDbEntity
  8
ASSI
100
AcDbLine
 62
7
  6
CONTINUOUS
 10
-5.1932363731
 20
16.3678967255
 11
-5.1848873483
 21
16.3720033415
  0
LINE
  5
350
100
AcDbEntity
  8
RACCORDO
100
AcDbLine
 62
7
  6
CONTINUOUS
 10
2.0221901476
 20
19.5399359436
 11
-1.8216358517
 21
17.6658009236
  0
LINE
  5
351
100
AcDbEntity
  8
RACCORDO
100
AcDbLine
 62
250
  6
CONTINUOUS
 10
-2.6216130739
 20
16.5794681213
 11
-1.6357032799
 21
17.0577149554
  0
LINE
  5
352
100
AcDbEntity
  8
RACCORDO
100
AcDbLine
 62
250
  6
CONTINUOUS
 10
-1.9786051092
 20
15.9497837891
 11
-0.9838576834
 21
16.4317902503
  0
LINE
  5
353
100
AcDbEntity
  8
ASSI
100
AcDbLine
 62
7
  6
CONTINUOUS
 10
-5.0897347347
 20
17.8135289517
 11
-5.5587682055
 21
17.5924818792
  0
LINE
  5
354
100
AcDbEntity
  8
ASSI
100
AcDbLine
 62
7
  6
CONTINUOUS
 10
-6.2887112332
 20
17.248472807
 11
-6.6159348364
 21
17.0942581847
  0
LINE
  5
355
100
AcDbEntity
  8
RACCORDO
100
AcDbLine
 62
250
  6
CONTINUOUS
 10
-2.2893911893
 20
17.4368094611
 11
-2.286039901
 21
17.4383752326
  0
LINE
  5
356
100
AcDbEntity
  8
ASSI
100
AcDbLine
 62
7
  6
CONTINUOUS
 10
-6.9513005221
 20
17.1779778723
 11
-7.1296256721
 21
17.0956214086
  0
LINE
  5
357
100
AcDbEntity
  8
ASSI
100
AcDbLine
 62
250
  6
CONTINUOUS
 10
-6.8649766371
 20
17.1708191311
 11
-7.0807336448
 21
17.0711753949
  0
LINE
  5
358
100
AcDbEntity
  8
ASSI
100
AcDbLine
 62
250
  6
CONTINUOUS
 10
-5.1765813451
 20
15.4439550892
 11
-2.6216722783
 21
16.5794977234
  0
LINE
  5
359
100
AcDbEntity
  8
ASSI
100
AcDbLine
 62
250
  6
CONTINUOUS
 10
-5.1765813451
 20
14.5367101269
 11
-1.9786051092
 21
15.9497837891
  0
LWPOLYLINE
  5
35A
100
AcDbEntity
  8
ASSI
100
AcDbPolyline
 62
250
  6
CONTINUOUS
 90
16
 70
0
 10
-7.5806346221
 20
14.4704210995
 10
-7.6198588685
 20
14.4536462666
 10
-7.6623328454
 20
14.438982679
 10
-7.7076039302
 20
14.4265865997
 10
-7.755195353
 20
14.4165891071
 10
-7.8045947169
 20
14.409098344
 10
-7.8552575993
 20
14.4041954101
 10
-7.9066311892
 20
14.4019300163
 10
-7.9581801971
 20
14.4023220349
 10
-8.0093747108
 20
14.4053660657
 10
-8.0597399029
 20
14.4110395188
 10
-8.1086667952
 20
14.4192795416
 10
-8.1554579532
 20
14.4299526081
 10
-8.1995883819
 20
14.442899969
 10
-8.240687975
 20
14.4579720766
 10
-8.2783653006
 20
14.474987997
  0
LWPOLYLINE
  5
35B
100
AcDbEntity
  8
RACCORDO
100
AcDbPolyline
 62
250
  6
CONTINUOUS
 90
8
 70
0
 10
1.7459900436
 20
19.8308092609
 10
1.7639890435
 20
19.8382962792
 10
1.7818400558
 20
19.8434505601
 10
1.7993518088
 20
19.8461889239
 10
1.8163552044
 20
19.8464513763
 10
1.8326359517
 20
19.844199714
 10
1.8479485533
 20
19.839452256
 10
1.8546030722
 20
19.8364526066
  0
LINE
  5
35C
100
AcDbEntity
  8
RACCORDO
100
AcDbLine
 62
250
  6
CONTINUOUS
 10
-1.5138399773
 20
17.2610675673
 11
2.9759790404
 21
19.0630414972
  0
LINE
  5
35D
100
AcDbEntity
  8
RACCORDO
100
AcDbLine
 62
250
  6
CONTINUOUS
 10
-2.4043141861
 20
17.4584131416
 11
-2.4225465104
 21
17.4511365707
  0
LINE
  5
35E
100
AcDbEntity
  8
RACCORDO
100
AcDbLine
 62
250
  6
CONTINUOUS
 10
-0.8157947815
 20
16.5917586362
 11
3.6769866052
 21
18.3722278388
  0
LINE
  5
35F
100
AcDbEntity
  8
RACCORDO
100
AcDbLine
 62
250
  6
CONTINUOUS
 10
-4.4959884752
 20
-21.8340489485
 11
-4.4680337903
 21
-21.8822636479
  0
LINE
  5
360
100
AcDbEntity
  8
ASSI
100
AcDbLine
 62
250
  6
CONTINUOUS
 10
-14.3727157365
 20
20.75150998
 11
-14.3727157365
 21
20.3597839026
  0
LINE
  5
361
100
AcDbEntity
  8
ASSI
100
AcDbLine
 62
7
  6
CONTINUOUS
 10
-14.3165836965
 20
20.820975817
 11
-14.3165836965
 21
20.4292497396
  0
LWPOLYLINE
  5
362
100
AcDbEntity
  8
ASSI
100
AcDbPolyline
 62
250
  6
CONTINUOUS
 90
11
 70
0
 10
-10.6861854875
 20
20.7660895733
 10
-10.6853731313
 20
20.7914250727
 10
-10.6869885643
 20
20.8165436387
 10
-10.6910057945
 20
20.8410410385
 10
-10.6973601863
 20
20.8645230507
 10
-10.7059494907
 20
20.8866117637
 10
-10.7166354885
 20
20.9069516807
 10
-10.729246228
 20
20.9252154628
 10
-10.7435787765
 20
20.9411091636
 10
-10.7594024801
 20
20.9543769661
 10
-10.7764626861
 20
20.964805316
  0
LWPOLYLINE
  5
363
100
AcDbEntity
  8
ASSI
100
AcDbPolyline
 62
250
  6
CONTINUOUS
 90
3
 70
0
 10
-8.0335939644
 20
21.7709527038
 10
-8.0305053661
 20
21.7894035938
 10
-8.02539532
 20
21.8078162021
  0
LWPOLYLINE
  5
364
100
AcDbEntity
  8
ASSI
100
AcDbPolyline
 62
250
  6
CONTINUOUS
 90
13
 70
0
 10
-7.7521629615
 20
19.061923932
 10
-7.7473892496
 20
19.0860565867
 10
-7.7448785846
 20
19.1106473013
 10
-7.7446693587
 20
19.1353203249
 10
-7.7467647981
 20
19.1596986445
 10
-7.7511329119
 20
19.1834097355
 10
-7.7577069768
 20
19.2060912555
 10
-7.7663865614
 20
19.2273966021
 10
-7.777039055
 20
19.2470001882
 10
-7.7895016852
 20
19.264602414
 10
-7.8035840182
 20
19.2799342751
 10
-7.8190708749
 20
19.2927614677
 10
-7.8357256066
 20
19.3028879537
  0
LWPOLYLINE
  5
365
100
AcDbEntity
  8
ASSI
100
AcDbPolyline
 62
250
  6
CONTINUOUS
 90
13
 70
0
 10
-9.1134429098
 20
20.5877528657
 10
-9.1078530392
 20
20.612302292
 10
-9.1046259793
 20
20.6374471709
 10
-9.1038136647
 20
20.6627828323
 10
-9.1054291684
 20
20.687901536
 10
-9.1094464914
 20
20.7123990334
 10
-9.1158009807
 20
20.7358810733
 10
-9.1243903702
 20
20.7579697467
 10
-9.1350764262
 20
20.7783095689
 10
-9.1476871723
 20
20.7965732004
 10
-9.1620196572
 20
20.8124667147
 10
-9.1778432205
 20
20.8257343292
 10
-9.1949032052
 20
20.8361625211
  0
LWPOLYLINE
  5
366
100
AcDbEntity
  8
ASSI
100
AcDbPolyline
 62
250
  6
CONTINUOUS
 90
13
 70
0
 10
-8.066841666
 20
20.6633086765
 10
-8.0724317132
 20
20.6387582572
 10
-8.0756587422
 20
20.6136125611
 10
-8.076470874
 20
20.5882763066
 10
-8.0748550985
 20
20.5631572745
 10
-8.0708374803
 20
20.538659708
 10
-8.0644827248
 20
20.5151778106
 10
-8.0558931515
 20
20.4930894717
 10
-8.0452070367
 20
20.4727501263
 10
-8.0325963602
 20
20.4544870171
 10
-8.0182640758
 20
20.4385940112
 10
-8.0024408607
 20
20.4253268561
 10
-7.9853813705
 20
20.4148990212
  0
LWPOLYLINE
  5
367
100
AcDbEntity
  8
RACCORDO
100
AcDbPolyline
 62
250
  6
CONTINUOUS
 90
13
 70
0
 10
-7.1549144926
 20
20.5891332429
 10
-7.16050437
 20
20.5645839513
 10
-7.1637314592
 20
20.5394391813
 10
-7.1645438175
 20
20.5141035963
 10
-7.162928363
 20
20.488984931
 10
-7.1589110853
 20
20.4644874355
 10
-7.1525566298
 20
20.4410053693
 10
-7.1439672538
 20
20.4189166418
 10
-7.1332811865
 20
20.398576748
 10
-7.1206704104
 20
20.3803130486
 10
-7.1063378815
 20
20.3644194771
 10
-7.0905142577
 20
20.3511518148
 10
-7.0734541971
 20
20.3407235875
  0
LWPOLYLINE
  5
368
100
AcDbEntity
  8
ASSI
100
AcDbPolyline
 62
250
  6
CONTINUOUS
 90
16
 70
0
 10
-8.515567363
 20
18.1666367157
 10
-8.5195260867
 20
18.1516145222
 10
-8.5241166888
 20
18.1372017271
 10
-8.529257887
 20
18.123455524
 10
-8.5348619126
 20
18.1104384794
 10
-8.5408623237
 20
18.0981669094
 10
-8.5472208332
 20
18.0866173696
 10
-8.5538199413
 20
18.0758923897
 10
-8.5606533889
 20
18.0659156448
 10
-8.567885879
 20
18.0564304799
 10
-8.5754554875
 20
18.0475014032
 10
-8.5833606799
 20
18.0391511002
 10
-8.5918996781
 20
18.0311667473
 10
-8.601161885
 20
18.0235903603
 10
-8.6110032543
 20
18.0166440862
 10
-8.6213763015
 20
18.0104641574
  0
LINE
  5
369
100
AcDbEntity
  8
ASSI
100
AcDbLine
 62
250
  6
CONTINUOUS
 10
-8.2441816456
 20
19.0503628124
 11
-8.5155666397
 21
18.1666363541
  0
LINE
  5
36A
100
AcDbEntity
  8
ASSI
100
AcDbLine
 62
250
  6
CONTINUOUS
 10
-7.9783772674
 20
18.9708942313
 11
-8.2497622615
 21
18.087167773
  0
LWPOLYLINE
  5
36B
100
AcDbEntity
  8
ASSI
100
AcDbPolyline
 62
250
  6
CONTINUOUS
 90
16
 70
0
 10
-8.2497622615
 20
18.087167773
 10
-8.2597550481
 20
18.0578779705
 10
-8.2705898443
 20
18.0299441874
 10
-8.28226665
 20
18.0033664239
 10
-8.2949007972
 20
17.978121454
 10
-8.3083769539
 20
17.9542325035
 10
-8.3223491243
 20
17.9317692505
 10
-8.3366470315
 20
17.9108793327
 10
-8.3514409523
 20
17.8914151124
 10
-8.3668957211
 20
17.8730033542
 10
-8.3829101817
 20
17.8555467643
 10
-8.3995854903
 20
17.8391426366
 10
-8.4173899499
 20
17.8237096173
 10
-8.4364796616
 20
17.8092205885
 10
-8.4566985243
 20
17.7957026681
 10
-8.478046538
 20
17.7831558562
  0
LWPOLYLINE
  5
36C
100
AcDbEntity
  8
ASSI
100
AcDbPolyline
 62
250
  6
CONTINUOUS
 90
4
 70
0
 10
-3.17885223
 20
20.041843997
 10
-3.1724675232
 20
20.0521079515
 10
-3.1644337985
 20
20.0618642816
 10
-3.1548556873
 20
20.0710167036
  0
LINE
  5
36D
100
AcDbEntity
  8
RACCORDO
100
AcDbLine
 62
250
  6
CONTINUOUS
 10
-0.8447928967
 20
15.9922410801
 11
-0.8553050342
 21
15.9832318367
  0
LINE
  5
36E
100
AcDbEntity
  8
DRAFT
100
AcDbLine
 62
7
  6
CONTINUOUS
 10
-3.0364372625
 20
14.7300549479
 11
-2.9804223725
 21
14.7706514522
  0
LINE
  5
36F
100
AcDbEntity
  8
RACCORDO
100
AcDbLine
 62
7
  6
CONTINUOUS
 10
-0.8403915152
 20
15.9925042634
 11
-1.2906761847
 21
15.6661627585
  0
LINE
  5
370
100
AcDbEntity
  8
RACCORDO
100
AcDbLine
 62
250
  6
CONTINUOUS
 10
-0.8403915152
 20
15.9925042634
 11
-0.8405426172
 21
15.9923949266
  0
LINE
  5
371
100
AcDbEntity
  8
RACCORDO
100
AcDbLine
 62
250
  6
CONTINUOUS
 10
-0.8405426172
 20
15.9923949266
 11
-0.855305034
 21
15.9832318368
  0
LWPOLYLINE
  5
372
100
AcDbEntity
  8
ASSI
100
AcDbPolyline
 62
250
  6
CONTINUOUS
 90
7
 70
0
 10
-4.2886405109
 20
12.2943700283
 10
-4.2719094334
 20
12.3042373063
 10
-4.2578660148
 20
12.315101847
 10
-4.2467451917
 20
12.3267818173
 10
-4.2387329766
 20
12.3390817626
 10
-4.2339633809
 20
12.3517958312
 10
-4.2325088474
 20
12.3636418176
  0
LINE
  5
373
100
AcDbEntity
  8
ASSI
100
AcDbLine
 62
7
  6
CONTINUOUS
 10
-5.1765813451
 20
9.8341174696
 11
-4.789266967
 21
10.0430824622
  0
LINE
  5
374
100
AcDbEntity
  8
DRAFT
100
AcDbLine
 62
7
  6
CONTINUOUS
 10
-1.5777440613
 20
15.5080343698
 11
-1.6049162206
 21
15.493750109
  0
LINE
  5
375
100
AcDbEntity
  8
RACCORDO
100
AcDbLine
 62
250
  6
CONTINUOUS
 10
-3.0866384128
 20
14.8114225633
 11
-0.855305034
 21
15.9832318368
  0
LINE
  5
376
100
AcDbEntity
  8
0
100
AcDbLine
 62
250
  6
CONTINUOUS
 10
17.5215449546
 20
21.6743433891
 11
25.447525897
 21
25.7211279471
  0
LINE
  5
377
100
AcDbEntity
  8
RACCORDO
100
AcDbLine
 62
250
  6
CONTINUOUS
 10
16.9255709556
 20
21.99093349
 11
5.0395049885
 21
16.0442459321
  0
LINE
  5
378
100
AcDbEntity
  8
RACCORDO
100
AcDbLine
 62
250
  6
CONTINUOUS
 10
16.5096551495
 20
22.4221135408
 11
4.8625991973
 21
16.5955472551
  0
LINE
  5
379
100
AcDbEntity
  8
ASSI
100
AcDbLine
 62
250
  6
CONTINUOUS
 10
-4.6421400536
 20
12.9040665516
 11
-5.1765813451
 21
12.638979731
  0
LINE
  5
37A
100
AcDbEntity
  8
ASSI
100
AcDbLine
 62
250
  6
CONTINUOUS
 10
-4.2886405109
 20
12.2943700283
 11
-5.1765813451
 21
11.8539448285
  0
LINE
  5
37B
100
AcDbEntity
  8
SUPERFICI
100
AcDbLine
 62
250
  6
CONTINUOUS
 10
25.4931034025
 20
25.7292288511
 11
25.4538070084
 21
25.7098774855
  0
LINE
  5
37C
100
AcDbEntity
  8
0
100
AcDbLine
 62
250
  6
CONTINUOUS
 10
24.9411479195
 20
26.2358359338
 11
16.9261612837
 21
22.3425634891
  0
LINE
  5
37D
100
AcDbEntity
  8
0
100
AcDbLine
 62
250
  6
CONTINUOUS
 10
25.447525897
 20
25.7211279471
 11
17.4260851312
 21
21.8389872298
  0
LWPOLYLINE
  5
37E
100
AcDbEntity
  8
ASSI
100
AcDbPolyline
 62
250
  6
CONTINUOUS
 90
7
 70
0
 10
-4.6421400536
 20
12.9040665516
 10
-4.6239082409
 20
12.911343384
 10
-4.6060227942
 20
12.9155800608
 10
-4.588782985
 20
12.9167056908
 10
-4.5724772818
 20
12.9147014393
 10
-4.5573785227
 20
12.9096008428
 10
-4.5552367011
 20
12.9085747821
  0
LWPOLYLINE
  5
37F
100
AcDbEntity
  8
RACCORDO
100
AcDbPolyline
 62
250
  6
CONTINUOUS
 90
3
 70
0
 10
25.6422455955
 20
-6.1137715193
 10
25.6606914661
 20
-6.1094875473
 10
25.6701610258
 20
-6.1041552912
  0
LWPOLYLINE
  5
380
100
AcDbEntity
  8
RACCORDO
100
AcDbPolyline
 62
7
  6
CONTINUOUS
 90
8
 70
0
 10
-4.4285369951
 20
-21.8242223322
 10
-4.4277442357
 20
-21.8264472876
 10
-4.428201944
 20
-21.8319485046
 10
-4.4312147262
 20
-21.8391089515
 10
-4.4367825861
 20
-21.8478026608
 10
-4.4448478644
 20
-21.8579362941
 10
-4.4553046602
 20
-21.8694546942
 10
-4.4680337903
 20
-21.8822636479
  0
LINE
  5
381
100
AcDbEntity
  8
ASSI
100
AcDbLine
 62
250
  6
CONTINUOUS
 10
-10.6936769665
 20
20.7009083946
 11
-10.6950023906
 21
20.7163956606
  0
LWPOLYLINE
  5
382
100
AcDbEntity
  8
ASSI
100
AcDbPolyline
 62
250
  6
CONTINUOUS
 90
10
 70
0
 10
-8.2783653006
 20
-30.2351584082
 10
-8.2764924637
 20
-30.2787324631
 10
-8.2708937944
 20
-30.3199720419
 10
-8.2616286071
 20
-30.3584402372
 10
-8.2487950605
 20
-30.393729503
 10
-8.2325291179
 20
-30.4254659719
 10
-8.2130031065
 20
-30.4533134157
 10
-8.1904238924
 20
-30.4769768086
 10
-8.1650306878
 20
-30.4962054518
 10
-8.1484187077
 20
-30.5055953084
  0
LINE
  5
383
100
AcDbEntity
  8
DRAFT
100
AcDbLine
 62
250
  6
CONTINUOUS
 10
-10.242998331
 20
21.409322435
 11
-10.242998331
 21
21.6256467441
  0
LINE
  5
384
100
AcDbEntity
  8
DRAFT
100
AcDbLine
 62
250
  6
CONTINUOUS
 10
-9.6925033759
 20
21.2198797057
 11
-9.6925033759
 21
21.6012346857
  0
LINE
  5
385
100
AcDbEntity
  8
ASSI
100
AcDbLine
 62
250
  6
CONTINUOUS
 10
-8.2783653006
 20
14.474987997
 11
-8.2783653006
 21
-30.2351584082
  0
LINE
  5
386
100
AcDbEntity
  8
ASSI
100
AcDbLine
 62
7
  6
CONTINUOUS
 10
-8.0630667316
 20
21.8357780381
 11
-8.0630667316
 21
21.7397662594
  0
LINE
  5
387
100
AcDbEntity
  8
ASSI
100
AcDbLine
 62
250
  6
CONTINUOUS
 10
-7.5806346221
 20
14.4704210995
 11
-7.5806346221
 21
-30.2397253057
  0
LINE
  5
388
100
AcDbEntity
  8
ASSI
100
AcDbLine
 62
250
  6
CONTINUOUS
 10
-8.0346272713
 20
21.7526656847
 11
-8.0335939644
 21
21.7709527038
  0
LWPOLYLINE
  5
389
100
AcDbEntity
  8
ASSI
100
AcDbPolyline
 62
7
  6
CONTINUOUS
 90
19
 70
0
 10
-8.0630667274
 20
21.8357780381
 10
-8.0608386743
 20
21.870710757
 10
-8.0539737927
 20
21.9060265996
 10
-8.042254321
 20
21.9411629738
 10
-8.0255510976
 20
21.9755493298
 10
-8.0038548592
 20
22.0085938906
 10
-7.9771608071
 20
22.0398592687
 10
-7.9450590994
 20
22.0693086322
 10
-7.9077965571
 20
22.0962505412
 10
-7.866480409
 20
22.1198052501
 10
-7.8208491188
 20
22.1401483901
 10
-7.7712014305
 20
22.157059953
 10
-7.7202718738
 20
22.1698203379
 10
-7.669611162
 20
22.178578258
 10
-7.6185742821
 20
22.1838447323
 10
-7.5672323647
 20
22.1857671904
 10
-7.5159132792
 20
22.1843844396
 10
-7.465039818
 20
22.1796974301
 10
-7.4149750487
 20
22.1716705777
  0
LWPOLYLINE
  5
38A
100
AcDbEntity
  8
ASSI
100
AcDbPolyline
 62
250
  6
CONTINUOUS
 90
13
 70
0
 10
-5.6784593093
 20
22.1521729369
 10
-5.6758637549
 20
22.1765403241
 10
-5.6755733508
 20
22.2015036453
 10
-5.6775927516
 20
22.2266627966
 10
-5.6818895912
 20
22.2516145352
 10
-5.6883950012
 20
22.2759589425
 10
-5.6970047152
 20
22.299305834
 10
-5.7075807396
 20
22.3212810132
 10
-5.7199535652
 20
22.3415322689
 10
-5.7339248845
 20
22.3597350201
 10
-5.7492707695
 20
22.3755975188
 10
-5.7657452613
 20
22.3888655259
 10
-5.7830843121
 20
22.3993263859
  0
LWPOLYLINE
  5
38B
100
AcDbEntity
  8
RACCORDO
100
AcDbPolyline
 62
250
  6
CONTINUOUS
 90
10
 70
0
 10
-6.9883388037
 20
20.3857089316
 10
-6.9894648619
 20
20.3762518901
 10
-6.9903138483
 20
20.3674164872
 10
-6.9908819636
 20
20.3592427797
 10
-6.9911667011
 20
20.3517679677
 10
-6.9911668258
 20
20.345025697
 10
-6.9908823337
 20
20.3390460811
 10
-6.9903145143
 20
20.333856201
 10
-6.989465991
 20
20.3294798081
 10
-6.9883406452
 20
20.3259368076
  0
LWPOLYLINE
  5
38C
100
AcDbEntity
  8
ASSI
100
AcDbPolyline
 62
250
  6
CONTINUOUS
 90
10
 70
0
 10
-5.7078342345
 20
18.9532623348
 10
-5.7112598726
 20
18.9355293099
 10
-5.71330753
 20
18.9179718534
 10
-5.7139589235
 20
18.9007467196
 10
-5.7132082345
 20
18.8840076957
 10
-5.711062165
 20
18.8679042298
 10
-5.7075398767
 20
18.8525800967
 10
-5.7026728158
 20
18.838172112
 10
-5.6965044334
 20
18.8248089116
 10
-5.6890898
 20
18.8126098041
  0
LWPOLYLINE
  5
38D
100
AcDbEntity
  8
ASSI
100
AcDbPolyline
 62
250
  6
CONTINUOUS
 90
3
 70
0
 10
-3.1845948711
 20
20.0269844293
 10
-3.1834919023
 20
20.0312081168
 10
-3.17885223
 20
20.041843997
  0
LINE
  5
38E
100
AcDbEntity
  8
ASSI
100
AcDbLine
 62
7
  6
CONTINUOUS
 10
-4.6489456515
 20
10.1876225644
 11
-4.2886405109
 21
10.8031308245
  0
LINE
  5
38F
100
AcDbEntity
  8
RACCORDO
100
AcDbLine
 62
250
  6
CONTINUOUS
 10
-4.4680337903
 20
9.807093607
 11
-5.1765813451
 21
9.2935774005
  0
LINE
  5
390
100
AcDbEntity
  8
RACCORDO
100
AcDbLine
 62
7
  6
CONTINUOUS
 10
-4.5157818307
 20
9.449660387
 11
-4.5308415457
 21
9.4398345274
  0
LWPOLYLINE
  5
391
100
AcDbEntity
  8
0
100
AcDbPolyline
 62
250
  6
CONTINUOUS
 90
4
 70
0
 10
-0.9476333522
 20
10.9634937341
 10
-0.9488165985
 20
10.9627703997
 10
-0.9529612567
 20
10.9605698075
 10
-0.9600161058
 20
10.956933714
  0
LINE
  5
392
100
AcDbEntity
  8
0
100
AcDbLine
 62
250
  6
CONTINUOUS
 10
-1.0142931516
 20
10.9295873141
 11
-5.1765813451
 21
8.8056635218
  0
LINE
  5
393
100
AcDbEntity
  8
0
100
AcDbLine
 62
250
  6
CONTINUOUS
 10
-0.9360947466
 20
10.6189060514
 11
-5.1765813451
 21
8.4558316672
  0
LINE
  5
394
100
AcDbEntity
  8
0
100
AcDbLine
 62
250
  6
CONTINUOUS
 10
17.9356954302
 20
20.2427098145
 11
25.8681324622
 21
24.2783565156
  0
LINE
  5
395
100
AcDbEntity
  8
RACCORDO
100
AcDbLine
 62
250
  6
CONTINUOUS
 10
17.6150821634
 20
20.6800602086
 11
-0.997660662
 21
11.2175759295
  0
LINE
  5
396
100
AcDbEntity
  8
RACCORDO
100
AcDbLine
 62
250
  6
CONTINUOUS
 10
17.8589589086
 20
19.7294351591
 11
-0.7571639626
 21
10.2736630707
  0
LINE
  5
397
100
AcDbEntity
  8
0
100
AcDbLine
 62
250
  6
CONTINUOUS
 10
-0.9600161058
 20
10.956933714
 11
-0.9823375114
 21
10.9456213718
  0
LINE
  5
398
100
AcDbEntity
  8
0
100
AcDbLine
 62
250
  6
CONTINUOUS
 10
-0.9823375114
 20
10.9456213718
 11
-1.014293151
 21
10.9295873128
  0
LINE
  5
399
100
AcDbEntity
  8
CURVE
100
AcDbLine
 62
250
  6
CONTINUOUS
 10
-20.6447748216
 20
-15.7342593682
 11
-18.2754721299
 21
-15.1496710436
  0
LINE
  5
39A
100
AcDbEntity
  8
CURVE
100
AcDbLine
 62
250
  6
CONTINUOUS
 10
-18.2754721299
 20
-14.8957723138
 11
-20.6447748216
 21
-15.4803597724
  0
LINE
  5
39B
100
AcDbEntity
  8
ASSI
100
AcDbLine
 62
250
  6
CONTINUOUS
 10
-6.1639705792
 20
17.5910642603
 11
-6.1343736568
 21
17.27452044
  0
LWPOLYLINE
  5
39C
100
AcDbEntity
  8
ASSI
100
AcDbPolyline
 62
250
  6
CONTINUOUS
 90
13
 70
0
 10
-8.5995188422
 20
20.7008747156
 10
-8.6015820885
 20
20.7236627068
 10
-8.6058706623
 20
20.7470704047
 10
-8.6123159549
 20
20.7707234981
 10
-8.6208148696
 20
20.7942437533
 10
-8.631231479
 20
20.8172550848
 10
-8.6433992057
 20
20.8393895676
 10
-8.657123465
 20
20.8602932777
 10
-8.6721847923
 20
20.8796319854
 10
-8.6883423706
 20
20.8970965123
 10
-8.705337846
 20
20.9124076257
 10
-8.7228994532
 20
20.9253205114
 10
-8.7407463854
 20
20.9356287144
  0
LWPOLYLINE
  5
39D
100
AcDbEntity
  8
ASSI
100
AcDbPolyline
 62
250
  6
CONTINUOUS
 90
13
 70
0
 10
-8.2784574585
 20
20.6167290913
 10
-8.2763942853
 20
20.5939416321
 10
-8.2721058599
 20
20.5705343732
 10
-8.2656607546
 20
20.5468815992
 10
-8.2571620272
 20
20.5233615202
 10
-8.2467455733
 20
20.5003502247
 10
-8.234577953
 20
20.4782156655
 10
-8.2208537277
 20
20.4573117766
 10
-8.2057923493
 20
20.4379728132
 10
-8.1896346507
 20
20.4205080073
 10
-8.172638995
 20
20.4051966228
 10
-8.1550771447
 20
20.3922834905
 10
-8.1372299153
 20
20.3819750925
  0
LWPOLYLINE
  5
39E
100
AcDbEntity
  8
ASSI
100
AcDbPolyline
 62
250
  6
CONTINUOUS
 90
13
 70
0
 10
-5.733741935
 20
22.1337631692
 10
-5.7358051082
 20
22.1565506284
 10
-5.7400935336
 20
22.1799578872
 10
-5.7465386389
 20
22.2036106613
 10
-5.7550373663
 20
22.2271307403
 10
-5.7654538202
 20
22.2501420358
 10
-5.7776214405
 20
22.2722765949
 10
-5.7913456658
 20
22.2931804839
 10
-5.8064070442
 20
22.3125194473
 10
-5.8225647428
 20
22.3299842532
 10
-5.8395603985
 20
22.3452956376
 10
-5.8571222488
 20
22.35820877
 10
-5.8749694782
 20
22.368517168
  0
LINE
  5
39F
100
AcDbEntity
  8
ASSI
100
AcDbLine
 62
250
  6
CONTINUOUS
 10
-6.1966384069
 20
17.9614535441
 11
-6.1639705792
 21
17.5910642603
  0
LINE
  5
3A0
100
AcDbEntity
  8
RACCORDO
100
AcDbLine
 62
250
  6
CONTINUOUS
 10
-6.0611897413
 20
20.665294854
 11
-6.0552385349
 21
20.5957564234
  0
LWPOLYLINE
  5
3A1
100
AcDbEntity
  8
ASSI
100
AcDbPolyline
 62
250
  6
CONTINUOUS
 90
5
 70
0
 10
-8.0630667316
 20
21.8357780381
 10
-8.0612547671
 20
21.8145137416
 10
-8.0558811295
 20
21.7935466245
 10
-8.0469841132
 20
21.7728813614
 10
-8.0346272881
 20
21.7526657022
  0
LINE
  5
3A2
100
AcDbEntity
  8
ASSI
100
AcDbLine
 62
250
  6
CONTINUOUS
 10
-6.232441303
 20
18.3932966406
 11
-6.1966384069
 21
17.9614535441
  0
LWPOLYLINE
  5
3A3
100
AcDbEntity
  8
ASSI
100
AcDbPolyline
 62
250
  6
CONTINUOUS
 90
16
 70
0
 10
-7.5806346221
 20
14.4704210995
 10
-7.5835245698
 20
14.5163123251
 10
-7.5901732707
 20
14.5636952045
 10
-7.6005074634
 20
14.612047876
 10
-7.6144151149
 20
14.6608434764
 10
-7.6317419981
 20
14.7095389084
 10
-7.6522895136
 20
14.7575811868
 10
-7.6758226405
 20
14.8044321461
 10
-7.7020838203
 20
14.8495889154
 10
-7.7307912929
 20
14.8925706792
 10
-7.7616741994
 20
14.9329601596
 10
-7.7943533309
 20
14.970250484
 10
-7.8283331476
 20
15.0039067206
 10
-7.8631813285
 20
15.0335680588
 10
-7.8985542968
 20
15.0590071461
 10
-7.9340668636
 20
15.0800015347
  0
LWPOLYLINE
  5
3A4
100
AcDbEntity
  8
ASSI
100
AcDbPolyline
 62
250
  6
CONTINUOUS
 90
3
 70
0
 10
-5.5831737566
 20
18.7853419226
 10
-5.5838302732
 20
18.7990138542
 10
-5.5849208468
 20
18.81234882
  0
LWPOLYLINE
  5
3A5
100
AcDbEntity
  8
ASSI
100
AcDbPolyline
 62
250
  6
CONTINUOUS
 90
15
 70
0
 10
-4.2886404336
 20
12.2943700666
 10
-4.2901263743
 20
12.3378759186
 10
-4.2949812944
 20
12.3822656495
 10
-4.3030728749
 20
12.4270889837
 10
-4.3143051479
 20
12.4721393636
 10
-4.3284605346
 20
12.5167688008
 10
-4.3450506924
 20
12.5599037772
 10
-4.3636835548
 20
12.6011273639
 10
-4.3840566123
 20
12.6402633463
 10
-4.4056231837
 20
12.6767324717
 10
-4.4276703497
 20
12.7099266494
 10
-4.4501740064
 20
12.7403449991
 10
-4.4737428097
 20
12.7690204647
 10
-4.4981522383
 20
12.795726088
 10
-4.5233091676
 20
12.8204183099
  0
LWPOLYLINE
  5
3A6
100
AcDbEntity
  8
ASSI
100
AcDbPolyline
 62
250
  6
CONTINUOUS
 90
9
 70
0
 10
-5.1963729543
 20
16.1633385889
 10
-5.1969114028
 20
16.1820058225
 10
-5.1990290658
 20
16.2012327871
 10
-5.2027026179
 20
16.2208076408
 10
-5.2078923228
 20
16.2405171389
 10
-5.214540634
 20
16.2601416664
 10
-5.2225710671
 20
16.2794578693
 10
-5.2318911845
 20
16.2982487893
 10
-5.2423989631
 20
16.3163133682
  0
LINE
  5
3A7
100
AcDbEntity
  8
ASSI
100
AcDbLine
 62
250
  6
CONTINUOUS
 10
-5.5734092969
 20
18.4297639455
 11
-5.5831737566
 21
18.7853419226
  0
LINE
  5
3A8
100
AcDbEntity
  8
ASSI
100
AcDbLine
 62
250
  6
CONTINUOUS
 10
-5.5661432595
 20
18.1002445648
 11
-5.5734092969
 21
18.4297639455
  0
LINE
  5
3A9
100
AcDbEntity
  8
ASSI
100
AcDbLine
 62
250
  6
CONTINUOUS
 10
-5.5611599357
 20
17.7988224825
 11
-5.5661432595
 21
18.1002445648
  0
LINE
  5
3AA
100
AcDbEntity
  8
ASSI
100
AcDbLine
 62
250
  6
CONTINUOUS
 10
-5.5587682055
 20
17.5924818792
 11
-5.5611599357
 21
17.7988224825
  0
LWPOLYLINE
  5
3AB
100
AcDbEntity
  8
ASSI
100
AcDbPolyline
 62
7
  6
CONTINUOUS
 90
17
 70
0
 10
-4.2325088474
 20
12.3636418175
 10
-4.2326069574
 20
12.3738755249
 10
-4.2353608703
 20
12.4188855732
 10
-4.2418233909
 20
12.4644305167
 10
-4.2519161923
 20
12.5101134786
 10
-4.2653955135
 20
12.5551467582
 10
-4.2820239356
 20
12.5991510802
 10
-4.3017280074
 20
12.6420684239
 10
-4.3243277955
 20
12.6835508054
 10
-4.3497839902
 20
12.72342911
 10
-4.3779541882
 20
12.7613329623
 10
-4.4084874137
 20
12.7966739757
 10
-4.4415988603
 20
12.8295014255
 10
-4.4769846953
 20
12.8592375716
 10
-4.5133158397
 20
12.8847605332
 10
-4.5499080483
 20
12.9058660579
 10
-4.555236701
 20
12.9085747821
  0
LWPOLYLINE
  5
3AC
100
AcDbEntity
  8
ASSI
100
AcDbPolyline
 62
250
  6
CONTINUOUS
 90
16
 70
0
 10
-5.7078346851
 20
18.9532623844
 10
-5.7078724183
 20
18.9692210619
 10
-5.7088759783
 20
18.9850650136
 10
-5.7108388693
 20
19.0006928274
 10
-5.7137484525
 20
19.0160044371
 10
-5.7175860328
 20
19.0309018978
 10
-5.7223270051
 20
19.0452899999
 10
-5.7279410073
 20
19.0590767096
 10
-5.7343920471
 20
19.0721737383
 10
-5.7416387499
 20
19.0844972392
 10
-5.7496347329
 20
19.09596841
 10
-5.7583287403
 20
19.1065137819
 10
-5.767664887
 20
19.1160657164
 10
-5.7775832793
 20
19.1245631071
 10
-5.7880204379
 20
19.1319517127
 10
-5.7989095092
 20
19.1381843327
  0
LINE
  5
3AD
100
AcDbEntity
  8
ASSI
100
AcDbLine
 62
7
  6
CONTINUOUS
 10
-5.6134978301
 20
18.6361198532
 11
-5.6134978301
 21
17.5024808318
  0
LINE
  5
3AE
100
AcDbEntity
  8
ASSI
100
AcDbLine
 62
7
  6
CONTINUOUS
 10
-5.4594240575
 20
17.4129559053
 11
-5.4594240575
 21
17.6393009964
  0
LINE
  5
3AF
100
AcDbEntity
  8
ASSI
100
AcDbLine
 62
250
  6
CONTINUOUS
 10
-5.1963729543
 20
15.8378469713
 11
-5.1963729543
 21
16.1633385889
  0
LINE
  5
3B0
100
AcDbEntity
  8
RACCORDO
100
AcDbLine
 62
7
  6
CONTINUOUS
 10
-5.1765813451
 20
8.4558316672
 11
-5.1765813451
 21
-21.9437744969
  0
LINE
  5
3B1
100
AcDbEntity
  8
ASSI
100
AcDbLine
 62
7
  6
CONTINUOUS
 10
-5.1765813451
 20
-29.1741777555
 11
-5.1765813451
 21
15.6862349258
  0
LINE
  5
3B2
100
AcDbEntity
  8
ASSI
100
AcDbLine
 62
7
  6
CONTINUOUS
 10
-5.1402409143
 20
15.8410783485
 11
-5.1402409143
 21
16.2328044259
  0
LINE
  5
3B3
100
AcDbEntity
  8
0
100
AcDbLine
 62
7
  6
CONTINUOUS
 10
-4.9644493107
 20
-22.0760769506
 11
-4.9644493107
 21
-22.3331260797
  0
LINE
  5
3B4
100
AcDbEntity
  8
DRAFT
100
AcDbLine
 62
250
  6
CONTINUOUS
 10
-4.4132968366
 20
17.4753100026
 11
-4.4132968366
 21
16.7956120918
  0
LINE
  5
3B5
100
AcDbEntity
  8
RACCORDO
100
AcDbLine
 62
250
  6
CONTINUOUS
 10
-4.4001599234
 20
21.495809763
 11
-4.4001599234
 21
20.8265299741
  0
LINE
  5
3B6
100
AcDbEntity
  8
ASSI
100
AcDbLine
 62
250
  6
CONTINUOUS
 10
-4.2886405109
 20
-23.3356005713
 11
-4.2886405109
 21
-24.8268397751
  0
LINE
  5
3B7
100
AcDbEntity
  8
ASSI
100
AcDbLine
 62
250
  6
CONTINUOUS
 10
-4.2886405109
 20
10.8031308245
 11
-4.2886405109
 21
12.2943700283
  0
LINE
  5
3B8
100
AcDbEntity
  8
ASSI
100
AcDbLine
 62
7
  6
CONTINUOUS
 10
-4.2325084709
 20
-23.3802227431
 11
-4.2325084709
 21
-24.7573738954
  0
LINE
  5
3B9
100
AcDbEntity
  8
ASSI
100
AcDbLine
 62
7
  6
CONTINUOUS
 10
-4.2325084709
 20
10.9866846704
 11
-4.2325084709
 21
12.3638358389
  0
LINE
  5
3BA
100
AcDbEntity
  8
RACCORDO
100
AcDbLine
 62
250
  6
CONTINUOUS
 10
-4.0471064598
 20
21.5201008771
 11
-4.0470910654
 21
21.0170187229
  0
LWPOLYLINE
  5
3BB
100
AcDbEntity
  8
ASSI
100
AcDbPolyline
 62
7
  6
CONTINUOUS
 90
22
 70
0
 10
-5.6135522313
 20
17.5024820109
 10
-5.6135705848
 20
17.5004024507
 10
-5.6154901129
 20
17.4813031095
 10
-5.6205677441
 20
17.4625312087
 10
-5.6288821155
 20
17.443968358
 10
-5.6403545899
 20
17.4257329477
 10
-5.6547492559
 20
17.4081801484
 10
-5.6721016827
 20
17.3913348086
 10
-5.6923763011
 20
17.3751720798
 10
-5.7152304917
 20
17.3599725872
 10
-5.7407473645
 20
17.3457356939
 10
-5.7688438095
 20
17.3324620367
 10
-5.7989278776
 20
17.3204341511
 10
-5.831008512
 20
17.3096907015
 10
-5.8650767695
 20
17.3001930234
 10
-5.900513872
 20
17.2921076594
 10
-5.9373458274
 20
17.2854555574
 10
-5.9755466279
 20
17.2802157695
 10
-6.0144194712
 20
17.2764919944
 10
-6.05373209
 20
17.2743187984
 10
-6.0937167517
 20
17.2736616153
 10
-6.1343734563
 20
17.2745204449
  0
LWPOLYLINE
  5
3BC
100
AcDbEntity
  8
ASSI
100
AcDbPolyline
 62
250
  6
CONTINUOUS
 90
16
 70
0
 10
-3.8048487747
 20
19.6377764455
 10
-3.8044845363
 20
19.6563979584
 10
-3.8033958116
 20
19.6758487531
 10
-3.8015945288
 20
19.6959157224
 10
-3.7991004234
 20
19.7163790085
 10
-3.7959408211
 20
19.7370144112
 10
-3.7921503394
 20
19.7575958452
 10
-3.7877705074
 20
19.777897816
 10
-3.7828493117
 20
19.7976978909
 10
-3.7774406696
 20
19.8167791366
 10
-3.7716038395
 20
19.8349324947
 10
-3.7654027709
 20
19.8519590735
 10
-3.7589054037
 20
19.8676723265
 10
-3.7521829243
 20
19.881900096
 10
-3.7453089858
 20
19.8944864991
 10
-3.7383589003
 20
19.9052936365
  0
LWPOLYLINE
  5
3BD
100
AcDbEntity
  8
ASSI
100
AcDbPolyline
 62
250
  6
CONTINUOUS
 90
11
 70
0
 10
-4.2886404302
 20
-24.8268397316
 10
-4.2901051866
 20
-24.8681288958
 10
-4.2949069931
 20
-24.907096384
 10
-4.3029369451
 20
-24.9434204305
 10
-4.314144333
 20
-24.9770348747
 10
-4.3283213447
 20
-25.0074284725
 10
-4.3448985874
 20
-25.0338592772
 10
-4.3633823679
 20
-25.0562400144
 10
-4.3835057732
 20
-25.0748303822
 10
-4.4048411975
 20
-25.0897198312
 10
-4.4123365433
 20
-25.0939914642
  0
LINE
  5
3BE
100
AcDbEntity
  8
ASSI
100
AcDbLine
 62
250
  6
CONTINUOUS
 10
-5.1404188694
 20
15.8368608153
 11
-5.1402409143
 21
15.8410783485
  0
LWPOLYLINE
  5
3BF
100
AcDbEntity
  8
ASSI
100
AcDbPolyline
 62
250
  6
CONTINUOUS
 90
10
 70
0
 10
-7.5806346221
 20
-30.2397253057
 10
-7.5835242499
 20
-30.284560254
 10
-7.5901721599
 20
-30.3269045123
 10
-7.6005051457
 20
-30.3662917822
 10
-7.6144113074
 20
-30.4022924497
 10
-7.6317364471
 20
-30.4345050375
 10
-7.6522817384
 20
-30.4625653623
 10
-7.6758116015
 20
-30.4861640465
 10
-7.7020688647
 20
-30.5050539577
 10
-7.7222065055
 20
-30.5154933515
  0
LWPOLYLINE
  5
3C0
100
AcDbEntity
  8
ASSI
100
AcDbPolyline
 62
250
  6
CONTINUOUS
 90
22
 70
0
 10
-5.6134978301
 20
18.6361198532
 10
-5.6148104058
 20
18.6180170026
 10
-5.6198364993
 20
18.5964383386
 10
-5.6285903641
 20
18.575159314
 10
-5.6410059155
 20
18.5543405915
 10
-5.656989396
 20
18.5341394021
 10
-5.6764201167
 20
18.5147082883
 10
-5.6991513661
 20
18.496193973
 10
-5.7250114899
 20
18.4787362744
 10
-5.7538051783
 20
18.4624670414
 10
-5.7853149718
 20
18.4475091354
 10
-5.8193029445
 20
18.4339754931
 10
-5.8555124735
 20
18.4219682972
 10
-5.8936701429
 20
18.4115782157
 10
-5.9334878041
 20
18.4028837119
 10
-5.9746647863
 20
18.3959504412
 10
-6.0168901596
 20
18.3908307595
 10
-6.0598450598
 20
18.3875633304
 10
-6.1032050971
 20
18.386172829
 10
-6.1466428386
 20
18.3866697538
 10
-6.1898302809
 20
18.3890503504
 10
-6.232441303
 20
18.3932966406
  0
LWPOLYLINE
  5
3C1
100
AcDbEntity
  8
ASSI
100
AcDbPolyline
 62
7
  6
CONTINUOUS
 90
20
 70
0
 10
-3.1386437941
 20
18.6742069125
 10
-3.1409072187
 20
18.6508775457
 10
-3.1472214208
 20
18.6292803505
 10
-3.1575156624
 20
18.6078913975
 10
-3.1715521071
 20
18.5872420149
 10
-3.189423253
 20
18.5673571386
 10
-3.2110366019
 20
18.5482118326
 10
-3.2358768229
 20
18.5302626164
 10
-3.2640214921
 20
18.5135382309
 10
-3.2953930334
 20
18.4980099352
 10
-3.3292433871
 20
18.4840480264
 10
-3.3656321296
 20
18.4716901588
 10
-3.4044996845
 20
18.460898678
 10
-3.4449192632
 20
18.4519309182
 10
-3.4869426401
 20
18.4448318684
 10
-3.5305180409
 20
18.4395565396
 10
-3.574563354
 20
18.4362272987
 10
-3.6187178758
 20
18.4348849347
 10
-3.66334231
 20
18.4354886585
 10
-3.7084366565
 20
18.4380384703
  0
LWPOLYLINE
  5
3C2
100
AcDbEntity
  8
RACCORDO
100
AcDbPolyline
 62
250
  6
CONTINUOUS
 90
3
 70
0
 10
1.9847670849
 20
19.5811599803
 10
1.9900228485
 20
19.5938677695
 10
1.9926205201
 20
19.6068331884
  0
LINE
  5
3C3
100
AcDbEntity
  8
CURVE
100
AcDbLine
 62
7
  6
CONTINUOUS
 10
-20.8216321271
 20
-13.0199431753
 11
-20.7862767881
 21
-12.9845878362
  0
LINE
  5
3C4
100
AcDbEntity
  8
CURVE
100
AcDbLine
 62
7
  6
CONTINUOUS
 10
-20.8216321271
 20
-13.6499753173
 11
-20.6447748216
 21
-13.4731180118
  0
LINE
  5
3C5
100
AcDbEntity
  8
CURVE
100
AcDbLine
 62
7
  6
CONTINUOUS
 10
-20.5106581679
 20
-13.3390013581
 11
-20.36625536
 21
-13.1945985502
  0
LINE
  5
3C6
100
AcDbEntity
  8
CURVE
100
AcDbLine
 62
7
  6
CONTINUOUS
 10
-20.8216321271
 20
-14.2800074593
 11
-20.6447748216
 21
-14.1031501539
  0
LINE
  5
3C7
100
AcDbEntity
  8
CURVE
100
AcDbLine
 62
7
  6
CONTINUOUS
 10
-20.0906367399
 20
-13.5490120721
 11
-19.946233932
 21
-13.4046092642
  0
LINE
  5
3C8
100
AcDbEntity
  8
CURVE
100
AcDbLine
 62
7
  6
CONTINUOUS
 10
-20.8216321271
 20
-14.9100396014
 11
-20.6447748216
 21
-14.7331822959
  0
LINE
  5
3C9
100
AcDbEntity
  8
CURVE
100
AcDbLine
 62
7
  6
CONTINUOUS
 10
-20.2211378671
 20
-14.3095453414
 11
-20.1986394169
 21
-14.2870468911
  0
LINE
  5
3CA
100
AcDbEntity
  8
CURVE
100
AcDbLine
 62
7
  6
CONTINUOUS
 10
-20.09208875
 20
-14.1804962242
 11
-19.9449386087
 21
-14.0333460829
  0
LINE
  5
3CB
100
AcDbEntity
  8
CURVE
100
AcDbLine
 62
7
  6
CONTINUOUS
 10
-19.6706153119
 20
-13.7590227861
 11
-19.526212504
 21
-13.6146199782
  0
LINE
  5
3CC
100
AcDbEntity
  8
CURVE
100
AcDbLine
 62
7
  6
CONTINUOUS
 10
-20.8216321271
 20
-15.5400717434
 11
-20.6447748216
 21
-15.3632144379
  0
LINE
  5
3CD
100
AcDbEntity
  8
CURVE
100
AcDbLine
 62
7
  6
CONTINUOUS
 10
-19.7969859164
 20
-14.5154255327
 11
-19.6849448412
 21
-14.4033844575
  0
LINE
  5
3CE
100
AcDbEntity
  8
CURVE
100
AcDbLine
 62
7
  6
CONTINUOUS
 10
-19.2505938838
 20
-13.9690335001
 11
-19.106191076
 21
-13.8246306923
  0
LWPOLYLINE
  5
3CF
100
AcDbEntity
  8
ASSI
100
AcDbPolyline
 62
250
  6
CONTINUOUS
 90
7
 70
0
 10
-10.9733158122
 20
20.8716830573
 10
-10.9703799248
 20
20.8611457402
 10
-10.9647496508
 20
20.8486753147
 10
-10.9562519825
 20
20.8347486856
 10
-10.9447633054
 20
20.8197240506
 10
-10.9301888049
 20
20.8040146164
 10
-10.9124476197
 20
20.7881287877
  0
LINE
  5
3D0
100
AcDbEntity
  8
ASSI
100
AcDbLine
 62
250
  6
CONTINUOUS
 10
-6.3126989301
 20
17.4304506659
 11
-6.2887112332
 21
17.248472807
  0
LINE
  5
3D1
100
AcDbEntity
  8
ASSI
100
AcDbLine
 62
250
  6
CONTINUOUS
 10
-6.3468359367
 20
17.6999837226
 11
-6.3126989301
 21
17.4304506659
  0
LINE
  5
3D2
100
AcDbEntity
  8
ASSI
100
AcDbLine
 62
250
  6
CONTINUOUS
 10
-6.3742963452
 20
17.9259287266
 11
-6.3468359367
 21
17.6999837226
  0
LWPOLYLINE
  5
3D3
100
AcDbEntity
  8
ASSI
100
AcDbPolyline
 62
250
  6
CONTINUOUS
 90
13
 70
0
 10
-8.478046538
 20
17.7831558562
 10
-8.48068656
 20
17.8055925536
 10
-8.485474153
 20
17.8285126279
 10
-8.4923362362
 20
17.851566214
 10
-8.5011680629
 20
17.8744014087
 10
-8.5118348191
 20
17.8966696426
 10
-8.5241736812
 20
17.9180310004
 10
-8.5379963019
 20
17.9381594103
 10
-8.5530916847
 20
17.9567476205
 10
-8.5692294049
 20
17.9735118901
 10
-8.5861631273
 20
17.9881963195
 10
-8.6036343657
 20
18.0005767573
 10
-8.6213764291
 20
18.0104642212
  0
LWPOLYLINE
  5
3D4
100
AcDbEntity
  8
ASSI
100
AcDbPolyline
 62
250
  6
CONTINUOUS
 90
13
 70
0
 10
-7.9783772674
 20
18.9708942313
 10
-7.9810235052
 20
18.9933688678
 10
-7.9858236531
 20
19.0163250371
 10
-7.9927034233
 20
19.0394111269
 10
-8.0015559182
 20
19.0622718432
 10
-8.0122454648
 20
19.0845594791
 10
-8.0246112122
 20
19.1059386344
 10
-8.0384757946
 20
19.1260967849
 10
-8.0536182669
 20
19.1447074447
 10
-8.0697725419
 20
19.1614520174
 10
-8.0866746468
 20
19.1760767643
 10
-8.104074743
 20
19.1883844192
 10
-8.1217071585
 20
19.1982025964
  0
LWPOLYLINE
  5
3D5
100
AcDbEntity
  8
ASSI
100
AcDbPolyline
 62
250
  6
CONTINUOUS
 90
13
 70
0
 10
-7.8419818415
 20
19.0415244513
 10
-7.8446218635
 20
19.0639611487
 10
-7.8494094564
 20
19.086881223
 10
-7.8562715396
 20
19.1099348091
 10
-7.8651033663
 20
19.1327700039
 10
-7.8757701225
 20
19.1550382377
 10
-7.8881089847
 20
19.1763995956
 10
-7.9019316054
 20
19.1965280054
 10
-7.9170269881
 20
19.2151162157
 10
-7.9331647084
 20
19.2318804852
 10
-7.9500984307
 20
19.2465649147
 10
-7.9675696691
 20
19.2589453524
 10
-7.9853117325
 20
19.2688328163
  0
LWPOLYLINE
  5
3D6
100
AcDbEntity
  8
ASSI
100
AcDbPolyline
 62
250
  6
CONTINUOUS
 90
8
 70
0
 10
-5.5849208468
 20
18.81234882
 10
-5.5864454775
 20
18.8253468199
 10
-5.5884074197
 20
18.8380077803
 10
-5.5908034189
 20
18.8503317748
 10
-5.5936237122
 20
18.8623190244
 10
-5.5968650451
 20
18.8739696028
 10
-5.600530672
 20
18.8852834363
 10
-5.6046205928
 20
18.8962605249
  0
LWPOLYLINE
  5
3D7
100
AcDbEntity
  8
ASSI
100
AcDbPolyline
 62
250
  6
CONTINUOUS
 90
13
 70
0
 10
-6.0342286392
 20
18.9230061358
 10
-6.0316787956
 20
18.9012548606
 10
-6.0271056511
 20
18.879038613
 10
-6.0205749291
 20
18.8566766862
 10
-6.0121804875
 20
18.8344904669
 10
-6.0020429702
 20
18.8127988183
 10
-5.9903080738
 20
18.7919134968
 10
-5.977144452
 20
18.7721346691
 10
-5.9627412928
 20
18.7537465998
 10
-5.947305601
 20
18.7370135673
 10
-5.9310592201
 20
18.7221760624
 10
-5.9142356445
 20
18.709447332
 10
-5.8970766646
 20
18.6990103163
  0
LINE
  5
3D8
100
AcDbEntity
  8
ASSI
100
AcDbLine
 62
250
  6
CONTINUOUS
 10
-6.4032868272
 20
18.1735192224
 11
-6.3742963452
 21
17.9259287266
  0
LINE
  5
3D9
100
AcDbEntity
  8
ASSI
100
AcDbLine
 62
250
  6
CONTINUOUS
 10
-6.4233485827
 20
18.3502706409
 11
-6.4032868272
 21
18.1735192224
  0
LINE
  5
3DA
100
AcDbEntity
  8
ASSI
100
AcDbLine
 62
250
  6
CONTINUOUS
 10
-4.0047719207
 20
19.5020647259
 11
-3.9664973145
 21
19.1434796904
  0
LINE
  5
3DB
100
AcDbEntity
  8
ASSI
100
AcDbLine
 62
250
  6
CONTINUOUS
 10
-4.0178246261
 20
19.6283151605
 11
-4.0047719207
 21
19.5020647259
  0
LWPOLYLINE
  5
3DC
100
AcDbEntity
  8
RACCORDO
100
AcDbPolyline
 62
250
  6
CONTINUOUS
 90
13
 70
0
 10
-4.0310993193
 20
22.1510408295
 10
-4.0285202193
 20
22.1225555274
 10
-4.0231594144
 20
22.0932956418
 10
-4.0151026853
 20
22.0637290776
 10
-4.0044789236
 20
22.0343286384
 10
-3.9914580572
 20
22.005564433
 10
-3.9762483226
 20
21.9778963606
 10
-3.9590929657
 20
21.9517668209
 10
-3.9402663261
 20
21.9275935854
 10
-3.9200694221
 20
21.9057631008
 10
-3.8988251939
 20
21.8866243882
 10
-3.8768733491
 20
21.8704834488
 10
-3.8545648903
 20
21.857598331
  0
LWPOLYLINE
  5
3DD
100
AcDbEntity
  8
RACCORDO
100
AcDbPolyline
 62
250
  6
CONTINUOUS
 90
13
 70
0
 10
-3.2343761829
 20
22.5494023977
 10
-3.2317972165
 20
22.5209180737
 10
-3.2264366847
 20
22.4916590002
 10
-3.218380303
 20
22.4620930326
 10
-3.2077568938
 20
22.4326929339
 10
-3.1947363264
 20
22.4039288145
 10
-3.179526801
 20
22.3762606155
 10
-3.1623715194
 20
22.3501307544
 10
-3.1435447964
 20
22.3259570501
 10
-3.1233476731
 20
22.3041260427
 10
-3.1021031036
 20
22.2849868122
 10
-3.0801507906
 20
22.2688453967
 10
-3.0578417539
 20
22.2559598992
  0
LINE
  5
3DE
100
AcDbEntity
  8
ASSI
100
AcDbLine
 62
250
  6
CONTINUOUS
 10
-3.7376198446
 20
18.7796519972
 11
-3.7084365799
 21
18.4380384702
  0
LINE
  5
3DF
100
AcDbEntity
  8
ASSI
100
AcDbLine
 62
250
  6
CONTINUOUS
 10
-3.7698176202
 20
19.1778951754
 11
-3.7376198446
 21
18.7796519972
  0
LINE
  5
3E0
100
AcDbEntity
  8
ASSI
100
AcDbLine
 62
250
  6
CONTINUOUS
 10
-3.8048487678
 20
19.637776442
 11
-3.7698176202
 21
19.1778951754
  0
LINE
  5
3E1
100
AcDbEntity
  8
ASSI
100
AcDbLine
 62
250
  6
CONTINUOUS
 10
-3.1177629423
 20
19.7102085261
 11
-3.1315579459
 21
20.0872543819
  0
LINE
  5
3E2
100
AcDbEntity
  8
ASSI
100
AcDbLine
 62
250
  6
CONTINUOUS
 10
-3.1073776588
 20
19.3848410401
 11
-3.1177629423
 21
19.7102085261
  0
LWPOLYLINE
  5
3E3
100
AcDbEntity
  8
RACCORDO
100
AcDbPolyline
 62
250
  6
CONTINUOUS
 90
3
 70
0
 10
-2.286039899
 20
17.4383752336
 10
-2.2867082297
 20
17.4616377985
 10
-2.2893387457
 20
17.4855965878
  0
LINE
  5
3E4
100
AcDbEntity
  8
ASSI
100
AcDbLine
 62
250
  6
CONTINUOUS
 10
-3.0990576892
 20
19.0810729284
 11
-3.1073776588
 21
19.3848410401
  0
LWPOLYLINE
  5
3E5
100
AcDbEntity
  8
RACCORDO
100
AcDbPolyline
 62
7
  6
CONTINUOUS
 90
7
 70
0
 10
-0.7571639626
 20
10.2736630707
 10
-0.7589002748
 20
10.3489038722
 10
-0.7640710001
 20
10.4252714929
 10
-0.7726761386
 20
10.5027659326
 10
-0.7847666043
 20
10.5816951864
 10
-0.8002914832
 20
10.6617512593
 10
-0.8190980333
 20
10.7420101667
  0
LINE
  5
3E6
100
AcDbEntity
  8
ASSI
100
AcDbLine
 62
250
  6
CONTINUOUS
 10
-3.0926707101
 20
18.8011352563
 11
-3.0990576892
 21
19.0810729284
  0
LWPOLYLINE
  5
3E7
100
AcDbEntity
  8
0
100
AcDbPolyline
 62
7
  6
CONTINUOUS
 90
8
 70
0
 10
-0.8799632247
 20
10.6881442724
 10
-0.8804393682
 20
10.7106657094
 10
-0.8845511089
 20
10.7585294005
 10
-0.8928421536
 20
10.8070544869
 10
-0.9051973296
 20
10.8555731487
 10
-0.9210617776
 20
10.9025548159
 10
-0.9398809043
 20
10.9473004443
 10
-0.9476337764
 20
10.9634944509
  0
LINE
  5
3E8
100
AcDbEntity
  8
ASSI
100
AcDbLine
 62
7
  6
CONTINUOUS
 10
-3.138624096
 20
19.8735567203
 11
-3.138624096
 21
18.6742067105
  0
LINE
  5
3E9
100
AcDbEntity
  8
RACCORDO
100
AcDbLine
 62
250
  6
CONTINUOUS
 10
-2.286039901
 20
17.43084322
 11
-2.286039901
 21
17.4383752326
  0
LINE
  5
3EA
100
AcDbEntity
  8
ASSI
100
AcDbLine
 62
7
  6
CONTINUOUS
 10
-1.9243779215
 20
17.5438618964
 11
-1.9243779215
 21
17.2500122302
  0
LINE
  5
3EB
100
AcDbEntity
  8
DRAFT
100
AcDbLine
 62
250
  6
CONTINUOUS
 10
-1.807220634
 20
17.4077578957
 11
-1.807220634
 21
17.1914335865
  0
LINE
  5
3EC
100
AcDbEntity
  8
ASSI
100
AcDbLine
 62
7
  6
CONTINUOUS
 10
-1.2906761847
 20
15.6661627585
 11
-1.2906761847
 21
15.6589427014
  0
LINE
  5
3ED
100
AcDbEntity
  8
0
100
AcDbLine
 62
250
  6
CONTINUOUS
 10
-0.9360947466
 20
10.6189060514
 11
-0.9360947466
 21
-19.7156964631
  0
LINE
  5
3EE
100
AcDbEntity
  8
0
100
AcDbLine
 62
7
  6
CONTINUOUS
 10
-0.8799627066
 20
10.6883718884
 11
-0.8799627066
 21
-19.6462305977
  0
LINE
  5
3EF
100
AcDbEntity
  8
RACCORDO
100
AcDbLine
 62
7
  6
CONTINUOUS
 10
-0.7571639626
 20
10.2736630707
 11
-0.7571639626
 21
-19.2714778399
  0
LWPOLYLINE
  5
3F0
100
AcDbEntity
  8
0
100
AcDbPolyline
 62
250
  6
CONTINUOUS
 90
5
 70
0
 10
-0.9360947466
 20
-19.7156964631
 10
-0.9368923941
 20
-19.7452322926
 10
-0.9394546845
 20
-19.7742935554
 10
-0.9438649517
 20
-19.8026773773
 10
-0.950167172
 20
-19.8300544264
  0
LWPOLYLINE
  5
3F1
100
AcDbEntity
  8
RACCORDO
100
AcDbPolyline
 62
250
  6
CONTINUOUS
 90
7
 70
0
 10
-0.81283586
 20
16.0812234719
 10
-0.8140953008
 20
16.0630714955
 10
-0.8170470477
 20
16.0459958409
 10
-0.8216563371
 20
16.0301976759
 10
-0.8278688689
 20
16.0158631261
 10
-0.8356114565
 20
16.0031610545
 10
-0.8447928967
 20
15.9922410801
  0
LWPOLYLINE
  5
3F2
100
AcDbEntity
  8
ASSI
100
AcDbPolyline
 62
250
  6
CONTINUOUS
 90
7
 70
0
 10
-4.2325084716
 20
-24.757382121
 10
-4.2339634106
 20
-24.7694140285
 10
-4.2387330298
 20
-24.7821280861
 10
-4.2467452561
 20
-24.7944280192
 10
-4.2578660759
 20
-24.8061079783
 10
-4.2719094735
 20
-24.8169725099
 10
-4.2886405108
 20
-24.8268397834
  0
LWPOLYLINE
  5
3F3
100
AcDbEntity
  8
0
100
AcDbPolyline
 62
250
  6
CONTINUOUS
 90
7
 70
0
 10
-0.8799632247
 20
10.6881442724
 10
-0.8814182359
 20
10.6763293269
 10
-0.8861883328
 20
10.6636156163
 10
-0.8942007961
 20
10.6513161447
 10
-0.9053215557
 20
10.6396367153
 10
-0.9193645314
 20
10.6287727565
 10
-0.9360947466
 20
10.6189060514
  0
LINE
  5
3F4
100
AcDbEntity
  8
CURVE
100
AcDbLine
 62
7
  6
CONTINUOUS
 10
-20.8216321271
 20
-16.1701038854
 11
-20.6447748216
 21
-15.99324658
  0
LINE
  5
3F5
100
AcDbEntity
  8
CURVE
100
AcDbLine
 62
7
  6
CONTINUOUS
 10
-20.3009556037
 20
-15.6494273621
 11
-19.9638907953
 21
-15.3123625537
  0
LINE
  5
3F6
100
AcDbEntity
  8
CURVE
100
AcDbLine
 62
7
  6
CONTINUOUS
 10
-19.3656696746
 20
-14.7141414329
 11
-19.283867342
 21
-14.6323391004
  0
LINE
  5
3F7
100
AcDbEntity
  8
CURVE
100
AcDbLine
 62
7
  6
CONTINUOUS
 10
-18.8305724558
 20
-14.1790442141
 11
-18.6861696479
 21
-14.0346414063
  0
LINE
  5
3F8
100
AcDbEntity
  8
CURVE
100
AcDbLine
 62
7
  6
CONTINUOUS
 10
-20.48948196
 20
-16.4679858604
 11
-20.3450785748
 21
-16.3235824751
  0
LINE
  5
3F9
100
AcDbEntity
  8
CURVE
100
AcDbLine
 62
7
  6
CONTINUOUS
 10
-19.4645546213
 20
-15.4430585217
 11
-19.1274902188
 21
-15.1059941192
  0
LINE
  5
3FA
100
AcDbEntity
  8
CURVE
100
AcDbLine
 62
7
  6
CONTINUOUS
 10
-18.4105510278
 20
-14.3890549282
 11
-18.2661482199
 21
-14.2446521203
  0
LINE
  5
3FB
100
AcDbEntity
  8
CURVE
100
AcDbLine
 62
7
  6
CONTINUOUS
 10
-20.069460532
 20
-16.6779965744
 11
-19.9250571467
 21
-16.5335931891
  0
LINE
  5
3FC
100
AcDbEntity
  8
CURVE
100
AcDbLine
 62
7
  6
CONTINUOUS
 10
-19.3725610827
 20
-15.9810971251
 11
-19.2529654304
 21
-15.8615014728
  0
LINE
  5
3FD
100
AcDbEntity
  8
CURVE
100
AcDbLine
 62
7
  6
CONTINUOUS
 10
-18.6281536389
 20
-15.2366896813
 11
-18.2910896422
 21
-14.8996256846
  0
LINE
  5
3FE
100
AcDbEntity
  8
CURVE
100
AcDbLine
 62
7
  6
CONTINUOUS
 10
-18.2754721299
 20
-14.8840081723
 11
-18.0986148245
 21
-14.7071508669
  0
LINE
  5
3FF
100
AcDbEntity
  8
CURVE
100
AcDbLine
 62
7
  6
CONTINUOUS
 10
-19.6494391039
 20
-16.8880072884
 11
-19.5050357187
 21
-16.7436039032
  0
LINE
  5
400
100
AcDbEntity
  8
CURVE
100
AcDbLine
 62
7
  6
CONTINUOUS
 10
-19.2659549722
 20
-16.5045231567
 11
-19.121551587
 21
-16.3601197715
  0
LINE
  5
401
100
AcDbEntity
  8
CURVE
100
AcDbLine
 62
7
  6
CONTINUOUS
 10
-18.9773473876
 20
-16.2159155721
 11
-18.8329440024
 21
-16.0715121868
  0
LINE
  5
402
100
AcDbEntity
  8
CURVE
100
AcDbLine
 62
7
  6
CONTINUOUS
 10
-18.2754721299
 20
-15.5140403144
 11
-18.0986148245
 21
-15.3371830089
  0
LINE
  5
403
100
AcDbEntity
  8
CURVE
100
AcDbLine
 62
7
  6
CONTINUOUS
 10
-19.2294176759
 20
-17.0980180024
 11
-19.0850142907
 21
-16.9536146172
  0
LINE
  5
404
100
AcDbEntity
  8
CURVE
100
AcDbLine
 62
7
  6
CONTINUOUS
 10
-18.8459335442
 20
-16.7145338707
 11
-18.701530159
 21
-16.5701304855
  0
LINE
  5
405
100
AcDbEntity
  8
CURVE
100
AcDbLine
 62
7
  6
CONTINUOUS
 10
-18.2754721299
 20
-16.1440724564
 11
-18.0986148245
 21
-15.9672151509
  0
LINE
  5
406
100
AcDbEntity
  8
CURVE
100
AcDbLine
 62
7
  6
CONTINUOUS
 10
-18.8093962479
 20
-17.3080287164
 11
-18.6649928627
 21
-17.1636253312
  0
LINE
  5
407
100
AcDbEntity
  8
CURVE
100
AcDbLine
 62
7
  6
CONTINUOUS
 10
-18.2754721299
 20
-16.7741045984
 11
-18.0986148245
 21
-16.597247293
  0
LINE
  5
408
100
AcDbEntity
  8
CURVE
100
AcDbLine
 62
7
  6
CONTINUOUS
 10
-18.3893748199
 20
-17.5180394304
 11
-18.0986148245
 21
-17.227279435
  0
LWPOLYLINE
  5
409
100
AcDbEntity
  8
ASSI
100
AcDbPolyline
 62
250
  6
CONTINUOUS
 90
9
 70
0
 10
-14.4189927672
 20
20.9048841932
 10
-14.4083764782
 20
20.8866847669
 10
-14.3989827008
 20
20.867780366
 10
-14.3909262798
 20
20.8484266971
 10
-14.3842685781
 20
20.8287996722
 10
-14.3790684366
 20
20.8090810494
 10
-14.3753826772
 20
20.789476665
 10
-14.3732568506
 20
20.7702151997
 10
-14.3727157365
 20
20.75150998
  0
LWPOLYLINE
  5
40A
100
AcDbEntity
  8
RACCORDO
100
AcDbPolyline
 62
7
  6
CONTINUOUS
 90
3
 70
0
 10
-4.4680337903
 20
9.807093607
 10
-4.5492990261
 20
9.9658472917
 10
-4.6572426634
 20
10.174270434
  0
LWPOLYLINE
  5
40B
100
AcDbEntity
  8
RACCORDO
100
AcDbPolyline
 62
7
  6
CONTINUOUS
 90
16
 70
0
 10
-4.4680337903
 20
9.807093607
 10
-4.4553046602
 20
9.7793769768
 10
-4.4448478644
 20
9.7508904594
 10
-4.4367825861
 20
9.721917182
 10
-4.4312147262
 20
9.6927259371
 10
-4.428201944
 20
9.663626568
 10
-4.4277442357
 20
9.6349663501
 10
-4.4298409415
 20
9.6070665292
 10
-4.4344704861
 20
9.5801619406
 10
-4.4415763128
 20
9.5544662758
 10
-4.4511230305
 20
9.5302013129
 10
-4.4630251785
 20
9.5076659623
 10
-4.4771147147
 20
9.4871661971
 10
-4.4932206827
 20
9.4689249233
 10
-4.5111926461
 20
9.453096265
 10
-4.5157818307
 20
9.449660387
  0
LWPOLYLINE
  5
40C
100
AcDbEntity
  8
ASSI
100
AcDbPolyline
 62
7
  6
CONTINUOUS
 90
4
 70
0
 10
-5.6177475605
 20
18.6843175152
 10
-5.6153838738
 20
18.6682833486
 10
-5.6139683178
 20
18.6522003692
 10
-5.6134978343
 20
18.6361198532
  0
LWPOLYLINE
  5
40D
100
AcDbEntity
  8
ASSI
100
AcDbPolyline
 62
250
  6
CONTINUOUS
 90
13
 70
0
 10
-5.2064177319
 20
19.0128209682
 10
-5.20905784
 20
19.035258191
 10
-5.2138455889
 20
19.0581786948
 10
-5.2207078627
 20
19.0812325907
 10
-5.2295398768
 20
19.1040679548
 10
-5.2402067868
 20
19.126336222
 10
-5.2525457527
 20
19.1476975041
 10
-5.2663684048
 20
19.1678257394
 10
-5.2814637342
 20
19.1864137012
 10
-5.2976013316
 20
19.2031776992
 10
-5.3145348705
 20
19.217861864
 10
-5.3320058615
 20
19.2302420607
 10
-5.3497476224
 20
19.2401293335
  0
LINE
  5
40E
100
AcDbEntity
  8
ASSI
100
AcDbLine
 62
250
  6
CONTINUOUS
 10
-3.9137714676
 20
18.6776546772
 11
-3.8818638872
 21
18.410856252
  0
LWPOLYLINE
  5
40F
100
AcDbEntity
  8
ASSI
100
AcDbPolyline
 62
250
  6
CONTINUOUS
 90
13
 70
0
 10
-4.0178246262
 20
19.6283151605
 10
-4.0204646482
 20
19.6507518575
 10
-4.025252241
 20
19.6736719316
 10
-4.0321143242
 20
19.6967255176
 10
-4.0409461508
 20
19.7195607123
 10
-4.051612907
 20
19.7418289463
 10
-4.0639517692
 20
19.7631903043
 10
-4.0777743899
 20
19.7833187142
 10
-4.0928697727
 20
19.8019069245
 10
-4.109007493
 20
19.8186711942
 10
-4.1259412154
 20
19.8333556237
 10
-4.1434124538
 20
19.8457360615
 10
-4.1611545173
 20
19.8556235255
  0
LWPOLYLINE
  5
410
100
AcDbEntity
  8
ASSI
100
AcDbPolyline
 62
250
  6
CONTINUOUS
 90
13
 70
0
 10
-3.1315579469
 20
20.0872543814
 10
-3.1341979667
 20
20.1096910652
 10
-3.1389855559
 20
20.1326111299
 10
-3.1458476353
 20
20.155664711
 10
-3.15467946
 20
20.178499907
 10
-3.1653462165
 20
20.2007681467
 10
-3.17768508
 20
20.2221295103
 10
-3.1915077019
 20
20.2422579245
 10
-3.2066030865
 20
20.2608461388
 10
-3.2227408086
 20
20.2776104115
 10
-3.2396745326
 20
20.2922948431
 10
-3.2571457724
 20
20.3046752823
 10
-3.2748878368
 20
20.314562747
  0
LINE
  5
411
100
AcDbEntity
  8
ASSI
100
AcDbLine
 62
250
  6
CONTINUOUS
 10
-3.9482458636
 20
18.9785907526
 11
-3.9137714676
 21
18.6776546772
  0
LINE
  5
412
100
AcDbEntity
  8
ASSI
100
AcDbLine
 62
250
  6
CONTINUOUS
 10
-3.9664973145
 20
19.1434796904
 11
-3.9482458636
 21
18.9785907526
  0
LINE
  5
413
100
AcDbEntity
  8
ASSI
100
AcDbLine
 62
250
  6
CONTINUOUS
 10
-0.7514276401
 20
19.9589481161
 11
-0.805747088
 21
20.7465202472
  0
LINE
  5
414
100
AcDbEntity
  8
ASSI
100
AcDbLine
 62
250
  6
CONTINUOUS
 10
-0.6742809635
 20
20.0089108732
 11
-0.7274251587
 21
20.7794431347
  0
LINE
  5
415
100
AcDbEntity
  8
RACCORDO
100
AcDbLine
 62
7
  6
CONTINUOUS
 10
0.1792773999
 20
21.1512813564
 11
0.2133633568
 21
20.6570725467
  0
LWPOLYLINE
  5
416
100
AcDbEntity
  8
RACCORDO
100
AcDbPolyline
 62
250
  6
CONTINUOUS
 90
16
 70
0
 10
1.9227398149
 20
19.5259609992
 10
1.9220717435
 20
19.5492237368
 10
1.9194414406
 20
19.5731826905
 10
1.9148777124
 20
19.5975754627
 10
1.9084305385
 20
19.622134908
 10
1.9001705281
 20
19.6465920481
 10
1.8901881484
 20
19.6706790181
 10
1.8785927291
 20
19.6941320159
 10
1.8655112632
 20
19.716694188
 10
1.8510870218
 20
19.7381184319
 10
1.8354779834
 20
19.758170108
 10
1.818855096
 20
19.7766296174
 10
1.8014004054
 20
19.7932948021
 10
1.7833050715
 20
19.8079831477
 10
1.764767276
 20
19.8205337854
 10
1.7459900436
 20
19.8308092609
  0
LINE
  5
417
100
AcDbEntity
  8
RACCORDO
100
AcDbLine
 62
250
  6
CONTINUOUS
 10
1.9227398149
 20
19.4914469248
 11
1.9227398149
 21
19.5259609992
  0
LINE
  5
418
100
AcDbEntity
  8
RACCORDO
100
AcDbLine
 62
7
  6
CONTINUOUS
 10
1.9929048649
 20
19.5256573124
 11
1.9929048649
 21
19.6127932955
  0
LINE
  5
419
100
AcDbEntity
  8
RACCORDO
100
AcDbLine
 62
250
  6
CONTINUOUS
 10
1.9926205201
 20
19.6068331884
 11
1.9929048649
 21
19.6127932955
  0
LWPOLYLINE
  5
41A
100
AcDbEntity
  8
0
100
AcDbPolyline
 62
250
  6
CONTINUOUS
 90
7
 70
0
 10
-0.8799627067
 20
-19.6462338365
 10
-0.8814179389
 20
-19.6582719361
 10
-0.8861877955
 20
-19.6709858222
 10
-0.8942001399
 20
-19.6832855269
 10
-0.90532093
 20
-19.6949652235
 10
-0.919364118
 20
-19.7058294713
 10
-0.9360947466
 20
-19.7156964631
  0
LWPOLYLINE
  5
41B
100
AcDbEntity
  8
0
100
AcDbPolyline
 62
7
  6
CONTINUOUS
 90
6
 70
0
 10
25.8681324622
 20
11.896942911
 10
25.9795320628
 20
11.9678532283
 10
26.0627094191
 20
12.0423691699
 10
26.1176645311
 20
12.1204907355
 10
26.144354015
 20
12.2047035827
 10
26.1471489129
 20
12.2442714152
  0
LINE
  5
41C
100
AcDbEntity
  8
0
100
AcDbLine
 62
7
  6
CONTINUOUS
 10
25.8681324622
 20
11.896942911
 11
17.9356954302
 21
7.7898034065
  0
LINE
  5
41D
100
AcDbEntity
  8
SMUSSO
100
AcDbLine
 62
7
  6
CONTINUOUS
 10
17.8589589086
 20
7.6708584488
 11
25.87716572
 21
11.7065962376
  0
LWPOLYLINE
  5
41E
100
AcDbEntity
  8
RACCORDO
100
AcDbPolyline
 62
250
  6
CONTINUOUS
 90
5
 70
0
 10
25.8754394824
 20
-5.8741958755
 10
25.8943073399
 20
-5.881771816
 10
25.9095010604
 20
-5.8854793401
 10
25.9209163063
 20
-5.8852929288
 10
25.9282220192
 20
-5.8814769428
  0
LINE
  5
41F
100
AcDbEntity
  8
RACCORDO
100
AcDbLine
 62
250
  6
CONTINUOUS
 10
21.8660605105
 20
-6.4932871356
 11
21.2798667913
 21
-6.200190276
  0
LINE
  5
420
100
AcDbEntity
  8
RACCORDO
100
AcDbLine
 62
7
  6
CONTINUOUS
 10
20.9412734657
 20
-6.5601116416
 11
20.9405550481
 21
-6.5597519602
  0
LWPOLYLINE
  5
421
100
AcDbEntity
  8
ASSI
100
AcDbPolyline
 62
250
  6
CONTINUOUS
 90
4
 70
0
 10
-14.4565652733
 20
20.9528063046
 10
-14.4432309951
 20
20.9381172194
 10
-14.4306613097
 20
20.9220935378
 10
-14.4189927672
 20
20.9048841932
  0
LINE
  5
422
100
AcDbEntity
  8
ASSI
100
AcDbLine
 62
7
  6
CONTINUOUS
 10
-5.6493888652
 20
18.7729938638
 11
-5.6495010988
 21
18.7731969644
  0
LWPOLYLINE
  5
423
100
AcDbEntity
  8
ASSI
100
AcDbPolyline
 62
7
  6
CONTINUOUS
 90
4
 70
0
 10
-5.6494420054
 20
18.7730903947
 10
-5.6438083332
 20
18.7624191816
 10
-5.6366701226
 20
18.7471278209
 10
-5.630495213
 20
18.7316225336
  0
LWPOLYLINE
  5
424
100
AcDbEntity
  8
RACCORDO
100
AcDbPolyline
 62
7
  6
CONTINUOUS
 90
10
 70
0
 10
-0.997660662
 20
11.2175759296
 10
-1.2028982919
 20
11.6217606977
 10
-1.4119480964
 20
12.0236773322
 10
-1.6248100756
 20
12.4233258332
 10
-1.8415440533
 20
12.8208148886
 10
-2.0620902057
 20
13.2160358104
 10
-2.286269061
 20
13.6086625342
 10
-2.5140207953
 20
13.9985863716
 10
-2.7454052324
 20
14.385916011
 10
-2.9804223725
 20
14.7706514522
  0
LWPOLYLINE
  5
425
100
AcDbEntity
  8
0
100
AcDbPolyline
 62
7
  6
CONTINUOUS
 90
9
 70
0
 10
-0.9476333522
 20
10.9634937341
 10
-1.1783989908
 20
11.4233184295
 10
-1.4142323981
 20
11.880491241
 10
-1.6550565431
 20
12.3348626949
 10
-1.9007925848
 20
12.7862838475
 10
-2.1513605214
 20
13.2346074823
 10
-2.4066792656
 20
13.6796881441
 10
-2.6666658005
 20
14.1213806284
 10
-2.9312351559
 20
14.5595400395
  0
LWPOLYLINE
  5
426
100
AcDbEntity
  8
0
100
AcDbPolyline
 62
250
  6
CONTINUOUS
 90
3
 70
0
 10
-1.0142931516
 20
10.9295873141
 10
-0.9997353211
 20
10.8986861932
 10
-0.9862225831
 20
10.8664947706
  0
LWPOLYLINE
  5
427
100
AcDbEntity
  8
RACCORDO
100
AcDbPolyline
 62
7
  6
CONTINUOUS
 90
3
 70
0
 10
-0.9262958926
 20
11.0619756643
 10
-0.9604977906
 20
11.1401410039
 10
-0.997660662
 20
11.2175759296
  0
LINE
  5
428
100
AcDbEntity
  8
RACCORDO
100
AcDbLine
 62
7
  6
CONTINUOUS
 10
-0.8950549678
 20
10.9830799107
 11
-0.9262958926
 21
11.0619756643
  0
LWPOLYLINE
  5
429
100
AcDbEntity
  8
ASSI
100
AcDbPolyline
 62
7
  6
CONTINUOUS
 90
6
 70
0
 10
-5.4960995588
 20
17.6220164897
 10
-5.487977876
 20
17.6014576684
 10
-5.475552701
 20
17.5583829969
 10
-5.466709132
 20
17.5127524179
 10
-5.4613329175
 20
17.4642767206
 10
-5.4594240575
 20
17.4129559053
  0
LWPOLYLINE
  5
42A
100
AcDbEntity
  8
0
100
AcDbPolyline
 62
250
  6
CONTINUOUS
 90
8
 70
0
 10
-0.9862225831
 20
10.8664947706
 10
-0.973932552
 20
10.8331382432
 10
-0.9630485193
 20
10.7987652114
 10
-0.9537543881
 20
10.7635549028
 10
-0.9462318629
 20
10.7277178577
 10
-0.940662668
 20
10.6914878594
 10
-0.9372265847
 20
10.6551219262
 10
-0.9360947466
 20
10.6189060514
  0
LINE
  5
42B
100
AcDbEntity
  8
RACCORDO
100
AcDbLine
 62
7
  6
CONTINUOUS
 10
-0.8666681171
 20
10.9031426605
 11
-0.8950549678
 21
10.9830799107
  0
LWPOLYLINE
  5
42C
100
AcDbEntity
  8
ASSI
100
AcDbPolyline
 62
7
  6
CONTINUOUS
 90
4
 70
0
 10
-5.630495213
 20
18.7316225336
 10
-5.625293728
 20
18.715980552
 10
-5.6210515206
 20
18.7002238004
 10
-5.6177475605
 20
18.6843175152
  0
LWPOLYLINE
  5
42D
100
AcDbEntity
  8
RACCORDO
100
AcDbPolyline
 62
7
  6
CONTINUOUS
 90
3
 70
0
 10
-0.8190980333
 20
10.7420101667
 10
-0.8412422396
 20
10.8224749964
 10
-0.8666681171
 20
10.9031426605
  0
LWPOLYLINE
  5
42E
100
AcDbEntity
  8
RACCORDO
100
AcDbPolyline
 62
250
  6
CONTINUOUS
 90
13
 70
0
 10
-2.2939026391
 20
17.5099892048
 10
-2.3003499257
 20
17.5345484948
 10
-2.3086099966
 20
17.5590054931
 10
-2.3185923969
 20
17.5830923705
 10
-2.3301878076
 20
17.6065453365
 10
-2.3432692379
 20
17.6291075245
 10
-2.3576934236
 20
17.6505318277
 10
-2.3733023932
 20
17.6705836079
 10
-2.3899251983
 20
17.6890432537
 10
-2.4073797842
 20
17.7057085833
 10
-2.4254749863
 20
17.7203970751
 10
-2.4440126245
 20
17.7329478642
 10
-2.4627896723
 20
17.7432234942
  0
LINE
  5
42F
100
AcDbEntity
  8
RACCORDO
100
AcDbLine
 62
250
  6
CONTINUOUS
 10
-2.2893387457
 20
17.4855965878
 11
-2.2939026391
 21
17.5099892048
  0
LWPOLYLINE
  5
430
100
AcDbEntity
  8
0
100
AcDbPolyline
 62
250
  6
CONTINUOUS
 90
5
 70
0
 10
-0.950167172
 20
-19.8300544264
 10
-0.9584382846
 20
-19.8563318199
 10
-0.9688673606
 20
-19.8815833332
 10
-0.9816165789
 20
-19.9055878443
 10
-0.9967366198
 20
-19.9279028373
  0
LWPOLYLINE
  5
431
100
AcDbEntity
  8
RACCORDO
100
AcDbPolyline
 62
7
  6
CONTINUOUS
 90
8
 70
0
 10
-0.8412518144
 20
-19.7362347683
 10
-0.8191058911
 20
-19.6779138468
 10
-0.8002971266
 20
-19.6164571649
 10
-0.7847695707
 20
-19.5519191911
 10
-0.7726770897
 20
-19.4850747858
 10
-0.7640709724
 20
-19.4161822355
 10
-0.75889993
 20
-19.3449832535
 10
-0.7571639626
 20
-19.2714778399
  0
LWPOLYLINE
  5
432
100
AcDbEntity
  8
RACCORDO
100
AcDbPolyline
 62
250
  6
CONTINUOUS
 90
7
 70
0
 10
25.7047778837
 20
7.8077604831
 10
25.680111685
 20
7.7936774031
 10
25.6559848438
 20
7.777315845
 10
25.6323973599
 20
7.7586758089
 10
25.6091704066
 20
7.7375736158
 10
25.5864828107
 20
7.7141929447
 10
25.5648710525
 20
7.6890848323
  0
LWPOLYLINE
  5
433
100
AcDbEntity
  8
RACCORDO
100
AcDbPolyline
 62
250
  6
CONTINUOUS
 90
9
 70
0
 10
25.4258846571
 20
7.3179542224
 10
25.439558718
 20
7.325756769
 10
25.4515424662
 20
7.334225663
 10
25.4617069268
 20
7.343269758
 10
25.4699427051
 20
7.3527917173
 10
25.4761611639
 20
7.362689061
 10
25.4802953772
 20
7.3728552693
 10
25.4823008505
 20
7.3831809285
 10
25.4825025341
 20
7.3876583057
  0
LWPOLYLINE
  5
434
100
AcDbEntity
  8
RACCORDO
100
AcDbPolyline
 62
250
  6
CONTINUOUS
 90
10
 70
0
 10
26.0243736998
 20
7.972084278
 10
26.0704084041
 20
7.9978982232
 10
26.111811261
 20
8.0256039833
 10
26.1482727431
 20
8.0549944304
 10
26.1795202647
 20
8.0858498421
 10
26.2053202194
 20
8.1179395434
 10
26.2254797267
 20
8.1510236319
 10
26.2398480744
 20
8.1848547712
 10
26.2483178449
 20
8.2191800401
 10
26.2508452137
 20
8.2509503191
  0
LWPOLYLINE
  5
435
100
AcDbEntity
  8
RACCORDO
100
AcDbPolyline
 62
7
  6
CONTINUOUS
 90
13
 70
0
 10
25.9724436775
 20
7.8639342272
 10
26.0189332137
 20
7.8899707908
 10
26.0608455009
 20
7.9177533842
 10
26.0982988059
 20
7.9471064825
 10
26.1314452282
 20
7.9779052745
 10
26.160367393
 20
8.0099842967
 10
26.1850614106
 20
8.0430497187
 10
26.2055419541
 20
8.0767209159
 10
26.222039495
 20
8.1109135404
 10
26.2347649391
 20
8.1456775137
 10
26.2437742881
 20
8.1808385555
 10
26.2490990177
 20
8.2160223971
 10
26.2508452137
 20
8.2509503191
  0
LWPOLYLINE
  5
436
100
AcDbEntity
  8
RACCORDO
100
AcDbPolyline
 62
250
  6
CONTINUOUS
 90
10
 70
0
 10
25.6528479568
 20
7.6996104814
 10
25.6573371281
 20
7.7021110831
 10
25.6679494438
 20
7.7097707088
 10
25.6773943351
 20
7.7192677597
 10
25.6855683218
 20
7.730498184
 10
25.692381848
 20
7.743338939
 10
25.6977602631
 20
7.7576493385
 10
25.7016446403
 20
7.7732725949
 10
25.7039924214
 20
7.7900375365
 10
25.7047778837
 20
7.8077604831
  0
LINE
  5
437
100
AcDbEntity
  8
RACCORDO
100
AcDbLine
 62
250
  6
CONTINUOUS
 10
25.5360565046
 20
4.9977701895
 11
25.4825025356
 21
4.9700418103
  0
LINE
  5
438
100
AcDbEntity
  8
RACCORDO
100
AcDbLine
 62
250
  6
CONTINUOUS
 10
25.6750743419
 20
4.7525880471
 11
25.4825025356
 21
4.6528810756
  0
LINE
  5
439
100
AcDbEntity
  8
RACCORDO
100
AcDbLine
 62
250
  6
CONTINUOUS
 10
25.7047778837
 20
7.8077604831
 11
26.0243736998
 21
7.972084278
  0
LINE
  5
43A
100
AcDbEntity
  8
RACCORDO
100
AcDbLine
 62
7
  6
CONTINUOUS
 10
25.6528478614
 20
7.6996104323
 11
25.9724436775
 21
7.8639342272
  0
LINE
  5
43B
100
AcDbEntity
  8
RACCORDO
100
AcDbLine
 62
250
  6
CONTINUOUS
 10
25.8809915783
 20
4.2312890116
 11
25.5613957621
 21
4.0669652167
  0
LWPOLYLINE
  5
43C
100
AcDbEntity
  8
RACCORDO
100
AcDbPolyline
 62
250
  6
CONTINUOUS
 90
10
 70
0
 10
25.5613957621
 20
4.0669652167
 10
25.5544082184
 20
4.0634930922
 10
25.5471745008
 20
4.0603740279
 10
25.5397186918
 20
4.0576705452
 10
25.5320807819
 20
4.0554494306
 10
25.5242830871
 20
4.0537735067
 10
25.5163320201
 20
4.0527092661
 10
25.5082783309
 20
4.0523324971
 10
25.5001707281
 20
4.0527194379
 10
25.4920271412
 20
4.0539561599
  0
LWPOLYLINE
  5
43D
100
AcDbEntity
  8
RACCORDO
100
AcDbPolyline
 62
250
  6
CONTINUOUS
 90
8
 70
0
 10
25.9645520015
 20
-4.0020031036
 10
25.9582346697
 20
-3.9991999941
 10
25.9458199603
 20
-3.9955332027
 10
25.9326305299
 20
-3.9938972031
 10
25.9188108847
 20
-3.9943099198
 10
25.9045124356
 20
-3.996766831
 10
25.8898918394
 20
-4.0012410181
 10
25.8751092824
 20
-4.007683461
  0
LWPOLYLINE
  5
43E
100
AcDbEntity
  8
RACCORDO
100
AcDbPolyline
 62
250
  6
CONTINUOUS
 90
7
 70
0
 10
25.764517061
 20
-3.9019856333
 10
25.7611662088
 20
-3.9004123087
 10
25.74578502
 20
-3.8955157325
 10
25.7291939519
 20
-3.8937906375
 10
25.7116768823
 20
-3.8952665406
 10
25.693533533
 20
-3.8999181887
 10
25.6750743419
 20
-3.9076659908
  0
LINE
  5
43F
100
AcDbEntity
  8
DRAFT
100
AcDbLine
 62
7
  6
CONTINUOUS
 10
22.9626446567
 20
-5.3439866777
 11
22.5773598165
 21
-5.1513442576
  0
LINE
  5
440
100
AcDbEntity
  8
RACCORDO
100
AcDbLine
 62
7
  6
CONTINUOUS
 10
22.5773598165
 20
-4.0892541315
 11
23.4607830343
 21
-4.5309657404
  0
LINE
  5
441
100
AcDbEntity
  8
RACCORDO
100
AcDbLine
 62
7
  6
CONTINUOUS
 10
24.0485638088
 20
-4.791466999
 11
24.0076402945
 21
-4.7710052419
  0
LINE
  5
442
100
AcDbEntity
  8
0
100
AcDbLine
 62
250
  6
CONTINUOUS
 10
21.5538513258
 20
-3.139686545
 11
22.0470297306
 21
-3.3862757474
  0
LINE
  5
443
100
AcDbEntity
  8
RACCORDO
100
AcDbLine
 62
250
  6
CONTINUOUS
 10
21.8660605105
 20
-2.1631601167
 11
21.2798667913
 21
-1.8700632571
  0
LINE
  5
444
100
AcDbEntity
  8
RACCORDO
100
AcDbLine
 62
250
  6
CONTINUOUS
 10
25.6750743419
 20
-3.9076659908
 11
25.8751092824
 21
-4.007683461
  0
LINE
  5
445
100
AcDbEntity
  8
RACCORDO
100
AcDbLine
 62
7
  6
CONTINUOUS
 10
25.764517061
 20
-3.9019856333
 11
25.9645520015
 21
-4.0020031036
  0
LINE
  5
446
100
AcDbEntity
  8
RACCORDO
100
AcDbLine
 62
7
  6
CONTINUOUS
 10
20.9412734657
 20
-2.2299846227
 11
20.9405550481
 21
-2.2296249413
  0
LWPOLYLINE
  5
447
100
AcDbEntity
  8
RACCORDO
100
AcDbPolyline
 62
250
  6
CONTINUOUS
 90
9
 70
0
 10
23.5443288796
 20
-4.570229214
 10
23.5235373503
 20
-4.5586970543
 10
23.5052412836
 20
-4.5461520327
 10
23.4896367263
 20
-4.5327285472
 10
23.4768908908
 20
-4.518570409
 10
23.4671403642
 20
-4.5038293039
 10
23.4604896434
 20
-4.4886631669
 10
23.4570100133
 20
-4.4732344866
 10
23.4564609139
 20
-4.4641631285
  0
LWPOLYLINE
  5
448
100
AcDbEntity
  8
RACCORDO
100
AcDbPolyline
 62
7
  6
CONTINUOUS
 90
39
 70
0
 10
20.9405835412
 20
-6.5597579167
 10
20.8842888394
 20
-6.5278734377
 10
20.8215870668
 20
-6.4826949685
 10
20.762911703
 20
-6.4292043959
 10
20.7086014444
 20
-6.3675697064
 10
20.6588337388
 20
-6.2977527959
 10
20.6138965534
 20
-6.2198323398
 10
20.5742388491
 20
-6.1342867274
 10
20.5403046565
 20
-6.0418405473
 10
20.5123102899
 20
-5.9430301278
 10
20.4904330898
 20
-5.8385110138
 10
20.4748476545
 20
-5.7293338614
 10
20.4655600724
 20
-5.6166558735
 10
20.4624260659
 20
-5.5007685136
 10
20.4653982032
 20
-5.3813071233
 10
20.4744975324
 20
-5.2586534854
 10
20.4896809713
 20
-5.1336040769
 10
20.5109848569
 20
-5.0062453037
 10
20.5384248912
 20
-4.8769487767
 10
20.5718915947
 20
-4.7465202154
 10
20.6112589128
 20
-4.6156575555
 10
20.6563797205
 20
-4.4849680455
 10
20.7070625678
 20
-4.3550554863
 10
20.7630663056
 20
-4.2265996346
 10
20.8241434641
 20
-4.1001955233
 10
20.890007118
 20
-3.9764160509
 10
20.960318962
 20
-3.8558910282
 10
21.0347401801
 20
-3.739180594
 10
21.1129137559
 20
-3.6267841221
 10
21.1944443903
 20
-3.519226353
 10
21.2789365309
 20
-3.4169844389
 10
21.3659631985
 20
-3.3204898123
 10
21.4550516063
 20
-3.2301886094
 10
21.5457505919
 20
-3.1464632171
 10
21.6375981932
 20
-3.0696280714
 10
21.7300665216
 20
-3.000010212
 10
21.8226423634
 20
-2.9378720584
 10
21.9148377669
 20
-2.8833766133
 10
21.9574647977
 20
-2.8606664821
  0
LWPOLYLINE
  5
449
100
AcDbEntity
  8
ASSI
100
AcDbPolyline
 62
250
  6
CONTINUOUS
 90
3
 70
0
 10
-4.5233091676
 20
12.8204183099
 10
-4.5502691674
 20
12.8439779762
 10
-4.5793590488
 20
12.8662722137
  0
LWPOLYLINE
  5
44A
100
AcDbEntity
  8
ASSI
100
AcDbPolyline
 62
250
  6
CONTINUOUS
 90
6
 70
0
 10
-10.8890238949
 20
20.8235557225
 10
-10.8930862801
 20
20.82763386
 10
-10.9106091941
 20
20.8424852865
 10
-10.9300260528
 20
20.8548984638
 10
-10.9510365694
 20
20.8646814709
 10
-10.9733158124
 20
20.8716830584
  0
LINE
  5
44B
100
AcDbEntity
  8
ASSI
100
AcDbLine
 62
7
  6
CONTINUOUS
 10
-10.8889136915
 20
20.8234411811
 11
-10.8890238949
 21
20.8235557225
  0
LWPOLYLINE
  5
44C
100
AcDbEntity
  8
ASSI
100
AcDbPolyline
 62
250
  6
CONTINUOUS
 90
7
 70
0
 10
-5.2423989631
 20
16.3163133682
 10
-5.2539823749
 20
16.333460454
 10
-5.2665330464
 20
16.3495239844
 10
-5.2798965567
 20
16.3643011051
 10
-5.2938687636
 20
16.3775789269
 10
-5.3082703858
 20
16.3892157243
 10
-5.3229586774
 20
16.3991236788
  0
LWPOLYLINE
  5
44D
100
AcDbEntity
  8
ASSI
100
AcDbPolyline
 62
250
  6
CONTINUOUS
 90
13
 70
0
 10
-1.9786051099
 20
15.9497837889
 10
-2.023236009
 20
16.0193399412
 10
-2.0700981188
 20
16.0865147467
 10
-2.1190262534
 20
16.1510662649
 10
-2.1698505067
 20
16.2127607274
 10
-2.2223887509
 20
16.2713771412
 10
-2.2764472908
 20
16.3267080644
 10
-2.3318338465
 20
16.3785532565
 10
-2.3883536969
 20
16.4267268108
 10
-2.4458024676
 20
16.4710608656
 10
-2.5039754331
 20
16.51139672
 10
-2.5626680451
 20
16.5475861274
 10
-2.6216722782
 20
16.5794977234
  0
LWPOLYLINE
  5
44E
100
AcDbEntity
  8
RACCORDO
100
AcDbPolyline
 62
250
  6
CONTINUOUS
 90
3
 70
0
 10
-0.9838576834
 20
16.4317902503
 10
-0.8748782335
 20
16.2596374528
 10
-0.861304826
 20
16.2380749631
  0
LWPOLYLINE
  5
44F
100
AcDbEntity
  8
RACCORDO
100
AcDbPolyline
 62
7
  6
CONTINUOUS
 90
3
 70
0
 10
-0.7884708412
 20
16.2609442276
 10
-0.8020085509
 20
16.2824500085
 10
-0.9107021604
 20
16.454151268
  0
LINE
  5
450
100
AcDbEntity
  8
RACCORDO
100
AcDbLine
 62
7
  6
CONTINUOUS
 10
-0.492872793
 20
16.0783440154
 11
-0.5998260936
 21
16.2500874586
  0
LWPOLYLINE
  5
451
100
AcDbEntity
  8
0
100
AcDbPolyline
 62
250
  6
CONTINUOUS
 90
10
 70
0
 10
-3.2730447364
 20
14.9710098835
 10
-3.0246720936
 20
14.5703454692
 10
-2.7760103852
 20
14.1597014722
 10
-2.5273290006
 20
13.7390377365
 10
-2.2804211868
 20
13.3109832766
 10
-2.0340048202
 20
12.8728980473
 10
-1.7840008143
 20
12.4166860504
 10
-1.5295576243
 20
11.9394761161
 10
-1.2727737315
 20
11.4438123251
 10
-1.0142931516
 20
10.9295873141
  0
LWPOLYLINE
  5
452
100
AcDbEntity
  8
ASSI
100
AcDbPolyline
 62
250
  6
CONTINUOUS
 90
16
 70
0
 10
-7.8460028444
 20
21.9591151781
 10
-7.83689871
 20
21.944411383
 10
-7.8300886553
 20
21.9295542978
 10
-7.8255726802
 20
21.9145439227
 10
-7.8233399552
 20
21.8992889579
 10
-7.8234013099
 20
21.8838807032
 10
-7.825789233
 20
21.8685930572
 10
-7.8305656124
 20
21.8534141678
 10
-7.8376685601
 20
21.8383558873
 10
-7.8469449005
 20
21.8237276715
 10
-7.85843967
 20
21.8095545515
 10
-7.8721078322
 20
21.7958114963
 10
-7.8876611025
 20
21.7827328684
 10
-7.905003386
 20
21.7703967886
 10
-7.9242307777
 20
21.758725136
 10
-7.9453432774
 20
21.7477179107
  0
LINE
  5
453
100
AcDbEntity
  8
0
100
AcDbLine
 62
7
  6
CONTINUOUS
 10
-2.9312351559
 20
14.5595400395
 11
-3.1199587631
 21
14.865429243
  0
LINE
  5
454
100
AcDbEntity
  8
RACCORDO
100
AcDbLine
 62
250
  6
CONTINUOUS
 10
-0.861304826
 20
16.2380749631
 11
-0.850143856
 21
16.2195223867
  0
LWPOLYLINE
  5
455
100
AcDbEntity
  8
ASSI
100
AcDbPolyline
 62
250
  6
CONTINUOUS
 90
8
 70
0
 10
-5.6495010988
 20
18.7731969644
 10
-5.6517748498
 20
18.7771146539
 10
-5.6567517731
 20
18.7845994527
 10
-5.6620229263
 20
18.7912905075
 10
-5.6674764755
 20
18.7971880032
 10
-5.6729806917
 20
18.8022326827
 10
-5.678450367
 20
18.806436853
 10
-5.6838386092
 20
18.8098800805
  0
LWPOLYLINE
  5
456
100
AcDbEntity
  8
RACCORDO
100
AcDbPolyline
 62
250
  6
CONTINUOUS
 90
3
 70
0
 10
-0.850143856
 20
16.2195223867
 10
-0.8402505361
 20
16.2002032355
 10
-0.8317414061
 20
16.1803450812
  0
LWPOLYLINE
  5
457
100
AcDbEntity
  8
RACCORDO
100
AcDbPolyline
 62
250
  6
CONTINUOUS
 90
6
 70
0
 10
-0.8317414061
 20
16.1803450812
 10
-0.8247167009
 20
16.1601818476
 10
-0.819259168
 20
16.1399510469
 10
-0.8154330937
 20
16.1198909817
 10
-0.8132835504
 20
16.1002379562
 10
-0.81283586
 20
16.0812234719
  0
LWPOLYLINE
  5
458
100
AcDbEntity
  8
RACCORDO
100
AcDbPolyline
 62
7
  6
CONTINUOUS
 90
13
 70
0
 10
-2.808640398
 20
22.692648943
 10
-2.800774789
 20
22.6697744654
 10
-2.7916535848
 20
22.6475737063
 10
-2.7812767854
 20
22.6260466656
 10
-2.7695088353
 20
22.6049912509
 10
-2.7564852899
 20
22.5846095547
 10
-2.7426128158
 20
22.5655078537
 10
-2.7278861498
 20
22.5477538835
 10
-2.712310555
 20
22.5312799085
 10
-2.6963084866
 20
22.5164889993
 10
-2.6800207631
 20
22.5035155126
 10
-2.6633065661
 20
22.4922250917
 10
-2.6461658955
 20
22.4826177366
  0
LINE
  5
459
100
AcDbEntity
  8
0
100
AcDbLine
 62
7
  6
CONTINUOUS
 10
9.9201484333
 20
25.8455699143
 11
9.9201484333
 21
25.7168668989
  0
LINE
  5
45A
100
AcDbEntity
  8
0
100
AcDbLine
 62
7
  6
CONTINUOUS
 10
10.4504785192
 20
27.0278449734
 11
10.4504785192
 21
26.09939756
  0
LWPOLYLINE
  5
45B
100
AcDbEntity
  8
RACCORDO
100
AcDbPolyline
 62
250
  6
CONTINUOUS
 90
4
 70
0
 10
-0.828513255
 20
-20.424138119
 10
-0.831741293
 20
-20.4303266159
 10
-0.8402504464
 20
-20.4420790391
 10
-0.8501438043
 20
-20.4519783131
  0
LWPOLYLINE
  5
45C
100
AcDbEntity
  8
RACCORDO
100
AcDbPolyline
 62
7
  6
CONTINUOUS
 90
3
 70
0
 10
-0.8950655688
 20
-19.8430212813
 10
-0.8666789463
 20
-19.7914743979
 10
-0.8412518144
 20
-19.7362347683
  0
LWPOLYLINE
  5
45D
100
AcDbEntity
  8
RACCORDO
100
AcDbPolyline
 62
7
  6
CONTINUOUS
 90
3
 70
0
 10
-0.960502807
 20
-19.934629173
 10
-0.9263044426
 20
-19.8906716003
 10
-0.8950655688
 20
-19.8430212813
  0
LINE
  5
45E
100
AcDbEntity
  8
RACCORDO
100
AcDbLine
 62
250
  6
CONTINUOUS
 10
21.8421579352
 20
1.4821351301
 11
21.9277503802
 21
1.5347102748
  0
LINE
  5
45F
100
AcDbEntity
  8
RACCORDO
100
AcDbLine
 62
250
  6
CONTINUOUS
 10
25.439558718
 20
4.0348602347
 11
25.4258846571
 21
4.027057688
  0
LWPOLYLINE
  5
460
100
AcDbEntity
  8
RACCORDO
100
AcDbPolyline
 62
250
  6
CONTINUOUS
 90
10
 70
0
 10
26.0243736998
 20
3.6419572591
 10
26.0704084041
 20
3.6677712042
 10
26.111811261
 20
3.6954769644
 10
26.1482727431
 20
3.7248674115
 10
26.1795202647
 20
3.7557228232
 10
26.2053202194
 20
3.7878125245
 10
26.2254797267
 20
3.820896613
 10
26.2398480744
 20
3.8547277523
 10
26.2483178449
 20
3.8890530212
 10
26.2508452137
 20
3.9208233002
  0
LWPOLYLINE
  5
461
100
AcDbEntity
  8
RACCORDO
100
AcDbPolyline
 62
7
  6
CONTINUOUS
 90
13
 70
0
 10
25.9724436775
 20
3.5338072083
 10
26.0189332137
 20
3.5598437718
 10
26.0608455009
 20
3.5876263653
 10
26.0982988059
 20
3.6169794636
 10
26.1314452282
 20
3.6477782556
 10
26.160367393
 20
3.6798572778
 10
26.1850614106
 20
3.7129226998
 10
26.2055419541
 20
3.746593897
 10
26.222039495
 20
3.7807865215
 10
26.2347649391
 20
3.8155504948
 10
26.2437742881
 20
3.8507115366
 10
26.2490990177
 20
3.8858953781
 10
26.2508452137
 20
3.9208233002
  0
LINE
  5
462
100
AcDbEntity
  8
RACCORDO
100
AcDbLine
 62
250
  6
CONTINUOUS
 10
21.9277503802
 20
1.5347102748
 11
22.0094426321
 21
1.5776351497
  0
LINE
  5
463
100
AcDbEntity
  8
RACCORDO
100
AcDbLine
 62
250
  6
CONTINUOUS
 10
25.5360565046
 20
0.6676431705
 11
23.8661973959
 21
-0.1969516929
  0
LINE
  5
464
100
AcDbEntity
  8
RACCORDO
100
AcDbLine
 62
250
  6
CONTINUOUS
 10
25.6750743419
 20
0.4224610282
 11
24.0076402945
 21
-0.440878223
  0
LINE
  5
465
100
AcDbEntity
  8
RACCORDO
100
AcDbLine
 62
250
  6
CONTINUOUS
 10
26.0243736998
 20
3.9883674206
 11
25.7047778837
 21
3.8240436257
  0
LINE
  5
466
100
AcDbEntity
  8
RACCORDO
100
AcDbLine
 62
250
  6
CONTINUOUS
 10
22.0094426321
 20
1.5776351497
 11
26.0243736998
 21
3.6419572591
  0
LINE
  5
467
100
AcDbEntity
  8
RACCORDO
100
AcDbLine
 62
7
  6
CONTINUOUS
 10
21.9575126098
 20
1.4694850989
 11
25.9724436775
 21
3.5338072083
  0
LINE
  5
468
100
AcDbEntity
  8
RACCORDO
100
AcDbLine
 62
250
  6
CONTINUOUS
 10
25.8809915783
 20
-0.0988380073
 11
21.8660605105
 21
-2.1631601167
  0
LINE
  5
469
100
AcDbEntity
  8
DRAFT
100
AcDbLine
 62
7
  6
CONTINUOUS
 10
24.0485638088
 20
-0.4613399801
 11
21.2798667913
 21
-1.8700632571
  0
LWPOLYLINE
  5
46A
100
AcDbEntity
  8
RACCORDO
100
AcDbPolyline
 62
250
  6
CONTINUOUS
 90
12
 70
0
 10
21.8660605002
 20
-2.1631601115
 10
21.7692161857
 20
-2.2091033879
 10
21.6726985034
 20
-2.2468799715
 10
21.5769404701
 20
-2.2763048254
 10
21.4823415655
 20
-2.2972389682
 10
21.389363459
 20
-2.3095533503
 10
21.2985201752
 20
-2.3131649803
 10
21.2102633294
 20
-2.3080745624
 10
21.1249374219
 20
-2.2943209171
 10
21.0428741692
 20
-2.2719577247
 10
20.9644307639
 20
-2.2410804767
 10
20.9412734657
 20
-2.2299846227
  0
LWPOLYLINE
  5
46B
100
AcDbEntity
  8
RACCORDO
100
AcDbPolyline
 62
250
  6
CONTINUOUS
 90
47
 70
0
 10
22.0094426321
 20
-2.4060817077
 10
21.902444469
 20
-2.4565996534
 10
21.796750154
 20
-2.4978351749
 10
21.6923596869
 20
-2.529788272
 10
21.5887826126
 20
-2.5525309358
 10
21.4865093863
 20
-2.5659911753
 10
21.3870113738
 20
-2.5699530177
 10
21.2903803619
 20
-2.5642755543
 10
21.1965245638
 20
-2.5490996939
 10
21.1066399851
 20
-2.5246321895
 10
21.0207652167
 20
-2.490752903
 10
20.9388616677
 20
-2.4475819725
 10
20.8620095718
 20
-2.3956865655
 10
20.7902762327
 20
-2.3349505011
 10
20.7235943466
 20
-2.2654899603
 10
20.6628422358
 20
-2.1882206528
 10
20.608099236
 20
-2.1030407814
 10
20.5592860114
 20
-2.0100521434
 10
20.5170428772
 20
-1.910475841
 10
20.481456003
 20
-1.8042240372
 10
20.4524392193
 20
-1.6913845689
 10
20.430374333
 20
-1.5734420494
 10
20.4153532271
 20
-1.4503298446
 10
20.4072840187
 20
-1.3221145886
 10
20.4062728659
 20
-1.1904807963
 10
20.4124130916
 20
-1.0553820559
 10
20.4256113728
 20
-0.9168647793
 10
20.4456938988
 20
-0.7767527169
 10
20.4727502566
 20
-0.6350287783
 10
20.5066908591
 20
-0.4917100541
 10
20.5470731347
 20
-0.3486715661
 10
20.5939880967
 20
-0.2059038834
 10
20.6473447317
 20
-0.0634164369
 10
20.7064274277
 20
0.0768874582
 10
20.7712900859
 20
0.2149425476
 10
20.841878805
 20
0.3508140856
 10
20.9173162698
 20
0.4827945211
 10
20.9976516662
 20
0.6108412266
 10
21.0828358082
 20
0.7349968296
 10
21.1718438224
 20
0.8536816607
 10
21.2654999429
 20
0.9674001038
 10
21.3629799356
 20
1.075647775
 10
21.460786225
 20
1.1753318538
 10
21.5591617823
 20
1.2657836259
 10
21.6578636363
 20
1.3476718057
 10
21.7526652972
 20
1.4199097157
 10
21.8421579352
 20
1.4821351301
  0
LWPOLYLINE
  5
46C
100
AcDbEntity
  8
0
100
AcDbPolyline
 62
7
  6
CONTINUOUS
 90
24
 70
0
 10
20.4998005699
 20
-1.5531374692
 10
20.5250435109
 20
-1.5440494915
 10
20.6305652763
 20
-1.4964097267
 10
20.7360468836
 20
-1.4389756268
 10
20.8414996181
 20
-1.3719021615
 10
20.9451878402
 20
-1.2963217985
 10
21.0470802693
 20
-1.2120996046
 10
21.1472081859
 20
-1.1193705129
 10
21.2439297924
 20
-1.0196717903
 10
21.3372196214
 20
-0.912830984
 10
21.4271031403
 20
-0.7990205467
 10
21.5120149528
 20
-0.6802951035
 10
21.5917597089
 20
-0.5568057005
 10
21.6665327587
 20
-0.4284012917
 10
21.7353547552
 20
-0.296683364
 10
21.7982792685
 20
-0.1613685503
 10
21.8552527285
 20
-0.0227402177
 10
21.9051350787
 20
0.1167500451
 10
21.9477761534
 20
0.257137714
 10
21.9833261182
 20
0.3983873132
 10
22.0110954143
 20
0.5379408274
 10
22.0308541885
 20
0.6749455848
 10
22.042832294
 20
0.8102542572
 10
22.0470297306
 20
0.9438668445
  0
LWPOLYLINE
  5
46D
100
AcDbEntity
  8
RACCORDO
100
AcDbPolyline
 62
250
  6
CONTINUOUS
 90
4
 70
0
 10
25.4920271412
 20
4.0539561599
 10
25.4839234214
 20
4.0561269055
 10
25.4759340524
 20
4.059315756
 10
25.4744526656
 20
4.060035048
  0
LWPOLYLINE
  5
46E
100
AcDbEntity
  8
RACCORDO
100
AcDbPolyline
 62
250
  6
CONTINUOUS
 90
8
 70
0
 10
25.9645520015
 20
0.3281239154
 10
25.9582346697
 20
0.3309270249
 10
25.9458199603
 20
0.3345938163
 10
25.9326305299
 20
0.3362298158
 10
25.9188108847
 20
0.3358170991
 10
25.9045124356
 20
0.333360188
 10
25.8898918394
 20
0.3288860009
 10
25.8751092824
 20
0.3224435579
  0
LWPOLYLINE
  5
46F
100
AcDbEntity
  8
RACCORDO
100
AcDbPolyline
 62
250
  6
CONTINUOUS
 90
7
 70
0
 10
25.764517061
 20
0.4281413856
 10
25.7611662088
 20
0.4297147102
 10
25.74578502
 20
0.4346112865
 10
25.7291939519
 20
0.4363363814
 10
25.7116768823
 20
0.4348604783
 10
25.693533533
 20
0.4302088302
 10
25.6750743419
 20
0.4224610282
  0
LINE
  5
470
100
AcDbEntity
  8
ASSI
100
AcDbLine
 62
250
  6
CONTINUOUS
 10
-8.2783653006
 20
14.474987997
 11
-23.1465794689
 21
21.9090950812
  0
LINE
  5
471
100
AcDbEntity
  8
ASSI
100
AcDbLine
 62
250
  6
CONTINUOUS
 10
-4.6421400536
 20
12.9040665516
 11
-5.1765813451
 21
13.1712871973
  0
LINE
  5
472
100
AcDbEntity
  8
ASSI
100
AcDbLine
 62
7
  6
CONTINUOUS
 10
-4.5551654774
 20
12.9085392175
 11
-5.1765813451
 21
13.2192471513
  0
LINE
  5
473
100
AcDbEntity
  8
ASSI
100
AcDbLine
 62
250
  6
CONTINUOUS
 10
-7.9340668588
 20
15.0800015371
 11
-22.8022810271
 21
22.5141086213
  0
LINE
  5
474
100
AcDbEntity
  8
RACCORDO
100
AcDbLine
 62
7
  6
CONTINUOUS
 10
24.0485638088
 20
-0.4613399801
 11
24.0076402945
 21
-0.440878223
  0
LINE
  5
475
100
AcDbEntity
  8
0
100
AcDbLine
 62
250
  6
CONTINUOUS
 10
21.5538513258
 20
1.1904404739
 11
22.0470297306
 21
0.9438512715
  0
LINE
  5
476
100
AcDbEntity
  8
ASSI
100
AcDbLine
 62
7
  6
CONTINUOUS
 10
-16.0092714395
 20
20.8277451233
 11
-11.4130773618
 21
18.5296480845
  0
LINE
  5
477
100
AcDbEntity
  8
RACCORDO
100
AcDbLine
 62
250
  6
CONTINUOUS
 10
25.6750743419
 20
0.4224610282
 11
25.8751092824
 21
0.3224435579
  0
LINE
  5
478
100
AcDbEntity
  8
RACCORDO
100
AcDbLine
 62
7
  6
CONTINUOUS
 10
25.764517061
 20
0.4281413856
 11
25.9645520015
 21
0.3281239154
  0
LWPOLYLINE
  5
479
100
AcDbEntity
  8
RACCORDO
100
AcDbPolyline
 62
250
  6
CONTINUOUS
 90
3
 70
0
 10
25.8751092824
 20
-4.007683461
 10
25.9102786983
 20
-4.0268749869
 10
25.9416783285
 20
-4.0472544951
  0
LWPOLYLINE
  5
47A
100
AcDbEntity
  8
ASSI
100
AcDbPolyline
 62
250
  6
CONTINUOUS
 90
5
 70
0
 10
-14.5141155536
 20
20.9953885893
 10
-14.4994136133
 20
20.9873634194
 10
-14.4848166989
 20
20.977537612
 10
-14.470483557
 20
20.9659886946
 10
-14.4565652733
 20
20.9528063046
  0
LINE
  5
47B
100
AcDbEntity
  8
ASSI
100
AcDbLine
 62
250
  6
CONTINUOUS
 10
-5.3229586774
 20
16.3991236788
 11
-5.3377727713
 21
16.4072171982
  0
LINE
  5
47C
100
AcDbEntity
  8
ASSI
100
AcDbLine
 62
250
  6
CONTINUOUS
 10
-4.610045982
 20
12.8864663469
 11
-4.6421400536
 21
12.9040665516
  0
LWPOLYLINE
  5
47D
100
AcDbEntity
  8
RACCORDO
100
AcDbPolyline
 62
7
  6
CONTINUOUS
 90
20
 70
0
 10
25.7645291157
 20
-3.901991662
 10
25.754742722
 20
-3.8965860642
 10
25.743874517
 20
-3.8894891807
 10
25.7318824365
 20
-3.8804337083
 10
25.7189903939
 20
-3.8693179376
 10
25.7056338537
 20
-3.8562832793
 10
25.6921001206
 20
-3.8414243188
 10
25.6786229345
 20
-3.8248322737
 10
25.6655075418
 20
-3.806739647
 10
25.6529752411
 20
-3.7873381767
 10
25.6412353137
 20
-3.7668650894
 10
25.6305174749
 20
-3.7456696409
 10
25.6209595054
 20
-3.7240116872
 10
25.6126876715
 20
-3.7022108634
 10
25.6058335108
 20
-3.680735738
 10
25.6004145358
 20
-3.6598726695
 10
25.5964173067
 20
-3.6399248902
 10
25.5938119587
 20
-3.6213776493
 10
25.5924656679
 20
-3.6044110476
 10
25.5921885437
 20
-3.593008736
  0
LWPOLYLINE
  5
47E
100
AcDbEntity
  8
RACCORDO
100
AcDbPolyline
 62
7
  6
CONTINUOUS
 90
39
 70
0
 10
20.9405835412
 20
-2.2296308978
 10
20.8842888394
 20
-2.1977464188
 10
20.8215870668
 20
-2.1525679496
 10
20.762911703
 20
-2.0990773769
 10
20.7086014444
 20
-2.0374426875
 10
20.6588337388
 20
-1.9676257769
 10
20.6138965534
 20
-1.8897053209
 10
20.5742388491
 20
-1.8041597085
 10
20.5403046565
 20
-1.7117135283
 10
20.5123102899
 20
-1.6129031089
 10
20.4904330898
 20
-1.5083839949
 10
20.4748476545
 20
-1.3992068425
 10
20.4655600724
 20
-1.2865288546
 10
20.4624260659
 20
-1.1706414947
 10
20.4653982032
 20
-1.0511801044
 10
20.4744975324
 20
-0.9285264665
 10
20.4896809713
 20
-0.803477058
 10
20.5109848569
 20
-0.6761182848
 10
20.5384248912
 20
-0.5468217577
 10
20.5718915947
 20
-0.4163931965
 10
20.6112589128
 20
-0.2855305366
 10
20.6563797205
 20
-0.1548410266
 10
20.7070625678
 20
-0.0249284673
 10
20.7630663056
 20
0.1035273843
 10
20.8241434641
 20
0.2299314957
 10
20.890007118
 20
0.3537109681
 10
20.960318962
 20
0.4742359908
 10
21.0347401801
 20
0.5909464249
 10
21.1129137559
 20
0.7033428969
 10
21.1944443903
 20
0.810900666
 10
21.2789365309
 20
0.91314258
 10
21.3659631985
 20
1.0096372066
 10
21.4550516063
 20
1.0999384095
 10
21.5457505919
 20
1.1836638018
 10
21.6375981932
 20
1.2604989475
 10
21.7300665216
 20
1.330116807
 10
21.8226423634
 20
1.3922549606
 10
21.9148377669
 20
1.4467504056
 10
21.9574647977
 20
1.4694605369
  0
LINE
  5
47F
100
AcDbEntity
  8
ASSI
100
AcDbLine
 62
250
  6
CONTINUOUS
 10
-4.5793590488
 20
12.8662722137
 11
-4.610045982
 21
12.8864663469
  0
LWPOLYLINE
  5
480
100
AcDbEntity
  8
ASSI
100
AcDbPolyline
 62
250
  6
CONTINUOUS
 90
3
 70
0
 10
-10.9124476197
 20
20.7881287877
 10
-10.8914882808
 20
20.7724021473
 10
-10.8672885576
 20
20.7569579439
  0
LWPOLYLINE
  5
481
100
AcDbEntity
  8
RACCORDO
100
AcDbPolyline
 62
250
  6
CONTINUOUS
 90
22
 70
0
 10
-6.9883399521
 20
20.3857038886
 10
-6.9978954906
 20
20.3936032568
 10
-7.0072952152
 20
20.4017073668
 10
-7.016527656
 20
20.4099826775
 10
-7.0255292819
 20
20.4183349907
 10
-7.0343488555
 20
20.4267901919
 10
-7.0431306919
 20
20.4355125557
 10
-7.0519034092
 20
20.4445507026
 10
-7.0605906557
 20
20.4538253914
 10
-7.0691637393
 20
20.4633230016
 10
-7.0775938616
 20
20.4730117931
 10
-7.0858649238
 20
20.482878404
 10
-7.0939637567
 20
20.4929354104
 10
-7.1018621962
 20
20.5031521784
 10
-7.1095365524
 20
20.5135044771
 10
-7.1169718373
 20
20.524012814
 10
-7.1241299236
 20
20.5346293936
 10
-7.1309876699
 20
20.5453319019
 10
-7.137536042
 20
20.5561736374
 10
-7.143738371
 20
20.5671391717
 10
-7.1495433554
 20
20.5781456193
 10
-7.154908696
 20
20.5891361411
  0
LWPOLYLINE
  5
482
100
AcDbEntity
  8
ASSI
100
AcDbPolyline
 62
250
  6
CONTINUOUS
 90
10
 70
0
 10
-5.6046198267
 20
18.8962606626
 10
-5.6148404333
 20
18.9052943371
 10
-5.6255918535
 20
18.9136819067
 10
-5.636797496
 20
18.9213863637
 10
-5.6484901373
 20
18.9283496815
 10
-5.6605079811
 20
18.9345957609
 10
-5.6725072496
 20
18.940213138
 10
-5.6843598042
 20
18.9452187619
 10
-5.6961410134
 20
18.9495715933
 10
-5.7078340677
 20
18.9532662245
  0
LWPOLYLINE
  5
483
100
AcDbEntity
  8
ASSI
100
AcDbPolyline
 62
250
  6
CONTINUOUS
 90
11
 70
0
 10
-3.202022239
 20
20.0518253089
 10
-3.2087333982
 20
20.0597091762
 10
-3.2209974184
 20
20.0713923809
 10
-3.2347773165
 20
20.0815083797
 10
-3.2499221171
 20
20.0899463398
 10
-3.2662658898
 20
20.0966138128
 10
-3.2836295699
 20
20.1014377492
 10
-3.3018229205
 20
20.104365297
 10
-3.3206466129
 20
20.1053643806
 10
-3.3398944104
 20
20.1044240527
 10
-3.35935543
 20
20.1015546147
  0
LINE
  5
484
100
AcDbEntity
  8
ASSI
100
AcDbLine
 62
7
  6
CONTINUOUS
 10
-3.2019298977
 20
20.0517075077
 11
-3.202022239
 21
20.0518253089
  0
LWPOLYLINE
  5
485
100
AcDbEntity
  8
ASSI
100
AcDbPolyline
 62
7
  6
CONTINUOUS
 90
10
 70
0
 10
-3.202022239
 20
20.0518253089
 10
-3.1885761786
 20
20.0333727433
 10
-3.1767456142
 20
20.0143896933
 10
-3.1665391584
 20
19.9949751657
 10
-3.1579783227
 20
19.9752908813
 10
-3.1510178347
 20
19.9553806035
 10
-3.1455953632
 20
19.9351657698
 10
-3.1417140223
 20
19.914688871
 10
-3.139393583
 20
19.8941167006
 10
-3.1386241001
 20
19.8735567203
  0
LWPOLYLINE
  5
486
100
AcDbEntity
  8
ASSI
100
AcDbPolyline
 62
250
  6
CONTINUOUS
 90
16
 70
0
 10
-3.3593556787
 20
20.1015551427
 10
-3.3694844527
 20
20.1160904407
 10
-3.3773312956
 20
20.1308191186
 10
-3.3828962073
 20
20.1457411764
 10
-3.3861964077
 20
20.1609476679
 10
-3.387214677
 20
20.1763475393
 10
-3.3858993557
 20
20.1916676288
 10
-3.3821894239
 20
20.2069208657
 10
-3.3761459015
 20
20.2220943208
 10
-3.3679001878
 20
20.236876045
 10
-3.3574055204
 20
20.2512418114
 10
-3.3447086618
 20
20.265215847
 10
-3.3300812987
 20
20.2785588835
 10
-3.3136139933
 20
20.2911911648
 10
-3.2952161835
 20
20.3031924471
 10
-3.2748878692
 20
20.3145627302
  0
LWPOLYLINE
  5
487
100
AcDbEntity
  8
RACCORDO
100
AcDbPolyline
 62
7
  6
CONTINUOUS
 90
13
 70
0
 10
-0.8157947813
 20
16.5917586359
 10
-0.8649499115
 20
16.6656840322
 10
-0.9161430394
 20
16.7367291887
 10
-0.969374165
 20
16.8048941054
 10
-1.0248793457
 20
16.8704514101
 10
-1.0824225241
 20
16.9331284751
 10
-1.1412955281
 20
16.9921074168
 10
-1.2015290992
 20
17.0473236498
 10
-1.263092496
 20
17.0988417596
 10
-1.3251853219
 20
17.146037619
 10
-1.3875407779
 20
17.1887031855
 10
-1.4504256631
 20
17.2270465016
 10
-1.5138399773
 20
17.2610675673
  0
LWPOLYLINE
  5
488
100
AcDbEntity
  8
RACCORDO
100
AcDbPolyline
 62
7
  6
CONTINUOUS
 90
13
 70
0
 10
-0.910698111
 20
16.4541448877
 10
-0.9204334883
 20
16.4693022863
 10
-0.9713420161
 20
16.5442024634
 10
-1.0253827437
 20
16.6166218546
 10
-1.0824748388
 20
16.6862695257
 10
-1.1423491563
 20
16.7526427739
 10
-1.2045260227
 20
16.815111421
 10
-1.2688155323
 20
16.8734008332
 10
-1.3350059653
 20
16.9272336884
 10
-1.4025653887
 20
16.976109514
 10
-1.4711546628
 20
17.0197670549
 10
-1.5406178538
 20
17.0580922709
 10
-2.3378867998
 20
17.4567786744
  0
LINE
  5
489
100
AcDbEntity
  8
RACCORDO
100
AcDbLine
 62
7
  6
CONTINUOUS
 10
-0.7074667564
 20
16.4212256655
 11
-0.8157947813
 21
16.5917586359
  0
LINE
  5
48A
100
AcDbEntity
  8
RACCORDO
100
AcDbLine
 62
7
  6
CONTINUOUS
 10
-0.5998260936
 20
16.2500874586
 11
-0.7074667564
 21
16.4212256655
  0
LWPOLYLINE
  5
48B
100
AcDbEntity
  8
0
100
AcDbPolyline
 62
7
  6
CONTINUOUS
 90
10
 70
0
 10
12.9960629314
 20
29.8014532823
 10
12.9961069901
 20
29.7918349368
 10
12.9962385269
 20
29.7822638997
 10
12.9964575419
 20
29.772740171
 10
12.9967640839
 20
29.7632625774
 10
12.9971581042
 20
29.7538322921
 10
12.9976394554
 20
29.7444528348
 10
12.9982080888
 20
29.7351253787
 10
12.9988640532
 20
29.7258487506
 10
12.9996073487
 20
29.7166229505
  0
LINE
  5
48C
100
AcDbEntity
  8
0
100
AcDbLine
 62
7
  6
CONTINUOUS
 10
13.4556823392
 20
30.304311814
 11
13.4556823392
 21
31.3437006025
  0
LINE
  5
48D
100
AcDbEntity
  8
DRAFT
100
AcDbLine
 62
7
  6
CONTINUOUS
 10
13.740122463
 20
30.1620917521
 11
13.740122463
 21
29.6963743667
  0
LINE
  5
48E
100
AcDbEntity
  8
RACCORDO
100
AcDbLine
 62
7
  6
CONTINUOUS
 10
13.950657086
 20
29.5911070552
 11
13.950657086
 21
30.0568244406
  0
LINE
  5
48F
100
AcDbEntity
  8
0
100
AcDbLine
 62
7
  6
CONTINUOUS
 10
13.9860124251
 20
28.7956119263
 11
13.9860124251
 21
27.7915818648
  0
LINE
  5
490
100
AcDbEntity
  8
SMUSSO
100
AcDbLine
 62
7
  6
CONTINUOUS
 10
14.0905904399
 20
31.654200315
 11
14.0905904399
 21
31.8163702718
  0
LWPOLYLINE
  5
491
100
AcDbEntity
  8
RACCORDO
100
AcDbPolyline
 62
7
  6
CONTINUOUS
 90
3
 70
0
 10
5.0395049884
 20
-17.1149344458
 10
5.035453762
 20
-17.1229024564
 10
5.0325394153
 20
-17.12597004
  0
LWPOLYLINE
  5
492
100
AcDbEntity
  8
RACCORDO
100
AcDbPolyline
 62
250
  6
CONTINUOUS
 90
8
 70
0
 10
25.5648710525
 20
7.6890848323
 10
25.5443677915
 20
7.6622129035
 10
25.5249403682
 20
7.6336135335
 10
25.5070272846
 20
7.6039468843
 10
25.4906666885
 20
7.5731968079
 10
25.475820432
 20
7.5413794522
 10
25.462812574
 20
7.5092034229
 10
25.4516820692
 20
7.4766115178
  0
LINE
  5
493
100
AcDbEntity
  8
0
100
AcDbLine
 62
250
  6
CONTINUOUS
 10
-0.9967366198
 20
-19.9279028373
 11
-1.0142931516
 21
-19.9481793209
  0
LWPOLYLINE
  5
494
100
AcDbEntity
  8
0
100
AcDbPolyline
 62
7
  6
CONTINUOUS
 90
10
 70
0
 10
-0.9840203493
 20
-19.9256868373
 10
-0.9623888353
 20
-19.9012804087
 10
-0.9437904513
 20
-19.8757199592
 10
-0.9272268656
 20
-19.847876102
 10
-0.9128821404
 20
-19.8178300887
 10
-0.9009516345
 20
-19.7857406158
 10
-0.8916196768
 20
-19.7519270073
 10
-0.8849725119
 20
-19.7165465447
 10
-0.8810667477
 20
-19.6796530967
 10
-0.8799627067
 20
-19.6462338365
  0
LINE
  5
495
100
AcDbEntity
  8
RACCORDO
100
AcDbLine
 62
7
  6
CONTINUOUS
 10
-0.997660662
 20
-19.9748939995
 11
-0.960502807
 21
-19.934629173
  0
LWPOLYLINE
  5
496
100
AcDbEntity
  8
0
100
AcDbPolyline
 62
250
  6
CONTINUOUS
 90
6
 70
0
 10
-1.0142931516
 20
-19.9481793209
 10
-1.2555017906
 20
-20.187324921
 10
-1.4984007268
 20
-20.4145909716
 10
-1.7426581425
 20
-20.6302810249
 10
-1.986128737
 20
-20.8332262814
 10
-2.2302554016
 20
-21.0253276364
  0
LINE
  5
497
100
AcDbEntity
  8
RACCORDO
100
AcDbLine
 62
7
  6
CONTINUOUS
 10
-4.5492990261
 20
-21.9597520969
 11
-4.4680337903
 21
-21.8822636479
  0
LWPOLYLINE
  5
498
100
AcDbEntity
  8
0
100
AcDbPolyline
 62
250
  6
CONTINUOUS
 90
3
 70
0
 10
-0.9840300602
 20
-19.9256967486
 10
-0.9972307571
 20
-19.9373250676
 10
-1.0142931517
 20
-19.9481793207
  0
LWPOLYLINE
  5
499
100
AcDbEntity
  8
RACCORDO
100
AcDbPolyline
 62
7
  6
CONTINUOUS
 90
6
 70
0
 10
-4.9644493107
 20
-22.3331260797
 10
-4.8802427064
 20
-22.2603270514
 10
-4.7966243757
 20
-22.1865901389
 10
-4.7135943188
 20
-22.1119153424
 10
-4.6311525356
 20
-22.0363026617
 10
-4.5492990261
 20
-21.9597520969
  0
LINE
  5
49A
100
AcDbEntity
  8
0
100
AcDbLine
 62
250
  6
CONTINUOUS
 10
-2.4633851115
 20
-21.2001912806
 11
-2.4804111906
 21
-21.210985317
  0
LINE
  5
49B
100
AcDbEntity
  8
RACCORDO
100
AcDbLine
 62
250
  6
CONTINUOUS
 10
21.8421579352
 20
-2.8479918888
 11
21.9277503802
 21
-2.7954167442
  0
LWPOLYLINE
  5
49C
100
AcDbEntity
  8
RACCORDO
100
AcDbPolyline
 62
250
  6
CONTINUOUS
 90
10
 70
0
 10
26.0243736998
 20
-0.6881697599
 10
26.0704084041
 20
-0.6623558147
 10
26.111811261
 20
-0.6346500546
 10
26.1482727431
 20
-0.6052596074
 10
26.1795202647
 20
-0.5744041958
 10
26.2053202194
 20
-0.5423144944
 10
26.2254797267
 20
-0.5092304059
 10
26.2398480744
 20
-0.4753992666
 10
26.2483178449
 20
-0.4410739977
 10
26.2508452137
 20
-0.4093037187
  0
LWPOLYLINE
  5
49D
100
AcDbEntity
  8
RACCORDO
100
AcDbPolyline
 62
7
  6
CONTINUOUS
 90
13
 70
0
 10
25.9724436775
 20
-0.7963198106
 10
26.0189332137
 20
-0.7702832471
 10
26.0608455009
 20
-0.7425006536
 10
26.0982988059
 20
-0.7131475554
 10
26.1314452282
 20
-0.6823487634
 10
26.160367393
 20
-0.6502697412
 10
26.1850614106
 20
-0.6172043192
 10
26.2055419541
 20
-0.5835331219
 10
26.222039495
 20
-0.5493404975
 10
26.2347649391
 20
-0.5145765241
 10
26.2437742881
 20
-0.4794154823
 10
26.2490990177
 20
-0.4442316408
 10
26.2508452137
 20
-0.4093037187
  0
LINE
  5
49E
100
AcDbEntity
  8
RACCORDO
100
AcDbLine
 62
250
  6
CONTINUOUS
 10
21.9277503802
 20
-2.7954167442
 11
22.0094426321
 21
-2.7524918692
  0
LINE
  5
49F
100
AcDbEntity
  8
RACCORDO
100
AcDbLine
 62
250
  6
CONTINUOUS
 10
25.5360565046
 20
-3.6624838484
 11
23.8661973959
 21
-4.5270787118
  0
LINE
  5
4A0
100
AcDbEntity
  8
RACCORDO
100
AcDbLine
 62
250
  6
CONTINUOUS
 10
25.6750743419
 20
-3.9076659908
 11
24.0076402945
 21
-4.7710052419
  0
LINE
  5
4A1
100
AcDbEntity
  8
RACCORDO
100
AcDbLine
 62
250
  6
CONTINUOUS
 10
26.0243736998
 20
-0.3417595983
 11
22.0094426321
 21
-2.4060817077
  0
LINE
  5
4A2
100
AcDbEntity
  8
RACCORDO
100
AcDbLine
 62
250
  6
CONTINUOUS
 10
22.0094426321
 20
-2.7524918692
 11
26.0243736998
 21
-0.6881697599
  0
LINE
  5
4A3
100
AcDbEntity
  8
RACCORDO
100
AcDbLine
 62
7
  6
CONTINUOUS
 10
21.9575126098
 20
-2.86064192
 11
25.9724436775
 21
-0.7963198106
  0
LINE
  5
4A4
100
AcDbEntity
  8
DRAFT
100
AcDbLine
 62
7
  6
CONTINUOUS
 10
24.0485638088
 20
-4.791466999
 11
21.2798667913
 21
-6.200190276
  0
LINE
  5
4A5
100
AcDbEntity
  8
0
100
AcDbLine
 62
7
  6
CONTINUOUS
 10
20.6354087428
 20
-6.2571341778
 11
22.5773598165
 21
-5.2861586409
  0
LWPOLYLINE
  5
4A6
100
AcDbEntity
  8
RACCORDO
100
AcDbPolyline
 62
250
  6
CONTINUOUS
 90
12
 70
0
 10
21.8660605002
 20
-6.4932871305
 10
21.7692161857
 20
-6.5392304069
 10
21.6726985034
 20
-6.5770069904
 10
21.5769404701
 20
-6.6064318443
 10
21.4823415655
 20
-6.6273659871
 10
21.389363459
 20
-6.6396803692
 10
21.2985201752
 20
-6.6432919993
 10
21.2102633294
 20
-6.6382015813
 10
21.1249374219
 20
-6.6244479361
 10
21.0428741692
 20
-6.6020847436
 10
20.9644307639
 20
-6.5712074956
 10
20.9412734657
 20
-6.5601116416
  0
LWPOLYLINE
  5
4A7
100
AcDbEntity
  8
RACCORDO
100
AcDbPolyline
 62
250
  6
CONTINUOUS
 90
47
 70
0
 10
22.0094426321
 20
-6.7362087267
 10
21.902444469
 20
-6.7867266724
 10
21.796750154
 20
-6.8279621938
 10
21.6923596869
 20
-6.8599152909
 10
21.5887826126
 20
-6.8826579547
 10
21.4865093863
 20
-6.8961181942
 10
21.3870113738
 20
-6.9000800366
 10
21.2903803619
 20
-6.8944025733
 10
21.1965245638
 20
-6.8792267128
 10
21.1066399851
 20
-6.8547592084
 10
21.0207652167
 20
-6.8208799219
 10
20.9388616677
 20
-6.7777089914
 10
20.8620095718
 20
-6.7258135844
 10
20.7902762327
 20
-6.66507752
 10
20.7235943466
 20
-6.5956169792
 10
20.6628422358
 20
-6.5183476718
 10
20.608099236
 20
-6.4331678003
 10
20.5592860114
 20
-6.3401791623
 10
20.5170428772
 20
-6.2406028599
 10
20.481456003
 20
-6.1343510561
 10
20.4524392193
 20
-6.0215115878
 10
20.430374333
 20
-5.9035690683
 10
20.4153532271
 20
-5.7804568636
 10
20.4072840187
 20
-5.6522416075
 10
20.4062728659
 20
-5.5206078153
 10
20.4124130916
 20
-5.3855090748
 10
20.4256113728
 20
-5.2469917982
 10
20.4456938988
 20
-5.1068797358
 10
20.4727502566
 20
-4.9651557972
 10
20.5066908591
 20
-4.821837073
 10
20.5470731347
 20
-4.678798585
 10
20.5939880967
 20
-4.5360309023
 10
20.6473447317
 20
-4.3935434558
 10
20.7064274277
 20
-4.2532395607
 10
20.7712900859
 20
-4.1151844714
 10
20.841878805
 20
-3.9793129333
 10
20.9173162698
 20
-3.8473324978
 10
20.9976516662
 20
-3.7192857923
 10
21.0828358082
 20
-3.5951301893
 10
21.1718438224
 20
-3.4764453582
 10
21.2654999429
 20
-3.3627269151
 10
21.3629799356
 20
-3.2544792439
 10
21.460786225
 20
-3.1547951651
 10
21.5591617823
 20
-3.064343393
 10
21.6578636363
 20
-2.9824552133
 10
21.7526652972
 20
-2.9102173033
 10
21.8421579352
 20
-2.8479918888
  0
LINE
  5
4A8
100
AcDbEntity
  8
RACCORDO
100
AcDbLine
 62
250
  6
CONTINUOUS
 10
24.2512393625
 20
-7.0889469409
 11
24.2686407593
 21
-7.082576444
  0
LWPOLYLINE
  5
4A9
100
AcDbEntity
  8
0
100
AcDbPolyline
 62
7
  6
CONTINUOUS
 90
24
 70
0
 10
20.4998005699
 20
-5.8832644881
 10
20.5250435109
 20
-5.8741765105
 10
20.6305652763
 20
-5.8265367456
 10
20.7360468836
 20
-5.7691026457
 10
20.8414996181
 20
-5.7020291805
 10
20.9451878402
 20
-5.6264488174
 10
21.0470802693
 20
-5.5422266235
 10
21.1472081859
 20
-5.4494975319
 10
21.2439297924
 20
-5.3497988092
 10
21.3372196214
 20
-5.2429580029
 10
21.4271031403
 20
-5.1291475656
 10
21.5120149528
 20
-5.0104221225
 10
21.5917597089
 20
-4.8869327195
 10
21.6665327587
 20
-4.7585283106
 10
21.7353547552
 20
-4.6268103829
 10
21.7982792685
 20
-4.4914955692
 10
21.8552527285
 20
-4.3528672367
 10
21.9051350787
 20
-4.2133769738
 10
21.9477761534
 20
-4.0729893049
 10
21.9833261182
 20
-3.9317397057
 10
22.0110954143
 20
-3.7921861915
 10
22.0308541885
 20
-3.6551814341
 10
22.042832294
 20
-3.5198727618
 10
22.0470297306
 20
-3.3862601744
  0
LWPOLYLINE
  5
4AA
100
AcDbEntity
  8
ASSI
100
AcDbPolyline
 62
250
  6
CONTINUOUS
 90
7
 70
0
 10
-6.7831254771
 20
17.177617737
 10
-6.7953135136
 20
17.1814539392
 10
-6.808274416
 20
17.1833074714
 10
-6.8218692974
 20
17.1831584654
 10
-6.8359524891
 20
17.1810085181
 10
-6.8503731052
 20
17.1768806645
 10
-6.8649766371
 20
17.1708191311
  0
LWPOLYLINE
  5
4AB
100
AcDbEntity
  8
ASSI
100
AcDbPolyline
 62
250
  6
CONTINUOUS
 90
6
 70
0
 10
-8.6927050696
 20
19.7004224462
 10
-8.702162384
 20
19.7043705374
 10
-8.7160312642
 20
19.707706024
 10
-8.7307684622
 20
19.7085965338
 10
-8.7461804323
 20
19.7070303636
 10
-8.7620647682
 20
19.7030280747
  0
LWPOLYLINE
  5
4AC
100
AcDbEntity
  8
ASSI
100
AcDbPolyline
 62
250
  6
CONTINUOUS
 90
6
 70
0
 10
-10.7704801233
 20
20.7393099727
 10
-10.7799313479
 20
20.7432549998
 10
-10.793800257
 20
20.7465904779
 10
-10.8085374755
 20
20.7474809886
 10
-10.8239494588
 20
20.7459148368
 10
-10.8398338005
 20
20.7419125909
  0
LWPOLYLINE
  5
4AD
100
AcDbEntity
  8
ASSI
100
AcDbPolyline
 62
250
  6
CONTINUOUS
 90
3
 70
0
 10
-5.6890898
 20
18.8126098041
 10
-5.6926051161
 20
18.8140855121
 10
-5.6961005141
 20
18.815286905
  0
LWPOLYLINE
  5
4AE
100
AcDbEntity
  8
RACCORDO
100
AcDbPolyline
 62
250
  6
CONTINUOUS
 90
4
 70
0
 10
-10.0078283387
 20
21.2454660476
 10
-10.0182482527
 20
21.2499014799
 10
-10.0282411363
 20
21.254351132
 10
-10.0378251311
 20
21.2588384501
  0
LWPOLYLINE
  5
4AF
100
AcDbEntity
  8
0
100
AcDbPolyline
 62
7
  6
CONTINUOUS
 90
10
 70
0
 10
-3.2730447365
 20
14.9710098835
 10
-3.2479456056
 20
14.96019931
 10
-3.2245056773
 20
14.9489851596
 10
-3.2028477157
 20
14.9373229139
 10
-3.1830278409
 20
14.925053091
 10
-3.1651714555
 20
14.9122888037
 10
-3.1495165568
 20
14.8993846113
 10
-3.1361248102
 20
14.8862882493
 10
-3.1251068031
 20
14.8730064277
 10
-3.1199389305
 20
14.8653973778
  0
LWPOLYLINE
  5
4B0
100
AcDbEntity
  8
RACCORDO
100
AcDbPolyline
 62
250
  6
CONTINUOUS
 90
8
 70
0
 10
25.9645520015
 20
4.6582509343
 10
25.9582346697
 20
4.6610540438
 10
25.9458199603
 20
4.6647208352
 10
25.9326305299
 20
4.6663568347
 10
25.9188108847
 20
4.665944118
 10
25.9045124356
 20
4.6634872069
 10
25.8898918394
 20
4.6590130198
 10
25.8751092824
 20
4.6525705768
  0
LWPOLYLINE
  5
4B1
100
AcDbEntity
  8
ASSI
100
AcDbPolyline
 62
250
  6
CONTINUOUS
 90
8
 70
0
 10
-6.8649766371
 20
17.1708191311
 10
-6.8793084287
 20
17.1772985544
 10
-6.8935705418
 20
17.1818658022
 10
-6.9076074101
 20
17.1844482502
 10
-6.9212806636
 20
17.1849931585
 10
-6.9344156481
 20
17.1834652853
 10
-6.9468120677
 20
17.1798753004
 10
-6.9513005221
 20
17.1779778723
  0
LWPOLYLINE
  5
4B2
100
AcDbEntity
  8
ASSI
100
AcDbPolyline
 62
250
  6
CONTINUOUS
 90
8
 70
0
 10
-16.0413194193
 20
21.7589905222
 10
-16.0556512109
 20
21.7654699456
 10
-16.069913324
 20
21.7700371933
 10
-16.0839501924
 20
21.7726196413
 10
-16.0976234458
 20
21.7731645496
 10
-16.1107584304
 20
21.7716366764
 10
-16.1231548499
 20
21.7680466916
 10
-16.1276433043
 20
21.7661492634
  0
LWPOLYLINE
  5
4B3
100
AcDbEntity
  8
ASSI
100
AcDbPolyline
 62
250
  6
CONTINUOUS
 90
8
 70
0
 10
-5.2507981952
 20
16.4116898641
 10
-5.2559217815
 20
16.4140158739
 10
-5.2681098133
 20
16.4178520438
 10
-5.2810706892
 20
16.4197055475
 10
-5.2946655378
 20
16.4195565237
 10
-5.3087486976
 20
16.4174065689
 10
-5.3231692779
 20
16.4132787181
 10
-5.3377727713
 20
16.4072171982
  0
LINE
  5
4B4
100
AcDbEntity
  8
ASSI
100
AcDbLine
 62
250
  6
CONTINUOUS
 10
-6.778002061
 20
17.175291797
 11
-6.7831254771
 21
17.177617737
  0
LINE
  5
4B5
100
AcDbEntity
  8
ASSI
100
AcDbLine
 62
250
  6
CONTINUOUS
 10
-15.9543448432
 20
21.7634631881
 11
-15.9594682593
 21
21.7657891281
  0
LWPOLYLINE
  5
4B6
100
AcDbEntity
  8
RACCORDO
100
AcDbPolyline
 62
7
  6
CONTINUOUS
 90
13
 70
0
 10
-10.5363789877
 20
21.7723370725
 10
-10.599793302
 20
21.8017303211
 10
-10.6626781872
 20
21.8262718902
 10
-10.7250336433
 20
21.8459617797
 10
-10.7871264691
 20
21.8608587462
 10
-10.8486898659
 20
21.8709040332
 10
-10.908923437
 20
21.8759213713
 10
-10.967796441
 20
21.8758154336
 10
-11.0253396194
 20
21.870681547
 10
-11.0808448
 20
21.8606294229
 10
-11.1340759256
 20
21.8456956318
 10
-11.1852690535
 20
21.8258436031
 10
-11.1978253251
 20
21.8200758886
  0
LWPOLYLINE
  5
4B7
100
AcDbEntity
  8
ASSI
100
AcDbPolyline
 62
250
  6
CONTINUOUS
 90
4
 70
0
 10
-8.7620651422
 20
19.7030282617
 10
-8.7340711659
 20
19.6899163675
 10
-8.7034900753
 20
19.6776432352
 10
-8.6703353386
 20
19.6660996664
  0
LWPOLYLINE
  5
4B8
100
AcDbEntity
  8
RACCORDO
100
AcDbPolyline
 62
250
  6
CONTINUOUS
 90
7
 70
0
 10
25.764517061
 20
4.7582684045
 10
25.7611662088
 20
4.7598417291
 10
25.74578502
 20
4.7647383054
 10
25.7291939519
 20
4.7664634004
 10
25.7116768823
 20
4.7649874973
 10
25.693533533
 20
4.7603358492
 10
25.6750743419
 20
4.7525880471
  0
LWPOLYLINE
  5
4B9
100
AcDbEntity
  8
RACCORDO
100
AcDbPolyline
 62
250
  6
CONTINUOUS
 90
7
 70
0
 10
-1.5487993557
 20
17.0622229008
 10
-1.5509406218
 20
17.0632487285
 10
-1.5660394393
 20
17.0683496018
 10
-1.5823452917
 20
17.0703540713
 10
-1.5995853287
 20
17.0692285712
 10
-1.6174710863
 20
17.0649919104
 10
-1.635703281
 20
17.057714956
  0
LWPOLYLINE
  5
4BA
100
AcDbEntity
  8
RACCORDO
100
AcDbPolyline
 62
250
  6
CONTINUOUS
 90
7
 70
0
 10
-9.9600516855
 20
21.2678491067
 10
-9.9622403729
 20
21.2688985589
 10
-9.9773389891
 20
21.2739990834
 10
-9.9936444548
 20
21.2760032128
 10
-10.010883932
 20
21.2748774142
 10
-10.0287689501
 20
21.2706405236
 10
-10.0470002373
 20
21.2633634341
  0
LWPOLYLINE
  5
4BB
100
AcDbEntity
  8
RACCORDO
100
AcDbPolyline
 62
250
  6
CONTINUOUS
 90
6
 70
0
 10
-2.335570244
 20
17.4556083915
 10
-2.3377832959
 20
17.4566700204
 10
-2.352882216
 20
17.4617706969
 10
-2.3691881701
 20
17.4637750705
 10
-2.3864283153
 20
17.4626496059
 10
-2.4043141861
 20
17.4584131416
  0
LWPOLYLINE
  5
4BC
100
AcDbEntity
  8
RACCORDO
100
AcDbPolyline
 62
250
  6
CONTINUOUS
 90
7
 70
0
 10
-10.7468688911
 20
21.661257715
 10
-10.7490819361
 20
21.6623193402
 10
-10.764180695
 20
21.6674199367
 10
-10.7804863982
 20
21.6694241882
 10
-10.7977262076
 20
21.6682985583
 10
-10.8156116547
 20
21.6640618817
 10
-10.8338434679
 20
21.6567850494
  0
LWPOLYLINE
  5
4BD
100
AcDbEntity
  8
RACCORDO
100
AcDbPolyline
 62
7
  6
CONTINUOUS
 90
13
 70
0
 10
-10.7468506835
 20
21.6612486081
 10
-10.7616328315
 20
21.6685084322
 10
-10.8324912898
 20
21.6997015955
 10
-10.9031596728
 20
21.7249031722
 10
-10.9733805158
 20
21.7440693145
 10
-11.0428922967
 20
21.7571852552
 10
-11.1113941448
 20
21.7642579783
 10
-11.178654746
 20
21.7653099722
 10
-11.2443536857
 20
21.7603945808
 10
-11.3079982444
 20
21.7496352127
 10
-11.3692113396
 20
21.7332169429
 10
-11.4277549234
 20
21.7113641211
 10
-11.4504469378
 20
21.7011192695
  0
LINE
  5
4BE
100
AcDbEntity
  8
RACCORDO
100
AcDbLine
 62
250
  6
CONTINUOUS
 10
-10.0378251311
 20
21.2588384501
 11
-10.0470002373
 21
21.2633634341
  0
LINE
  5
4BF
100
AcDbEntity
  8
ASSI
100
AcDbLine
 62
7
  6
CONTINUOUS
 10
-5.5300135817
 20
16.2958153634
 11
-10.5436347303
 21
18.8026259377
  0
LINE
  5
4C0
100
AcDbEntity
  8
ASSI
100
AcDbLine
 62
7
  6
CONTINUOUS
 10
-15.5072985022
 20
21.2844578236
 11
-20.5209196507
 21
23.7912683979
  0
LINE
  5
4C1
100
AcDbEntity
  8
ASSI
100
AcDbLine
 62
250
  6
CONTINUOUS
 10
-12.501687295
 20
19.9506196542
 11
-8.6213764291
 21
18.0104642212
  0
LINE
  5
4C2
100
AcDbEntity
  8
ASSI
100
AcDbLine
 62
250
  6
CONTINUOUS
 10
-5.3377727713
 20
16.4072171982
 11
-6.8649766371
 21
17.1708191311
  0
LINE
  5
4C3
100
AcDbEntity
  8
ASSI
100
AcDbLine
 62
250
  6
CONTINUOUS
 10
-14.5141155536
 20
20.9953885893
 11
-16.0413194193
 21
21.7589905222
  0
LINE
  5
4C4
100
AcDbEntity
  8
ASSI
100
AcDbLine
 62
7
  6
CONTINUOUS
 10
-5.2507981952
 20
16.4116898641
 11
-6.778002061
 21
17.175291797
  0
LINE
  5
4C5
100
AcDbEntity
  8
ASSI
100
AcDbLine
 62
7
  6
CONTINUOUS
 10
-14.4271409774
 20
20.9998612552
 11
-15.9543448432
 21
21.7634631881
  0
LINE
  5
4C6
100
AcDbEntity
  8
ASSI
100
AcDbLine
 62
250
  6
CONTINUOUS
 10
-12.3625481101
 20
20.0901270892
 11
-8.5155666397
 21
18.1666363541
  0
LINE
  5
4C7
100
AcDbEntity
  8
ASSI
100
AcDbLine
 62
7
  6
CONTINUOUS
 10
-5.0846448182
 20
16.6577117723
 11
-5.904913975
 21
17.0678463507
  0
LINE
  5
4C8
100
AcDbEntity
  8
ASSI
100
AcDbLine
 62
250
  6
CONTINUOUS
 10
-5.6145632415
 20
17.4905254973
 11
-5.4594240575
 21
17.4129559053
  0
LINE
  5
4C9
100
AcDbEntity
  8
ASSI
100
AcDbLine
 62
250
  6
CONTINUOUS
 10
-11.9807358394
 20
20.9186399093
 11
-8.2441816456
 21
19.0503628124
  0
LINE
  5
4CA
100
AcDbEntity
  8
ASSI
100
AcDbLine
 62
250
  6
CONTINUOUS
 10
-11.8582613523
 20
21.0664796933
 11
-8.1217071585
 21
19.1982025964
  0
LINE
  5
4CB
100
AcDbEntity
  8
ASSI
100
AcDbLine
 62
7
  6
CONTINUOUS
 10
-11.8327097428
 20
21.1850164557
 11
-11.7726441254
 21
21.154983647
  0
LINE
  5
4CC
100
AcDbEntity
  8
ASSI
100
AcDbLine
 62
7
  6
CONTINUOUS
 10
-5.0897347347
 20
17.8135289517
 11
-2.6216722783
 21
16.5794977234
  0
LINE
  5
4CD
100
AcDbEntity
  8
ASSI
100
AcDbLine
 62
250
  6
CONTINUOUS
 10
-7.9853117325
 20
19.2688328163
 11
-11.7170009123
 21
21.1346774062
  0
LINE
  5
4CE
100
AcDbEntity
  8
ASSI
100
AcDbLine
 62
250
  6
CONTINUOUS
 10
-10.8398338005
 20
20.7419125909
 11
-8.7620651422
 21
19.7030282617
  0
LINE
  5
4CF
100
AcDbEntity
  8
ASSI
100
AcDbLine
 62
7
  6
CONTINUOUS
 10
-10.7704738966
 20
20.7393068597
 11
-8.6927050696
 21
19.7004224462
  0
LINE
  5
4D0
100
AcDbEntity
  8
ASSI
100
AcDbLine
 62
250
  6
CONTINUOUS
 10
-7.8357256048
 20
19.3028879536
 11
-8.4301605939
 21
19.6001054481
  0
LINE
  5
4D1
100
AcDbEntity
  8
ASSI
100
AcDbLine
 62
250
  6
CONTINUOUS
 10
-10.9733158122
 20
20.8716830573
 11
-11.5677508013
 21
21.1689005518
  0
LINE
  5
4D2
100
AcDbEntity
  8
ASSI
100
AcDbLine
 62
250
  6
CONTINUOUS
 10
-5.7989540285
 20
19.1381879327
 11
-6.2276848012
 21
19.3525533191
  0
LINE
  5
4D3
100
AcDbEntity
  8
ASSI
100
AcDbLine
 62
250
  6
CONTINUOUS
 10
-9.1949032052
 20
20.8361625211
 11
-9.623633978
 21
21.0505279074
  0
LINE
  5
4D4
100
AcDbEntity
  8
RACCORDO
100
AcDbLine
 62
250
  6
CONTINUOUS
 10
-10.8338434679
 20
21.6567850494
 11
-10.0470002373
 21
21.2633634341
  0
LINE
  5
4D5
100
AcDbEntity
  8
RACCORDO
100
AcDbLine
 62
250
  6
CONTINUOUS
 10
-2.4225465104
 20
17.4511365707
 11
-1.6357032799
 21
17.0577149554
  0
LINE
  5
4D6
100
AcDbEntity
  8
RACCORDO
100
AcDbLine
 62
7
  6
CONTINUOUS
 10
-10.7468688911
 20
21.661257715
 11
-9.9600273505
 21
21.2678369447
  0
LINE
  5
4D7
100
AcDbEntity
  8
ASSI
100
AcDbLine
 62
250
  6
CONTINUOUS
 10
-6.1257554869
 20
19.3762378783
 11
-8.1372299153
 21
20.3819750925
  0
LINE
  5
4D8
100
AcDbEntity
  8
ASSI
100
AcDbLine
 62
250
  6
CONTINUOUS
 10
-5.9863048829
 20
19.4153607774
 11
-7.9853813705
 21
20.4148990212
  0
LINE
  5
4D9
100
AcDbEntity
  8
RACCORDO
100
AcDbLine
 62
7
  6
CONTINUOUS
 10
-1.5138399773
 20
17.2610675673
 11
-1.807220634
 21
17.4077578957
  0
LINE
  5
4DA
100
AcDbEntity
  8
RACCORDO
100
AcDbLine
 62
7
  6
CONTINUOUS
 10
-10.242998331
 20
21.6256467441
 11
-10.5363789877
 21
21.7723370725
  0
LINE
  5
4DB
100
AcDbEntity
  8
ASSI
100
AcDbLine
 62
250
  6
CONTINUOUS
 10
-5.349747623
 20
19.2401293332
 11
-5.7853329048
 21
19.4579219741
  0
LINE
  5
4DC
100
AcDbEntity
  8
ASSI
100
AcDbLine
 62
250
  6
CONTINUOUS
 10
-8.7407463854
 20
20.9356287144
 11
-9.1763316672
 21
21.1534213553
  0
LINE
  5
4DD
100
AcDbEntity
  8
0
100
AcDbLine
 62
7
  6
CONTINUOUS
 10
17.8589589086
 20
7.8281716673
 11
17.9356954302
 21
7.7898034065
  0
LINE
  5
4DE
100
AcDbEntity
  8
RACCORDO
100
AcDbLine
 62
250
  6
CONTINUOUS
 10
-5.5692237724
 20
19.6163782573
 11
-6.9883411318
 21
20.3259369371
  0
LINE
  5
4DF
100
AcDbEntity
  8
RACCORDO
100
AcDbLine
 62
250
  6
CONTINUOUS
 10
25.5613957621
 20
4.0669652167
 11
25.4863528416
 21
4.104486677
  0
LINE
  5
4E0
100
AcDbEntity
  8
RACCORDO
100
AcDbLine
 62
250
  6
CONTINUOUS
 10
-5.5147996718
 20
19.6435903076
 11
-6.8986903045
 21
20.3355356239
  0
LINE
  5
4E1
100
AcDbEntity
  8
RACCORDO
100
AcDbLine
 62
250
  6
CONTINUOUS
 10
-4.9084555631
 20
19.946762362
 11
-6.2923461957
 21
20.6387076783
  0
LINE
  5
4E2
100
AcDbEntity
  8
RACCORDO
100
AcDbLine
 62
7
  6
CONTINUOUS
 10
-4.8328529876
 20
19.9845636497
 11
-6.1535887082
 21
20.6449315101
  0
LINE
  5
4E3
100
AcDbEntity
  8
RACCORDO
100
AcDbLine
 62
250
  6
CONTINUOUS
 10
25.6750743419
 20
4.7525880471
 11
25.8751092824
 21
4.6525705768
  0
LINE
  5
4E4
100
AcDbEntity
  8
RACCORDO
100
AcDbLine
 62
7
  6
CONTINUOUS
 10
25.4744526656
 20
4.060035048
 11
25.4743552029
 21
4.060083873
  0
LWPOLYLINE
  5
4E5
100
AcDbEntity
  8
RACCORDO
100
AcDbPolyline
 62
250
  6
CONTINUOUS
 90
52
 70
0
 10
-2.4225465104
 20
17.4511365707
 10
-2.4315938688
 20
17.4557228185
 10
-2.4405553245
 20
17.4605082351
 10
-2.4494308775
 20
17.4654928206
 10
-2.4582680645
 20
17.4706859706
 10
-2.4670193489
 20
17.4760782894
 10
-2.4755421204
 20
17.4816415905
 10
-2.4838432626
 20
17.4873963081
 10
-2.4919158919
 20
17.493322008
 10
-2.4995967479
 20
17.4993292004
 10
-2.5068428366
 20
17.5053999754
 10
-2.513697152
 20
17.5115522429
 10
-2.5201254147
 20
17.5177502427
 10
-2.5261152809
 20
17.5239868308
 10
-2.5316790944
 20
17.5302691511
 10
-2.5368196081
 20
17.5365828758
 10
-2.5415354299
 20
17.542926173
 10
-2.5458279519
 20
17.5493008744
 10
-2.5497041032
 20
17.5556981474
 10
-2.5531649171
 20
17.5621176904
 10
-2.5562093603
 20
17.5685598049
 10
-2.558841262
 20
17.575016562
 10
-2.5610620281
 20
17.5814918253
 10
-2.5628702527
 20
17.5879817314
 10
-2.5642655467
 20
17.5944667614
 10
-2.5652463073
 20
17.6009481486
 10
-2.5658141374
 20
17.6074246598
 10
-2.5659734571
 20
17.6138730765
 10
-2.5657221364
 20
17.6202932515
 10
-2.5650623052
 20
17.6266853321
 10
-2.5640047736
 20
17.6330265412
 10
-2.5625475243
 20
17.6393167741
 10
-2.5606925745
 20
17.6455561355
 10
-2.5584567861
 20
17.6517221637
 10
-2.5558381713
 20
17.6578147026
 10
-2.5528387179
 20
17.6638339082
 10
-2.5494812507
 20
17.6697577861
 10
-2.5457623684
 20
17.6755874128
 10
-2.5416854722
 20
17.6813217117
 10
-2.5372835915
 20
17.6869354589
 10
-2.532552989
 20
17.6924284383
 10
-2.5274974019
 20
17.697800866
 10
-2.5221610709
 20
17.7030281671
 10
-2.5165459832
 20
17.7081057487
 10
-2.5106501516
 20
17.7130382036
 10
-2.5045118553
 20
17.7178147352
 10
-2.498139306
 20
17.7224300576
 10
-2.4915242919
 20
17.7268894567
 10
-2.484680457
 20
17.7311979938
 10
-2.4776123495
 20
17.735357356
 10
-2.4703154213
 20
17.7393658561
 10
-2.4627896723
 20
17.7432234942
  0
LINE
  5
4E6
100
AcDbEntity
  8
ASSI
100
AcDbLine
 62
250
  6
CONTINUOUS
 10
-5.6838386092
 20
18.8098800805
 11
-5.6890898
 21
18.8126098041
  0
LWPOLYLINE
  5
4E7
100
AcDbEntity
  8
ASSI
100
AcDbPolyline
 62
7
  6
CONTINUOUS
 90
11
 70
0
 10
-10.7704801235
 20
20.7393099728
 10
-10.7938521211
 20
20.7516594458
 10
-10.8127154408
 20
20.7627115815
 10
-10.8288829856
 20
20.7731359766
 10
-10.8428010744
 20
20.7829796443
 10
-10.8545857819
 20
20.7920365989
 10
-10.8644194614
 20
20.8001892908
 10
-10.8728472725
 20
20.8076956739
 10
-10.8799915772
 20
20.8144634013
 10
-10.8859604821
 20
20.8204063298
 10
-10.8889136915
 20
20.8234411811
  0
LINE
  5
4E8
100
AcDbEntity
  8
RACCORDO
100
AcDbLine
 62
250
  6
CONTINUOUS
 10
-1.6357032799
 20
17.0577149554
 11
-1.5787201469
 21
17.0272619671
  0
LWPOLYLINE
  5
4E9
100
AcDbEntity
  8
RACCORDO
100
AcDbPolyline
 62
7
  6
CONTINUOUS
 90
5
 70
0
 10
-2.3378867998
 20
17.4567786744
 10
-2.3485521145
 20
17.4625214922
 10
-2.3567616903
 20
17.4674647082
 10
-2.362607195
 20
17.4714154615
 10
-2.3654297205
 20
17.4735339877
  0
LWPOLYLINE
  5
4EA
100
AcDbEntity
  8
RACCORDO
100
AcDbPolyline
 62
250
  6
CONTINUOUS
 90
3
 70
0
 10
25.8751092824
 20
0.3224435579
 10
25.9102786983
 20
0.3032520321
 10
25.9416783285
 20
0.2828725238
  0
LINE
  5
4EB
100
AcDbEntity
  8
ASSI
100
AcDbLine
 62
250
  6
CONTINUOUS
 10
-10.8672885576
 20
20.7569579439
 11
-10.8398338005
 21
20.7419125909
  0
LINE
  5
4EC
100
AcDbEntity
  8
RACCORDO
100
AcDbLine
 62
7
  6
CONTINUOUS
 10
-6.1541680673
 20
20.6452169547
 11
-6.1542411134
 21
20.6452569929
  0
LWPOLYLINE
  5
4ED
100
AcDbEntity
  8
RACCORDO
100
AcDbPolyline
 62
7
  6
CONTINUOUS
 90
20
 70
0
 10
25.7645291157
 20
0.4281353569
 10
25.754742722
 20
0.4335409547
 10
25.743874517
 20
0.4406378383
 10
25.7318824365
 20
0.4496933106
 10
25.7189903939
 20
0.4608090813
 10
25.7056338537
 20
0.4738437396
 10
25.6921001206
 20
0.4887027001
 10
25.6786229345
 20
0.5052947452
 10
25.6655075418
 20
0.523387372
 10
25.6529752411
 20
0.5427888422
 10
25.6412353137
 20
0.5632619295
 10
25.6305174749
 20
0.584457378
 10
25.6209595054
 20
0.6061153317
 10
25.6126876715
 20
0.6279161555
 10
25.6058335108
 20
0.6493912809
 10
25.6004145358
 20
0.6702543494
 10
25.5964173067
 20
0.6902021287
 10
25.5938119587
 20
0.7087493697
 10
25.5924656679
 20
0.7257159713
 10
25.5921885437
 20
0.7371182829
  0
LWPOLYLINE
  5
4EE
100
AcDbEntity
  8
RACCORDO
100
AcDbPolyline
 62
250
  6
CONTINUOUS
 90
13
 70
0
 10
-6.2923461957
 20
20.6387076783
 10
-6.3146550446
 20
20.6515930528
 10
-6.3366072055
 20
20.6677343139
 10
-6.357851664
 20
20.6868733765
 10
-6.3780487161
 20
20.7087042141
 10
-6.3968754121
 20
20.7328777661
 10
-6.4140307181
 20
20.7590075228
 10
-6.4292403112
 20
20.7866756806
 10
-6.4422609754
 20
20.8154398279
 10
-6.452884499
 20
20.8448400371
 10
-6.4609409937
 20
20.8744061983
 10
-6.4663016144
 20
20.9036655354
 10
-6.4688806247
 20
20.9321501768
  0
LWPOLYLINE
  5
4EF
100
AcDbEntity
  8
RACCORDO
100
AcDbPolyline
 62
250
  6
CONTINUOUS
 90
7
 70
0
 10
-0.7886080089
 20
16.2611618001
 10
-0.791137923
 20
16.262677666
 10
-0.7967385716
 20
16.2626627791
 10
-0.8053563872
 20
16.261223264
 10
-0.8161672952
 20
16.2578629604
 10
-0.8288392694
 20
16.2525850531
 10
-0.861304826
 20
16.2380749631
  0
LINE
  5
4F0
100
AcDbEntity
  8
RACCORDO
100
AcDbLine
 62
250
  6
CONTINUOUS
 10
-1.5787201469
 20
17.0272619671
 11
-1.5216363428
 21
16.9927040063
  0
LWPOLYLINE
  5
4F1
100
AcDbEntity
  8
RACCORDO
100
AcDbPolyline
 62
250
  6
CONTINUOUS
 90
11
 70
0
 10
-1.5216363428
 20
16.9927040063
 10
-1.4646490079
 20
16.9540953194
 10
-1.4080353747
 20
16.9115644502
 10
-1.3519228731
 20
16.8651508125
 10
-1.2963007834
 20
16.8147574131
 10
-1.2414011816
 20
16.7604720419
 10
-1.1874500336
 20
16.7023930244
 10
-1.1344677581
 20
16.6403880164
 10
-1.0826518942
 20
16.574479276
 10
-1.0323539267
 20
16.504889742
 10
-0.9838576834
 20
16.4317902503
  0
LWPOLYLINE
  5
4F2
100
AcDbEntity
  8
RACCORDO
100
AcDbPolyline
 62
250
  6
CONTINUOUS
 90
8
 70
0
 10
-0.9107021604
 20
16.454151268
 10
-0.9132986066
 20
16.4559474398
 10
-0.9189090575
 20
16.4563495787
 10
-0.9272057336
 20
16.4549185797
 10
-0.9380498093
 20
16.4516783874
 10
-0.951259834
 20
16.4466832188
 10
-0.9666147685
 20
16.4400166566
 10
-0.9838576834
 20
16.4317902503
  0
LWPOLYLINE
  5
4F3
100
AcDbEntity
  8
RACCORDO
100
AcDbPolyline
 62
250
  6
CONTINUOUS
 90
3
 70
0
 10
25.9416783285
 20
-4.0472544951
 10
25.969308173
 20
-4.0688219857
 10
25.9933567931
 20
-4.0917794463
  0
LWPOLYLINE
  5
4F4
100
AcDbEntity
  8
RACCORDO
100
AcDbPolyline
 62
7
  6
CONTINUOUS
 90
13
 70
0
 10
3.7867518909
 20
18.4072430996
 10
3.774020424
 20
18.4273447894
 10
3.7203771201
 20
18.5071438594
 10
3.6632565629
 20
18.5844639069
 10
3.6026717929
 20
18.6590471713
 10
3.5389003664
 20
18.7303210548
 10
3.4725185162
 20
18.7975046258
 10
3.4036937045
 20
18.860318801
 10
3.332616015
 20
18.9184733948
 10
3.2599264802
 20
18.9713534221
 10
3.1859937371
 20
19.0186743577
 10
3.110916513
 20
19.0603506187
 10
3.0989452973
 20
19.0664148119
  0
LINE
  5
4F5
100
AcDbEntity
  8
RACCORDO
100
AcDbLine
 62
250
  6
CONTINUOUS
 10
3.6769866052
 20
18.3722278388
 11
3.8255723714
 21
18.1331456819
  0
LINE
  5
4F6
100
AcDbEntity
  8
RACCORDO
100
AcDbLine
 62
250
  6
CONTINUOUS
 10
3.8255723714
 20
18.1331456819
 11
3.9858585368
 21
17.8714578351
  0
LINE
  5
4F7
100
AcDbEntity
  8
RACCORDO
100
AcDbLine
 62
250
  6
CONTINUOUS
 10
3.9858585368
 20
17.8714578351
 11
4.1571203931
 21
17.5873829762
  0
LINE
  5
4F8
100
AcDbEntity
  8
RACCORDO
100
AcDbLine
 62
250
  6
CONTINUOUS
 10
4.1571203931
 20
17.5873829762
 11
4.3376817638
 21
17.2827145027
  0
LWPOLYLINE
  5
4F9
100
AcDbEntity
  8
RACCORDO
100
AcDbPolyline
 62
250
  6
CONTINUOUS
 90
5
 70
0
 10
4.3376817638
 20
17.2827145027
 10
4.5273215537
 20
16.9568027005
 10
4.6253959519
 20
16.7857930781
 10
4.7257099744
 20
16.6090937403
 10
4.82823958
 20
16.426584814
  0
LWPOLYLINE
  5
4FA
100
AcDbEntity
  8
RACCORDO
100
AcDbPolyline
 62
7
  6
CONTINUOUS
 90
9
 70
0
 10
4.9435519829
 20
16.4512023949
 10
4.8534116739
 20
16.6119292953
 10
4.7057840159
 20
16.8719270828
 10
4.5565441299
 20
17.1307983591
 10
4.4057085916
 20
17.3885142345
 10
4.253293997
 20
17.6450461951
 10
4.0993172556
 20
17.9003656017
 10
3.9437955984
 20
18.1544436943
 10
3.7867463522
 20
18.4072519728
  0
LWPOLYLINE
  5
4FB
100
AcDbEntity
  8
RACCORDO
100
AcDbPolyline
 62
250
  6
CONTINUOUS
 90
3
 70
0
 10
4.82823958
 20
16.426584814
 10
4.9328634672
 20
16.2383139368
 10
5.0395049885
 20
16.0442459321
  0
LWPOLYLINE
  5
4FC
100
AcDbEntity
  8
RACCORDO
100
AcDbPolyline
 62
7
  6
CONTINUOUS
 90
11
 70
0
 10
4.9435579934
 20
16.451191626
 10
4.9485009038
 20
16.4421109009
 10
4.9643272726
 20
16.4096530941
 10
4.9788287299
 20
16.3743788367
 10
4.9919491502
 20
16.336242292
 10
5.003653216
 20
16.2952592487
 10
5.0139419349
 20
16.2513747058
 10
5.0227092815
 20
16.2043758366
 10
5.029869364
 20
16.1541559959
 10
5.0354537619
 20
16.1007732969
 10
5.0395049884
 20
16.044245932
  0
LINE
  5
4FD
100
AcDbEntity
  8
RACCORDO
100
AcDbLine
 62
7
  6
CONTINUOUS
 10
17.8589589086
 20
19.7294351591
 11
17.8589589086
 21
7.6708584488
  0
LINE
  5
4FE
100
AcDbEntity
  8
0
100
AcDbLine
 62
7
  6
CONTINUOUS
 10
17.9356954302
 20
7.7898034065
 11
17.9356954302
 21
20.2427098145
  0
LINE
  5
4FF
100
AcDbEntity
  8
RACCORDO
100
AcDbLine
 62
250
  6
CONTINUOUS
 10
4.932601197
 20
-17.2025732248
 11
5.0395049885
 21
-17.1149344459
  0
LWPOLYLINE
  5
500
100
AcDbEntity
  8
RACCORDO
100
AcDbPolyline
 62
250
  6
CONTINUOUS
 90
8
 70
0
 10
23.5857439271
 20
-4.7133925715
 10
23.5713746689
 20
-4.7240620231
 10
23.559432215
 20
-4.7334807351
 10
23.5500445207
 20
-4.7415477925
 10
23.5433121685
 20
-4.7481767623
 10
23.5393072909
 20
-4.7532966198
 10
23.5380727974
 20
-4.7568525092
 10
23.5383411544
 20
-4.7577980801
  0
LWPOLYLINE
  5
501
100
AcDbEntity
  8
RACCORDO
100
AcDbPolyline
 62
250
  6
CONTINUOUS
 90
6
 70
0
 10
4.4301691638
 20
-17.5858925979
 10
4.5262126393
 20
-17.5161227285
 10
4.6244685292
 20
-17.4430702732
 10
4.7249873644
 20
-17.3665440277
 10
4.8277361676
 20
-17.2864053931
 10
4.932601197
 20
-17.2025732248
  0
LINE
  5
502
100
AcDbEntity
  8
RACCORDO
100
AcDbLine
 62
250
  6
CONTINUOUS
 10
-0.8501438043
 20
-20.4519783131
 11
-0.861304826
 21
-20.4599078271
  0
LINE
  5
503
100
AcDbEntity
  8
0
100
AcDbLine
 62
250
  6
CONTINUOUS
 10
-2.7268619343
 20
-21.3843080712
 11
-2.7385246193
 21
-21.3913033306
  0
LINE
  5
504
100
AcDbEntity
  8
RACCORDO
100
AcDbLine
 62
250
  6
CONTINUOUS
 10
4.2448999535
 20
-17.7160265686
 11
4.3363661716
 21
-17.6525036913
  0
LWPOLYLINE
  5
505
100
AcDbEntity
  8
RACCORDO
100
AcDbPolyline
 62
250
  6
CONTINUOUS
 90
9
 70
0
 10
24.2512393576
 20
-7.088946944
 10
24.406078818
 20
-6.9844486667
 10
24.5608522864
 20
-6.878983109
 10
24.7155572281
 20
-6.7725522984
 10
24.8701896599
 20
-6.6651597641
 10
25.0247485662
 20
-6.5568061502
 10
25.1792357733
 20
-6.4474890196
 10
25.3336501192
 20
-6.3372087959
 10
25.6422455955
 20
-6.1137715192
  0
LWPOLYLINE
  5
506
100
AcDbEntity
  8
RACCORDO
100
AcDbPolyline
 62
7
  6
CONTINUOUS
 90
9
 70
0
 10
-2.6738594339
 20
-21.3472700875
 10
-2.5140207953
 20
-21.2395443082
 10
-2.286269061
 20
-21.077372205
 10
-2.0620902057
 20
-20.9089243365
 10
-1.8415440533
 20
-20.7342495671
 10
-1.6248100756
 20
-20.5534944894
 10
-1.4119480964
 20
-20.3667079677
 10
-1.2028982919
 20
-20.1738411377
 10
-0.997660662
 20
-19.9748939995
  0
LINE
  5
507
100
AcDbEntity
  8
RACCORDO
100
AcDbLine
 62
7
  6
CONTINUOUS
 10
24.2720124825
 20
-7.0805002455
 11
24.5434330696
 21
-6.8972986838
  0
LINE
  5
508
100
AcDbEntity
  8
0
100
AcDbLine
 62
250
  6
CONTINUOUS
 10
-2.9949387126
 20
-21.5601805735
 11
-3.0027374894
 21
-21.5646592677
  0
LWPOLYLINE
  5
509
100
AcDbEntity
  8
0
100
AcDbPolyline
 62
7
  6
CONTINUOUS
 90
9
 70
0
 10
-2.9949387126
 20
-21.5601805735
 10
-2.7268619343
 20
-21.3843080712
 10
-2.4633851115
 20
-21.2001912806
 10
-2.2046062396
 20
-21.0078932138
 10
-1.9506100444
 20
-20.8074713731
 10
-1.7014688381
 20
-20.5989757704
 10
-1.457265134
 20
-20.3824667321
 10
-1.2180907389
 20
-20.1580168255
 10
-0.9840300602
 20
-19.9256967486
  0
LWPOLYLINE
  5
50A
100
AcDbEntity
  8
RACCORDO
100
AcDbPolyline
 62
250
  6
CONTINUOUS
 90
4
 70
0
 10
3.9848090954
 20
-17.889176808
 10
4.0690671488
 20
-17.8342745832
 10
4.1558157363
 20
-17.7765641161
 10
4.1626587419
 20
-17.7733310187
  0
LINE
  5
50B
100
AcDbEntity
  8
RACCORDO
100
AcDbLine
 62
250
  6
CONTINUOUS
 10
3.8249619313
 20
-17.9902801945
 11
3.9033897176
 21
-17.9411688758
  0
LINE
  5
50C
100
AcDbEntity
  8
RACCORDO
100
AcDbLine
 62
250
  6
CONTINUOUS
 10
24.2686407593
 20
-7.082576444
 11
24.2720124825
 21
-7.0805002455
  0
LINE
  5
50D
100
AcDbEntity
  8
0
100
AcDbLine
 62
7
  6
CONTINUOUS
 10
-3.2632723968
 20
-21.7252250841
 11
-2.9949387126
 21
-21.5601805735
  0
LINE
  5
50E
100
AcDbEntity
  8
0
100
AcDbLine
 62
250
  6
CONTINUOUS
 10
-3.2634432948
 20
-21.7249471209
 11
-3.2730447364
 21
-21.7308503054
  0
LWPOLYLINE
  5
50F
100
AcDbEntity
  8
RACCORDO
100
AcDbPolyline
 62
7
  6
CONTINUOUS
 90
10
 70
0
 10
3.6863951762
 20
-18.0751341412
 10
3.8466950936
 20
-17.9773946879
 10
4.0054561545
 20
-17.8767899769
 10
4.1626587419
 20
-17.7733310187
 10
4.318281174
 20
-17.667030753
 10
4.472306545
 20
-17.5578994051
 10
4.6247225182
 20
-17.4459440511
 10
4.7755123091
 20
-17.3311750041
 10
4.9246548951
 20
-17.2136062446
 10
5.0326688388
 20
-17.1258636192
  0
LINE
  5
510
100
AcDbEntity
  8
RACCORDO
100
AcDbLine
 62
250
  6
CONTINUOUS
 10
3.6769866054
 20
-18.0803979691
 11
3.6863392461
 21
-18.0751675699
  0
LINE
  5
511
100
AcDbEntity
  8
RACCORDO
100
AcDbLine
 62
250
  6
CONTINUOUS
 10
3.6863951762
 20
-18.0751341412
 11
3.7494781459
 21
-18.0366618259
  0
LINE
  5
512
100
AcDbEntity
  8
RACCORDO
100
AcDbLine
 62
7
  6
CONTINUOUS
 10
3.6863392461
 20
-18.0751675699
 11
3.6863951762
 21
-18.0751341412
  0
LWPOLYLINE
  5
513
100
AcDbEntity
  8
ASSI
100
AcDbPolyline
 62
7
  6
CONTINUOUS
 90
12
 70
0
 10
-4.4123125199
 20
-25.0939779657
 10
-4.3926709524
 20
-25.0824308265
 10
-4.3637098826
 20
-25.0615463485
 10
-4.337092
 20
-25.0373661443
 10
-4.3131211957
 20
-25.0101602242
 10
-4.2919875604
 20
-24.9801238753
 10
-4.2738728385
 20
-24.947501678
 10
-4.2589258448
 20
-24.9125699916
 10
-4.2472236225
 20
-24.8754424373
 10
-4.2388618319
 20
-24.8362342841
 10
-4.2339322671
 20
-24.7951963805
 10
-4.2325084716
 20
-24.757382121
  0
LWPOLYLINE
  5
514
100
AcDbEntity
  8
RACCORDO
100
AcDbPolyline
 62
250
  6
CONTINUOUS
 90
3
 70
0
 10
24.1977349983
 20
-7.1245194146
 10
24.2238681893
 20
-7.1091697578
 10
24.2512393625
 20
-7.0889469409
  0
LINE
  5
515
100
AcDbEntity
  8
RACCORDO
100
AcDbLine
 62
7
  6
CONTINUOUS
 10
-0.8974118441
 20
-20.4812330189
 11
-0.8561823025
 21
-20.457047789
  0
LINE
  5
516
100
AcDbEntity
  8
RACCORDO
100
AcDbLine
 62
7
  6
CONTINUOUS
 10
-0.9387402969
 20
-20.5052310932
 11
-0.8974118441
 21
-20.4812330189
  0
LWPOLYLINE
  5
517
100
AcDbEntity
  8
RACCORDO
100
AcDbPolyline
 62
7
  6
CONTINUOUS
 90
6
 70
0
 10
-0.7615448486
 20
-20.4088328639
 10
-0.7074667564
 20
-20.3775688163
 10
-0.6535605048
 20
-20.3459816191
 10
-0.5998260936
 20
-20.3140712723
 10
-0.5462635231
 20
-20.2818377758
 10
-0.492872793
 20
-20.2492811297
  0
LWPOLYLINE
  5
518
100
AcDbEntity
  8
RACCORDO
100
AcDbPolyline
 62
250
  6
CONTINUOUS
 90
8
 70
0
 10
25.9936266229
 20
-5.631289784
 10
26.0396805463
 20
-5.6046773466
 10
26.0812281479
 20
-5.5749992737
 10
26.1179591404
 20
-5.5424772108
 10
26.1495992089
 20
-5.5073540423
 10
26.1759120579
 20
-5.4698920797
 10
26.1967011771
 20
-5.430371102
 10
26.2118113108
 20
-5.3890862642
  0
LINE
  5
519
100
AcDbEntity
  8
0
100
AcDbLine
 62
7
  6
CONTINUOUS
 10
-3.2632871175
 20
-21.7252338196
 11
-3.2730447365
 21
-21.7308503053
  0
LINE
  5
51A
100
AcDbEntity
  8
RACCORDO
100
AcDbLine
 62
7
  6
CONTINUOUS
 10
-0.9801673714
 20
-20.5290418518
 11
-0.9387402969
 21
-20.5052310932
  0
LINE
  5
51B
100
AcDbEntity
  8
RACCORDO
100
AcDbLine
 62
250
  6
CONTINUOUS
 10
-0.9802042087
 20
-20.528977541
 11
-0.9838576834
 21
-20.5310702569
  0
LINE
  5
51C
100
AcDbEntity
  8
RACCORDO
100
AcDbLine
 62
7
  6
CONTINUOUS
 10
-0.8157947813
 20
-20.4397737618
 11
-0.7615448486
 21
-20.4088328639
  0
LWPOLYLINE
  5
51D
100
AcDbEntity
  8
RACCORDO
100
AcDbPolyline
 62
250
  6
CONTINUOUS
 90
10
 70
0
 10
26.0243736998
 20
-5.3343964644
 10
26.0704084051
 20
-5.3085825186
 10
26.1118112625
 20
-5.280876758
 10
26.1482727446
 20
-5.2514863106
 10
26.1795202659
 20
-5.220630899
 10
26.2053202201
 20
-5.188541198
 10
26.2254797271
 20
-5.1554571098
 10
26.2398480745
 20
-5.1216259707
 10
26.2483178449
 20
-5.0873007021
 10
26.2508452137
 20
-5.0555339078
  0
LINE
  5
51E
100
AcDbEntity
  8
RACCORDO
100
AcDbLine
 62
250
  6
CONTINUOUS
 10
3.6507348914
 20
-18.0951623546
 11
3.6863392461
 21
-18.0751675699
  0
LINE
  5
51F
100
AcDbEntity
  8
RACCORDO
100
AcDbLine
 62
250
  6
CONTINUOUS
 10
-0.8562069594
 20
-20.4570623223
 11
-0.861304826
 21
-20.4599078271
  0
LINE
  5
520
100
AcDbEntity
  8
ASSI
100
AcDbLine
 62
250
  6
CONTINUOUS
 10
-1.9786051099
 20
-21.0564273274
 11
-1.9931217967
 21
-21.0644174222
  0
LINE
  5
521
100
AcDbEntity
  8
RACCORDO
100
AcDbLine
 62
7
  6
CONTINUOUS
 10
-0.9986814954
 20
-20.5392312998
 11
-0.9802402511
 21
-20.5290834935
  0
LWPOLYLINE
  5
522
100
AcDbEntity
  8
RACCORDO
100
AcDbPolyline
 62
7
  6
CONTINUOUS
 90
3
 70
0
 10
3.6508357399
 20
-18.0951042618
 10
3.6719121603
 20
-18.0835750974
 10
3.6863392467
 20
-18.0751675701
  0
LINE
  5
523
100
AcDbEntity
  8
RACCORDO
100
AcDbLine
 62
7
  6
CONTINUOUS
 10
-0.8319230221
 20
-20.4485610725
 11
-0.8157947813
 21
-20.4397737618
  0
LINE
  5
524
100
AcDbEntity
  8
ASSI
100
AcDbLine
 62
250
  6
CONTINUOUS
 10
-1.9931264592
 20
-21.0644198866
 11
-1.9786051099
 21
-21.0564273274
  0
LINE
  5
525
100
AcDbEntity
  8
RACCORDO
100
AcDbLine
 62
7
  6
CONTINUOUS
 10
-0.9987442808
 20
-20.5392665192
 11
-0.9992970676
 21
-20.5395588799
  0
LINE
  5
526
100
AcDbEntity
  8
RACCORDO
100
AcDbLine
 62
250
  6
CONTINUOUS
 10
-1.9786051099
 20
-21.0564273274
 11
-0.9838576834
 21
-20.5310702569
  0
LINE
  5
527
100
AcDbEntity
  8
ASSI
100
AcDbLine
 62
7
  6
CONTINUOUS
 10
-5.1765813451
 20
-22.7479097066
 11
-0.9992956602
 21
-20.5395581367
  0
LINE
  5
528
100
AcDbEntity
  8
0
100
AcDbLine
 62
250
  6
CONTINUOUS
 10
-0.861304826
 20
-20.4599078271
 11
-3.2730447364
 21
-21.7308503054
  0
LINE
  5
529
100
AcDbEntity
  8
0
100
AcDbLine
 62
250
  6
CONTINUOUS
 10
-5.1765813451
 20
-21.9437744969
 11
-0.9360947466
 21
-19.7156964631
  0
LINE
  5
52A
100
AcDbEntity
  8
RACCORDO
100
AcDbLine
 62
250
  6
CONTINUOUS
 10
3.6769866054
 20
-18.0803979691
 11
3.6503536464
 21
-18.0953629726
  0
LINE
  5
52B
100
AcDbEntity
  8
0
100
AcDbLine
 62
250
  6
CONTINUOUS
 10
-5.1765813451
 20
-22.135025087
 11
-1.0142931516
 21
-19.9481793209
  0
LINE
  5
52C
100
AcDbEntity
  8
RACCORDO
100
AcDbLine
 62
7
  6
CONTINUOUS
 10
-0.8319206343
 20
-20.448565763
 11
3.6503536464
 21
-18.0953629726
  0
LINE
  5
52D
100
AcDbEntity
  8
RACCORDO
100
AcDbLine
 62
250
  6
CONTINUOUS
 10
5.0395049885
 20
-17.1149344459
 11
24.2512393576
 21
-7.088946944
  0
LINE
  5
52E
100
AcDbEntity
  8
RACCORDO
100
AcDbLine
 62
7
  6
CONTINUOUS
 10
5.0297543398
 20
-17.1277917161
 11
24.1977349976
 21
-7.124519415
  0
LINE
  5
52F
100
AcDbEntity
  8
DRAFT
100
AcDbLine
 62
7
  6
CONTINUOUS
 10
-0.8027320441
 20
-20.4107162039
 11
-0.8637812426
 21
-20.4425222128
  0
LINE
  5
530
100
AcDbEntity
  8
DRAFT
100
AcDbLine
 62
7
  6
CONTINUOUS
 10
-0.9907727671
 20
-20.5086831741
 11
-1.010126701
 21
-20.5187662877
  0
LINE
  5
531
100
AcDbEntity
  8
RACCORDO
100
AcDbLine
 62
250
  6
CONTINUOUS
 10
-0.7571639626
 20
-19.2714778399
 11
26.0243736998
 21
-5.3343964644
  0
LINE
  5
532
100
AcDbEntity
  8
RACCORDO
100
AcDbLine
 62
250
  6
CONTINUOUS
 10
-0.997660662
 20
-19.9748939994
 11
25.6422455955
 21
-6.1137715192
  0
LINE
  5
533
100
AcDbEntity
  8
RACCORDO
100
AcDbLine
 62
250
  6
CONTINUOUS
 10
25.8809915783
 20
-4.4289650262
 11
21.8660605105
 21
-6.4932871356
  0
LINE
  5
534
100
AcDbEntity
  8
RACCORDO
100
AcDbLine
 62
250
  6
CONTINUOUS
 10
26.0243736998
 20
-4.6718866173
 11
22.0094426321
 21
-6.7362087267
  0
LINE
  5
535
100
AcDbEntity
  8
ASSI
100
AcDbLine
 62
7
  6
CONTINUOUS
 10
-4.789266967
 20
-23.0939660803
 11
-5.1765813451
 21
-23.2860768671
  0
LWPOLYLINE
  5
536
100
AcDbEntity
  8
RACCORDO
100
AcDbPolyline
 62
7
  6
CONTINUOUS
 90
10
 70
0
 10
-4.5308415457
 20
-21.8542566158
 10
-4.5111926461
 20
-21.8445478361
 10
-4.4932206827
 20
-21.8363483704
 10
-4.4771147147
 20
-21.82974671
 10
-4.4630251785
 20
-21.8248266712
 10
-4.4511230305
 20
-21.8216432798
 10
-4.4415763128
 20
-21.8202084274
 10
-4.4344704861
 20
-21.8205453466
 10
-4.4298409415
 20
-21.8226447347
 10
-4.4285369951
 20
-21.8242223322
  0
LINE
  5
537
100
AcDbEntity
  8
RACCORDO
100
AcDbLine
 62
7
  6
CONTINUOUS
 10
-0.8649499115
 20
-20.4645440279
 11
-0.8319230221
 21
-20.4485610725
  0
LINE
  5
538
100
AcDbEntity
  8
ASSI
100
AcDbLine
 62
7
  6
CONTINUOUS
 10
-5.1765813451
 20
-22.9076522849
 11
-5.1690232815
 21
-22.904087923
  0
LINE
  5
539
100
AcDbEntity
  8
RACCORDO
100
AcDbLine
 62
7
  6
CONTINUOUS
 10
-0.8766489779
 20
-20.4690807736
 11
-0.8649499115
 21
-20.4645440279
  0
LWPOLYLINE
  5
53A
100
AcDbEntity
  8
ASSI
100
AcDbPolyline
 62
250
  6
CONTINUOUS
 90
8
 70
0
 10
-6.1930855438
 20
19.3514557829
 10
-6.1584866186
 20
19.3521782224
 10
-6.1239615941
 20
19.3546222702
 10
-6.0899738815
 20
19.3586340908
 10
-6.0562007564
 20
19.3641327989
 10
-6.0214946563
 20
19.3712973881
 10
-5.9857568585
 20
19.3802374502
 10
-5.9491427583
 20
19.3909916304
  0
LWPOLYLINE
  5
53B
100
AcDbEntity
  8
ASSI
100
AcDbPolyline
 62
7
  6
CONTINUOUS
 90
10
 70
0
 10
-6.1343734563
 20
17.2745204449
 10
-6.1538971904
 20
17.2748465259
 10
-6.1729291856
 20
17.274345445
 10
-6.1914694419
 20
17.273017202
 10
-6.2096541007
 20
17.2708322903
 10
-6.2273470205
 20
17.2678202165
 10
-6.2441397775
 20
17.2640695011
 10
-6.2598962301
 20
17.2596096509
 10
-6.2747525198
 20
17.254411159
 10
-6.2887086466
 20
17.2484740255
  0
LWPOLYLINE
  5
53C
100
AcDbEntity
  8
ASSI
100
AcDbPolyline
 62
250
  6
CONTINUOUS
 90
3
 70
0
 10
-8.4244890541
 20
19.6022352927
 10
-8.4262523044
 20
19.6022894438
 10
-8.4301605937
 20
19.600105448
  0
LINE
  5
53D
100
AcDbEntity
  8
ASSI
100
AcDbLine
 62
250
  6
CONTINUOUS
 10
-6.2276848012
 20
19.3525533191
 11
-6.1930855438
 21
19.3514557829
  0
LWPOLYLINE
  5
53E
100
AcDbEntity
  8
ASSI
100
AcDbPolyline
 62
250
  6
CONTINUOUS
 90
16
 70
0
 10
-7.7521629615
 20
19.061923932
 10
-7.7593136047
 20
19.0622587319
 10
-7.7663166428
 20
19.0622831122
 10
-7.7731720756
 20
19.0619970729
 10
-7.779888155
 20
19.0613726209
 10
-7.7864566292
 20
19.0604377493
 10
-7.7928527428
 20
19.0592764377
 10
-7.7990742841
 20
19.057891621
 10
-7.8051234648
 20
19.0562803643
 10
-7.8109821641
 20
19.0545178421
 10
-7.8166486442
 20
19.0526065951
 10
-7.8221246429
 20
19.0505440826
 10
-7.8273972528
 20
19.0483978568
 10
-7.8324621712
 20
19.046190435
 10
-7.8373237008
 20
19.0438992998
 10
-7.8419818415
 20
19.0415244513
  0
LWPOLYLINE
  5
53F
100
AcDbEntity
  8
ASSI
100
AcDbPolyline
 62
250
  6
CONTINUOUS
 90
16
 70
0
 10
-7.8357256048
 20
19.3028879536
 10
-7.8475033818
 20
19.3034784638
 10
-7.8591027643
 20
19.3034616996
 10
-7.8704956896
 20
19.3028873025
 10
-7.8816509756
 20
19.3018036845
 10
-7.8925512518
 20
19.3002593718
 10
-7.9031932095
 20
19.2983011143
 10
-7.9135613295
 20
19.2959722364
 10
-7.9236368977
 20
19.2933156179
 10
-7.9334152721
 20
19.2903733018
 10
-7.9428861253
 20
19.2871838969
 10
-7.9520367237
 20
19.2837855912
 10
-7.9608613643
 20
19.2802171319
 10
-7.9693534368
 20
19.276514105
 10
-7.9775053168
 20
19.2727088172
 10
-7.9853117325
 20
19.2688328163
  0
LWPOLYLINE
  5
540
100
AcDbEntity
  8
ASSI
100
AcDbPolyline
 62
7
  6
CONTINUOUS
 90
10
 70
0
 10
-3.7084366565
 20
18.4380384703
 10
-3.7299503895
 20
18.4391561871
 10
-3.751080991
 20
18.4392077889
 10
-3.7718284609
 20
18.4381932757
 10
-3.792430067
 20
18.4360704344
 10
-3.8126485415
 20
18.432881478
 10
-3.8317720813
 20
18.4287530462
 10
-3.8495634188
 20
18.423727352
 10
-3.8662598215
 20
18.4177621822
 10
-3.8818612896
 20
18.4108575369
  0
LINE
  5
541
100
AcDbEntity
  8
ASSI
100
AcDbLine
 62
250
  6
CONTINUOUS
 10
-7.7337875334
 20
19.4434677396
 11
-6.2276848012
 21
19.3525533191
  0
LINE
  5
542
100
AcDbEntity
  8
ASSI
100
AcDbLine
 62
7
  6
CONTINUOUS
 10
-7.7820426857
 20
19.4562749361
 11
-6.2754011802
 21
19.365329193
  0
LWPOLYLINE
  5
543
100
AcDbEntity
  8
ASSI
100
AcDbPolyline
 62
7
  6
CONTINUOUS
 90
14
 70
0
 10
-7.7820426857
 20
19.4562749361
 10
-7.8143486048
 20
19.4587586918
 10
-7.8566706506
 20
19.4633182858
 10
-7.9027687896
 20
19.4696318919
 10
-7.9520117069
 20
19.4776608667
 10
-8.0037074809
 20
19.4873056135
 10
-8.0574473497
 20
19.4985052716
 10
-8.112812833
 20
19.5111866704
 10
-8.1692853447
 20
19.5252376606
 10
-8.2263955229
 20
19.540551085
 10
-8.2836694973
 20
19.5570023038
 10
-8.3406939791
 20
19.5744773891
 10
-8.396907604
 20
19.59281699
 10
-8.4669603643
 20
19.6165591665
  0
LINE
  5
544
100
AcDbEntity
  8
ASSI
100
AcDbLine
 62
250
  6
CONTINUOUS
 10
-7.7760639036
 20
19.446877675
 11
-7.7337875334
 21
19.4434677396
  0
LINE
  5
545
100
AcDbEntity
  8
ASSI
100
AcDbLine
 62
250
  6
CONTINUOUS
 10
-6.0342286392
 20
18.9230061358
 11
-7.7521629615
 21
19.061923932
  0
LINE
  5
546
100
AcDbEntity
  8
ASSI
100
AcDbLine
 62
250
  6
CONTINUOUS
 10
-5.7989540285
 20
19.1381879327
 11
-7.8357256048
 21
19.3028879536
  0
LWPOLYLINE
  5
547
100
AcDbEntity
  8
ASSI
100
AcDbPolyline
 62
250
  6
CONTINUOUS
 90
24
 70
0
 10
-3.7106779833
 20
19.9011806937
 10
-3.6828325835
 20
19.8984094676
 10
-3.6548319036
 20
19.896980874
 10
-3.6264195876
 20
19.8969052975
 10
-3.5978519916
 20
19.8981723535
 10
-3.5698981834
 20
19.9007508884
 10
-3.5425797424
 20
19.9046749545
 10
-3.5158750893
 20
19.9099104994
 10
-3.4904885529
 20
19.9163242122
 10
-3.4664471682
 20
19.9239499442
 10
-3.4437239004
 20
19.9327538441
 10
-3.4229419729
 20
19.942501047
 10
-3.4041555166
 20
19.9532201481
 10
-3.3873104006
 20
19.964882552
 10
-3.3728674573
 20
19.9771676086
 10
-3.3608978701
 20
19.9900894658
 10
-3.3513304554
 20
20.0036339756
 10
-3.3444124945
 20
20.0174380433
 10
-3.3402146419
 20
20.0315077424
 10
-3.338666243
 20
20.0458369994
 10
-3.3398026155
 20
20.0600444994
 10
-3.3436355319
 20
20.0740031375
 10
-3.3501532196
 20
20.0878400186
 10
-3.3593556787
 20
20.1015551427
  0
LWPOLYLINE
  5
548
100
AcDbEntity
  8
ASSI
100
AcDbPolyline
 62
250
  6
CONTINUOUS
 90
4
 70
0
 10
-7.7815039121
 20
19.4562436136
 10
-7.7719287708
 20
19.455284326
 10
-7.7525280193
 20
19.4509397831
 10
-7.7337875334
 20
19.4434677396
  0
LWPOLYLINE
  5
549
100
AcDbEntity
  8
ASSI
100
AcDbPolyline
 62
250
  6
CONTINUOUS
 90
4
 70
0
 10
-6.27534518
 20
19.3653257997
 10
-6.2658251509
 20
19.3643697809
 10
-6.246424823
 20
19.3600252187
 10
-6.2276848012
 20
19.3525533191
  0
LWPOLYLINE
  5
54A
100
AcDbEntity
  8
RACCORDO
100
AcDbPolyline
 62
250
  6
CONTINUOUS
 90
10
 70
0
 10
-6.9883452081
 20
20.3259389752
 10
-6.9789173987
 20
20.3248724401
 10
-6.9693094122
 20
20.3243432914
 10
-6.959540081
 20
20.3243507817
 10
-6.9496264163
 20
20.3248907839
 10
-6.939590009
 20
20.3259618819
 10
-6.9294568254
 20
20.3275663347
 10
-6.9192487033
 20
20.3297015103
 10
-6.9089834648
 20
20.3323589381
 10
-6.8986812045
 20
20.335531074
  0
LWPOLYLINE
  5
54B
100
AcDbEntity
  8
ASSI
100
AcDbPolyline
 62
250
  6
CONTINUOUS
 90
3
 70
0
 10
-7.8647184777
 20
19.4575260222
 10
-7.8197075517
 20
19.4515637692
 10
-7.7760639036
 20
19.446877675
  0
LWPOLYLINE
  5
54C
100
AcDbEntity
  8
ASSI
100
AcDbPolyline
 62
250
  6
CONTINUOUS
 90
24
 70
0
 10
-3.8048487678
 20
19.637776442
 10
-3.7644180057
 20
19.6315981018
 10
-3.7230878936
 20
19.6271496045
 10
-3.681153914
 20
19.6244627548
 10
-3.6389158664
 20
19.6235567629
 10
-3.5966757256
 20
19.6244381069
 10
-3.554735483
 20
19.6271004865
 10
-3.5133949787
 20
19.631524869
 10
-3.4729497762
 20
19.6376796232
 10
-3.4336890499
 20
19.6455207435
 10
-3.3958934979
 20
19.6549921665
 10
-3.3598333204
 20
19.6660261783
 10
-3.3257663071
 20
19.6785438977
 10
-3.2939360143
 20
19.6924558324
 10
-3.26457001
 20
19.7076625215
 10
-3.2378782353
 20
19.7240552528
 10
-3.214051512
 20
19.7415168391
 10
-3.1932602035
 20
19.7599224349
 10
-3.1756529765
 20
19.7791404313
 10
-3.1613557106
 20
19.7990334214
 10
-3.1504706067
 20
19.8194591906
 10
-3.1430754779
 20
19.840271712
 10
-3.1392231926
 20
19.861322162
 10
-3.138624096
 20
19.8735567203
  0
LWPOLYLINE
  5
54D
100
AcDbEntity
  8
RACCORDO
100
AcDbPolyline
 62
250
  6
CONTINUOUS
 90
13
 70
0
 10
-9.8620139106
 20
21.2031641718
 10
-9.8748737499
 20
21.2056090494
 10
-9.8876641943
 20
21.2082610174
 10
-9.9003813702
 20
21.2111193363
 10
-9.9129958895
 20
21.2141850496
 10
-9.9255221106
 20
21.2174643633
 10
-9.9379456752
 20
21.2209510714
 10
-9.9501941198
 20
21.2246275986
 10
-9.962303071
 20
21.228515358
 10
-9.9742369022
 20
21.2325929365
 10
-9.9858162703
 20
21.2367785194
 10
-9.9969995361
 20
21.2410682813
 10
-10.0078283387
 20
21.2454660476
  0
LWPOLYLINE
  5
54E
100
AcDbEntity
  8
ASSI
100
AcDbPolyline
 62
250
  6
CONTINUOUS
 90
16
 70
0
 10
-7.9783772674
 20
18.9708942313
 10
-7.99214034
 20
18.9739452336
 10
-8.0072741706
 20
18.977536345
 10
-8.0236186519
 20
18.981629574
 10
-8.0410011965
 20
18.9861817041
 10
-8.0592376093
 20
18.9911445039
 10
-8.0781338936
 20
18.9964651652
 10
-8.0974893296
 20
19.002087133
 10
-8.1170998336
 20
19.0079510923
 10
-8.1367590998
 20
19.0139953401
 10
-8.1562669037
 20
19.0201584166
 10
-8.175408958
 20
19.0263727224
 10
-8.1939619848
 20
19.0325654844
 10
-8.2117257508
 20
19.0386691751
 10
-8.228523281
 20
19.044622264
 10
-8.2441816456
 20
19.0503628124
  0
LWPOLYLINE
  5
54F
100
AcDbEntity
  8
ASSI
100
AcDbPolyline
 62
250
  6
CONTINUOUS
 90
13
 70
0
 10
-8.2497622615
 20
18.087167773
 10
-8.2671719246
 20
18.0910639478
 10
-8.2866588568
 20
18.0957883738
 10
-8.3079015902
 20
18.1012631142
 10
-8.3305496919
 20
18.1073978548
 10
-8.354229544
 20
18.1140913931
 10
-8.3785505067
 20
18.1212333078
 10
-8.4031113648
 20
18.1287057813
 10
-8.4275069446
 20
18.1363855425
 10
-8.4513347969
 20
18.1441458999
 10
-8.474201839
 20
18.1518588328
 10
-8.4957308396
 20
18.1593971032
 10
-8.5155666397
 20
18.1666363541
  0
LWPOLYLINE
  5
550
100
AcDbEntity
  8
ASSI
100
AcDbPolyline
 62
250
  6
CONTINUOUS
 90
3
 70
0
 10
-8.5149727699
 20
19.6231125574
 10
-8.4730318104
 20
19.6121355544
 10
-8.4301605939
 20
19.6001054481
  0
LWPOLYLINE
  5
551
100
AcDbEntity
  8
ASSI
100
AcDbPolyline
 62
250
  6
CONTINUOUS
 90
3
 70
0
 10
-8.5957119178
 20
19.644101867
 10
-8.5557928951
 20
19.6335685355
 10
-8.5149727699
 20
19.6231125574
  0
LWPOLYLINE
  5
552
100
AcDbEntity
  8
ASSI
100
AcDbPolyline
 62
250
  6
CONTINUOUS
 90
20
 70
0
 10
-5.6961005141
 20
18.815286905
 10
-5.6995717017
 20
18.8162231836
 10
-5.7029946468
 20
18.8169074244
 10
-5.7063849059
 20
18.8173458184
 10
-5.7098074532
 20
18.8175334644
 10
-5.7132942142
 20
18.817486635
 10
-5.7168290842
 20
18.8171994669
 10
-5.7204196077
 20
18.816631048
 10
-5.7240847498
 20
18.8157960034
 10
-5.7278338618
 20
18.8146936628
 10
-5.7316732615
 20
18.8132631138
 10
-5.735635371
 20
18.8115212537
 10
-5.7397362618
 20
18.80947134
 10
-5.7439757693
 20
18.807038076
 10
-5.7484002053
 20
18.8042412034
 10
-5.7530390898
 20
18.8010924902
 10
-5.7578903184
 20
18.7975140358
 10
-5.7630166779
 20
18.7935310405
 10
-5.7684668067
 20
18.7891660653
 10
-5.774246631
 20
18.7843487454
  0
LWPOLYLINE
  5
553
100
AcDbEntity
  8
RACCORDO
100
AcDbPolyline
 62
250
  6
CONTINUOUS
 90
22
 70
0
 10
-6.9883411318
 20
20.3259369371
 10
-6.9916162171
 20
20.3268471374
 10
-6.9949551283
 20
20.3277354642
 10
-6.9983578655
 20
20.3286019173
 10
-7.0018088055
 20
20.3294427405
 10
-7.0053235715
 20
20.3302616902
 10
-7.0089490326
 20
20.331070035
 10
-7.0127082336
 20
20.3318739866
 10
-7.0165781299
 20
20.3326673334
 10
-7.020536456
 20
20.3334427095
 10
-7.0245808403
 20
20.334199656
 10
-7.0287136545
 20
20.3349386319
 10
-7.0329197484
 20
20.3356536485
 10
-7.0371998113
 20
20.3363450949
 10
-7.0415531539
 20
20.3370125819
 10
-7.045962558
 20
20.3376489533
 10
-7.0504326023
 20
20.3382551479
 10
-7.0549587081
 20
20.3388302268
 10
-7.059509922
 20
20.3393642171
 10
-7.0640759262
 20
20.3398537945
 10
-7.0686670385
 20
20.3403022833
 10
-7.0732832588
 20
20.3407096835
  0
LWPOLYLINE
  5
554
100
AcDbEntity
  8
ASSI
100
AcDbPolyline
 62
250
  6
CONTINUOUS
 90
29
 70
0
 10
-5.7078346851
 20
18.9532623844
 10
-5.7153392734
 20
18.9554927722
 10
-5.7228048628
 20
18.957507802
 10
-5.7302280783
 20
18.9593074964
 10
-5.7375564181
 20
18.960879423
 10
-5.7448370975
 20
18.9622361559
 10
-5.7522172972
 20
18.9634152461
 10
-5.7597306882
 20
18.9644310839
 10
-5.767341554
 20
18.9652693849
 10
-5.7750937807
 20
18.965924659
 10
-5.7829866453
 20
18.9663994556
 10
-5.7910211683
 20
18.9666912078
 10
-5.7992445422
 20
18.9667867123
 10
-5.8076638902
 20
18.9666865429
 10
-5.8162753344
 20
18.9663899738
 10
-5.8251105941
 20
18.9658818255
 10
-5.8341790475
 20
18.965159171
 10
-5.8434783071
 20
18.9642248363
 10
-5.8530236742
 20
18.9630723287
 10
-5.8628216414
 20
18.9616968923
 10
-5.8728767222
 20
18.9601037302
 10
-5.8832021231
 20
18.9583015092
 10
-5.8938008081
 20
18.9562863398
 10
-5.9046840428
 20
18.9540638544
 10
-5.9158774234
 20
18.9516573776
 10
-5.9273790012
 20
18.9490667937
 10
-5.9392065201
 20
18.9462959632
 10
-5.9514140857
 20
18.9433745999
 10
-6.0342286392
 20
18.9230061358
  0
LWPOLYLINE
  5
555
100
AcDbEntity
  8
ASSI
100
AcDbPolyline
 62
250
  6
CONTINUOUS
 90
11
 70
0
 10
-8.3406832583
 20
19.5704543479
 10
-8.2948951336
 20
19.5563418481
 10
-8.2483154845
 20
19.5426521158
 10
-8.2010361976
 20
19.5294377504
 10
-8.153332932
 20
19.5168565497
 10
-8.105076931
 20
19.5048668681
 10
-8.0563969515
 20
19.4935103512
 10
-8.0079549234
 20
19.4830697347
 10
-7.9595950479
 20
19.4735191774
 10
-7.9114731239
 20
19.4648845204
 10
-7.8647184777
 20
19.4575260222
  0
LWPOLYLINE
  5
556
100
AcDbEntity
  8
ASSI
100
AcDbPolyline
 62
250
  6
CONTINUOUS
 90
3
 70
0
 10
-8.6703353386
 20
19.6660996664
 10
-8.6342743679
 20
19.6549664615
 10
-8.5957119178
 20
19.644101867
  0
LWPOLYLINE
  5
557
100
AcDbEntity
  8
ASSI
100
AcDbPolyline
 62
250
  6
CONTINUOUS
 90
7
 70
0
 10
-15.9594682593
 20
21.7657891281
 10
-15.9716562958
 20
21.7696253303
 10
-15.9846171982
 20
21.7714788625
 10
-15.9982120796
 20
21.7713298565
 10
-16.0122952713
 20
21.7691799092
 10
-16.0267158874
 20
21.7650520556
 10
-16.0413194193
 20
21.7589905222
  0
LWPOLYLINE
  5
558
100
AcDbEntity
  8
ASSI
100
AcDbPolyline
 62
250
  6
CONTINUOUS
 90
4
 70
0
 10
-10.6950023906
 20
20.7163956606
 10
-10.7221414751
 20
20.7250834576
 10
-10.7467872622
 20
20.7324036535
 10
-10.7686701699
 20
20.7384049964
  0
LINE
  5
559
100
AcDbEntity
  8
ASSI
100
AcDbLine
 62
250
  6
CONTINUOUS
 10
-8.3857717451
 20
19.5850422146
 11
-8.3406832583
 21
19.5704543479
  0
LWPOLYLINE
  5
55A
100
AcDbEntity
  8
ASSI
100
AcDbPolyline
 62
7
  6
CONTINUOUS
 90
7
 70
0
 10
-8.4669603643
 20
19.6165591665
 10
-8.5461480529
 20
19.6425199482
 10
-8.5822336026
 20
19.6548788606
 10
-8.6155634577
 20
19.6670458706
 10
-8.6462255158
 20
19.6792518339
 10
-8.6736879038
 20
19.691296473
 10
-8.6925817162
 20
19.7003606276
  0
LINE
  5
55B
100
AcDbEntity
  8
ASSI
100
AcDbLine
 62
250
  6
CONTINUOUS
 10
-8.4244308156
 20
19.6022159658
 11
-8.4244890541
 21
19.6022352927
  0
LINE
  5
55C
100
AcDbEntity
  8
ASSI
100
AcDbLine
 62
250
  6
CONTINUOUS
 10
-8.4301605939
 20
19.6001054481
 11
-8.3857717451
 21
19.5850422146
  0
LWPOLYLINE
  5
55D
100
AcDbEntity
  8
RACCORDO
100
AcDbPolyline
 62
250
  6
CONTINUOUS
 90
10
 70
0
 10
-6.8986812124
 20
20.3355401699
 10
-6.908983472
 20
20.3392224355
 10
-6.9192487052
 20
20.3434081167
 10
-6.9294568173
 20
20.3480846633
 10
-6.9395901766
 20
20.3532354487
 10
-6.9496267543
 20
20.3588485455
 10
-6.9595400147
 20
20.3649175468
 10
-6.9693081806
 20
20.3714295376
 10
-6.9789144354
 20
20.3783643496
 10
-6.9883399521
 20
20.3857038886
  0
LWPOLYLINE
  5
55E
100
AcDbEntity
  8
RACCORDO
100
AcDbPolyline
 62
250
  6
CONTINUOUS
 90
6
 70
0
 10
3.0989452973
 20
19.0664148118
 10
3.0772907866
 20
19.0745743804
 10
3.0536889404
 20
19.0783869008
 10
3.0286669153
 20
19.0777165456
 10
3.0026248078
 20
19.0725740096
 10
2.9759790392
 20
19.0630414978
  0
LWPOLYLINE
  5
55F
100
AcDbEntity
  8
ASSI
100
AcDbPolyline
 62
250
  6
CONTINUOUS
 90
5
 70
0
 10
-6.1685053873
 20
22.5920369235
 10
-6.1863011645
 20
22.5993171448
 10
-6.2043834187
 20
22.6036592187
 10
-6.2224767091
 20
22.6049970038
 10
-6.2397184708
 20
22.6034149038
  0
LINE
  5
560
100
AcDbEntity
  8
ASSI
100
AcDbLine
 62
250
  6
CONTINUOUS
 10
-4.6559896498
 20
22.857985668
 11
-4.673785427
 21
22.8652658893
  0
LWPOLYLINE
  5
561
100
AcDbEntity
  8
ASSI
100
AcDbPolyline
 62
250
  6
CONTINUOUS
 90
13
 70
0
 10
-0.864996819
 20
20.9989576285
 10
-0.8451335888
 20
20.9902565472
 10
-0.8260584288
 20
20.9790864953
 10
-0.8080375633
 20
20.9656033687
 10
-0.7913225023
 20
20.949995346
 10
-0.7761465314
 20
20.9324802621
 10
-0.7627214553
 20
20.9133025681
 10
-0.7512346425
 20
20.8927299193
 10
-0.74184641
 20
20.87104944
 10
-0.7346877854
 20
20.8485637159
 10
-0.7298586788
 20
20.8255865713
 10
-0.7274264882
 20
20.802438689
 10
-0.7274251587
 20
20.7794431347
  0
LINE
  5
562
100
AcDbEntity
  8
ASSI
100
AcDbLine
 62
250
  6
CONTINUOUS
 10
-7.9624743381
 20
21.7552669759
 11
-7.945343311
 21
21.7477178945
  0
LINE
  5
563
100
AcDbEntity
  8
ASSI
100
AcDbLine
 62
250
  6
CONTINUOUS
 10
-6.2603413609
 20
22.5612031094
 11
-6.2774723871
 21
22.5687521902
  0
LWPOLYLINE
  5
564
100
AcDbEntity
  8
RACCORDO
100
AcDbPolyline
 62
250
  6
CONTINUOUS
 90
8
 70
0
 10
-5.0926252425
 20
23.2501169039
 10
-5.1107916298
 20
23.2583132356
 10
-5.1287928513
 20
23.2640320969
 10
-5.1464317576
 20
23.2672108535
 10
-5.1635151707
 20
23.2678146904
 10
-5.1798559896
 20
23.2658369922
 10
-5.1952752412
 20
23.2612994204
 10
-5.2005300988
 20
23.2590653305
  0
LWPOLYLINE
  5
565
100
AcDbEntity
  8
RACCORDO
100
AcDbPolyline
 62
250
  6
CONTINUOUS
 90
11
 70
0
 10
-6.3772910096
 20
23.7396765222
 10
-6.440973214
 20
23.7687597935
 10
-6.5045102191
 20
23.7931069972
 10
-6.5676688871
 20
23.8126303439
 10
-6.6300666227
 20
23.8272348475
 10
-6.6916259683
 20
23.8369149858
 10
-6.7525560262
 20
23.8416396408
 10
-6.812598727
 20
23.841286622
 10
-6.8715038312
 20
23.8357525019
 10
-6.9294326951
 20
23.8248455149
 10
-6.986212049
 20
23.808340334
  0
LWPOLYLINE
  5
566
100
AcDbEntity
  8
RACCORDO
100
AcDbPolyline
 62
7
  6
CONTINUOUS
 90
12
 70
0
 10
-6.2542210753
 20
23.7429980546
 10
-6.2726322588
 20
23.7520160534
 10
-6.3541592811
 20
23.7875061877
 10
-6.435650926
 20
23.8158226865
 10
-6.51681088
 20
23.8369181636
 10
-6.5972984501
 20
23.8507693452
 10
-6.6766579983
 20
23.8573803683
 10
-6.7545707902
 20
23.8568018172
 10
-6.8306186055
 20
23.8491276682
 10
-6.9040987393
 20
23.8345618856
 10
-6.9744970512
 20
23.813413359
 10
-7.0467818513
 20
23.7835542822
  0
LINE
  5
567
100
AcDbEntity
  8
RACCORDO
100
AcDbLine
 62
7
  6
CONTINUOUS
 10
-6.1541887112
 20
20.6452295734
 11
-6.1535856905
 21
20.6449300012
  0
LINE
  5
568
100
AcDbEntity
  8
RACCORDO
100
AcDbLine
 62
250
  6
CONTINUOUS
 10
1.8546030722
 20
19.8364526066
 11
1.8547082637
 21
19.8364000933
  0
LINE
  5
569
100
AcDbEntity
  8
RACCORDO
100
AcDbLine
 62
7
  6
CONTINUOUS
 10
25.764517061
 20
4.7582684045
 11
25.9645520015
 21
4.6582509343
  0
LINE
  5
56A
100
AcDbEntity
  8
ASSI
100
AcDbLine
 62
250
  6
CONTINUOUS
 10
-4.6969174343
 20
20.5733510525
 11
-4.1760978082
 21
20.3129412394
  0
LINE
  5
56B
100
AcDbEntity
  8
ASSI
100
AcDbLine
 62
250
  6
CONTINUOUS
 10
-4.6116142654
 20
20.6449760129
 11
-4.0618212633
 21
20.3700795119
  0
LINE
  5
56C
100
AcDbEntity
  8
ASSI
100
AcDbLine
 62
7
  6
CONTINUOUS
 10
-3.8684607238
 20
21.0459243978
 11
-3.2892961076
 21
20.7563420897
  0
LINE
  5
56D
100
AcDbEntity
  8
ASSI
100
AcDbLine
 62
250
  6
CONTINUOUS
 10
-2.5341841149
 20
20.6981244864
 11
-2.9195559976
 21
20.8908104277
  0
LINE
  5
56E
100
AcDbEntity
  8
ASSI
100
AcDbLine
 62
250
  6
CONTINUOUS
 10
-5.8749694782
 20
22.368517168
 11
-6.2603413609
 21
22.5612031094
  0
LINE
  5
56F
100
AcDbEntity
  8
RACCORDO
100
AcDbLine
 62
250
  6
CONTINUOUS
 10
-4.0470910654
 20
21.495809763
 11
-2.91569513
 21
20.9301117953
  0
LINE
  5
570
100
AcDbEntity
  8
ASSI
100
AcDbLine
 62
250
  6
CONTINUOUS
 10
-2.4430073866
 20
20.7292879232
 11
-2.8284284618
 21
20.9219984608
  0
LINE
  5
571
100
AcDbEntity
  8
ASSI
100
AcDbLine
 62
250
  6
CONTINUOUS
 10
-5.7830843121
 20
22.3993263859
 11
-6.1685053873
 21
22.5920369235
  0
LINE
  5
572
100
AcDbEntity
  8
RACCORDO
100
AcDbLine
 62
250
  6
CONTINUOUS
 10
-3.8545648903
 20
21.857598331
 11
-2.243994902
 21
21.0523133369
  0
LINE
  5
573
100
AcDbEntity
  8
RACCORDO
100
AcDbLine
 62
250
  6
CONTINUOUS
 10
2.0221901476
 20
19.5399359436
 11
2.9759790404
 21
19.0630414972
  0
LINE
  5
574
100
AcDbEntity
  8
RACCORDO
100
AcDbLine
 62
250
  6
CONTINUOUS
 10
-5.4235021163
 20
23.2627820756
 11
-6.3772910096
 21
23.7396765222
  0
LINE
  5
575
100
AcDbEntity
  8
RACCORDO
100
AcDbLine
 62
7
  6
CONTINUOUS
 10
2.1388026901
 20
19.5464861723
 11
3.0990409782
 21
19.0663670283
  0
LINE
  5
576
100
AcDbEntity
  8
RACCORDO
100
AcDbLine
 62
7
  6
CONTINUOUS
 10
-5.2939907672
 20
23.262882901
 11
-6.2542290555
 21
23.7430020451
  0
LINE
  5
577
100
AcDbEntity
  8
RACCORDO
100
AcDbLine
 62
250
  6
CONTINUOUS
 10
1.7459900436
 20
19.8308092609
 11
0.0810919266
 21
20.6632583194
  0
LINE
  5
578
100
AcDbEntity
  8
RACCORDO
100
AcDbLine
 62
250
  6
CONTINUOUS
 10
-4.3664114491
 20
22.8870100072
 11
-5.0926252425
 21
23.2501169039
  0
LINE
  5
579
100
AcDbEntity
  8
RACCORDO
100
AcDbLine
 62
7
  6
CONTINUOUS
 10
1.8547082637
 20
19.8364000933
 11
0.1622822355
 21
20.6826131074
  0
LINE
  5
57A
100
AcDbEntity
  8
RACCORDO
100
AcDbLine
 62
7
  6
CONTINUOUS
 10
-4.2538158716
 20
22.8906621609
 11
-4.9839070223
 21
23.2557077363
  0
LINE
  5
57B
100
AcDbEntity
  8
RACCORDO
100
AcDbLine
 62
7
  6
CONTINUOUS
 10
-2.6461658955
 20
22.4826177366
 11
-0.4400320504
 21
21.379550814
  0
LINE
  5
57C
100
AcDbEntity
  8
0
100
AcDbLine
 62
7
  6
CONTINUOUS
 10
0.0432217474
 20
21.3714175642
 11
-0.0617035853
 21
21.4238802305
  0
LINE
  5
57D
100
AcDbEntity
  8
0
100
AcDbLine
 62
7
  6
CONTINUOUS
 10
-2.9375485805
 20
22.8618027281
 11
-3.0424739132
 21
22.9142653945
  0
LWPOLYLINE
  5
57E
100
AcDbEntity
  8
RACCORDO
100
AcDbPolyline
 62
7
  6
CONTINUOUS
 90
22
 70
0
 10
-2.9375485805
 20
22.8618027281
 10
-2.9297195026
 20
22.8576061482
 10
-2.9219675848
 20
22.8529171356
 10
-2.9142928272
 20
22.8477356904
 10
-2.9066727989
 20
22.8420414568
 10
-2.8991299307
 20
22.8358547905
 10
-2.8917315155
 20
22.8292367591
 10
-2.8844778876
 20
22.8221816398
 10
-2.8773687127
 20
22.8146951553
 10
-2.8704702805
 20
22.8068555417
 10
-2.8637870612
 20
22.7986618309
 10
-2.8573145846
 20
22.790114991
 10
-2.8511057305
 20
22.7812961626
 10
-2.8451646194
 20
22.7722068368
 10
-2.8394871308
 20
22.7628455224
 10
-2.8341137833
 20
22.753288887
 10
-2.8290470201
 20
22.743538476
 10
-2.8242843979
 20
22.7335927438
 10
-2.8198591057
 20
22.7235237214
 10
-2.8157822065
 20
22.7133554189
 10
-2.8120426372
 20
22.7030638261
 10
-2.808640398
 20
22.692648943
  0
LWPOLYLINE
  5
57F
100
AcDbEntity
  8
RACCORDO
100
AcDbPolyline
 62
250
  6
CONTINUOUS
 90
3
 70
0
 10
2.9759790404
 20
19.0630414972
 10
3.0391619862
 20
19.0286551437
 10
3.1020730262
 20
18.989674733
  0
LWPOLYLINE
  5
580
100
AcDbEntity
  8
RACCORDO
100
AcDbPolyline
 62
250
  6
CONTINUOUS
 90
3
 70
0
 10
25.8751092824
 20
4.6525705768
 10
25.9102786983
 20
4.633379051
 10
25.9416783285
 20
4.6129995427
  0
LWPOLYLINE
  5
581
100
AcDbEntity
  8
RACCORDO
100
AcDbPolyline
 62
7
  6
CONTINUOUS
 90
20
 70
0
 10
25.7645291157
 20
4.7582623758
 10
25.754742722
 20
4.7636679736
 10
25.743874517
 20
4.7707648572
 10
25.7318824365
 20
4.7798203295
 10
25.7189903939
 20
4.7909361002
 10
25.7056338537
 20
4.8039707585
 10
25.6921001206
 20
4.818829719
 10
25.6786229345
 20
4.8354217642
 10
25.6655075418
 20
4.8535143909
 10
25.6529752411
 20
4.8729158611
 10
25.6412353137
 20
4.8933889485
 10
25.6305174749
 20
4.9145843969
 10
25.6209595054
 20
4.9362423506
 10
25.6126876715
 20
4.9580431744
 10
25.6058335108
 20
4.9795182998
 10
25.6004145358
 20
5.0003813684
 10
25.5964173067
 20
5.0203291476
 10
25.5938119587
 20
5.0388763886
 10
25.5924656679
 20
5.0558429902
 10
25.5921885437
 20
5.0672453018
  0
LWPOLYLINE
  5
582
100
AcDbEntity
  8
ASSI
100
AcDbPolyline
 62
250
  6
CONTINUOUS
 90
13
 70
0
 10
-2.5341841149
 20
20.6981244864
 10
-2.5164420516
 20
20.6882370225
 10
-2.4989708133
 20
20.6758565848
 10
-2.482037091
 20
20.6611721555
 10
-2.4658993707
 20
20.644407886
 10
-2.450803988
 20
20.6258196758
 10
-2.4369813673
 20
20.605691266
 10
-2.4246425051
 20
20.5843299082
 10
-2.4139757489
 20
20.5620616743
 10
-2.4051439221
 20
20.5392264795
 10
-2.3982818388
 20
20.5161728933
 10
-2.3934942459
 20
20.4932528189
 10
-2.3908542238
 20
20.4708161214
  0
LWPOLYLINE
  5
583
100
AcDbEntity
  8
ASSI
100
AcDbPolyline
 62
250
  6
CONTINUOUS
 90
13
 70
0
 10
-2.4430073866
 20
20.7292879232
 10
-2.4259616336
 20
20.7191473793
 10
-2.4097330866
 20
20.7063340527
 10
-2.3945689497
 20
20.6910431242
 10
-2.3807002128
 20
20.6735075153
 10
-2.3683381337
 20
20.6539943401
 10
-2.3576710198
 20
20.6328008359
 10
-2.3488613594
 20
20.6102498362
 10
-2.3420433473
 20
20.5866848527
 10
-2.3373208398
 20
20.5624648426
 10
-2.3347657732
 20
20.5379587412
 10
-2.334417068
 20
20.5135398414
 10
-2.3362800359
 20
20.489580108
  0
LWPOLYLINE
  5
584
100
AcDbEntity
  8
ASSI
100
AcDbPolyline
 62
250
  6
CONTINUOUS
 90
13
 70
0
 10
-0.9124744387
 20
20.9862280624
 10
-0.8954286854
 20
20.9760875185
 10
-0.8792001384
 20
20.9632741917
 10
-0.8640360013
 20
20.9479832631
 10
-0.8501672644
 20
20.9304476541
 10
-0.8378051854
 20
20.9109344787
 10
-0.8271380715
 20
20.8897409745
 10
-0.8183284112
 20
20.8671899748
 10
-0.8115103992
 20
20.8436249914
 10
-0.8067878917
 20
20.8194049814
 10
-0.8042328252
 20
20.7948988801
 10
-0.80388412
 20
20.7704799805
 10
-0.805747088
 20
20.7465202472
  0
LWPOLYLINE
  5
585
100
AcDbEntity
  8
ASSI
100
AcDbPolyline
 62
250
  6
CONTINUOUS
 90
5
 70
0
 10
-4.5949030694
 20
22.8639107537
 10
-4.6073779822
 20
22.8713787442
 10
-4.6201896348
 20
22.8761520993
 10
-4.6331592202
 20
22.878164199
 10
-4.6379651874
 20
22.8782018768
  0
LWPOLYLINE
  5
586
100
AcDbEntity
  8
RACCORDO
100
AcDbPolyline
 62
250
  6
CONTINUOUS
 90
11
 70
0
 10
3.1020730262
 20
18.989674733
 10
3.1644932897
 20
18.9462425283
 10
3.2261159905
 20
18.8986007525
 10
3.286821238
 20
18.8468532501
 10
3.3466579171
 20
18.7908992724
 10
3.4053926199
 20
18.7308945251
 10
3.4628031993
 20
18.6670032279
 10
3.5189096267
 20
18.5990547797
 10
3.5735297789
 20
18.5270866358
 10
3.626311608
 20
18.4514045541
 10
3.6769866054
 20
18.3722278389
  0
LWPOLYLINE
  5
587
100
AcDbEntity
  8
RACCORDO
100
AcDbPolyline
 62
250
  6
CONTINUOUS
 90
3
 70
0
 10
25.9416783285
 20
0.2828725238
 10
25.969308173
 20
0.2613050332
 10
25.9933567931
 20
0.2383475727
  0
LWPOLYLINE
  5
588
100
AcDbEntity
  8
RACCORDO
100
AcDbPolyline
 62
250
  6
CONTINUOUS
 90
10
 70
0
 10
3.7867463522
 20
18.4072519728
 10
3.7850665527
 20
18.4088635877
 10
3.7800737372
 20
18.4101976133
 10
3.7724157675
 20
18.4097871089
 10
3.7621750624
 20
18.4076364924
 10
3.7494618372
 20
18.4037689099
 10
3.7344129174
 20
18.3982259862
 10
3.7171902666
 20
18.391067377
 10
3.6979792432
 20
18.3823701265
 10
3.6769866051
 20
18.3722278387
  0
LWPOLYLINE
  5
589
100
AcDbEntity
  8
RACCORDO
100
AcDbPolyline
 62
250
  6
CONTINUOUS
 90
15
 70
0
 10
25.9933567931
 20
-4.0917794463
 10
26.0136356275
 20
-4.1159248892
 10
26.0295789927
 20
-4.140652352
 10
26.0410475776
 20
-4.1659486244
 10
26.0481806933
 20
-4.1918269166
 10
26.050830589
 20
-4.2177208976
 10
26.0489041123
 20
-4.2436308685
 10
26.0424944156
 20
-4.2695565282
 10
26.0317332055
 20
-4.294930642
 10
26.016481273
 20
-4.3197675898
 10
25.996877827
 20
-4.3440529918
 10
25.9734722012
 20
-4.3671764738
 10
25.9464475068
 20
-4.3889345779
 10
25.9156206325
 20
-4.409530762
 10
25.8809915783
 20
-4.4289650262
  0
LINE
  5
58A
100
AcDbEntity
  8
RACCORDO
100
AcDbLine
 62
7
  6
CONTINUOUS
 10
23.5383436181
 20
-4.7578023422
 11
23.6696443564
 21
-4.9842626171
  0
LINE
  5
58B
100
AcDbEntity
  8
RACCORDO
100
AcDbLine
 62
250
  6
CONTINUOUS
 10
23.5857439271
 20
-4.7133925715
 11
23.7261299025
 21
-4.9555225624
  0
LWPOLYLINE
  5
58C
100
AcDbEntity
  8
RACCORDO
100
AcDbPolyline
 62
250
  6
CONTINUOUS
 90
13
 70
0
 10
22.0094426321
 20
-6.7362087267
 10
22.0082158755
 20
-6.7130035003
 10
22.0045566406
 20
-6.6890026007
 10
21.9985276053
 20
-6.6646167328
 10
21.9902320007
 20
-6.6402631862
 10
21.9798118259
 20
-6.616358647
 10
21.9674454027
 20
-6.5933120716
 10
21.9533443667
 20
-6.5715177782
 10
21.9377500158
 20
-6.5513486294
 10
21.9209291413
 20
-6.5331496261
 10
21.9031695363
 20
-6.5172321073
 10
21.8847750849
 20
-6.5038684058
 10
21.8660605105
 20
-6.4932871356
  0
LWPOLYLINE
  5
58D
100
AcDbEntity
  8
RACCORDO
100
AcDbPolyline
 62
250
  6
CONTINUOUS
 90
13
 70
0
 10
22.0094426321
 20
-2.4060817077
 10
22.0082158755
 20
-2.3828764813
 10
22.0045566406
 20
-2.3588755818
 10
21.9985276053
 20
-2.3344897139
 10
21.9902320007
 20
-2.3101361673
 10
21.9798118259
 20
-2.286231628
 10
21.9674454027
 20
-2.2631850526
 10
21.9533443667
 20
-2.2413907593
 10
21.9377500158
 20
-2.2212216105
 10
21.9209291413
 20
-2.2030226072
 10
21.9031695363
 20
-2.1871050884
 10
21.8847750849
 20
-2.1737413869
 10
21.8660605105
 20
-2.1631601167
  0
LWPOLYLINE
  5
58E
100
AcDbEntity
  8
0
100
AcDbPolyline
 62
7
  6
CONTINUOUS
 90
5
 70
0
 10
22.0470297306
 20
-3.3862601744
 10
22.0428453368
 20
-3.2573870006
 10
22.0309773703
 20
-3.1345894965
 10
22.0114258309
 20
-3.0178676621
 10
21.9839714959
 20
-2.9066404898
  0
LWPOLYLINE
  5
58F
100
AcDbEntity
  8
RACCORDO
100
AcDbPolyline
 62
7
  6
CONTINUOUS
 90
10
 70
0
 10
23.4564609261
 20
-4.4641204407
 10
23.4571316313
 20
-4.4904644451
 10
23.460504365
 20
-4.5292165767
 10
23.4667605141
 20
-4.5684854515
 10
23.4757088709
 20
-4.6072039751
 10
23.4872670811
 20
-4.6453808677
 10
23.5013977055
 20
-4.6829842825
 10
23.5176066757
 20
-4.7189365185
 10
23.5355147043
 20
-4.7528710645
 10
23.5383411544
 20
-4.7577980801
  0
LINE
  5
590
100
AcDbEntity
  8
0
100
AcDbLine
 62
7
  6
CONTINUOUS
 10
22.5773598165
 20
-5.2861586409
 11
22.5773598165
 21
-2.5419404849
  0
LINE
  5
591
100
AcDbEntity
  8
0
100
AcDbLine
 62
7
  6
CONTINUOUS
 10
22.5773598165
 20
-1.2098940097
 11
22.5773598165
 21
1.788186534
  0
LWPOLYLINE
  5
592
100
AcDbEntity
  8
RACCORDO
100
AcDbPolyline
 62
250
  6
CONTINUOUS
 90
8
 70
0
 10
22.0094426321
 20
1.5776351497
 10
22.0082159781
 20
1.5556237844
 10
22.0045570048
 20
1.5351819085
 10
21.998528318
 20
1.5166592882
 10
21.9902330702
 20
1.5003728506
 10
21.9798131956
 20
1.4866012612
 10
21.967446981
 20
1.4755801556
 10
21.9575126098
 20
1.4694850989
  0
LWPOLYLINE
  5
593
100
AcDbEntity
  8
RACCORDO
100
AcDbPolyline
 62
250
  6
CONTINUOUS
 90
8
 70
0
 10
22.0094426321
 20
-2.7524918692
 10
22.0082159781
 20
-2.7745032345
 10
22.0045570048
 20
-2.7949451104
 10
21.998528318
 20
-2.8134677307
 10
21.9902330702
 20
-2.8297541683
 10
21.9798131956
 20
-2.8435257577
 10
21.967446981
 20
-2.8545468633
 10
21.9575126098
 20
-2.86064192
  0
LWPOLYLINE
  5
594
100
AcDbEntity
  8
RACCORDO
100
AcDbPolyline
 62
250
  6
CONTINUOUS
 90
3
 70
0
 10
25.4516820692
 20
7.4766115178
 10
25.4423899629
 20
7.443660939
 10
25.435143449
 20
7.4112318988
  0
LWPOLYLINE
  5
595
100
AcDbEntity
  8
RACCORDO
100
AcDbPolyline
 62
7
  6
CONTINUOUS
 90
9
 70
0
 10
25.9282903838
 20
-5.8814072841
 10
25.9476725146
 20
-5.8613717035
 10
26.0021438236
 20
-5.7997025211
 10
26.0526360815
 20
-5.7336490631
 10
26.0987776604
 20
-5.6628156464
 10
26.1395445572
 20
-5.5877867326
 10
26.173404806
 20
-5.5109849987
 10
26.1998672657
 20
-5.4343178135
 10
26.2165462358
 20
-5.370809948
  0
LWPOLYLINE
  5
596
100
AcDbEntity
  8
RACCORDO
100
AcDbPolyline
 62
250
  6
CONTINUOUS
 90
6
 70
0
 10
25.7500405388
 20
-6.0164053865
 10
25.7759857339
 20
-5.9897627206
 10
25.8015104606
 20
-5.962209664
 10
25.8266030281
 20
-5.9337530139
 10
25.8512499747
 20
-5.9044105786
 10
25.8754394824
 20
-5.8741958755
  0
LINE
  5
597
100
AcDbEntity
  8
RACCORDO
100
AcDbLine
 62
7
  6
CONTINUOUS
 10
25.9282220192
 20
-5.8814769428
 11
25.9282903838
 21
-5.8814072841
  0
LWPOLYLINE
  5
598
100
AcDbEntity
  8
RACCORDO
100
AcDbPolyline
 62
250
  6
CONTINUOUS
 90
5
 70
0
 10
25.6422455955
 20
-6.1137715193
 10
25.6697724679
 20
-6.0908371561
 10
25.6969223318
 20
-6.0669557747
 10
25.7236828311
 20
-6.0421394119
 10
25.7500405388
 20
-6.0164053865
  0
LWPOLYLINE
  5
599
100
AcDbEntity
  8
RACCORDO
100
AcDbPolyline
 62
7
  6
CONTINUOUS
 90
8
 70
0
 10
25.6701610258
 20
-6.1041552912
 10
25.682929671
 20
-6.0947879611
 10
25.7270399813
 20
-6.0611835729
 10
25.770842316
 20
-6.0258519357
 10
25.8142838534
 20
-5.9888056712
 10
25.8572925603
 20
-5.9500752026
 10
25.8998256494
 20
-5.9096703489
 10
25.9282220527
 20
-5.8814769088
  0
LWPOLYLINE
  5
59A
100
AcDbEntity
  8
RACCORDO
100
AcDbPolyline
 62
7
  6
CONTINUOUS
 90
7
 70
0
 10
24.5434330696
 20
-6.8972986838
 10
24.7118584719
 20
-6.7820858153
 10
24.8805896375
 20
-6.665486886
 10
25.0496187939
 20
-6.5474990936
 10
25.218938651
 20
-6.4281193703
 10
25.3885414179
 20
-6.3073450743
 10
25.6701622377
 20
-6.1041544097
  0
LINE
  5
59B
100
AcDbEntity
  8
ASSI
100
AcDbLine
 62
250
  6
CONTINUOUS
 10
-4.2886405109
 20
-24.8268397751
 11
-5.1765813451
 21
-25.305904226
  0
LINE
  5
59C
100
AcDbEntity
  8
ASSI
100
AcDbLine
 62
7
  6
CONTINUOUS
 10
-4.4123365433
 20
-25.0939914642
 11
-5.1765813451
 21
-25.5063190785
  0
LWPOLYLINE
  5
59D
100
AcDbEntity
  8
ASSI
100
AcDbPolyline
 62
250
  6
CONTINUOUS
 90
3
 70
0
 10
-2.8529734237
 20
20.9165068584
 10
-2.8449599783
 20
20.9185463044
 10
-2.8367755482
 20
20.9203842078
  0
LWPOLYLINE
  5
59E
100
AcDbEntity
  8
ASSI
100
AcDbPolyline
 62
7
  6
CONTINUOUS
 90
6
 70
0
 10
-2.9007130676
 20
20.9331851644
 10
-2.9172135399
 20
20.9298003139
 10
-2.942118193
 20
20.9232042983
 10
-2.9672105597
 20
20.9147367394
 10
-2.9924231032
 20
20.9043577598
 10
-3.0089599741
 20
20.8965101425
  0
LINE
  5
59F
100
AcDbEntity
  8
ASSI
100
AcDbLine
 62
250
  6
CONTINUOUS
 10
-2.8367755482
 20
20.9203842078
 11
-2.8284284618
 21
20.9219984608
  0
LWPOLYLINE
  5
5A0
100
AcDbEntity
  8
ASSI
100
AcDbPolyline
 62
250
  6
CONTINUOUS
 90
12
 70
0
 10
-6.1685053873
 20
22.5920369235
 10
-6.1755402208
 20
22.5907187706
 10
-6.1826407959
 20
22.5892033401
 10
-6.1898043896
 20
22.5874894724
 10
-6.1969920917
 20
22.58558591
 10
-6.2042369054
 20
22.5834838247
 10
-6.2116450194
 20
22.5811470435
 10
-6.2192236176
 20
22.5785622502
 10
-6.2269610708
 20
22.5757229339
 10
-6.2349365201
 20
22.5725876864
 10
-6.243174474
 20
22.5691287293
 10
-6.2516441547
 20
22.5653393886
  0
LINE
  5
5A1
100
AcDbEntity
  8
0
100
AcDbLine
 62
250
  6
CONTINUOUS
 10
-2.8284284618
 20
20.9219984608
 11
-0.0617035853
 21
21.4238802305
  0
LINE
  5
5A2
100
AcDbEntity
  8
ASSI
100
AcDbLine
 62
7
  6
CONTINUOUS
 10
-2.9007282808
 20
20.9331824059
 11
-0.1288231243
 21
21.4360038744
  0
LWPOLYLINE
  5
5A3
100
AcDbEntity
  8
ASSI
100
AcDbPolyline
 62
250
  6
CONTINUOUS
 90
13
 70
0
 10
-5.7830843121
 20
22.3993263859
 10
-5.7902248542
 20
22.3980420084
 10
-5.7974086272
 20
22.3965546976
 10
-5.8046327406
 20
22.3948641267
 10
-5.8118548007
 20
22.3929810091
 10
-5.8191110099
 20
22.3908963983
 10
-5.8265175621
 20
22.388570951
 10
-5.8340844834
 20
22.3859909383
 10
-5.841797361
 20
22.3831500584
 10
-5.8497370452
 20
22.3800034135
 10
-5.8579286497
 20
22.3765215807
 10
-5.8663408594
 20
22.3726985143
 10
-5.8749694782
 20
22.368517168
  0
LINE
  5
5A4
100
AcDbEntity
  8
ASSI
100
AcDbLine
 62
250
  6
CONTINUOUS
 10
-7.1537641097
 20
22.1497016776
 11
-7.1902640292
 21
22.1432269024
  0
LWPOLYLINE
  5
5A5
100
AcDbEntity
  8
ASSI
100
AcDbPolyline
 62
250
  6
CONTINUOUS
 90
13
 70
0
 10
-5.6784593093
 20
22.1521729369
 10
-5.6827694849
 20
22.1514140042
 10
-5.6871002369
 20
22.1505320855
 10
-5.6914515656
 20
22.1495271809
 10
-5.6958012663
 20
22.1484091344
 10
-5.7001715436
 20
22.147168102
 10
-5.7046290105
 20
22.1457745516
 10
-5.7091809114
 20
22.1442330144
 10
-5.713820002
 20
22.1425389592
 10
-5.7185911616
 20
22.1406492597
 10
-5.7235093503
 20
22.1385495405
 10
-5.7285596081
 20
22.136254177
 10
-5.733741935
 20
22.1337631692
  0
LINE
  5
5A6
100
AcDbEntity
  8
ASSI
100
AcDbLine
 62
250
  6
CONTINUOUS
 10
-4.6559896498
 20
22.857985668
 11
-6.1685053873
 21
22.5920369235
  0
LINE
  5
5A7
100
AcDbEntity
  8
ASSI
100
AcDbLine
 62
7
  6
CONTINUOUS
 10
-4.7272272711
 20
22.8693593368
 11
-6.2397430086
 21
22.6034105923
  0
LWPOLYLINE
  5
5A8
100
AcDbEntity
  8
ASSI
100
AcDbPolyline
 62
250
  6
CONTINUOUS
 90
13
 70
0
 10
-0.9124744387
 20
20.9862280624
 10
-0.9082335374
 20
20.9869666334
 10
-0.9040594433
 20
20.9877543782
 10
-0.8999521562
 20
20.9885912969
 10
-0.8959230801
 20
20.9894719606
 10
-0.891960811
 20
20.9904017981
 10
-0.8880311372
 20
20.9913970964
 10
-0.8841253344
 20
20.9924565623
 10
-0.8802521268
 20
20.9935814889
 10
-0.8764034754
 20
20.9947920422
 10
-0.8725767004
 20
20.9960949442
 10
-0.8687744816
 20
20.997483473
 10
-0.864996819
 20
20.9989576285
  0
LINE
  5
5A9
100
AcDbEntity
  8
ASSI
100
AcDbLine
 62
250
  6
CONTINUOUS
 10
-2.3362800359
 20
20.489580108
 11
-0.805747088
 21
20.7465202472
  0
LINE
  5
5AA
100
AcDbEntity
  8
ASSI
100
AcDbLine
 62
250
  6
CONTINUOUS
 10
-2.4430073866
 20
20.7292879232
 11
-0.9124744387
 21
20.9862280624
  0
LINE
  5
5AB
100
AcDbEntity
  8
ASSI
100
AcDbLine
 62
250
  6
CONTINUOUS
 10
-4.6508294021
 20
22.8588413337
 11
-4.6559896498
 21
22.857985668
  0
LINE
  5
5AC
100
AcDbEntity
  8
RACCORDO
100
AcDbLine
 62
250
  6
CONTINUOUS
 10
-3.2343761829
 20
22.5494023977
 11
-5.6784593093
 21
22.1521729369
  0
LINE
  5
5AD
100
AcDbEntity
  8
0
100
AcDbLine
 62
250
  6
CONTINUOUS
 10
-2.9375485805
 20
22.8618027281
 11
-5.7830843121
 21
22.3993263859
  0
LWPOLYLINE
  5
5AE
100
AcDbEntity
  8
RACCORDO
100
AcDbPolyline
 62
7
  6
CONTINUOUS
 90
10
 70
0
 10
-0.1288231603
 20
21.4360039715
 10
-0.1214907656
 20
21.4369914789
 10
-0.1144526039
 20
21.4373353687
 10
-0.1072692401
 20
21.4371142211
 10
-0.0999401452
 20
21.4363259614
 10
-0.0924658481
 20
21.4349726643
 10
-0.0848997076
 20
21.4330517052
 10
-0.0772595102
 20
21.430562209
 10
-0.0695274694
 20
21.4275050508
 10
-0.0617035853
 20
21.4238802305
  0
LWPOLYLINE
  5
5AF
100
AcDbEntity
  8
ASSI
100
AcDbPolyline
 62
250
  6
CONTINUOUS
 90
5
 70
0
 10
-7.1902640292
 20
22.1432269024
 10
-7.2275091759
 20
22.1385450494
 10
-7.2655332419
 20
22.1357364032
 10
-7.3043025352
 20
22.1347206792
 10
-7.3426025106
 20
22.1355005476
  0
LWPOLYLINE
  5
5B0
100
AcDbEntity
  8
RACCORDO
100
AcDbPolyline
 62
250
  6
CONTINUOUS
 90
5
 70
0
 10
-9.6029841895
 20
21.1965060574
 10
-9.6151667217
 20
21.1949931895
 10
-9.6275360597
 20
21.193657611
 10
-9.6400463136
 20
21.1925099876
 10
-9.6526976487
 20
21.1915513192
  0
LWPOLYLINE
  5
5B1
100
AcDbEntity
  8
ASSI
100
AcDbPolyline
 62
250
  6
CONTINUOUS
 90
5
 70
0
 10
-2.9007130676
 20
20.9331851644
 10
-2.8841861233
 20
20.9348656415
 10
-2.8655080526
 20
20.9337161614
 10
-2.8468223359
 20
20.9294040635
 10
-2.8284284618
 20
20.9219984608
  0
LINE
  5
5B2
100
AcDbEntity
  8
ASSI
100
AcDbLine
 62
250
  6
CONTINUOUS
 10
-4.7099609716
 20
22.8709457484
 11
-4.7272272711
 21
22.8693593368
  0
LWPOLYLINE
  5
5B3
100
AcDbEntity
  8
RACCORDO
100
AcDbPolyline
 62
250
  6
CONTINUOUS
 90
17
 70
0
 10
-9.6526976487
 20
21.1915513192
 10
-9.6654898997
 20
21.1907806059
 10
-9.6783766803
 20
21.1902055135
 10
-9.6913578283
 20
21.1898270187
 10
-9.7044335058
 20
21.1896441449
 10
-9.7175578131
 20
21.1896616283
 10
-9.7307310785
 20
21.1898804674
 10
-9.7439529738
 20
21.1902996638
 10
-9.7571766141
 20
21.1909209578
 10
-9.7704000429
 20
21.1917451538
 10
-9.7836252168
 20
21.1927714474
 10
-9.7968111202
 20
21.1939991667
 10
-9.809949492
 20
21.1954275334
 10
-9.8230485935
 20
21.1970573259
 10
-9.8360921932
 20
21.1988902074
 10
-9.8490808028
 20
21.2009256451
 10
-9.8620139106
 20
21.2031641718
  0
LWPOLYLINE
  5
5B4
100
AcDbEntity
  8
ASSI
100
AcDbPolyline
 62
7
  6
CONTINUOUS
 90
5
 70
0
 10
-4.6442170081
 20
22.8779734475
 10
-4.6678569507
 20
22.876623919
 10
-4.6913877239
 20
22.8744578085
 10
-4.7148535365
 20
22.8713854238
 10
-4.7273566611
 20
22.8693365024
  0
LWPOLYLINE
  5
5B5
100
AcDbEntity
  8
ASSI
100
AcDbPolyline
 62
250
  6
CONTINUOUS
 90
6
 70
0
 10
-9.5806052337
 20
21.0494115284
 10
-9.5357993115
 20
21.0510990707
 10
-9.4893144084
 20
21.0557386578
 10
-9.4413486425
 20
21.0634409561
 10
-9.3918587672
 20
21.0743234895
 10
-9.340547912
 20
21.0885826221
  0
LWPOLYLINE
  5
5B6
100
AcDbEntity
  8
ASSI
100
AcDbPolyline
 62
250
  6
CONTINUOUS
 90
12
 70
0
 10
-4.5949030694
 20
22.8639107537
 10
-4.6001568134
 20
22.8637159086
 10
-4.6053501592
 20
22.8634728344
 10
-4.6104831069
 20
22.8631815311
 10
-4.6155336284
 20
22.8628452773
 10
-4.6205237517
 20
22.8624607945
 10
-4.6255195608
 20
22.8620182471
 10
-4.6305340588
 20
22.8615194777
 10
-4.6355542425
 20
22.8609626437
 10
-4.640607186
 20
22.8603323821
 10
-4.6457019141
 20
22.8596235718
 10
-4.6508294021
 20
22.8588413337
  0
LINE
  5
5B7
100
AcDbEntity
  8
0
100
AcDbLine
 62
250
  6
CONTINUOUS
 10
-3.0424739132
 20
22.9142653945
 11
-4.5949030694
 21
22.8639107537
  0
LINE
  5
5B8
100
AcDbEntity
  8
ASSI
100
AcDbLine
 62
7
  6
CONTINUOUS
 10
-3.0983414287
 20
22.9281411662
 11
-4.6442170081
 21
22.8779734475
  0
LINE
  5
5B9
100
AcDbEntity
  8
ASSI
100
AcDbLine
 62
250
  6
CONTINUOUS
 10
-9.6236711294
 20
21.0505464832
 11
-9.5806052337
 21
21.0494115284
  0
LWPOLYLINE
  5
5BA
100
AcDbEntity
  8
ASSI
100
AcDbPolyline
 62
7
  6
CONTINUOUS
 90
7
 70
0
 10
-11.6154658501
 20
21.1816763283
 10
-11.6265043185
 20
21.1821591717
 10
-11.6604894369
 20
21.1813630956
 10
-11.6953451452
 20
21.1770691645
 10
-11.7307121956
 20
21.1691897007
 10
-11.7663914379
 20
21.1576591319
 10
-11.8038561527
 20
21.1416282205
  0
LINE
  5
5BB
100
AcDbEntity
  8
ASSI
100
AcDbLine
 62
250
  6
CONTINUOUS
 10
-11.57495453
 20
21.1692476013
 11
-11.5677508013
 21
21.1689005518
  0
LWPOLYLINE
  5
5BC
100
AcDbEntity
  8
ASSI
100
AcDbPolyline
 62
250
  6
CONTINUOUS
 90
10
 70
0
 10
-7.9853813705
 20
20.4148990212
 10
-8.0000654203
 20
20.4156817398
 10
-8.0152814394
 20
20.4155211204
 10
-8.031015995
 20
20.4143579169
 10
-8.0471722947
 20
20.412150895
 10
-8.0638058594
 20
20.4088367495
 10
-8.0811336825
 20
20.4042770039
 10
-8.0992118487
 20
20.3983357783
 10
-8.1179253691
 20
20.3909344719
 10
-8.1372299153
 20
20.3819750925
  0
LWPOLYLINE
  5
5BD
100
AcDbEntity
  8
ASSI
100
AcDbPolyline
 62
250
  6
CONTINUOUS
 90
10
 70
0
 10
-8.066841666
 20
20.6633086765
 10
-8.0872542206
 20
20.6644470193
 10
-8.1083824878
 20
20.6641105612
 10
-8.1302264674
 20
20.662299302
 10
-8.1527070057
 20
20.6591514581
 10
-8.1759032566
 20
20.6545288132
 10
-8.2000526812
 20
20.6480167189
 10
-8.2252344332
 20
20.6394769591
 10
-8.251369359
 20
20.6290477499
 10
-8.2784574585
 20
20.6167290913
  0
LINE
  5
5BE
100
AcDbEntity
  8
ASSI
100
AcDbLine
 62
250
  6
CONTINUOUS
 10
-11.5677508013
 20
21.1689005518
 11
-9.623633978
 21
21.0505279074
  0
LINE
  5
5BF
100
AcDbEntity
  8
ASSI
100
AcDbLine
 62
7
  6
CONTINUOUS
 10
-11.61546585
 20
21.1816763283
 11
-9.6712538752
 21
21.0632979341
  0
LWPOLYLINE
  5
5C0
100
AcDbEntity
  8
ASSI
100
AcDbPolyline
 62
250
  6
CONTINUOUS
 90
16
 70
0
 10
-10.7764626861
 20
20.964805316
 10
-10.8136450457
 20
20.9671527271
 10
-10.847351086
 20
20.9682454718
 10
-10.8775808069
 20
20.96808355
 10
-10.9042529503
 20
20.9666312139
 10
-10.9274487743
 20
20.9639242114
 10
-10.9474120536
 20
20.9600697865
 10
-10.9642744034
 20
20.9551395535
 10
-10.9779042085
 20
20.9490618982
 10
-10.9881503979
 20
20.9417292218
 10
-10.9951460831
 20
20.933086379
 10
-10.9987581527
 20
20.9231885152
 10
-10.9984362009
 20
20.9120934674
 10
-10.9939967593
 20
20.8998205147
 10
-10.9856232964
 20
20.886350378
 10
-10.9733158122
 20
20.8716830573
  0
LWPOLYLINE
  5
5C1
100
AcDbEntity
  8
ASSI
100
AcDbPolyline
 62
250
  6
CONTINUOUS
 90
3
 70
0
 10
-7.3426025106
 20
22.1355005476
 10
-7.3800283196
 20
22.1380768986
 10
-7.4169848108
 20
22.142448842
  0
LWPOLYLINE
  5
5C2
100
AcDbEntity
  8
ASSI
100
AcDbPolyline
 62
250
  6
CONTINUOUS
 90
23
 70
0
 10
-7.5084910042
 20
22.1564700164
 10
-7.5363744002
 20
22.1583882032
 10
-7.5647639794
 20
22.158961414
 10
-7.5934028159
 20
22.1581955365
 10
-7.6215201326
 20
22.1561082335
 10
-7.6490967509
 20
22.1526650948
 10
-7.6761518493
 20
22.1479005305
 10
-7.7019721856
 20
22.1419354339
 10
-7.7265331097
 20
22.1347355016
 10
-7.7498592716
 20
22.126335037
 10
-7.7713113792
 20
22.116957843
 10
-7.7908373403
 20
22.106574394
 10
-7.808489247
 20
22.0952142157
 10
-7.8237840833
 20
22.0831896886
 10
-7.8366517009
 20
22.0704854255
 10
-7.8471622481
 20
22.0571168136
 10
-7.855043153
 20
22.0434423948
 10
-7.8602242294
 20
22.0294548624
 10
-7.8627756635
 20
22.0151615231
 10
-7.8626354434
 20
22.0009428388
 10
-7.8597828981
 20
21.9869256302
 10
-7.8542386984
 20
21.9729830766
 10
-7.8460028444
 20
21.9591151781
  0
LWPOLYLINE
  5
5C3
100
AcDbEntity
  8
ASSI
100
AcDbPolyline
 62
250
  6
CONTINUOUS
 90
5
 70
0
 10
-9.6711956139
 20
21.0632943727
 10
-9.6689357282
 20
21.0631344965
 10
-9.6534933443
 20
21.060893461
 10
-9.6383465811
 20
21.0566779514
 10
-9.6236473484
 20
21.0505287215
  0
LINE
  5
5C4
100
AcDbEntity
  8
RACCORDO
100
AcDbLine
 62
250
  6
CONTINUOUS
 10
-7.0732832588
 20
20.3407096835
 11
-7.9853813705
 21
20.4148990212
  0
LINE
  5
5C5
100
AcDbEntity
  8
ASSI
100
AcDbLine
 62
250
  6
CONTINUOUS
 10
-9.1134429098
 20
20.5877528657
 11
-10.6950023906
 21
20.7163956606
  0
LINE
  5
5C6
100
AcDbEntity
  8
RACCORDO
100
AcDbLine
 62
250
  6
CONTINUOUS
 10
-7.1549144926
 20
20.5891332429
 11
-8.066841666
 21
20.6633086765
  0
LINE
  5
5C7
100
AcDbEntity
  8
ASSI
100
AcDbLine
 62
250
  6
CONTINUOUS
 10
-9.1949032052
 20
20.8361625211
 11
-10.7764626861
 21
20.964805316
  0
LWPOLYLINE
  5
5C8
100
AcDbEntity
  8
ASSI
100
AcDbPolyline
 62
250
  6
CONTINUOUS
 90
4
 70
0
 10
-11.6153630369
 20
21.181670112
 10
-11.6048549582
 20
21.1805699698
 10
-11.5859855539
 20
21.1762188716
 10
-11.5677508013
 20
21.1689005518
  0
LINE
  5
5C9
100
AcDbEntity
  8
ASSI
100
AcDbLine
 62
250
  6
CONTINUOUS
 10
-7.4808568655
 20
22.1532127413
 11
-7.5084910042
 21
22.1564700164
  0
LWPOLYLINE
  5
5CA
100
AcDbEntity
  8
ASSI
100
AcDbPolyline
 62
250
  6
CONTINUOUS
 90
7
 70
0
 10
-7.4149750487
 20
22.1716705777
 10
-7.4169525743
 20
22.1719571521
 10
-7.4237661227
 20
22.1715060231
 10
-7.430905235
 20
22.1689064508
 10
-7.4382916939
 20
22.1641869167
 10
-7.4458445715
 20
22.1573991284
 10
-7.4534811171
 20
22.1486174543
  0
LINE
  5
5CB
100
AcDbEntity
  8
ASSI
100
AcDbLine
 62
250
  6
CONTINUOUS
 10
-7.4169848108
 20
22.142448842
 11
-7.4808568655
 21
22.1532127413
  0
LWPOLYLINE
  5
5CC
100
AcDbEntity
  8
ASSI
100
AcDbPolyline
 62
250
  6
CONTINUOUS
 90
3
 70
0
 10
-4.673785427
 20
22.8652658893
 10
-4.6918676812
 20
22.8696079632
 10
-4.7099609716
 20
22.8709457484
  0
LWPOLYLINE
  5
5CD
100
AcDbEntity
  8
ASSI
100
AcDbPolyline
 62
250
  6
CONTINUOUS
 90
6
 70
0
 10
-6.2774723871
 20
22.5687521902
 10
-6.2943419155
 20
22.5735421359
 10
-6.3106924399
 20
22.5754998298
 10
-6.3262743766
 20
22.5745953888
 10
-6.3408498739
 20
22.5708426185
 10
-6.3472676124
 20
22.5681197243
  0
LINE
  5
5CE
100
AcDbEntity
  8
SMUSSO
100
AcDbLine
 62
7
  6
CONTINUOUS
 10
25.6855460933
 20
11.802406051
 11
25.87716572
 21
11.7065962376
  0
LWPOLYLINE
  5
5CF
100
AcDbEntity
  8
RACCORDO
100
AcDbPolyline
 62
250
  6
CONTINUOUS
 90
3
 70
0
 10
25.9416783285
 20
4.6129995427
 10
25.969308173
 20
4.5914320521
 10
25.9933567931
 20
4.5684745916
  0
LWPOLYLINE
  5
5D0
100
AcDbEntity
  8
RACCORDO
100
AcDbPolyline
 62
250
  6
CONTINUOUS
 90
15
 70
0
 10
25.9933567931
 20
0.2383475727
 10
26.0136356275
 20
0.2142021297
 10
26.0295789927
 20
0.1894746669
 10
26.0410475776
 20
0.1641783946
 10
26.0481806933
 20
0.1383001023
 10
26.050830589
 20
0.1124061213
 10
26.0489041123
 20
0.0864961504
 10
26.0424944156
 20
0.0605704908
 10
26.0317332055
 20
0.035196377
 10
26.016481273
 20
0.0103594291
 10
25.996877827
 20
-0.0139259728
 10
25.9734722012
 20
-0.0370494549
 10
25.9464475068
 20
-0.058807559
 10
25.9156206325
 20
-0.0794037431
 10
25.8809915783
 20
-0.0988380073
  0
LWPOLYLINE
  5
5D1
100
AcDbEntity
  8
RACCORDO
100
AcDbPolyline
 62
250
  6
CONTINUOUS
 90
15
 70
0
 10
25.9933567931
 20
4.5684745916
 10
26.0136356275
 20
4.5443291487
 10
26.0295789927
 20
4.5196016858
 10
26.0410475776
 20
4.4943054135
 10
26.0481806933
 20
4.4684271212
 10
26.050830589
 20
4.4425331402
 10
26.0489041123
 20
4.4166231693
 10
26.0424944156
 20
4.3906975097
 10
26.0317332055
 20
4.3653233959
 10
26.016481273
 20
4.3404864481
 10
25.996877827
 20
4.3162010461
 10
25.9734722012
 20
4.293077564
 10
25.9464475068
 20
4.2713194599
 10
25.9156206325
 20
4.2507232758
 10
25.8809915783
 20
4.2312890116
  0
LINE
  5
5D2
100
AcDbEntity
  8
0
100
AcDbLine
 62
7
  6
CONTINUOUS
 10
21.9839714959
 20
-2.9066404898
 11
21.966974682
 21
-2.8557768888
  0
LINE
  5
5D3
100
AcDbEntity
  8
ASSI
100
AcDbLine
 62
7
  6
CONTINUOUS
 10
21.966985555
 20
1.4743557206
 11
21.9841778929
 21
1.4227857863
  0
LWPOLYLINE
  5
5D4
100
AcDbEntity
  8
ASSI
100
AcDbPolyline
 62
7
  6
CONTINUOUS
 90
5
 70
0
 10
21.9841778929
 20
1.4227857863
 10
22.0115623931
 20
1.3116046679
 10
22.0310686855
 20
1.1950159116
 10
22.0428911313
 20
1.0724366372
 10
22.0470297306
 20
0.9438668445
  0
LWPOLYLINE
  5
5D5
100
AcDbEntity
  8
RACCORDO
100
AcDbPolyline
 62
7
  6
CONTINUOUS
 90
13
 70
0
 10
26.2508452137
 20
-4.3930205761
 10
26.2490776153
 20
-4.35788009
 10
26.2436648732
 20
-4.3223723424
 10
26.2344654169
 20
-4.2867872264
 10
26.2213997918
 20
-4.251481044
 10
26.2043883465
 20
-4.2166844936
 10
26.1832519412
 20
-4.1824622078
 10
26.1577649438
 20
-4.1489156988
 10
26.1279068603
 20
-4.1164220137
 10
26.0937423026
 20
-4.0853315665
 10
26.0552258219
 20
-4.0558194312
 10
26.0121985308
 20
-4.027986456
 10
25.9645520015
 20
-4.0020031036
  0
LWPOLYLINE
  5
5D6
100
AcDbEntity
  8
RACCORDO
100
AcDbPolyline
 62
7
  6
CONTINUOUS
 90
13
 70
0
 10
26.2508452137
 20
-0.0628935572
 10
26.2490776153
 20
-0.0277530711
 10
26.2436648732
 20
0.0077546765
 10
26.2344654169
 20
0.0433397925
 10
26.2213997918
 20
0.078645975
 10
26.2043883465
 20
0.1134425253
 10
26.1832519412
 20
0.1476648111
 10
26.1577649438
 20
0.1812113201
 10
26.1279068603
 20
0.2137050052
 10
26.0937423026
 20
0.2447954524
 10
26.0552258219
 20
0.2743075877
 10
26.0121985308
 20
0.3021405629
 10
25.9645520015
 20
0.3281239154
  0
LWPOLYLINE
  5
5D7
100
AcDbEntity
  8
RACCORDO
100
AcDbPolyline
 62
7
  6
CONTINUOUS
 90
13
 70
0
 10
26.2508452137
 20
4.2672334617
 10
26.2490776153
 20
4.3023739478
 10
26.2436648732
 20
4.3378816954
 10
26.2344654169
 20
4.3734668114
 10
26.2213997918
 20
4.4087729939
 10
26.2043883465
 20
4.4435695443
 10
26.1832519412
 20
4.47779183
 10
26.1577649438
 20
4.511338339
 10
26.1279068603
 20
4.5438320241
 10
26.0937423026
 20
4.5749224713
 10
26.0552258219
 20
4.6044346066
 10
26.0121985308
 20
4.6322675819
 10
25.9645520015
 20
4.6582509343
  0
LWPOLYLINE
  5
5D8
100
AcDbEntity
  8
RACCORDO
100
AcDbPolyline
 62
250
  6
CONTINUOUS
 90
16
 70
0
 10
26.0243736998
 20
-4.6718866173
 10
26.0235882375
 20
-4.653399842
 10
26.0212404564
 20
-4.6343517831
 10
26.0173560793
 20
-4.614951135
 10
26.0119776641
 20
-4.5954104552
 10
26.005164138
 20
-4.5759438356
 10
25.9969901513
 20
-4.5567645565
 10
25.98754526
 20
-4.5380827502
 10
25.9769329442
 20
-4.5201030983
 10
25.9652694747
 20
-4.5030225897
 10
25.952682639
 20
-4.4870283621
 10
25.9393103411
 20
-4.4722956516
 10
25.9252990905
 20
-4.4589858727
 10
25.9108023976
 20
-4.4472448503
 10
25.8959790911
 20
-4.4372012215
 10
25.8809915783
 20
-4.4289650262
  0
LWPOLYLINE
  5
5D9
100
AcDbEntity
  8
RACCORDO
100
AcDbPolyline
 62
250
  6
CONTINUOUS
 90
16
 70
0
 10
25.7047778837
 20
3.8240436257
 10
25.7039924214
 20
3.8425304009
 10
25.7016446403
 20
3.8615784599
 10
25.6977602631
 20
3.880979108
 10
25.692381848
 20
3.9005197878
 10
25.6855683218
 20
3.9199864074
 10
25.6773943351
 20
3.9391656864
 10
25.6679494438
 20
3.9578474928
 10
25.6573371281
 20
3.9758271447
 10
25.6456736586
 20
3.9929076532
 10
25.6330868229
 20
4.0089018808
 10
25.6197145249
 20
4.0236345914
 10
25.6057032744
 20
4.0369443702
 10
25.5912065815
 20
4.0486853926
 10
25.576383275
 20
4.0587290215
 10
25.5613957621
 20
4.0669652167
  0
LWPOLYLINE
  5
5DA
100
AcDbEntity
  8
RACCORDO
100
AcDbPolyline
 62
250
  6
CONTINUOUS
 90
16
 70
0
 10
26.0243736998
 20
-0.3417595983
 10
26.0235882375
 20
-0.3232728231
 10
26.0212404564
 20
-0.3042247642
 10
26.0173560793
 20
-0.2848241161
 10
26.0119776641
 20
-0.2652834363
 10
26.005164138
 20
-0.2458168167
 10
25.9969901513
 20
-0.2266375376
 10
25.98754526
 20
-0.2079557312
 10
25.9769329442
 20
-0.1899760794
 10
25.9652694747
 20
-0.1728955708
 10
25.952682639
 20
-0.1569013432
 10
25.9393103411
 20
-0.1421686326
 10
25.9252990905
 20
-0.1288588538
 10
25.9108023976
 20
-0.1171178314
 10
25.8959790911
 20
-0.1070742025
 10
25.8809915783
 20
-0.0988380073
  0
LWPOLYLINE
  5
5DB
100
AcDbEntity
  8
RACCORDO
100
AcDbPolyline
 62
250
  6
CONTINUOUS
 90
16
 70
0
 10
26.0243736998
 20
3.9883674206
 10
26.0235882375
 20
4.0068541958
 10
26.0212404564
 20
4.0259022547
 10
26.0173560793
 20
4.0453029029
 10
26.0119776641
 20
4.0648435826
 10
26.005164138
 20
4.0843102022
 10
25.9969901513
 20
4.1034894813
 10
25.98754526
 20
4.1221712877
 10
25.9769329442
 20
4.1401509396
 10
25.9652694747
 20
4.1572314481
 10
25.952682639
 20
4.1732256757
 10
25.9393103411
 20
4.1879583863
 10
25.9252990905
 20
4.2012681651
 10
25.9108023976
 20
4.2130091875
 10
25.8959790911
 20
4.2230528164
 10
25.8809915783
 20
4.2312890116
  0
LWPOLYLINE
  5
5DC
100
AcDbEntity
  8
RACCORDO
100
AcDbPolyline
 62
250
  6
CONTINUOUS
 90
13
 70
0
 10
23.5443288796
 20
-4.570229214
 10
23.5447639556
 20
-4.5824941844
 10
23.5457238319
 20
-4.5945649936
 10
23.5472085084
 20
-4.6064416415
 10
23.5492204184
 20
-4.618043906
 10
23.5517571287
 20
-4.6294520092
 10
23.5548113397
 20
-4.640906618
 10
23.55831564
 20
-4.6524027563
 10
23.5623374411
 20
-4.6639454001
 10
23.5670716769
 20
-4.6757901441
 10
23.5725833255
 20
-4.6880221864
 10
23.5788074089
 20
-4.7005563289
 10
23.5857439271
 20
-4.7133925715
  0
LWPOLYLINE
  5
5DD
100
AcDbEntity
  8
RACCORDO
100
AcDbPolyline
 62
250
  6
CONTINUOUS
 90
19
 70
0
 10
25.4258846571
 20
4.027057688
 10
25.4269252419
 20
3.9975576532
 10
25.4300113953
 20
3.9696393666
 10
25.4351431175
 20
3.9433028282
 10
25.4423894003
 20
3.9183256201
 10
25.4516812518
 20
3.8949301602
 10
25.4628116965
 20
3.8737837017
 10
25.4758198707
 20
3.8549834255
 10
25.4906666381
 20
3.8384321508
 10
25.5070276142
 20
3.8245055879
 10
25.5249407479
 20
3.8132592909
 10
25.5443680903
 20
3.8046377056
 10
25.5648714101
 20
3.7988498804
 10
25.5864836119
 20
3.7959657335
 10
25.6091717911
 20
3.7959153467
 10
25.6323990023
 20
3.7986980132
 10
25.655986264
 20
3.8043134974
 10
25.6801125578
 20
3.8127620349
 10
25.7047778837
 20
3.8240436257
  0
LWPOLYLINE
  5
5DE
100
AcDbEntity
  8
RACCORDO
100
AcDbPolyline
 62
250
  6
CONTINUOUS
 90
19
 70
0
 10
25.5360565048
 20
-3.6624838483
 10
25.536568857
 20
-3.6776105123
 10
25.5381133733
 20
-3.6932365024
 10
25.5406942865
 20
-3.70925087
 10
25.544313867
 20
-3.7255667484
 10
25.5489566462
 20
-3.7420326281
 10
25.5545709713
 20
-3.7584334304
 10
25.5610907963
 20
-3.7746001298
 10
25.5684784924
 20
-3.7904549273
 10
25.5767054395
 20
-3.8059191319
 10
25.5857304007
 20
-3.8209005401
 10
25.5954717868
 20
-3.8352478355
 10
25.6058312532
 20
-3.8488009786
 10
25.6167441085
 20
-3.8614797536
 10
25.6281036818
 20
-3.8731623305
 10
25.6397254959
 20
-3.8836705828
 10
25.6514771434
 20
-3.8929291739
 10
25.6632911595
 20
-3.900935642
 10
25.6750740441
 20
-3.907666145
  0
LWPOLYLINE
  5
5DF
100
AcDbEntity
  8
RACCORDO
100
AcDbPolyline
 62
250
  6
CONTINUOUS
 90
19
 70
0
 10
25.5360565048
 20
0.6676431706
 10
25.536568857
 20
0.6525165067
 10
25.5381133733
 20
0.6368905166
 10
25.5406942865
 20
0.6208761489
 10
25.544313867
 20
0.6045602705
 10
25.5489566462
 20
0.5880943909
 10
25.5545709713
 20
0.5716935885
 10
25.5610907963
 20
0.5555268891
 10
25.5684784924
 20
0.5396720916
 10
25.5767054395
 20
0.524207887
 10
25.5857304007
 20
0.5092264788
 10
25.5954717868
 20
0.4948791835
 10
25.6058312532
 20
0.4813260403
 10
25.6167441085
 20
0.4686472654
 10
25.6281036818
 20
0.4569646884
 10
25.6397254959
 20
0.4464564362
 10
25.6514771434
 20
0.437197845
 10
25.6632911595
 20
0.4291913769
 10
25.6750740441
 20
0.422460874
  0
LWPOLYLINE
  5
5E0
100
AcDbEntity
  8
RACCORDO
100
AcDbPolyline
 62
250
  6
CONTINUOUS
 90
19
 70
0
 10
25.5360565048
 20
4.9977701896
 10
25.536568857
 20
4.9826435256
 10
25.5381133733
 20
4.9670175355
 10
25.5406942865
 20
4.9510031678
 10
25.544313867
 20
4.9346872895
 10
25.5489566462
 20
4.9182214098
 10
25.5545709713
 20
4.9018206074
 10
25.5610907963
 20
4.885653908
 10
25.5684784924
 20
4.8697991105
 10
25.5767054395
 20
4.8543349059
 10
25.5857304007
 20
4.8393534978
 10
25.5954717868
 20
4.8250062024
 10
25.6058312532
 20
4.8114530592
 10
25.6167441085
 20
4.7987742843
 10
25.6281036818
 20
4.7870917073
 10
25.6397254959
 20
4.7765834551
 10
25.6514771434
 20
4.7673248639
 10
25.6632911595
 20
4.7593183958
 10
25.6750740441
 20
4.7525878929
  0
LWPOLYLINE
  5
5E1
100
AcDbEntity
  8
SUPERFICI
100
AcDbPolyline
 62
7
  6
CONTINUOUS
 90
8
 70
0
 10
26.1487904238
 20
24.6246332089
 10
26.1485544766
 20
24.6569687515
 10
26.1328060817
 20
24.8859615886
 10
26.0928169077
 20
25.1169179048
 10
26.0291235745
 20
25.347591472
 10
25.9434705391
 20
25.5725648203
 10
25.8372841164
 20
25.7890952502
 10
25.8068056881
 20
25.8431246425
  0
LINE
  5
5E2
100
AcDbEntity
  8
RACCORDO
100
AcDbLine
 62
7
  6
CONTINUOUS
 10
23.4564609139
 20
2.2401862823
 11
23.4564609139
 21
-0.7626041217
  0
LINE
  5
5E3
100
AcDbEntity
  8
RACCORDO
100
AcDbLine
 62
7
  6
CONTINUOUS
 10
23.4564609139
 20
-2.0899407367
 11
23.4564609139
 21
-4.4641631285
  0
LINE
  5
5E4
100
AcDbEntity
  8
RACCORDO
100
AcDbLine
 62
250
  6
CONTINUOUS
 10
23.5443288796
 20
2.2853645882
 11
23.5443288796
 21
-0.717896576
  0
LINE
  5
5E5
100
AcDbEntity
  8
RACCORDO
100
AcDbLine
 62
250
  6
CONTINUOUS
 10
23.5443288796
 20
-2.0447624307
 11
23.5443288796
 21
-4.570229214
  0
LINE
  5
5E6
100
AcDbEntity
  8
RACCORDO
100
AcDbLine
 62
7
  6
CONTINUOUS
 10
23.8661973959
 20
-4.5270787118
 11
23.8661973959
 21
-1.8792701014
  0
LINE
  5
5E7
100
AcDbEntity
  8
RACCORDO
100
AcDbLine
 62
7
  6
CONTINUOUS
 10
23.8661973959
 20
-0.1969516929
 11
23.8661973959
 21
2.4508569176
  0
LINE
  5
5E8
100
AcDbEntity
  8
RACCORDO
100
AcDbLine
 62
250
  6
CONTINUOUS
 10
25.4258846571
 20
4.027057688
 11
25.4258846571
 21
7.3179542224
  0
LINE
  5
5E9
100
AcDbEntity
  8
RACCORDO
100
AcDbLine
 62
7
  6
CONTINUOUS
 10
25.4825025356
 20
4.0967741983
 11
25.4825025356
 21
7.3876707327
  0
LINE
  5
5EA
100
AcDbEntity
  8
RACCORDO
100
AcDbLine
 62
250
  6
CONTINUOUS
 10
25.5360565046
 20
7.5721899375
 11
25.5360565046
 21
4.9977701895
  0
LINE
  5
5EB
100
AcDbEntity
  8
RACCORDO
100
AcDbLine
 62
250
  6
CONTINUOUS
 10
25.5360565046
 20
3.3094338195
 11
25.5360565046
 21
0.6676431705
  0
LINE
  5
5EC
100
AcDbEntity
  8
RACCORDO
100
AcDbLine
 62
250
  6
CONTINUOUS
 10
25.5360565046
 20
-1.0206931994
 11
25.5360565046
 21
-3.6624838484
  0
LINE
  5
5ED
100
AcDbEntity
  8
RACCORDO
100
AcDbLine
 62
7
  6
CONTINUOUS
 10
25.5921885446
 20
7.6504158979
 11
25.5921885446
 21
5.0672360255
  0
LINE
  5
5EE
100
AcDbEntity
  8
RACCORDO
100
AcDbLine
 62
7
  6
CONTINUOUS
 10
25.5921885446
 20
3.3382947412
 11
25.5921885446
 21
0.7371090066
  0
LINE
  5
5EF
100
AcDbEntity
  8
RACCORDO
100
AcDbLine
 62
7
  6
CONTINUOUS
 10
25.5921885446
 20
-0.9918322777
 11
25.5921885446
 21
-3.5930180124
  0
LINE
  5
5F0
100
AcDbEntity
  8
0
100
AcDbLine
 62
250
  6
CONTINUOUS
 10
25.8681324622
 20
11.896942911
 11
25.8681324622
 21
24.2783565156
  0
LINE
  5
5F1
100
AcDbEntity
  8
RACCORDO
100
AcDbLine
 62
250
  6
CONTINUOUS
 10
26.0243736998
 20
-5.3343964644
 11
26.0243736998
 21
-4.6718866173
  0
LINE
  5
5F2
100
AcDbEntity
  8
RACCORDO
100
AcDbLine
 62
250
  6
CONTINUOUS
 10
26.0243736998
 20
-0.6881697599
 11
26.0243736998
 21
-0.3417595983
  0
LINE
  5
5F3
100
AcDbEntity
  8
RACCORDO
100
AcDbLine
 62
250
  6
CONTINUOUS
 10
26.0243736998
 20
3.6419572591
 11
26.0243736998
 21
3.9883674206
  0
LINE
  5
5F4
100
AcDbEntity
  8
RACCORDO
100
AcDbLine
 62
250
  6
CONTINUOUS
 10
26.0243736998
 20
7.972084278
 11
26.0243736998
 21
11.597836864
  0
LINE
  5
5F5
100
AcDbEntity
  8
SUPERFICI
100
AcDbLine
 62
7
  6
CONTINUOUS
 10
26.1487926619
 20
24.6256884502
 11
26.1487926619
 21
12.2442720962
  0
LINE
  5
5F6
100
AcDbEntity
  8
RACCORDO
100
AcDbLine
 62
7
  6
CONTINUOUS
 10
26.2508452137
 20
-5.0555304233
 11
26.2508452137
 21
-4.3930205761
  0
LINE
  5
5F7
100
AcDbEntity
  8
RACCORDO
100
AcDbLine
 62
7
  6
CONTINUOUS
 10
26.2508452137
 20
-0.4093037187
 11
26.2508452137
 21
-0.0628935572
  0
LINE
  5
5F8
100
AcDbEntity
  8
RACCORDO
100
AcDbLine
 62
7
  6
CONTINUOUS
 10
26.2508452137
 20
3.9208233002
 11
26.2508452137
 21
4.2672334617
  0
LINE
  5
5F9
100
AcDbEntity
  8
RACCORDO
100
AcDbLine
 62
7
  6
CONTINUOUS
 10
26.2508452137
 20
8.2509503191
 11
26.2508452137
 21
11.3922690955
  0
LWPOLYLINE
  5
5FA
100
AcDbEntity
  8
SUPERFICI
100
AcDbPolyline
 62
250
  6
CONTINUOUS
 90
28
 70
0
 10
26.1487904348
 20
24.6246332089
 10
26.1485918886
 20
24.615669638
 10
26.1476019549
 20
24.6012958477
 10
26.1457856031
 20
24.5869422399
 10
26.1431443359
 20
24.5726206908
 10
26.1396803389
 20
24.5583430502
 10
26.135396478
 20
24.5441211314
 10
26.1302962979
 20
24.5299667016
 10
26.1243840183
 20
24.5158914724
 10
26.1176645311
 20
24.5019070895
 10
26.1101433961
 20
24.4880251238
 10
26.1018268363
 20
24.4742570611
 10
26.0927217328
 20
24.4606142933
 10
26.0828356192
 20
24.4471081084
 10
26.0721766754
 20
24.4337496815
 10
26.0607537204
 20
24.4205500654
 10
26.0485762059
 20
24.4075201814
 10
26.0356542074
 20
24.3946708107
 10
26.0219984167
 20
24.3820125846
 10
26.0076201326
 20
24.3695559769
 10
25.9925312518
 20
24.357311294
 10
25.9767442588
 20
24.3452886672
 10
25.9602722159
 20
24.3334980442
 10
25.943128752
 20
24.3219491805
 10
25.9253280519
 20
24.3106516317
 10
25.9068848437
 20
24.2996147454
 10
25.8878143875
 20
24.2888476536
 10
25.8681324622
 20
24.278359265
  0
LWPOLYLINE
  5
5FB
100
AcDbEntity
  8
RACCORDO
100
AcDbPolyline
 62
7
  6
CONTINUOUS
 90
20
 70
0
 10
25.4825025341
 20
7.3876583057
 10
25.4830903345
 20
7.4046533503
 10
25.4848270189
 20
7.4223547136
 10
25.4878727923
 20
7.4416481197
 10
25.4923533083
 20
7.4623156286
 10
25.4982819342
 20
7.4838315375
 10
25.5056632115
 20
7.5058883472
 10
25.514466141
 20
7.5281810329
 10
25.5245192234
 20
7.5501738708
 10
25.5356667809
 20
7.5715299849
 10
25.5477560098
 20
7.5920017126
 10
25.5605297573
 20
7.6112290929
 10
25.5737583158
 20
7.6289849246
 10
25.5872064984
 20
7.6450964602
 10
25.6005536068
 20
7.6593474546
 10
25.6135491938
 20
7.671666004
 10
25.6259090895
 20
7.6819971108
 10
25.6372137524
 20
7.6902468983
 10
25.6472504292
 20
7.6965523492
 10
25.6528479568
 20
7.6996104814
  0
LWPOLYLINE
  5
5FC
100
AcDbEntity
  8
RACCORDO
100
AcDbPolyline
 62
250
  6
CONTINUOUS
 90
9
 70
0
 10
26.0243736998
 20
7.972084278
 10
26.0235882375
 20
7.9543613314
 10
26.0212404564
 20
7.9375963897
 10
26.0173560792
 20
7.9219731333
 10
26.011977664
 20
7.9076627337
 10
26.0051641379
 20
7.8948219787
 10
25.9969901511
 20
7.8835915544
 10
25.9875452598
 20
7.8740945035
 10
25.9770168729
 20
7.866495455
  0
LWPOLYLINE
  5
5FD
100
AcDbEntity
  8
RACCORDO
100
AcDbPolyline
 62
250
  6
CONTINUOUS
 90
9
 70
0
 10
26.0243736998
 20
3.6419572591
 10
26.0235882375
 20
3.6242343124
 10
26.0212404564
 20
3.6074693708
 10
26.0173560792
 20
3.5918461144
 10
26.011977664
 20
3.5775357148
 10
26.0051641379
 20
3.5646949598
 10
25.9969901511
 20
3.5534645355
 10
25.9875452598
 20
3.5439674846
 10
25.9770168729
 20
3.5363684361
  0
LWPOLYLINE
  5
5FE
100
AcDbEntity
  8
RACCORDO
100
AcDbPolyline
 62
250
  6
CONTINUOUS
 90
9
 70
0
 10
26.0243736998
 20
-0.6881697599
 10
26.0235882375
 20
-0.7058927065
 10
26.0212404564
 20
-0.7226576481
 10
26.0173560792
 20
-0.7382809045
 10
26.011977664
 20
-0.7525913041
 10
26.0051641379
 20
-0.7654320591
 10
25.9969901511
 20
-0.7766624835
 10
25.9875452598
 20
-0.7861595343
 10
25.9770168729
 20
-0.7937585829
  0
LWPOLYLINE
  5
5FF
100
AcDbEntity
  8
RACCORDO
100
AcDbPolyline
 62
250
  6
CONTINUOUS
 90
8
 70
0
 10
25.4825025356
 20
4.0967741983
 10
25.4823008505
 20
4.0922843941
 10
25.4802953772
 20
4.0819587349
 10
25.4761611639
 20
4.0717925266
 10
25.4699427051
 20
4.0618951829
 10
25.4617069268
 20
4.0523732237
 10
25.4515424662
 20
4.0433291286
 10
25.439558718
 20
4.0348602347
  0
LWPOLYLINE
  5
600
100
AcDbEntity
  8
RACCORDO
100
AcDbPolyline
 62
250
  6
CONTINUOUS
 90
10
 70
0
 10
26.2508452137
 20
4.2672334617
 10
26.2483178449
 20
4.2354631827
 10
26.2398480744
 20
4.2011379138
 10
26.2254797267
 20
4.1673067745
 10
26.2053202194
 20
4.134222686
 10
26.1795202647
 20
4.1021329847
 10
26.1482727431
 20
4.071277573
 10
26.111811261
 20
4.0418871259
 10
26.0704084041
 20
4.0141813658
 10
26.0243736998
 20
3.9883674206
  0
LWPOLYLINE
  5
601
100
AcDbEntity
  8
RACCORDO
100
AcDbPolyline
 62
250
  6
CONTINUOUS
 90
10
 70
0
 10
26.2508452137
 20
-0.0628935572
 10
26.2483178449
 20
-0.0946638362
 10
26.2398480744
 20
-0.1289891051
 10
26.2254797267
 20
-0.1628202444
 10
26.2053202194
 20
-0.1959043329
 10
26.1795202647
 20
-0.2279940342
 10
26.1482727431
 20
-0.2588494459
 10
26.111811261
 20
-0.288239893
 10
26.0704084041
 20
-0.3159456532
 10
26.0243736998
 20
-0.3417595983
  0
LWPOLYLINE
  5
602
100
AcDbEntity
  8
RACCORDO
100
AcDbPolyline
 62
250
  6
CONTINUOUS
 90
10
 70
0
 10
26.2508452137
 20
-4.3930205761
 10
26.2483178449
 20
-4.4247908551
 10
26.2398480744
 20
-4.459116124
 10
26.2254797267
 20
-4.4929472633
 10
26.2053202194
 20
-4.5260313518
 10
26.1795202647
 20
-4.5581210532
 10
26.1482727431
 20
-4.5889764648
 10
26.111811261
 20
-4.618366912
 10
26.0704084041
 20
-4.6460726721
 10
26.0243736998
 20
-4.6718866173
  0
LWPOLYLINE
  5
603
100
AcDbEntity
  8
RACCORDO
100
AcDbPolyline
 62
250
  6
CONTINUOUS
 90
7
 70
0
 10
25.5921885446
 20
5.0672360255
 10
25.5907330331
 20
5.0551935374
 10
25.5859629497
 20
5.0424798146
 10
25.5779504922
 20
5.0301803285
 10
25.5668297302
 20
5.0185008839
 10
25.5527867423
 20
5.0076369094
 10
25.5360565046
 20
4.9977701895
  0
LWPOLYLINE
  5
604
100
AcDbEntity
  8
RACCORDO
100
AcDbPolyline
 62
250
  6
CONTINUOUS
 90
7
 70
0
 10
25.5921885446
 20
0.7371090066
 10
25.5907330331
 20
0.7250665184
 10
25.5859629497
 20
0.7123527957
 10
25.5779504922
 20
0.7000533096
 10
25.5668297302
 20
0.688373865
 10
25.5527867423
 20
0.6775098905
 10
25.5360565046
 20
0.6676431705
  0
LWPOLYLINE
  5
605
100
AcDbEntity
  8
RACCORDO
100
AcDbPolyline
 62
250
  6
CONTINUOUS
 90
7
 70
0
 10
25.5921885446
 20
-3.5930180124
 10
25.5907330331
 20
-3.6050605005
 10
25.5859629497
 20
-3.6177742233
 10
25.5779504922
 20
-3.6300737094
 10
25.5668297302
 20
-3.6417531539
 10
25.5527867423
 20
-3.6526171284
 10
25.5360565046
 20
-3.6624838484
  0
LWPOLYLINE
  5
606
100
AcDbEntity
  8
RACCORDO
100
AcDbPolyline
 62
250
  6
CONTINUOUS
 90
4
 70
0
 10
25.435143449
 20
7.4112318988
 10
25.4300115925
 20
7.3796178014
 10
25.4269253285
 20
7.3485252426
 10
25.4258846571
 20
7.3179542224
  0
LWPOLYLINE
  5
607
100
AcDbEntity
  8
RACCORDO
100
AcDbPolyline
 62
7
  6
CONTINUOUS
 90
8
 70
0
 10
26.2167169725
 20
-5.3700564665
 10
26.2259631952
 20
-5.3255112249
 10
26.2337092957
 20
-5.2807021145
 10
26.2400438444
 20
-5.2351585897
 10
26.2449422007
 20
-5.1889274724
 10
26.2483842369
 20
-5.1420322432
 10
26.2503500175
 20
-5.0944851065
 10
26.2508452137
 20
-5.0555339078
  0
LWPOLYLINE
  5
608
100
AcDbEntity
  8
RACCORDO
100
AcDbPolyline
 62
250
  6
CONTINUOUS
 90
10
 70
0
 10
25.9936266229
 20
-5.6312897841
 10
26.0001209787
 20
-5.6004013323
 10
26.0058529894
 20
-5.5689384702
 10
26.0108187532
 20
-5.5369243192
 10
26.0150141226
 20
-5.5043895759
 10
26.018437479
 20
-5.471351147
 10
26.0210880251
 20
-5.4378110488
 10
26.0229628785
 20
-5.4037854545
 10
26.0240587852
 20
-5.3693057605
 10
26.0243736998
 20
-5.3343964644
  0
LINE
  5
609
100
AcDbEntity
  8
RACCORDO
100
AcDbLine
 62
7
  6
CONTINUOUS
 10
26.2165462358
 20
-5.370809948
 11
26.2167169725
 21
-5.3700564665
  0
LWPOLYLINE
  5
60A
100
AcDbEntity
  8
RACCORDO
100
AcDbPolyline
 62
250
  6
CONTINUOUS
 90
13
 70
0
 10
25.8754394824
 20
-5.8741958755
 10
25.8897695115
 20
-5.8550710599
 10
25.9031881948
 20
-5.8359630933
 10
25.9156913197
 20
-5.8168742129
 10
25.9271849881
 20
-5.7979211997
 10
25.937757672
 20
-5.7789949681
 10
25.9476658217
 20
-5.7597466241
 10
25.9569243602
 20
-5.7402176165
 10
25.9654860741
 20
-5.7203502746
 10
25.9734741055
 20
-5.6996111829
 10
25.9808853993
 20
-5.6777901511
 10
25.9876202244
 20
-5.6550269753
 10
25.9936266229
 20
-5.6312897841
  0
LINE
  5
60B
100
AcDbEntity
  8
ASSI
100
AcDbLine
 62
250
  6
CONTINUOUS
 10
-7.5806346221
 20
-30.2397253057
 11
-5.1765813451
 21
-29.1741777555
  0
LINE
  5
60C
100
AcDbEntity
  8
ASSI
100
AcDbLine
 62
7
  6
CONTINUOUS
 10
-7.7222065055
 20
-30.5154933515
 11
-5.3143355515
 21
-29.4482536939
  0
LWPOLYLINE
  5
60D
100
AcDbEntity
  8
ASSI
100
AcDbPolyline
 62
250
  6
CONTINUOUS
 90
16
 70
0
 10
-7.5806346221
 20
-30.2397253057
 10
-7.619861595
 20
-30.2565011879
 10
-7.6623385635
 20
-30.2711654896
 10
-7.707612787
 20
-30.2835619413
 10
-7.7552071807
 20
-30.2935594307
 10
-7.8046094231
 20
-30.3010498825
 10
-7.8552756229
 20
-30.3059522609
 10
-7.9066539013
 20
-30.3082168019
 10
-7.9582078613
 20
-30.3078234448
 10
-8.0094050863
 20
-30.3047777329
 10
-8.059770124
 20
-30.2991026512
 10
-8.1086947363
 20
-30.290861339
 10
-8.1554812781
 20
-30.2801877333
 10
-8.199605044
 20
-30.2672409559
 10
-8.2406966419
 20
-30.2521707968
 10
-8.2783653006
 20
-30.2351584082
  0
LWPOLYLINE
  5
60E
100
AcDbEntity
  8
ASSI
100
AcDbPolyline
 62
250
  6
CONTINUOUS
 90
6
 70
0
 10
-11.7975110027
 20
21.1443163381
 10
-11.7829354422
 20
21.1480694633
 10
-11.7673533109
 20
21.1489741856
 10
-11.751002468
 20
21.1470166512
 10
-11.7341324946
 20
21.1422266991
 10
-11.7170009123
 20
21.1346774062
  0
LWPOLYLINE
  5
60F
100
AcDbEntity
  8
ASSI
100
AcDbPolyline
 62
7
  6
CONTINUOUS
 90
6
 70
0
 10
-6.2397184708
 20
22.6034149038
 10
-6.2502029307
 20
22.6014166278
 10
-6.27569716
 20
22.5952631383
 10
-6.3013650242
 20
22.5872131931
 10
-6.3271011501
 20
22.5772582776
 10
-6.3472676124
 20
22.5681197243
  0
LINE
  5
610
100
AcDbEntity
  8
RACCORDO
100
AcDbLine
 62
7
  6
CONTINUOUS
 10
26.0243736998
 20
11.597836864
 11
25.87716572
 21
11.7065962376
  0
LINE
  5
611
100
AcDbEntity
  8
0
100
AcDbLine
 62
7
  6
CONTINUOUS
 10
17.5215449546
 20
21.6743433891
 11
17.4260851312
 21
21.8389872298
  0
LINE
  5
612
100
AcDbEntity
  8
RACCORDO
100
AcDbLine
 62
7
  6
CONTINUOUS
 10
17.0823894486
 20
21.7017052091
 11
16.9255709556
 21
21.99093349
  0
LINE
  5
613
100
AcDbEntity
  8
RACCORDO
100
AcDbLine
 62
7
  6
CONTINUOUS
 10
17.2371645945
 20
21.4112706716
 11
17.0823894486
 21
21.7017052091
  0
LINE
  5
614
100
AcDbEntity
  8
RACCORDO
100
AcDbLine
 62
7
  6
CONTINUOUS
 10
17.3898894554
 20
21.1196430606
 11
17.2371645945
 21
21.4112706716
  0
LWPOLYLINE
  5
615
100
AcDbEntity
  8
RACCORDO
100
AcDbPolyline
 62
7
  6
CONTINUOUS
 90
3
 70
0
 10
17.6150821634
 20
20.6800602086
 10
17.5405362802
 20
20.8268751084
 10
17.3898894554
 20
21.1196430606
  0
LWPOLYLINE
  5
616
100
AcDbEntity
  8
RACCORDO
100
AcDbPolyline
 62
7
  6
CONTINUOUS
 90
8
 70
0
 10
25.4904701428
 20
4.0471661796
 10
25.4897558759
 20
4.0486432901
 10
25.4882180167
 20
4.0526647449
 10
25.486354039
 20
4.0592116147
 10
25.484597126
 20
4.068045683
 10
25.4832483023
 20
4.0790266914
 10
25.4825533203
 20
4.0919994353
 10
25.4825025342
 20
4.0967860621
  0
LWPOLYLINE
  5
617
100
AcDbEntity
  8
RACCORDO
100
AcDbPolyline
 62
7
  6
CONTINUOUS
 90
13
 70
0
 10
17.6150821634
 20
20.6800602086
 10
17.6527615673
 20
20.6021325809
 10
17.6874400572
 20
20.5234536124
 10
17.7191176331
 20
20.4440233033
 10
17.7479032099
 20
20.3635244725
 10
17.7736878727
 20
20.282274301
 10
17.7961448764
 20
20.2012243319
 10
17.8152169232
 20
20.1203805128
 10
17.8309613108
 20
20.0397368961
 10
17.8432231883
 20
19.9602271823
 10
17.8519509386
 20
19.882162605
 10
17.8571961787
 20
19.8052319305
 10
17.8589589086
 20
19.7294351591
  0
LWPOLYLINE
  5
618
100
AcDbEntity
  8
RACCORDO
100
AcDbPolyline
 62
7
  6
CONTINUOUS
 90
7
 70
0
 10
14.3361570087
 20
31.7781311591
 10
14.3224033426
 20
31.812173377
 10
14.2999543606
 20
31.8542236069
 10
14.2737480192
 20
31.891756121
 10
14.2438668759
 20
31.9248701836
 10
14.2109772458
 20
31.9528273891
 10
14.1750115408
 20
31.9755118844
  0
LWPOLYLINE
  5
619
100
AcDbEntity
  8
0
100
AcDbPolyline
 62
7
  6
CONTINUOUS
 90
6
 70
0
 10
14.3042104766
 20
31.7143380529
 10
14.272874899
 20
31.7099215842
 10
14.2407541312
 20
31.7032625204
 10
14.2078481731
 20
31.6943608616
 10
14.1741570247
 20
31.6832166078
 10
14.1396806861
 20
31.6698297589
  0
LINE
  5
61A
100
AcDbEntity
  8
RACCORDO
100
AcDbLine
 62
7
  6
CONTINUOUS
 10
16.5096551495
 20
22.4221135408
 11
5.8896397805
 21
27.7321212253
  0
LINE
  5
61B
100
AcDbEntity
  8
0
100
AcDbLine
 62
7
  6
CONTINUOUS
 10
16.9261612837
 20
22.3425634891
 11
9.9201484333
 21
25.8455699143
  0
LINE
  5
61C
100
AcDbEntity
  8
0
100
AcDbLine
 62
7
  6
CONTINUOUS
 10
10.4504785192
 20
27.0278449734
 11
11.3992078697
 21
26.5534802981
  0
LINE
  5
61D
100
AcDbEntity
  8
0
100
AcDbLine
 62
7
  6
CONTINUOUS
 10
12.988825639
 20
27.3143063321
 11
12.0061134378
 21
27.8056624327
  0
LWPOLYLINE
  5
61E
100
AcDbEntity
  8
RACCORDO
100
AcDbPolyline
 62
7
  6
CONTINUOUS
 90
13
 70
0
 10
16.5096551495
 20
22.4221135408
 10
16.5485370226
 20
22.4010538223
 10
16.5870069096
 20
22.3769618833
 10
16.6250648105
 20
22.3498377239
 10
16.6629373351
 20
22.3194964224
 10
16.7003978735
 20
22.2861229003
 10
16.7367665966
 20
22.2502719232
 10
16.7720065316
 20
22.2118808402
 10
16.8061546511
 20
22.1710123022
 10
16.8386420444
 20
22.1284090263
 10
16.8692790744
 20
22.0843185853
 10
16.8982553782
 20
22.0384934065
 10
16.9255709556
 20
21.99093349
  0
LWPOLYLINE
  5
61F
100
AcDbEntity
  8
0
100
AcDbPolyline
 62
7
  6
CONTINUOUS
 90
3
 70
0
 10
13.950657086
 20
31.8911147482
 10
14.0438795237
 20
31.8923420947
 10
14.1285452311
 20
31.8763692235
  0
LWPOLYLINE
  5
620
100
AcDbEntity
  8
SUPERFICI
100
AcDbPolyline
 62
250
  6
CONTINUOUS
 90
26
 70
0
 10
25.3752813493
 20
26.2585679711
 10
25.3687369546
 20
26.26174338
 10
25.3534892318
 20
26.268549194
 10
25.337926137
 20
26.2746831145
 10
25.3220592276
 20
26.2801405862
 10
25.3059002863
 20
26.2849175565
 10
25.289461313
 20
26.2890104778
 10
25.2727545156
 20
26.2924163107
 10
25.2557923012
 20
26.295132526
 10
25.2385872656
 20
26.2971571066
 10
25.2211521848
 20
26.2984885492
 10
25.2035000054
 20
26.2991258649
 10
25.1856438368
 20
26.2990685804
 10
25.1675969409
 20
26.2983167383
 10
25.1493727206
 20
26.2968708972
 10
25.1309847084
 20
26.2947321309
 10
25.1124465578
 20
26.2919020276
 10
25.0937720331
 20
26.2883826884
 10
25.0749750043
 20
26.2841767271
 10
25.0560694357
 20
26.2792872686
 10
25.0370693431
 20
26.2737179371
 10
25.0179888597
 20
26.2674728747
 10
24.9988422308
 20
26.2605567482
 10
24.979643701
 20
26.2529747127
 10
24.9604075022
 20
26.2447323982
 10
24.9411479195
 20
26.2358359338
  0
LINE
  5
621
100
AcDbEntity
  8
0
100
AcDbLine
 62
7
  6
CONTINUOUS
 10
13.9860124251
 20
28.7956119263
 11
15.0119755272
 21
28.2826303753
  0
LINE
  5
622
100
AcDbEntity
  8
0
100
AcDbLine
 62
7
  6
CONTINUOUS
 10
12.8138961044
 20
29.8925366958
 11
12.9960629314
 21
29.8014532823
  0
LINE
  5
623
100
AcDbEntity
  8
0
100
AcDbLine
 62
7
  6
CONTINUOUS
 10
13.349616322
 20
29.8916274372
 11
15.8067844118
 21
28.6630433923
  0
LINE
  5
624
100
AcDbEntity
  8
0
100
AcDbLine
 62
7
  6
CONTINUOUS
 10
16.2826753952
 20
28.890815286
 11
13.4556823392
 21
30.304311814
  0
LINE
  5
625
100
AcDbEntity
  8
0
100
AcDbLine
 62
7
  6
CONTINUOUS
 10
13.4556823392
 20
31.3437006025
 11
17.3447696357
 21
29.3991569542
  0
LINE
  5
626
100
AcDbEntity
  8
0
100
AcDbLine
 62
250
  6
CONTINUOUS
 10
24.9411479195
 20
26.2358359338
 11
14.1044191572
 21
31.654200315
  0
LINE
  5
627
100
AcDbEntity
  8
DRAFT
100
AcDbLine
 62
7
  6
CONTINUOUS
 10
13.8092357298
 20
31.9570476268
 11
14.0905904399
 21
31.8163702718
  0
LINE
  5
628
100
AcDbEntity
  8
0
100
AcDbLine
 62
7
  6
CONTINUOUS
 10
13.950657086
 20
31.8911147482
 11
14.3042104766
 21
31.7143380529
  0
LINE
  5
629
100
AcDbEntity
  8
RACCORDO
100
AcDbLine
 62
250
  6
CONTINUOUS
 10
13.8141722037
 20
31.9594631018
 11
12.4771644254
 21
32.627966991
  0
LWPOLYLINE
  5
62A
100
AcDbEntity
  8
SUPERFICI
100
AcDbPolyline
 62
250
  6
CONTINUOUS
 90
19
 70
0
 10
24.9411479195
 20
26.2358359338
 10
24.9597826749
 20
26.2263486346
 10
24.9783965803
 20
26.2162702321
 10
24.9969768822
 20
26.2056075957
 10
25.0155109726
 20
26.1943679212
 10
25.0339860259
 20
26.1825589425
 10
25.0523890121
 20
26.1701889644
 10
25.0707071987
 20
26.1572665475
 10
25.0889281597
 20
26.1438004675
 10
25.1070394153
 20
26.1297999529
 10
25.1250285586
 20
26.1152745969
 10
25.1428832624
 20
26.1002343508
 10
25.1605912922
 20
26.0846895186
 10
25.1781405149
 20
26.0686507506
 10
25.1955189073
 20
26.0521290361
 10
25.2127145628
 20
26.0351356949
 10
25.2297157002
 20
26.0176823703
 10
25.2465106708
 20
25.9997810201
 10
25.2630879673
 20
25.9814439093
  0
LWPOLYLINE
  5
62B
100
AcDbEntity
  8
SUPERFICI
100
AcDbPolyline
 62
250
  6
CONTINUOUS
 90
9
 70
0
 10
25.523088437
 20
25.5852933555
 10
25.5449172782
 20
25.5430070863
 10
25.566121465
 20
25.5004012321
 10
25.5866889405
 20
25.4575002461
 10
25.6066079912
 20
25.4143284724
 10
25.6258673184
 20
25.3709102604
 10
25.6444560605
 20
25.3272703113
 10
25.6623636546
 20
25.2834333754
 10
25.6795799422
 20
25.2394242052
  0
LWPOLYLINE
  5
62C
100
AcDbEntity
  8
SUPERFICI
100
AcDbPolyline
 62
250
  6
CONTINUOUS
 90
23
 70
0
 10
25.6795799422
 20
25.2394242052
 10
25.6960952528
 20
25.1952676756
 10
25.7119002345
 20
25.1509887595
 10
25.7269858986
 20
25.1066125398
 10
25.7413437256
 20
25.0621641629
 10
25.7549655905
 20
25.0176687967
 10
25.7678437619
 20
24.9731516301
 10
25.7799709437
 20
24.9286378842
 10
25.7913402856
 20
24.8841527758
 10
25.8019453468
 20
24.8397214889
 10
25.8117800962
 20
24.7953691746
 10
25.8208389898
 20
24.7511209865
 10
25.8291169133
 20
24.7070019587
 10
25.8366091418
 20
24.663036978
 10
25.8433114793
 20
24.6192509125
 10
25.849220139
 20
24.5756686158
 10
25.8543316867
 20
24.5323148043
 10
25.8586432857
 20
24.489214009
 10
25.862152525
 20
24.4463906972
 10
25.8648573106
 20
24.4038692724
 10
25.8667561264
 20
24.3616738771
 10
25.8678480219
 20
24.3198283835
 10
25.8681324536
 20
24.2783565112
  0
LINE
  5
62D
100
AcDbEntity
  8
0
100
AcDbLine
 62
7
  6
CONTINUOUS
 10
14.1285452311
 20
31.8763692235
 11
14.1857828694
 21
31.853428516
  0
LWPOLYLINE
  5
62E
100
AcDbEntity
  8
RACCORDO
100
AcDbPolyline
 62
7
  6
CONTINUOUS
 90
8
 70
0
 10
14.1669711069
 20
31.9796716105
 10
14.1360373491
 20
31.9930395226
 10
14.0949237503
 20
32.0050194574
 10
14.051622681
 20
32.0113270552
 10
14.0061822046
 20
32.0120869496
 10
13.9596155917
 20
32.007282196
 10
13.912260599
 20
31.996907146
 10
13.8637794696
 20
31.980967448
  0
LWPOLYLINE
  5
62F
100
AcDbEntity
  8
RACCORDO
100
AcDbPolyline
 62
250
  6
CONTINUOUS
 90
11
 70
0
 10
12.4771644269
 20
32.6279669903
 10
12.4386937142
 20
32.6459728855
 10
12.4003816201
 20
32.6606041659
 10
12.3624094087
 20
32.671791597
 10
12.3249567147
 20
32.6794822413
 10
12.2882007611
 20
32.6836396939
 10
12.2523155163
 20
32.6842442758
 10
12.2174707782
 20
32.6812931374
 10
12.1838313843
 20
32.6748002508
 10
12.1515564953
 20
32.6647963464
 10
12.126865053
 20
32.6543172202
  0
LINE
  5
630
100
AcDbEntity
  8
SUPERFICI
100
AcDbLine
 62
250
  6
CONTINUOUS
 10
25.3760208001
 20
26.2581992634
 11
25.3752813493
 21
26.2585679711
  0
LINE
  5
631
100
AcDbEntity
  8
SUPERFICI
100
AcDbLine
 62
7
  6
CONTINUOUS
 10
14.1857386472
 20
31.8533403399
 11
25.3760208001
 21
26.2581992634
  0
LINE
  5
632
100
AcDbEntity
  8
RACCORDO
100
AcDbLine
 62
7
  6
CONTINUOUS
 10
14.1670066062
 20
31.9797426751
 11
12.8299988278
 21
32.6482465643
  0
LINE
  5
633
100
AcDbEntity
  8
RACCORDO
100
AcDbLine
 62
7
  6
CONTINUOUS
 10
14.1750115408
 20
31.9755118844
 11
14.1669711069
 21
31.9796716105
  0
LWPOLYLINE
  5
634
100
AcDbEntity
  8
SUPERFICI
100
AcDbPolyline
 62
250
  6
CONTINUOUS
 90
13
 70
0
 10
25.2630879673
 20
25.9814439093
 10
25.2794362312
 20
25.9626836013
 10
25.2955442622
 20
25.9435129499
 10
25.3114010249
 20
25.9239450905
 10
25.3269956568
 20
25.9039934307
 10
25.3423174717
 20
25.8836716397
 10
25.3573559678
 20
25.8629936388
 10
25.3721009629
 20
25.841973414
 10
25.3865422279
 20
25.8206255432
 10
25.400669516
 20
25.7989652125
 10
25.4144730578
 20
25.7770074741
 10
25.4279435422
 20
25.7547672092
 10
25.4410717671
 20
25.7322596745
  0
LWPOLYLINE
  5
635
100
AcDbEntity
  8
SUPERFICI
100
AcDbPolyline
 62
250
  6
CONTINUOUS
 90
29
 70
0
 10
25.8065144404
 20
25.8429626083
 10
25.8050230482
 20
25.8447054766
 10
25.8028012982
 20
25.8460594277
 10
25.7998710634
 20
25.8469885759
 10
25.7962271822
 20
25.8475063246
 10
25.7918759579
 20
25.8476058064
 10
25.7868249212
 20
25.8472796002
 10
25.7810715755
 20
25.8465413029
 10
25.7746233106
 20
25.8453855931
 10
25.7674889486
 20
25.8438064236
 10
25.7596690239
 20
25.8418175937
 10
25.7511717691
 20
25.8394153148
 10
25.7420070586
 20
25.8365948941
 10
25.7321788163
 20
25.8333703534
 10
25.7216958785
 20
25.8297394079
 10
25.7105689129
 20
25.8256986851
 10
25.6988055494
 20
25.8212624507
 10
25.6864150146
 20
25.8164298866
 10
25.67340851
 20
25.8111988965
 10
25.6597976043
 20
25.8055839989
 10
25.6455917505
 20
25.7995858057
 10
25.6308024421
 20
25.7932034515
 10
25.6154452987
 20
25.7864516852
 10
25.5995299007
 20
25.7793325229
 10
25.5830678336
 20
25.7718462929
 10
25.5660787255
 20
25.7640079025
 10
25.5485722609
 20
25.7558207647
 10
25.5305599773
 20
25.7472863838
 10
25.4931034025
 20
25.7292288511
  0
LWPOLYLINE
  5
636
100
AcDbEntity
  8
SUPERFICI
100
AcDbPolyline
 62
250
  6
CONTINUOUS
 90
4
 70
0
 10
25.4539800161
 20
25.7099962143
 10
25.4776068563
 20
25.6688114667
 10
25.5006473701
 20
25.6272360134
 10
25.523088437
 20
25.5852933555
  0
LINE
  5
637
100
AcDbEntity
  8
SUPERFICI
100
AcDbLine
 62
7
  6
CONTINUOUS
 10
25.8066548188
 20
25.8427108869
 11
25.8065144404
 21
25.8429626083
  0
ARC
  5
638
100
AcDbEntity
  8
SUPERFICI
100
AcDbCircle
 62
7
  6
CONTINUOUS
 10
24.9288072046
 20
25.3637720724
 40
1.0
100
AcDbArc
 50
28.6161356432
 51
63.4822909791
  0
ARC
  5
639
100
AcDbEntity
  8
RACCORDO
100
AcDbCircle
 62
7
  6
CONTINUOUS
 10
23.8276065646
 20
-6.415291001
 40
0.8
100
AcDbArc
 50
297.5437104208
 51
303.812396281
  0
ARC
  5
63A
100
AcDbEntity
  8
RACCORDO
100
AcDbCircle
 62
7
  6
CONTINUOUS
 10
12.4722279514
 20
31.9327048115
 40
0.8
100
AcDbArc
 50
63.4245855671
 51
115.5757250132
  0
ARC
  5
63B
100
AcDbEntity
  8
ASSI
100
AcDbCircle
 62
7
  6
CONTINUOUS
 10
-7.92481191
 20
-30.0583817129
 40
0.5
100
AcDbArc
 50
243.4349488232
 51
293.9003527719
  0
ARC
  5
63C
100
AcDbEntity
  8
ASSI
100
AcDbCircle
 62
7
  6
CONTINUOUS
 10
-22.7930260783
 20
-22.6242746288
 40
0.5
100
AcDbArc
 50
179.9852996537
 51
243.4349488226
  0
ARC
  5
63D
100
AcDbEntity
  8
ASSI
100
AcDbCircle
 62
7
  6
CONTINUOUS
 10
-22.7930260783
 20
22.0858717765
 40
0.5
100
AcDbArc
 50
119.2271404674
 51
179.9908923337
  0
ARC
  5
63E
100
AcDbEntity
  8
RACCORDO
100
AcDbCircle
 62
7
  6
CONTINUOUS
 10
1.7429048649
 20
19.6127932955
 40
0.25
100
AcDbArc
 50
0.0082511587
 51
63.4618940814
  0
ARC
  5
63F
100
AcDbEntity
  8
RACCORDO
100
AcDbCircle
 62
7
  6
CONTINUOUS
 10
-5.0957104212
 20
23.0321009385
 40
0.25
100
AcDbArc
 50
63.4283518951
 51
114.7890578208
  0
ARC
  5
640
100
AcDbEntity
  8
ASSI
100
AcDbCircle
 62
7
  6
CONTINUOUS
 10
-4.6085290866
 20
20.4300452263
 40
0.25
100
AcDbArc
 50
118.3478796387
 51
141.057511609
  0
ARC
  5
641
100
AcDbEntity
  8
RACCORDO
100
AcDbCircle
 62
7
  6
CONTINUOUS
 10
-0.9577579465
 20
16.1544459838
 40
0.2
100
AcDbArc
 50
305.8790977292
 51
32.181597586
  0
ARC
  5
642
100
AcDbEntity
  8
RACCORDO
100
AcDbCircle
 62
7
  6
CONTINUOUS
 10
-0.9577579465
 20
-20.2847620132
 40
0.2
100
AcDbArc
 50
300.5144027341
 51
320.9170524875
  0
ARC
  5
643
100
AcDbEntity
  8
ASSI
100
AcDbCircle
 62
7
  6
CONTINUOUS
 10
-11.8582613523
 20
20.8932746125
 40
0.2
100
AcDbArc
 50
115.6936524112
 51
155.2466220431
  0
ARC
  5
644
100
AcDbEntity
  8
ASSI
100
AcDbCircle
 62
7
  6
CONTINUOUS
 10
-16.0437875623
 20
21.5845777499
 40
0.2
100
AcDbArc
 50
63.4349488229
 51
114.8137355373
  0
ARC
  5
645
100
AcDbEntity
  8
ASSI
100
AcDbCircle
 62
7
  6
CONTINUOUS
 10
-5.3402409143
 20
15.8410783485
 40
0.2
100
AcDbArc
 50
324.1123035724
 51
0.0081586435
  0
ARC
  5
646
100
AcDbEntity
  8
ASSI
100
AcDbCircle
 62
7
  6
CONTINUOUS
 10
-5.3402409143
 20
16.2328044259
 40
0.2
100
AcDbArc
 50
0.0072930109
 51
63.4349488229
  0
ARC
  5
647
100
AcDbEntity
  8
ASSI
100
AcDbCircle
 62
7
  6
CONTINUOUS
 10
-14.5165836965
 20
20.820975817
 40
0.2
100
AcDbArc
 50
359.9941168134
 51
63.4349488229
  0
ARC
  5
648
100
AcDbEntity
  8
ASSI
100
AcDbCircle
 62
7
  6
CONTINUOUS
 10
-14.5165836965
 20
20.4292497396
 40
0.2
100
AcDbArc
 50
314.1750327486
 51
0.0090638081
  0
ARC
  5
649
100
AcDbEntity
  8
ASSI
100
AcDbCircle
 62
7
  6
CONTINUOUS
 10
-6.8674447801
 20
16.9964063588
 40
0.2
100
AcDbArc
 50
63.4349488229
 51
114.8137355373
  0
ELLIPSE
  5
64A
100
AcDbEntity
  8
0
100
AcDbEllipse
 62
7
  6
CONTINUOUS
 10
16.9260720588
 20
21.4764507779
 30
0.0
 11
-0.447101003
 21
0.8945282396
 31
0.0
 40
0.6124326778
 41
4.8132948115
 42
5.5985668031
  0
ELLIPSE
  5
64B
100
AcDbEntity
  8
0
100
AcDbEllipse
 62
7
  6
CONTINUOUS
 10
16.5212664435
 20
20.9497057524
 30
0.0
 11
-0.894612936
 21
1.7887945813
 31
0.0
 40
0.6124635976
 41
-2.2555607096
 42
-1.470288718
  0
ELLIPSE
  5
64C
100
AcDbEntity
  8
ASSI
100
AcDbEllipse
 62
7
  6
CONTINUOUS
 10
-5.5302559311
 20
-28.9970436464
 30
0.0
 11
-0.2238185272
 21
0.4474870472
 31
0.0
 40
0.6119614214
 41
-3.1701060238
 42
-2.2560086979
  0
ELLIPSE
  5
64D
100
AcDbEntity
  8
ASSI
100
AcDbEllipse
 62
7
  6
CONTINUOUS
 10
-5.5302559311
 20
15.8627754027
 30
0.0
 11
-0.2235482059
 21
0.4472467618
 31
0.0
 40
0.6127837007
 41
-2.2550219623
 42
-0.6849108682
  0
ELLIPSE
  5
64E
100
AcDbEntity
  8
ASSI
100
AcDbEllipse
 62
7
  6
CONTINUOUS
 10
-4.4325084709
 20
10.8697095483
 30
0.0
 11
0.150268454
 21
0.231072996
 31
0.0
 40
0.5711725108
 41
-1.4886474558
 42
-0.7207027064
  0
ELLIPSE
  5
64F
100
AcDbEntity
  8
ASSI
100
AcDbEllipse
 62
7
  6
CONTINUOUS
 10
-20.5206773014
 20
23.3579860878
 30
0.0
 11
-0.2238185272
 21
0.4474870472
 31
0.0
 40
0.6119614214
 41
-0.6845271385
 42
0.0285130426
  0
ELLIPSE
  5
650
100
AcDbEntity
  8
ASSI
100
AcDbEllipse
 62
7
  6
CONTINUOUS
 10
-4.7929045591
 20
10.300967095
 30
0.0
 11
0.1304891768
 21
0.2701542511
 31
0.0
 40
0.6016116119
 41
-2.4476494678
 42
-1.7026672506
  0
ELLIPSE
  5
651
100
AcDbEntity
  8
ASSI
100
AcDbEllipse
 62
7
  6
CONTINUOUS
 10
-5.3849166115
 20
-23.0596115237
 30
0.0
 11
0.303263348
 21
0.183220203
 31
0.0
 40
0.091398456
 41
0.618067063
 42
0.7249729241
  0
ELLIPSE
  5
652
100
AcDbEntity
  8
ASSI
100
AcDbEllipse
 62
7
  6
CONTINUOUS
 10
-4.4325084709
 20
-23.263247621
 30
0.0
 11
0.1998622272
 21
-0.1175245122
 31
0.0
 40
0.0631551132
 41
0.0371200148
 42
0.8050647641
  0
ELLIPSE
  5
653
100
AcDbEntity
  8
ASSI
100
AcDbEllipse
 62
7
  6
CONTINUOUS
 10
-4.7929045591
 20
-23.3556175499
 30
0.0
 11
0.1304891768
 21
0.2701542511
 31
0.0
 40
0.6016116119
 41
-0.0082292955
 42
0.6590366007
  0
ELLIPSE
  5
654
100
AcDbEntity
  8
RACCORDO
100
AcDbEllipse
 62
7
  6
CONTINUOUS
 10
-116.3280637324
 20
-58.0037646658
 30
0.0
 11
403.1237577108
 21
236.1544104949
 31
0.0
 40
0.0037537053
 41
1.2875868959
 42
1.2892537279
  0
ELLIPSE
  5
655
100
AcDbEntity
  8
RACCORDO
100
AcDbEllipse
 62
7
  6
CONTINUOUS
 10
-116.3280637324
 20
-45.3553636312
 30
0.0
 11
402.9210084041
 21
197.8305476699
 31
0.0
 40
0.0647750161
 41
-1.3232459135
 42
-1.3215790816
  0
ELLIPSE
  5
656
100
AcDbEntity
  8
0
100
AcDbEllipse
 62
7
  6
CONTINUOUS
 10
-3.0328911745
 20
22.7301589307
 30
0.0
 11
-0.0973681731
 21
0.1899778873
 31
0.0
 40
0.5739749911
 41
-0.6633014
 42
-0.2646931906
  0
ELLIPSE
  5
657
100
AcDbEntity
  8
0
100
AcDbEllipse
 62
7
  6
CONTINUOUS
 10
0.0336390087
 20
21.1968938391
 30
0.0
 11
-0.0865368306
 21
0.1805220572
 31
0.0
 40
0.6526782533
 41
-2.1175651693
 42
-0.6990828219
  0
ELLIPSE
  5
658
100
AcDbEntity
  8
ASSI
100
AcDbEllipse
 62
7
  6
CONTINUOUS
 10
-5.1204036178
 20
17.1519988855
 30
0.0
 11
0.9999120187
 21
-0.0277313726
 31
0.0
 40
0.4783317971
 41
5.5983187927
 42
7.0818486569
  0
ELLIPSE
  5
659
100
AcDbEntity
  8
0
100
AcDbEllipse
 62
7
  6
CONTINUOUS
 10
-993.7653182441
 20
-466.8252409935
 30
0.0
 11
1091.3929552794
 21
509.4061731063
 31
0.0
 40
0.0293956777
 41
-0.4514421731
 42
-0.450983444
  0
ELLIPSE
  5
65A
100
AcDbEntity
  8
ASSI
100
AcDbEllipse
 62
7
  6
CONTINUOUS
 10
-1.1124572739
 20
20.1334244854
 30
0.0
 11
0.5013208113
 21
-0.008265139
 31
0.0
 40
0.4884625396
 41
-0.7587485952
 42
-0.4993376225
  0
ELLIPSE
  5
65B
100
AcDbEntity
  8
ASSI
100
AcDbEllipse
 62
7
  6
CONTINUOUS
 10
-5.0850327103
 20
16.4844629403
 30
0.0
 11
-0.0893486075
 21
0.1789386858
 31
0.0
 40
0.6140178746
 41
-1.8027266035
 42
-0.6854829304
  0
ELLIPSE
  5
65C
100
AcDbEntity
  8
ASSI
100
AcDbEllipse
 62
7
  6
CONTINUOUS
 10
-5.9045260829
 20
16.8942096266
 30
0.0
 11
-0.0897812751
 21
0.1793232728
 31
0.0
 40
0.610731003
 41
-0.6839490949
 42
0.0569061322
  0
ELLIPSE
  5
65D
100
AcDbEntity
  8
RACCORDO
100
AcDbEllipse
 62
7
  6
CONTINUOUS
 10
0.0943503896
 20
20.4370705331
 30
0.0
 11
0.0551282808
 21
0.250097574
 31
0.0
 40
0.4587724052
 41
-0.1150177496
 42
0.5522481753
  0
ELLIPSE
  5
65E
100
AcDbEntity
  8
RACCORDO
100
AcDbEllipse
 62
7
  6
CONTINUOUS
 10
2.0116698528
 20
19.2746423943
 30
0.0
 11
0.1235365013
 21
0.2735541167
 31
0.0
 40
0.5796795686
 41
-0.0228852415
 42
0.6094740628
  0
ELLIPSE
  5
65F
100
AcDbEntity
  8
DRAFT
100
AcDbEllipse
 62
7
  6
CONTINUOUS
 10
21.2798667913
 20
-4.381536928
 30
0.0
 11
0.9261626287
 21
1.8847694129
 31
0.0
 40
0.607010042
 41
-2.8703696613
 42
-2.4610674593
  0
ELLIPSE
  5
660
100
AcDbEntity
  8
DRAFT
100
AcDbEllipse
 62
7
  6
CONTINUOUS
 10
21.2798667913
 20
-0.0514099091
 30
0.0
 11
0.9261626287
 21
1.8847694129
 31
0.0
 40
0.607010042
 41
-2.8703696613
 42
-2.4610674593
  0
ELLIPSE
  5
661
100
AcDbEntity
  8
ASSI
100
AcDbEllipse
 62
7
  6
CONTINUOUS
 10
-3.8684068718
 20
20.8293581409
 30
0.0
 11
-0.1118504554
 21
0.2236675568
 31
0.0
 40
0.6121897086
 41
-0.6846338794
 42
0.019016077
  0
ELLIPSE
  5
662
100
AcDbEntity
  8
DRAFT
100
AcDbEllipse
 62
7
  6
CONTINUOUS
 10
-2684.1422376892
 20
-1403.1463988129
 30
0.0
 11
3269.8817471034
 21
1725.8901822661
 31
0.0
 40
0.0011549533
 41
6.8907064766
 42
6.8912869398
  0
ELLIPSE
  5
663
100
AcDbEntity
  8
DRAFT
100
AcDbEllipse
 62
7
  6
CONTINUOUS
 10
-2684.1422376892
 20
-1403.1463988129
 30
0.0
 11
3269.8817471034
 21
1725.8901822661
 31
0.0
 40
0.0011549533
 41
0.608116165
 42
0.6088514236
  0
ELLIPSE
  5
664
100
AcDbEntity
  8
DRAFT
100
AcDbEllipse
 62
7
  6
CONTINUOUS
 10
-2684.1422376892
 20
-1323.076404133
 30
0.0
 11
3269.8102339359
 21
1625.6748523711
 31
0.0
 40
0.0133590337
 41
-0.6149383188
 42
-0.6147724784
  0
ELLIPSE
  5
665
100
AcDbEntity
  8
DRAFT
100
AcDbEllipse
 62
7
  6
CONTINUOUS
 10
-2684.1422376892
 20
-1323.076404133
 30
0.0
 11
3269.8102339359
 21
1625.6748523711
 31
0.0
 40
0.0133590337
 41
-0.6150389412
 42
-0.6149709884
  0
ELLIPSE
  5
666
100
AcDbEntity
  8
DRAFT
100
AcDbEllipse
 62
7
  6
CONTINUOUS
 10
-2684.1422376892
 20
-1323.076404133
 30
0.0
 11
3269.8102339359
 21
1625.6748523711
 31
0.0
 40
0.0133590337
 41
-0.6160811808
 42
-0.6150492969
  0
ELLIPSE
  5
667
100
AcDbEntity
  8
RACCORDO
100
AcDbEllipse
 62
7
  6
CONTINUOUS
 10
25.4508452137
 20
11.8864609732
 30
0.0
 11
0.7988775925
 21
-0.4984862912
 31
0.0
 40
0.084982534
 41
0.0529781876
 42
0.8244135932
  0
ELLIPSE
  5
668
100
AcDbEntity
  8
RACCORDO
100
AcDbEllipse
 62
7
  6
CONTINUOUS
 10
-5.4351860873
 20
22.9980703644
 30
0.0
 11
0.1461194965
 21
0.2622111801
 31
0.0
 40
0.6437101552
 41
6.0646180646
 42
6.9443629035
  0
ELLIPSE
  5
669
100
AcDbEntity
  8
DRAFT
100
AcDbEllipse
 62
7
  6
CONTINUOUS
 10
-1.5243779215
 20
17.5310246646
 30
0.0
 11
0.3999263429
 21
-0.0164265003
 31
0.0
 40
0.4672909446
 41
2.4277454328
 42
3.9461818821
  0
ELLIPSE
  5
66A
100
AcDbEntity
  8
RACCORDO
100
AcDbEllipse
 62
7
  6
CONTINUOUS
 10
24.0076402945
 20
-0.2676731422
 30
0.0
 11
-0.0894743295
 21
0.1788832574
 31
0.0
 40
0.6123910759
 41
0.885912951
 42
2.4567092778
  0
ELLIPSE
  5
66B
100
AcDbEntity
  8
RACCORDO
100
AcDbEllipse
 62
7
  6
CONTINUOUS
 10
24.0076402945
 20
-4.5978001612
 30
0.0
 11
-0.0894743295
 21
0.1788832574
 31
0.0
 40
0.6123910759
 41
0.885912951
 42
2.4567092778
  0
ELLIPSE
  5
66C
100
AcDbEntity
  8
DRAFT
100
AcDbEllipse
 62
7
  6
CONTINUOUS
 10
-9.9601556185
 20
21.7489135131
 30
0.0
 11
0.3999263429
 21
-0.0164265003
 31
0.0
 40
0.4672909446
 41
-2.3370034251
 42
-0.8185669759
  0
ELLIPSE
  5
66D
100
AcDbEntity
  8
RACCORDO
100
AcDbEllipse
 62
7
  6
CONTINUOUS
 10
12.7485735387
 20
30.0968001285
 30
0.0
 11
-0.1341676082
 21
0.2683327138
 31
0.0
 40
0.6123610127
 41
-2.9881729039
 42
-2.3569019475
  0
ENDSEC
  0
SECTION
  2
OBJECTS
  0
DICTIONARY
  5
C
100
AcDbDictionary
280
0
281
1
  3
ACAD_GROUP
350
D
  3
ACAD_MLINESTYLE
350
17
  3
ACAD_LAYOUT
350
1A
  3
ACAD_PLOTSETTINGS
350
19
  3
ACAD_PLOTSTYLENAME
350
E
  0
DICTIONARY
  5
D
102
{ACAD_REACTORS
330
C
102
}
100
AcDbDictionary
280
0
281
1
  0
ACDBDICTIONARYWDFLT
  5
E
102
{ACAD_REACTORS
330
C
102
}
100
AcDbDictionary
281
1
  3
Normal
350
F
100
AcDbDictionaryWithDefault
340
F
  0
DICTIONARY
  5
17
102
{ACAD_REACTORS
330
C
102
}
100
AcDbDictionary
280
0
281
1
  3
Standard
350
18
  0
DICTIONARY
  5
19
102
{ACAD_REACTORS
330
C
102
}
100
AcDbDictionary
281
1
  0
DICTIONARY
  5
1A
102
{ACAD_REACTORS
330
C
102
}
100
AcDbDictionary
281
1
  3
Model
350
66E
  3
Layout1
350
66F
  0
ACDBPLACEHOLDER
  5
F
102
{ACAD_REACTORS
330
E
102
}
  0
MLINESTYLE
  5
18
102
{ACAD_REACTORS
330
17
102
}
100
AcDbMlineStyle
  2
STANDARD
 70
0
  3

 62
256
 51
90.0
 52
90.0
 71
2
 49
0.5
 62
256
  6
BYLAYER
 49
-0.5
 62
256
  6
BYLAYER
  0
LAYOUT
  5
66E
102
{ACAD_REACTORS
330
1A
102
}
100
AcDbPlotSettings
  1

  2
none_device
  4
ISO_A4_(297.00_x_210.00_MM)
  6

 40
0.0
 41
0.0
 42
0.0
 43
0.0
 44
297.0
 45
210.0
 46
0.0
 47
0.0
 48
0.0
 49
0.0
140
0.0
141
0.0
142
1.0
143
1.0
 70
1024
 72
1
 73
0
 74
0
  7

 75
0
147
1.0
148
0.0
149
0.0
100
AcDbLayout
  1
Model
 70
0
 71
0
 10
0.0
 20
0.0
 11
297.0
 21
210.0
 12
0.0
 22
0.0
 32
0.0
 14
0.0
 24
0.0
 34
0.0
 15
0.0
 25
0.0
 35
0.0
146
0.0
 13
0.0
 23
0.0
 33
0.0
 16
1.0
 26
0.0
 36
0.0
 17
0.0
 27
1.0
 37
0.0
 76
0
330
258
345
0
346
0
  0
LAYOUT
  5
66F
102
{ACAD_REACTORS
330
1A
102
}
100
AcDbPlotSettings
  1

  2
none_device
  4
ISO_A4_(297.00_x_210.00_MM)
  6

 40
0.0
 41
0.0
 42
0.0
 43
0.0
 44
297.0
 45
210.0
 46
0.0
 47
0.0
 48
0.0
 49
0.0
140
0.0
141
0.0
142
1.0
143
1.0
 70
0
 72
1
 73
0
 74
0
  7

 75
0
147
1.0
148
0.0
149
0.0
100
AcDbLayout
  1
Layout1
 70
0
 71
1
 10
0.0
 20
0.0
 11
297.0
 21
210.0
 12
0.0
 22
0.0
 32
0.0
 14
0.0
 24
0.0
 34
0.0
 15
0.0
 25
0.0
 35
0.0
146
0.0
 13
0.0
 23
0.0
 33
0.0
 16
1.0
 26
0.0
 36
0.0
 17
0.0
 27
1.0
 37
0.0
 76
0
330
259
345
0
346
0
  0
ENDSEC
  0
EOF
