  0
SECTION
  2
HEADER
  9
$ACADVER
  1
AC1024
  9
$DWGCODEPAGE
  3
ANSI_1252
  9
$EXTMAX
 10
297.0
 20
210.0
 30
0.0
  9
$EXTMIN
 10
0.0
 20
0.0
 30
0.0
  9
$LIMMIN
 10
0.0
 20
0.0
  9
$LIMMAX
 10
297.0
 20
210.0
  9
$VIEWCTR
 10
148.5
 20
105.0
  9
$VIEWSIZE
 40
210.0
  9
$CLAYER
  8
0
  9
$LTSCALE
 40
16.335
  9
$CELTYPE
  6
BYLAYER
  9
$DIMSCALE
 40
1.0
  9
$DIMASZ
 40
3.0
  9
$DIMEXO
 40
0.5
  9
$DIMDLI
 40
11.286
  9
$DIMEXE
 40
1.5
  9
$DIMCEN
 40
2.673
  9
$DIMLFAC
 40
1.0
  9
$DIMBLK
  1
_FILLED
  9
$DIMALT
 70
0
  9
$DIMALTF
 40
0.0393700787
  9
$DIMTXT
 40
3.0
  9
$DIMTOL
 70
1
  9
$DIMLIM
 70
0
  9
$DIMTFAC
 40
1.0
  9
$DIMTP
 40
0.01
  9
$DIMTM
 40
0.01
  9
$DIMGAP
 40
0.625
  9
$DIMDSEP
 70
44
  9
$AUNITS
 70
0
  9
$PDMODE
 70
3
  9
$PDSIZE
 40
3.0
  9
$HANDSEED
  5
63C
  9
$TILEMODE
 70
1
  9
$MEASUREMENT
 70
1
  9
$INSUNITS
 70
4
  0
ENDSEC
  0
SECTION
  2
CLASSES
  0
CLASS
  1
ACDBDICTIONARYWDFLT
  2
AcDbDictionaryWithDefault
  3
AutoCAD 2000
 90
0
 91
1
280
0
281
0
  0
CLASS
  1
ACDBPLACEHOLDER
  2
AcDbPlaceHolder
  3
AutoCAD 2000
 90
0
 91
1
280
0
281
0
  0
CLASS
  1
LAYOUT
  2
AcDbLayout
  3
AutoCAD 2000
 90
0
 91
0
280
0
281
0
  0
ENDSEC
  0
SECTION
  2
TABLES
  0
TABLE
  2
VPORT
  5
8
100
AcDbSymbolTable
 70
2
  0
VPORT
  5
1F4
100
AcDbSymbolTableRecord
100
AcDbViewportTableRecord
  2
*ACTIVE
 70
0
 10
0.0
 20
0.0
 11
1.0
 21
1.0
 12
148.5
 22
105.0
 13
0.0
 23
0.0
 14
1.0
 24
1.0
 15
0.0
 25
0.0
 16
0.0
 26
0.0
 36
1.0
 17
0.0
 27
0.0
 37
0.0
 40
210.0
 41
1.4142857143
 42
50.0
 43
0.0
 44
0.0
 50
0.0
 51
0.0
 71
0
 72
100
 73
1
 74
1
 75
0
 76
0
 77
0
 78
0
  0
ENDTAB
  0
TABLE
  2
LTYPE
  5
5
100
AcDbSymbolTable
 70
6
  0
LTYPE
  5
14
100
AcDbSymbolTableRecord
100
AcDbLinetypeTableRecord
  2
BYBLOCK
 70
0
  3

 72
65
 73
0
 40
0.0
  0
LTYPE
  5
15
100
AcDbSymbolTableRecord
100
AcDbLinetypeTableRecord
  2
BYLAYER
 70
0
  3

 72
65
 73
0
 40
0.0
  0
LTYPE
  5
16
100
AcDbSymbolTableRecord
100
AcDbLinetypeTableRecord
  2
CONTINUOUS
 70
64
  3
Solid line
 72
65
 73
0
 40
0.0
  0
LTYPE
  5
1F5
100
AcDbSymbolTableRecord
100
AcDbLinetypeTableRecord
  2
CENTER
 70
64
  3
____ _ ____ _ ____ _ ____ _ ____ _ ____ _ ____
 72
65
 73
4
 40
0.6
 49
0.375
 74
0
 49
-0.075
 74
0
 49
0.075
 74
0
 49
-0.075
 74
0
  0
LTYPE
  5
1F6
100
AcDbSymbolTableRecord
100
AcDbLinetypeTableRecord
  2
HIDDEN
 70
64
  3
- - - - - - - - - - - - - - - - - - - -
 72
65
 73
2
 40
0.2
 49
0.1
 74
0
 49
-0.1
 74
0
  0
LTYPE
  5
1F7
100
AcDbSymbolTableRecord
100
AcDbLinetypeTableRecord
  2
PHANTOM
 70
64
  3
_____ _ _ _____ _ _ _____ _ _ _____
 72
65
 73
6
 40
0.8
 49
0.45
 74
0
 49
-0.05
 74
0
 49
0.1
 74
0
 49
-0.05
 74
0
 49
0.1
 74
0
 49
-0.05
 74
0
  0
LTYPE
  5
1F8
100
AcDbSymbolTableRecord
100
AcDbLinetypeTableRecord
  2
DOT
 70
64
  3
. . . . . . . . . . . . . . . . . . . .
 72
65
 73
2
 40
0.2
 49
0.1
 74
0
 49
-0.1
 74
0
  0
LTYPE
  5
1F9
100
AcDbSymbolTableRecord
100
AcDbLinetypeTableRecord
  2
DASHED
 70
64
  3
- - - - - - - - - - - - - - - - - - - -
 72
65
 73
2
 40
0.2
 49
0.1
 74
0
 49
-0.1
 74
0
  0
ENDTAB
  0
TABLE
  2
LAYER
  5
2
100
AcDbSymbolTable
 70
36
  0
LAYER
  5
10
100
AcDbSymbolTableRecord
100
AcDbLayerTableRecord
  2
0
 70
0
 62
7
  6
CONTINUOUS
370
-3
390
F
  0
LAYER
  5
1FA
100
AcDbSymbolTableRecord
100
AcDbLayerTableRecord
  2
DEFAULT_1
 70
0
 62
7
  6
CENTER
370
-3
390
F
  0
LAYER
  5
1FB
100
AcDbSymbolTableRecord
100
AcDbLayerTableRecord
  2
DEFAULT_2
 70
0
 62
7
  6
HIDDEN
370
-3
390
F
  0
LAYER
  5
1FC
100
AcDbSymbolTableRecord
100
AcDbLayerTableRecord
  2
DEFAULT_3
 70
0
 62
7
  6
PHANTOM
370
-3
390
F
  0
LAYER
  5
1FD
100
AcDbSymbolTableRecord
100
AcDbLayerTableRecord
  2
ASSI
 70
0
 62
7
  6
CONTINUOUS
370
-3
390
F
  0
LAYER
  5
1FE
100
AcDbSymbolTableRecord
100
AcDbLayerTableRecord
  2
COORDINATE
 70
0
 62
7
  6
CONTINUOUS
370
-3
390
F
  0
LAYER
  5
1FF
100
AcDbSymbolTableRecord
100
AcDbLayerTableRecord
  2
COPY_PUBLISH
 70
0
 62
7
  6
CONTINUOUS
370
-3
390
F
  0
LAYER
  5
200
100
AcDbSymbolTableRecord
100
AcDbLayerTableRecord
  2
COSMETICI
 70
0
 62
7
  6
CONTINUOUS
370
-3
390
F
  0
LAYER
  5
201
100
AcDbSymbolTableRecord
100
AcDbLayerTableRecord
  2
CURVE
 70
0
 62
7
  6
CONTINUOUS
370
-3
390
F
  0
LAYER
  5
202
100
AcDbSymbolTableRecord
100
AcDbLayerTableRecord
  2
DRAFT
 70
0
 62
7
  6
CONTINUOUS
370
-3
390
F
  0
LAYER
  5
203
100
AcDbSymbolTableRecord
100
AcDbLayerTableRecord
  2
IMPORT_IGES
 70
0
 62
7
  6
CONTINUOUS
370
-3
390
F
  0
LAYER
  5
204
100
AcDbSymbolTableRecord
100
AcDbLayerTableRecord
  2
INTF_1
 70
0
 62
7
  6
CONTINUOUS
370
-3
390
F
  0
LAYER
  5
205
100
AcDbSymbolTableRecord
100
AcDbLayerTableRecord
  2
INTF_8
 70
0
 62
7
  6
CONTINUOUS
370
-3
390
F
  0
LAYER
  5
206
100
AcDbSymbolTableRecord
100
AcDbLayerTableRecord
  2
NOTE
 70
0
 62
7
  6
CONTINUOUS
370
-3
390
F
  0
LAYER
  5
207
100
AcDbSymbolTableRecord
100
AcDbLayerTableRecord
  2
PIANI
 70
0
 62
7
  6
CONTINUOUS
370
-3
390
F
  0
LAYER
  5
208
100
AcDbSymbolTableRecord
100
AcDbLayerTableRecord
  2
PUNTI
 70
0
 62
7
  6
CONTINUOUS
370
-3
390
F
  0
LAYER
  5
209
100
AcDbSymbolTableRecord
100
AcDbLayerTableRecord
  2
RACCORDO
 70
0
 62
7
  6
CONTINUOUS
370
-3
390
F
  0
LAYER
  5
20A
100
AcDbSymbolTableRecord
100
AcDbLayerTableRecord
  2
SIMBOLI
 70
0
 62
7
  6
CONTINUOUS
370
-3
390
F
  0
LAYER
  5
20B
100
AcDbSymbolTableRecord
100
AcDbLayerTableRecord
  2
SMUSSO
 70
0
 62
7
  6
CONTINUOUS
370
-3
390
F
  0
LAYER
  5
20C
100
AcDbSymbolTableRecord
100
AcDbLayerTableRecord
  2
SUPERFICI
 70
0
 62
7
  6
CONTINUOUS
370
-3
390
F
  0
LAYER
  5
20D
100
AcDbSymbolTableRecord
100
AcDbLayerTableRecord
  2
TRASH
 70
0
 62
7
  6
CONTINUOUS
370
-3
390
F
  0
ENDTAB
  0
TABLE
  2
STYLE
  5
3
100
AcDbSymbolTable
 70
1
  0
STYLE
  5
11
100
AcDbSymbolTableRecord
100
AcDbTextStyleTableRecord
  2
STANDARD
 70
0
 40
0.0
 41
0.8
 50
0.0
 71
0
 42
0.2
  3
txt
  4

  0
STYLE
  5
20E
100
AcDbSymbolTableRecord
100
AcDbTextStyleTableRecord
  2
TEXTSTYLE_1
 70
0
 40
0.0
 41
0.8
 50
0.0
 71
0
 42
0.2
  3
gdt
  4

  0
ENDTAB
  0
TABLE
  2
VIEW
  5
6
100
AcDbSymbolTable
 70
0
  0
ENDTAB
  0
TABLE
  2
UCS
  5
7
100
AcDbSymbolTable
 70
0
  0
ENDTAB
  0
TABLE
  2
APPID
  5
9
100
AcDbSymbolTable
 70
1
  0
APPID
  5
20F
100
AcDbSymbolTableRecord
100
AcDbRegAppTableRecord
  2
ACAD
 70
0
  0
ENDTAB
  0
TABLE
  2
BLOCK_RECORD
  5
1
100
AcDbSymbolTable
 70
0
  0
BLOCK_RECORD
  5
210
100
AcDbSymbolTableRecord
100
AcDbBlockTableRecord
  2
*Model_Space
  0
BLOCK_RECORD
  5
211
100
AcDbSymbolTableRecord
100
AcDbBlockTableRecord
  2
*Paper_Space
  0
BLOCK_RECORD
  5
212
100
AcDbSymbolTableRecord
100
AcDbBlockTableRecord
  2
_FILLED
  0
ENDTAB
  0
TABLE
  2
DIMSTYLE
  5
A
100
AcDbSymbolTable
 70
1
100
AcDbDimStyleTable
 71
0
  0
DIMSTYLE
105
213
100
AcDbSymbolTableRecord
100
AcDbDimStyleTableRecord
  2
STANDARD
 70
0
  3

  4

 40
1.0
 41
3.0
 42
0.5
 43
0.38
 44
1.5
 45
0.0
 46
0.0
 47
0.01
 48
0.01
140
3.0
141
0.09
142
0.0
143
25.4
144
1.0
145
0.0
146
1.0
147
0.625
 71
1
 72
0
 73
0
 74
0
 75
0
 76
0
 77
1
 78
8
 79
2
170
0
171
1
172
0
173
0
174
0
175
0
176
0
177
0
178
0
270
2
179
2
271
2
272
2
273
2
274
2
275
0
280
0
281
0
282
0
283
1
284
8
285
0
286
0
287
3
288
0
340
11
278
44
341
212
342
212
343
212
344
212
  0
ENDTAB
  0
ENDSEC
  0
SECTION
  2
BLOCKS
  0
BLOCK
  5
20
100
AcDbEntity
  8
0
100
AcDbBlockBegin
  2
*Model_Space
 70
0
 10
0.0
 20
0.0
 30
0.0
  3
*Model_Space
  1

  0
ENDBLK
  5
21
100
AcDbEntity
  8
0
100
AcDbBlockEnd
  0
BLOCK
  5
1C
100
AcDbEntity
  8
0
100
AcDbBlockBegin
  2
*Paper_Space
 70
0
 10
0.0
 20
0.0
 30
0.0
  3
*Paper_Space
  1

  0
ENDBLK
  5
1D
100
AcDbEntity
  8
0
100
AcDbBlockEnd
  0
BLOCK
  5
214
100
AcDbEntity
  8
0
100
AcDbBlockBegin
  2
_FILLED
 70
64
 10
0.0
 20
0.0
  3
_FILLED
  1

  0
SOLID
  5
215
100
AcDbEntity
  8
0
  6
BYBLOCK
 62
0
100
AcDbTrace
 10
0.0
 20
0.0
 11
-1.0
 21
0.3166666667
 12
-1.0
 22
-0.3166666667
 13
-1.0
 23
-0.3166666667
  0
ENDBLK
  5
216
100
AcDbEntity
  8
0
  6
BYBLOCK
 62
0
100
AcDbBlockEnd
  0
ENDSEC
  0
SECTION
  2
ENTITIES
  0
LWPOLYLINE
  5
217
100
AcDbEntity
  8
RACCORDO
100
AcDbPolyline
 62
250
  6
CONTINUOUS
 90
13
 70
0
 10
134.9123175513
 20
135.9984519929
 10
134.8983511079
 20
135.989547113
 10
134.8846003278
 20
135.9786352147
 10
134.8713065783
 20
135.9659066906
 10
134.8587042669
 20
135.9515831172
 10
134.8470138054
 20
135.9359150564
 10
134.8364377401
 20
135.9191776793
 10
134.827162077
 20
135.9016631734
 10
134.8193500758
 20
135.8836773195
 10
134.8131364468
 20
135.8655358281
 10
134.8086298592
 20
135.8475560391
 10
134.805911019
 20
135.8300513819
 10
134.805028327
 20
135.8133275674
  0
LWPOLYLINE
  5
218
100
AcDbEntity
  8
RACCORDO
100
AcDbPolyline
 62
7
  6
CONTINUOUS
 90
10
 70
0
 10
134.8254068464
 20
136.0154325821
 10
134.8098849456
 20
136.0058243074
 10
134.7945367466
 20
135.9933855991
 10
134.7809562776
 20
135.9790376516
 10
134.7693791721
 20
135.9630293728
 10
134.7600062838
 20
135.9456384808
 10
134.7530001841
 20
135.9271666014
 10
134.7484824271
 20
135.907934196
 10
134.7465313848
 20
135.8882750637
 10
134.7464496203
 20
135.8833244075
  0
LWPOLYLINE
  5
219
100
AcDbEntity
  8
0
100
AcDbPolyline
 62
250
  6
CONTINUOUS
 90
9
 70
0
 10
133.5522428323
 20
134.956902498
 10
133.5727447796
 20
134.968075481
 10
133.601742205
 20
134.9783539386
 10
133.6332014851
 20
134.9837734435
 10
133.6667367207
 20
134.9842561818
 10
133.7018385234
 20
134.9798236417
 10
133.7380575308
 20
134.9705964757
 10
133.7750336797
 20
134.956727764
 10
133.8123618336
 20
134.9384205369
  0
LINE
  5
21A
100
AcDbEntity
  8
RACCORDO
100
AcDbLine
 62
7
  6
CONTINUOUS
 10
134.8254052098
 20
136.0154317373
 11
135.7834583455
 21
136.5306417098
  0
LINE
  5
21B
100
AcDbEntity
  8
RACCORDO
100
AcDbLine
 62
250
  6
CONTINUOUS
 10
134.9123175513
 20
135.9984519929
 11
135.8816907904
 21
136.5197495507
  0
LWPOLYLINE
  5
21C
100
AcDbEntity
  8
RACCORDO
100
AcDbPolyline
 62
250
  6
CONTINUOUS
 90
23
 70
0
 10
134.825406075
 20
136.0154322025
 10
134.8275768452
 20
136.0165114222
 10
134.8303716822
 20
136.0176646807
 10
134.8333130815
 20
136.0186280351
 10
134.8364054139
 20
136.0194003017
 10
134.8396504365
 20
136.0199775962
 10
134.8430401332
 20
136.0203540661
 10
134.8465633104
 20
136.0205273143
 10
134.850216953
 20
136.020495812
 10
134.8539945942
 20
136.0202575547
 10
134.857877847
 20
136.0198146855
 10
134.8618569092
 20
136.0191700676
 10
134.8659295885
 20
136.0183250116
 10
134.8700878688
 20
136.017282902
 10
134.874298592
 20
136.0160541979
 10
134.8785824401
 20
136.0146371641
 10
134.8830142853
 20
136.0130063024
 10
134.8876267028
 20
136.0111366505
 10
134.8923787187
 20
136.0090342514
 10
134.8972356582
 20
136.0067144359
 10
134.9021814529
 20
136.0041837885
 10
134.9072193174
 20
136.0014343326
 10
138.8359210283
 20
133.7330125196
  0
LINE
  5
21D
100
AcDbEntity
  8
0
100
AcDbLine
 62
7
  6
CONTINUOUS
 10
133.5522428323
 20
134.956902498
 11
134.8044428015
 21
135.7576698614
  0
LINE
  5
21E
100
AcDbEntity
  8
0
100
AcDbLine
 62
250
  6
CONTINUOUS
 10
133.8123618336
 20
134.9384205369
 11
135.0608374023
 21
135.7368061894
  0
LINE
  5
21F
100
AcDbEntity
  8
ASSI
100
AcDbLine
 62
250
  6
CONTINUOUS
 10
140.4799828234
 20
134.5150788486
 11
140.4761301016
 21
134.5131645832
  0
LWPOLYLINE
  5
220
100
AcDbEntity
  8
RACCORDO
100
AcDbPolyline
 62
250
  6
CONTINUOUS
 90
10
 70
0
 10
138.8359210283
 20
133.7330125196
 10
138.8219096348
 20
133.7241336167
 10
138.8081109516
 20
133.7132493913
 10
138.7947663463
 20
133.7005502318
 10
138.7821092435
 20
133.6862582733
 10
138.7703610419
 20
133.6706235124
 10
138.7597272419
 20
133.6539194343
 10
138.75039385
 20
133.6364382283
 10
138.7425241259
 20
133.6184856769
 10
138.7403780586
 20
133.6122855299
  0
LINE
  5
221
100
AcDbEntity
  8
RACCORDO
100
AcDbLine
 62
250
  6
CONTINUOUS
 10
140.4138398086
 20
132.6460496889
 11
142.1005273072
 21
133.6199252553
  0
LINE
  5
222
100
AcDbEntity
  8
RACCORDO
100
AcDbLine
 62
250
  6
CONTINUOUS
 10
140.6966255354
 20
132.4827727544
 11
142.2419271243
 21
133.3750135882
  0
LINE
  5
223
100
AcDbEntity
  8
RACCORDO
100
AcDbLine
 62
250
  6
CONTINUOUS
 10
144.9504420073
 20
134.793142913
 11
142.2980591642
 21
133.3299252407
  0
LINE
  5
224
100
AcDbEntity
  8
RACCORDO
100
AcDbLine
 62
250
  6
CONTINUOUS
 10
145.6022421434
 20
134.6995911472
 11
142.0274580179
 21
132.7270187917
  0
LINE
  5
225
100
AcDbEntity
  8
RACCORDO
100
AcDbLine
 62
7
  6
CONTINUOUS
 10
144.8902453204
 20
134.7665741822
 11
142.3581918614
 21
133.3794691823
  0
LINE
  5
226
100
AcDbEntity
  8
RACCORDO
100
AcDbLine
 62
250
  6
CONTINUOUS
 10
144.8953281975
 20
134.7690739867
 11
144.8902453204
 21
134.7665741822
  0
LINE
  5
227
100
AcDbEntity
  8
RACCORDO
100
AcDbLine
 62
250
  6
CONTINUOUS
 10
138.8359210283
 20
133.7330125196
 11
139.8052942674
 21
134.2543100774
  0
LINE
  5
228
100
AcDbEntity
  8
ASSI
100
AcDbLine
 62
7
  6
CONTINUOUS
 10
140.4761301016
 20
134.5131645832
 11
139.8766210838
 21
134.1907680343
  0
LINE
  5
229
100
AcDbEntity
  8
RACCORDO
100
AcDbLine
 62
250
  6
CONTINUOUS
 10
140.5733234414
 20
134.501713627
 11
139.907909722
 21
134.1438756623
  0
LINE
  5
22A
100
AcDbEntity
  8
RACCORDO
100
AcDbLine
 62
250
  6
CONTINUOUS
 10
138.9736401717
 20
133.4859259304
 11
139.9467802477
 21
134.0092491713
  0
LWPOLYLINE
  5
22B
100
AcDbEntity
  8
ASSI
100
AcDbPolyline
 62
250
  6
CONTINUOUS
 90
8
 70
0
 10
144.8002536538
 20
133.643883217
 10
144.8037853683
 20
133.6457115018
 10
144.817131858
 20
133.6504160507
 10
144.8317074185
 20
133.6523543271
 10
144.8472895498
 20
133.6514966891
 10
144.8636403928
 20
133.6478561879
 10
144.8805103661
 20
133.6414883537
 10
144.8976419484
 20
133.6324903522
  0
LWPOLYLINE
  5
22C
100
AcDbEntity
  8
ASSI
100
AcDbPolyline
 62
250
  6
CONTINUOUS
 90
8
 70
0
 10
144.659159954
 20
133.5652228415
 10
144.6626277472
 20
133.5670076436
 10
144.6760145895
 20
133.5716969301
 10
144.6906354917
 20
133.5736078339
 10
144.7062335753
 20
133.5727146392
 10
144.7225539814
 20
133.56905059
 10
144.7393554725
 20
133.5626875858
 10
144.7563815084
 20
133.5537373427
  0
LWPOLYLINE
  5
22D
100
AcDbEntity
  8
ASSI
100
AcDbPolyline
 62
250
  6
CONTINUOUS
 90
9
 70
0
 10
142.1005273072
 20
133.6199252553
 10
142.1151306896
 20
133.6271878215
 10
142.1295511607
 20
133.6326080052
 10
142.1436342166
 20
133.6361277347
 10
142.1572289587
 20
133.6377092998
 10
142.1701897421
 20
133.6373357605
 10
142.1823777309
 20
133.6350111124
 10
142.1936623466
 20
133.6307602445
 10
142.1980639962
 20
133.6284332865
  0
LINE
  5
22E
100
AcDbEntity
  8
RACCORDO
100
AcDbLine
 62
7
  6
CONTINUOUS
 10
144.9031882951
 20
134.7729521383
 11
144.8902841944
 21
134.7665937366
  0
LINE
  5
22F
100
AcDbEntity
  8
RACCORDO
100
AcDbLine
 62
250
  6
CONTINUOUS
 10
144.9588265958
 20
134.7972499537
 11
144.9504420073
 21
134.793142913
  0
LINE
  5
230
100
AcDbEntity
  8
RACCORDO
100
AcDbLine
 62
250
  6
CONTINUOUS
 10
138.9736401717
 20
133.4859259304
 11
138.9658390699
 21
133.4821071677
  0
LWPOLYLINE
  5
231
100
AcDbEntity
  8
RACCORDO
100
AcDbPolyline
 62
250
  6
CONTINUOUS
 90
7
 70
0
 10
151.3768721308
 20
136.5803268579
 10
151.3905459691
 20
136.5869215859
 10
151.4039600374
 20
136.59133914
 10
151.4168898825
 20
136.5935056012
 10
151.429119153
 20
136.5933847175
 10
151.4404432203
 20
136.5909785099
 10
151.4499921933
 20
136.5867266037
  0
LWPOLYLINE
  5
232
100
AcDbEntity
  8
RACCORDO
100
AcDbPolyline
 62
7
  6
CONTINUOUS
 90
27
 70
0
 10
146.7909382996
 20
134.1938043713
 10
146.7906502492
 20
134.1936654025
 10
146.7890259454
 20
134.1929408979
 10
146.7855915602
 20
134.1916231292
 10
146.780099907
 20
134.18984237
 10
146.7726600056
 20
134.1878401002
 10
146.7635687777
 20
134.185843955
 10
146.753071187
 20
134.1840148537
 10
146.741331523
 20
134.1824591342
 10
146.728645132
 20
134.1812750438
 10
146.7152490527
 20
134.180522852
 10
146.701231674
 20
134.1802359037
 10
146.686615656
 20
134.1804478031
 10
146.6714648763
 20
134.1811956806
 10
146.6559451608
 20
134.1825058529
 10
146.640206388
 20
134.1843934983
 10
146.6243090193
 20
134.1868774322
 10
146.6084079062
 20
134.1899569769
 10
146.592786083
 20
134.1935855344
 10
146.5775341904
 20
134.1977355645
 10
146.5627355696
 20
134.2023736224
 10
146.5486190684
 20
134.2074012743
 10
146.5352718891
 20
134.2127391625
 10
146.5226964931
 20
134.2183293168
 10
146.5109167758
 20
134.2240944914
 10
146.5000089683
 20
134.2299112769
 10
146.4943398071
 20
134.2331233829
  0
LINE
  5
233
100
AcDbEntity
  8
RACCORDO
100
AcDbLine
 62
250
  6
CONTINUOUS
 10
142.2980591642
 20
133.3512527031
 11
142.3571708468
 21
133.378650612
  0
LINE
  5
234
100
AcDbEntity
  8
RACCORDO
100
AcDbLine
 62
7
  6
CONTINUOUS
 10
142.358454999
 20
133.379599677
 11
142.2980591642
 21
133.3523514535
  0
LINE
  5
235
100
AcDbEntity
  8
ASSI
100
AcDbLine
 62
7
  6
CONTINUOUS
 10
144.2338783508
 20
132.8312423402
 11
144.2817278481
 21
132.852650577
  0
LINE
  5
236
100
AcDbEntity
  8
RACCORDO
100
AcDbLine
 62
250
  6
CONTINUOUS
 10
144.8953281975
 20
134.7690739867
 11
144.9031406169
 21
134.7729311528
  0
LINE
  5
237
100
AcDbEntity
  8
RACCORDO
100
AcDbLine
 62
250
  6
CONTINUOUS
 10
144.927867735
 20
134.7837812388
 11
144.9381792004
 21
134.7878232133
  0
LINE
  5
238
100
AcDbEntity
  8
RACCORDO
100
AcDbLine
 62
7
  6
CONTINUOUS
 10
144.9464363963
 20
134.7918749899
 11
144.9031406169
 21
134.7729311528
  0
LINE
  5
239
100
AcDbEntity
  8
RACCORDO
100
AcDbLine
 62
7
  6
CONTINUOUS
 10
144.9588265958
 20
134.7972499537
 11
144.9464363963
 21
134.7918749899
  0
LINE
  5
23A
100
AcDbEntity
  8
RACCORDO
100
AcDbLine
 62
250
  6
CONTINUOUS
 10
144.9381792004
 20
134.7878232133
 11
144.9464363963
 21
134.7918749899
  0
LWPOLYLINE
  5
23B
100
AcDbEntity
  8
ASSI
100
AcDbPolyline
 62
250
  6
CONTINUOUS
 90
4
 70
0
 10
147.2740949487
 20
133.8514120342
 10
147.3272615597
 20
133.8737846593
 10
147.3820433285
 20
133.8997803146
 10
147.4383111935
 20
133.9295266225
  0
LINE
  5
23C
100
AcDbEntity
  8
RACCORDO
100
AcDbLine
 62
250
  6
CONTINUOUS
 10
144.9504420073
 20
134.793142913
 11
144.9917138693
 21
134.808793912
  0
LWPOLYLINE
  5
23D
100
AcDbEntity
  8
ASSI
100
AcDbPolyline
 62
250
  6
CONTINUOUS
 90
13
 70
0
 10
144.1215902645
 20
134.3373813392
 10
144.168506229
 20
134.3550818239
 10
144.2175213856
 20
134.3682480742
 10
144.2684628185
 20
134.3768345933
 10
144.321153375
 20
134.3808137788
 10
144.3754042446
 20
134.3801715457
 10
144.4310156359
 20
134.3749073407
 10
144.487791783
 20
134.3650412904
 10
144.5455309596
 20
134.3506104661
 10
144.6040179813
 20
134.3316650674
 10
144.6630420084
 20
134.3082742458
 10
144.7223974486
 20
134.2805250284
 10
144.7818739137
 20
134.2485188861
  0
LWPOLYLINE
  5
23E
100
AcDbEntity
  8
RACCORDO
100
AcDbPolyline
 62
250
  6
CONTINUOUS
 90
12
 70
0
 10
146.8877618698
 20
134.1681280561
 10
146.8789162685
 20
134.1648087116
 10
146.8697881079
 20
134.1617315177
 10
146.8604615428
 20
134.1588931633
 10
146.8509398205
 20
134.1562966881
 10
146.8412196937
 20
134.1539390524
 10
146.8313755753
 20
134.1518078263
 10
146.8214130696
 20
134.1499039185
 10
146.8113265722
 20
134.1482264203
 10
146.8011736835
 20
134.1467601761
 10
146.7909667381
 20
134.1455051508
 10
146.7806934012
 20
134.1444613795
  0
LWPOLYLINE
  5
23F
100
AcDbEntity
  8
ASSI
100
AcDbPolyline
 62
250
  6
CONTINUOUS
 90
7
 70
0
 10
142.0268918464
 20
131.948316309
 10
142.0403133101
 20
131.9529831317
 10
142.0549676002
 20
131.9548624947
 10
142.0705719001
 20
131.9539340593
 10
142.086858594
 20
131.9502481671
 10
142.1035926773
 20
131.9438906912
 10
142.1205188463
 20
131.9349857138
  0
LWPOLYLINE
  5
240
100
AcDbEntity
  8
ASSI
100
AcDbPolyline
 62
7
  6
CONTINUOUS
 90
5
 70
0
 10
150.3568572314
 20
135.6080059051
 10
150.3325776733
 20
135.6005461921
 10
150.3058708556
 20
135.5904218214
 10
150.2791557016
 20
135.5782711741
 10
150.2568946116
 20
135.5665801995
  0
LINE
  5
241
100
AcDbEntity
  8
RACCORDO
100
AcDbLine
 62
7
  6
CONTINUOUS
 10
142.3580969769
 20
133.3794257506
 11
142.3571708469
 21
133.3786506119
  0
LINE
  5
242
100
AcDbEntity
  8
ASSI
100
AcDbLine
 62
250
  6
CONTINUOUS
 10
150.7396733825
 20
135.3326888095
 11
147.8738964753
 21
133.6780251399
  0
LINE
  5
243
100
AcDbEntity
  8
ASSI
100
AcDbLine
 62
250
  6
CONTINUOUS
 10
150.8809009257
 20
135.0963978912
 11
148.0151240185
 21
133.4417342216
  0
LINE
  5
244
100
AcDbEntity
  8
ASSI
100
AcDbLine
 62
250
  6
CONTINUOUS
 10
148.3361854023
 20
133.394306932
 11
146.9097305385
 21
132.5706897713
  0
LINE
  5
245
100
AcDbEntity
  8
ASSI
100
AcDbLine
 62
250
  6
CONTINUOUS
 10
148.4774129454
 20
133.1580160138
 11
147.1849650645
 21
132.4117728055
  0
LWPOLYLINE
  5
246
100
AcDbEntity
  8
ASSI
100
AcDbPolyline
 62
250
  6
CONTINUOUS
 90
13
 70
0
 10
144.1129552168
 20
132.4487644928
 10
144.1256249497
 20
132.456066372
 10
144.1382751426
 20
132.4643626162
 10
144.1508215515
 20
132.4735666524
 10
144.1630756386
 20
132.4834876365
 10
144.175079307
 20
132.4941144518
 10
144.1870711391
 20
132.5056952358
 10
144.1990870005
 20
132.5183472002
 10
144.2108610672
 20
132.5318725721
 10
144.2221575474
 20
132.5460756591
 10
144.2328397734
 20
132.5608091989
 10
144.2428511589
 20
132.5759944186
 10
144.2520967654
 20
132.591503402
  0
LWPOLYLINE
  5
247
100
AcDbEntity
  8
RACCORDO
100
AcDbPolyline
 62
7
  6
CONTINUOUS
 90
8
 70
0
 10
153.5130617845
 20
135.6190406911
 10
153.521894203
 20
135.6240394519
 10
153.5297028843
 20
135.628369242
 10
153.5363755937
 20
135.6319654176
 10
153.5417492526
 20
135.6347776323
 10
153.5456660216
 20
135.6367611482
 10
153.5480609785
 20
135.6377657256
 10
153.5488645156
 20
135.6378420797
  0
LWPOLYLINE
  5
248
100
AcDbEntity
  8
ASSI
100
AcDbPolyline
 62
250
  6
CONTINUOUS
 90
16
 70
0
 10
147.8738964753
 20
133.6780251399
 10
147.84152076
 20
133.6599430863
 10
147.8099175348
 20
133.6434446092
 10
147.779111517
 20
133.6284610973
 10
147.7493665057
 20
133.6150306902
 10
147.7204545398
 20
133.6029592306
 10
147.6916649257
 20
133.5919025476
 10
147.6629892299
 20
133.5818497073
 10
147.6344767783
 20
133.5728185673
 10
147.6055218347
 20
133.564645582
 10
147.5760934853
 20
133.557380291
 10
147.5462932164
 20
133.5511134417
 10
147.5157397718
 20
133.5458570015
 10
147.4843500389
 20
133.5417175377
 10
147.4523273176
 20
133.5388435439
 10
147.4197396555
 20
133.5373620595
  0
LINE
  5
249
100
AcDbEntity
  8
ASSI
100
AcDbLine
 62
7
  6
CONTINUOUS
 10
144.6589931742
 20
133.5651301854
 11
144.8002536538
 21
133.643883217
  0
LINE
  5
24A
100
AcDbEntity
  8
ASSI
100
AcDbLine
 62
250
  6
CONTINUOUS
 10
144.7563815084
 20
133.5537373427
 11
144.8976419484
 21
133.6324903522
  0
LINE
  5
24B
100
AcDbEntity
  8
ASSI
100
AcDbLine
 62
7
  6
CONTINUOUS
 10
141.8208966277
 20
131.8336327161
 11
142.0231305121
 21
131.9463785565
  0
LINE
  5
24C
100
AcDbEntity
  8
ASSI
100
AcDbLine
 62
250
  6
CONTINUOUS
 10
141.8787763108
 20
131.8002137125
 11
142.1205188463
 21
131.9349857138
  0
LINE
  5
24D
100
AcDbEntity
  8
ASSI
100
AcDbLine
 62
7
  6
CONTINUOUS
 10
142.6482988117
 20
131.6979019486
 11
144.0155672306
 21
132.4601571336
  0
LINE
  5
24E
100
AcDbEntity
  8
ASSI
100
AcDbLine
 62
250
  6
CONTINUOUS
 10
142.7061784948
 20
131.664482945
 11
144.1129555657
 21
132.4487642914
  0
LINE
  5
24F
100
AcDbEntity
  8
ASSI
100
AcDbLine
 62
7
  6
CONTINUOUS
 10
150.2569131656
 20
135.5665905474
 11
149.4897896586
 21
135.1389174859
  0
LINE
  5
250
100
AcDbEntity
  8
ASSI
100
AcDbLine
 62
7
  6
CONTINUOUS
 10
147.3408625871
 20
133.9408954956
 11
148.5719112164
 21
134.6271982125
  0
LINE
  5
251
100
AcDbEntity
  8
ASSI
100
AcDbLine
 62
250
  6
CONTINUOUS
 10
147.4383111935
 20
133.9295266225
 11
148.6692995833
 21
134.6158053881
  0
LINE
  5
252
100
AcDbEntity
  8
ASSI
100
AcDbLine
 62
250
  6
CONTINUOUS
 10
144.6589931742
 20
133.5651301854
 11
144.659159954
 21
133.5652228415
  0
LWPOLYLINE
  5
253
100
AcDbEntity
  8
ASSI
100
AcDbPolyline
 62
250
  6
CONTINUOUS
 90
16
 70
0
 10
148.0151240185
 20
133.4417342216
 10
147.9783971131
 20
133.421369507
 10
147.9426006056
 20
133.4026388793
 10
147.907734496
 20
133.3855423384
 10
147.8740521519
 20
133.370235327
 10
147.8413002057
 20
133.3565624024
 10
147.808718554
 20
133.3440572375
 10
147.7762608069
 20
133.332599643
 10
147.7439733544
 20
133.3223098081
 10
147.7112352631
 20
133.3130819733
 10
147.6779470177
 20
133.3048047291
 10
147.6442081335
 20
133.297589485
 10
147.6096962234
 20
133.2916647095
 10
147.5743038251
 20
133.2871065587
 10
147.538138401
 20
133.2838388765
 10
147.501199951
 20
133.2818616628
  0
LINE
  5
254
100
AcDbEntity
  8
ASSI
100
AcDbLine
 62
250
  6
CONTINUOUS
 10
150.362998706
 20
135.5600014224
 11
149.5871779929
 21
135.1275246432
  0
LWPOLYLINE
  5
255
100
AcDbEntity
  8
ASSI
100
AcDbPolyline
 62
7
  6
CONTINUOUS
 90
10
 70
0
 10
147.3408625871
 20
133.9408954956
 10
147.3285858296
 20
133.9341261879
 10
147.2657603031
 20
133.9017656523
 10
147.2043619821
 20
133.8739300799
 10
147.1448743617
 20
133.8507263542
 10
147.0874705926
 20
133.8320860811
 10
147.0321016551
 20
133.8178716689
 10
146.9790020785
 20
133.8080559495
 10
146.9285822578
 20
133.8026082739
 10
146.9206652559
 20
133.8021281732
  0
LWPOLYLINE
  5
256
100
AcDbEntity
  8
ASSI
100
AcDbPolyline
 62
250
  6
CONTINUOUS
 90
13
 70
0
 10
144.8976419484
 20
133.6324903522
 10
144.9103792829
 20
133.6394484495
 10
144.9227354986
 20
133.6457207463
 10
144.9346976874
 20
133.6513419216
 10
144.9462488922
 20
133.6563462426
 10
144.9573872559
 20
133.660770698
 10
144.9681256257
 20
133.6646529202
 10
144.9784618085
 20
133.6680276065
 10
144.9883903095
 20
133.6709279117
 10
144.9979211692
 20
133.6733864748
 10
145.0070560587
 20
133.6754360283
 10
145.0157939657
 20
133.6771081028
 10
145.0241425585
 20
133.6784318231
  0
LINE
  5
257
100
AcDbEntity
  8
RACCORDO
100
AcDbLine
 62
7
  6
CONTINUOUS
 10
151.2548604234
 20
136.5943608965
 11
151.2547402278
 21
136.5942961321
  0
LINE
  5
258
100
AcDbEntity
  8
RACCORDO
100
AcDbLine
 62
7
  6
CONTINUOUS
 10
146.790936808
 20
134.1938071668
 11
146.7910243969
 21
134.1938543368
  0
LINE
  5
259
100
AcDbEntity
  8
ASSI
100
AcDbLine
 62
7
  6
CONTINUOUS
 10
151.2548611592
 20
136.5943612921
 11
146.7910243969
 21
134.1938543368
  0
LINE
  5
25A
100
AcDbEntity
  8
RACCORDO
100
AcDbLine
 62
250
  6
CONTINUOUS
 10
151.3768721308
 20
136.5803268579
 11
146.9125191629
 21
134.1795423039
  0
LINE
  5
25B
100
AcDbEntity
  8
ASSI
100
AcDbLine
 62
250
  6
CONTINUOUS
 10
150.2604464177
 20
135.568419569
 11
150.2569131656
 21
135.5665905474
  0
LWPOLYLINE
  5
25C
100
AcDbEntity
  8
ASSI
100
AcDbPolyline
 62
250
  6
CONTINUOUS
 90
8
 70
0
 10
144.0155752139
 20
132.4601615835
 10
144.01910075
 20
132.4619862832
 10
144.0324473322
 20
132.466690419
 10
144.0470228172
 20
132.4686283113
 10
144.0626047188
 20
132.4677703885
 10
144.0789551869
 20
132.4641297532
 10
144.095824637
 20
132.457761985
 10
144.1129555657
 20
132.4487642914
  0
LWPOLYLINE
  5
25D
100
AcDbEntity
  8
ASSI
100
AcDbPolyline
 62
250
  6
CONTINUOUS
 90
8
 70
0
 10
149.4898183421
 20
135.1389334674
 10
149.4933229105
 20
135.1407465073
 10
149.5066694797
 20
135.1454507045
 10
149.521244977
 20
135.1473886539
 10
149.5368269137
 20
135.1465307735
 10
149.5531774382
 20
135.1428901584
 10
149.5700469666
 20
135.1365223812
 10
149.5871779929
 20
135.1275246432
  0
LWPOLYLINE
  5
25E
100
AcDbEntity
  8
ASSI
100
AcDbPolyline
 62
250
  6
CONTINUOUS
 90
8
 70
0
 10
148.5720364551
 20
134.6272678507
 10
148.575444459
 20
134.6290272296
 10
148.5887910294
 20
134.6337314292
 10
148.6033665285
 20
134.6356693802
 10
148.6189484669
 20
134.6348115005
 10
148.6352989929
 20
134.6311708855
 10
148.6521685226
 20
134.6248031079
 10
148.6692995498
 20
134.6158053694
  0
LINE
  5
25F
100
AcDbEntity
  8
ASSI
100
AcDbLine
 62
250
  6
CONTINUOUS
 10
142.0231305121
 20
131.9463785565
 11
142.0268918464
 21
131.948316309
  0
LWPOLYLINE
  5
260
100
AcDbEntity
  8
ASSI
100
AcDbPolyline
 62
250
  6
CONTINUOUS
 90
8
 70
0
 10
147.3409187474
 20
133.940926851
 10
147.3444561118
 20
133.942748487
 10
147.3578026813
 20
133.9474526844
 10
147.372378179
 20
133.9493906341
 10
147.3879601158
 20
133.9485327537
 10
147.40431064
 20
133.9448921386
 10
147.421180168
 20
133.938524361
 10
147.4383111935
 20
133.9295266225
  0
LWPOLYLINE
  5
261
100
AcDbEntity
  8
ASSI
100
AcDbPolyline
 62
250
  6
CONTINUOUS
 90
9
 70
0
 10
142.1205188463
 20
131.9349857138
 10
142.1359148885
 20
131.9429046384
 10
142.1511279102
 20
131.9487883132
 10
142.1659770712
 20
131.9525667994
 10
142.1802858427
 20
131.9541951824
 10
142.1938841489
 20
131.9536541118
 10
142.2066103816
 20
131.95095001
 10
142.2183132711
 20
131.9461149944
 10
142.2205236784
 20
131.9448939493
  0
LWPOLYLINE
  5
262
100
AcDbEntity
  8
RACCORDO
100
AcDbPolyline
 62
250
  6
CONTINUOUS
 90
4
 70
0
 10
146.9125191629
 20
134.1795423039
 10
146.9045492912
 20
134.1754954041
 10
146.8962968602
 20
134.1716906548
 10
146.8877618698
 20
134.1681280561
  0
LWPOLYLINE
  5
263
100
AcDbEntity
  8
ASSI
100
AcDbPolyline
 62
250
  6
CONTINUOUS
 90
6
 70
0
 10
149.5871779929
 20
135.1275246432
 10
149.5584840165
 20
135.1129846494
 10
149.5279313435
 20
135.1002338617
 10
149.4955199739
 20
135.08927228
 10
149.4608787511
 20
135.0800061659
 10
149.4243788316
 20
135.0725292579
  0
LWPOLYLINE
  5
264
100
AcDbEntity
  8
ASSI
100
AcDbPolyline
 62
7
  6
CONTINUOUS
 90
15
 70
0
 10
149.4886135035
 20
135.1382674353
 10
149.4763323569
 20
135.1320584748
 10
149.4617264236
 20
135.1257855069
 10
149.4449452438
 20
135.1197319424
 10
149.4260406379
 20
135.1141038026
 10
149.4052810559
 20
135.1091433411
 10
149.3828494709
 20
135.1050334959
 10
149.3590331606
 20
135.101945422
 10
149.334325496
 20
135.1000259275
 10
149.3089966141
 20
135.0993565731
 10
149.2834559875
 20
135.0999900451
 10
149.2584505355
 20
135.101897498
 10
149.2343128733
 20
135.1050049286
 10
149.2114067594
 20
135.1091930556
 10
149.2053546553
 20
135.1105164514
  0
LINE
  5
265
100
AcDbEntity
  8
RACCORDO
100
AcDbLine
 62
7
  6
CONTINUOUS
 10
144.2338783508
 20
132.8312423402
 11
142.3312582974
 21
131.8809571681
  0
LWPOLYLINE
  5
266
100
AcDbEntity
  8
RACCORDO
100
AcDbPolyline
 62
250
  6
CONTINUOUS
 90
9
 70
0
 10
146.7910243969
 20
134.1938543368
 10
146.7955344085
 20
134.1961065426
 10
146.8098633066
 20
134.2012227211
 10
146.8252829777
 20
134.2038468009
 10
146.8416245446
 20
134.2039499583
 10
146.8587089041
 20
134.2015309993
 10
146.8763488962
 20
134.1966164055
 10
146.8943513724
 20
134.1892599889
 10
146.9125191637
 20
134.1795423043
  0
LWPOLYLINE
  5
267
100
AcDbEntity
  8
ASSI
100
AcDbPolyline
 62
250
  6
CONTINUOUS
 90
5
 70
0
 10
150.6655001024
 20
131.8909820179
 10
150.7038010265
 20
131.9072903518
 10
150.744041075
 20
131.9261057284
 10
150.7858960578
 20
131.9474891482
 10
150.8293099559
 20
131.9716064362
  0
LWPOLYLINE
  5
268
100
AcDbEntity
  8
ASSI
100
AcDbPolyline
 62
250
  6
CONTINUOUS
 90
6
 70
0
 10
153.7387264981
 20
133.648431635
 10
153.7462394529
 20
133.6516254689
 10
153.7538617116
 20
133.6546745128
 10
153.761669437
 20
133.6575962079
 10
153.7696828824
 20
133.6603794859
 10
153.7778673125
 20
133.6629923832
  0
LWPOLYLINE
  5
269
100
AcDbEntity
  8
ASSI
100
AcDbPolyline
 62
250
  6
CONTINUOUS
 90
13
 70
0
 10
155.8088957728
 20
133.6008967229
 10
155.815887911
 20
133.6037190232
 10
155.8227808941
 20
133.606638304
 10
155.8295687378
 20
133.6096541951
 10
155.8362165913
 20
133.6127513087
 10
155.8427485397
 20
133.6159434793
 10
155.8492404369
 20
133.6192764302
 10
155.8556838379
 20
133.6227533338
 10
155.8620603508
 20
133.6263740386
 10
155.8684178145
 20
133.6301832737
 10
155.874755254
 20
133.6341985052
 10
155.881029491
 20
133.6384077803
 10
155.887217702
 20
133.6428130781
  0
LWPOLYLINE
  5
26A
100
AcDbEntity
  8
ASSI
100
AcDbPolyline
 62
250
  6
CONTINUOUS
 90
6
 70
0
 10
153.5977388258
 20
133.6376329102
 10
153.611463051
 20
133.6429470017
 10
153.6265244294
 20
133.6453833395
 10
153.642682128
 20
133.6449029664
 10
153.6596777836
 20
133.6415135637
 10
153.6772396339
 20
133.6352693282
  0
LWPOLYLINE
  5
26B
100
AcDbEntity
  8
ASSI
100
AcDbPolyline
 62
250
  6
CONTINUOUS
 90
3
 70
0
 10
150.6632287751
 20
131.3486874333
 10
150.5955536812
 20
131.3255564021
 10
150.5804142216
 20
131.3204513445
  0
LWPOLYLINE
  5
26C
100
AcDbEntity
  8
ASSI
100
AcDbPolyline
 62
7
  6
CONTINUOUS
 90
5
 70
0
 10
153.6956739347
 20
133.6791388413
 10
153.6671062622
 20
133.6699578427
 10
153.6389046358
 20
133.6585658006
 10
153.6112764566
 20
133.6451265694
 10
153.5950452113
 20
133.6361570664
  0
LINE
  5
26D
100
AcDbEntity
  8
ASSI
100
AcDbLine
 62
250
  6
CONTINUOUS
 10
153.7778673125
 20
133.6629923832
 11
153.7862143989
 21
133.6654131741
  0
LINE
  5
26E
100
AcDbEntity
  8
0
100
AcDbLine
 62
7
  6
CONTINUOUS
 10
133.5716047023
 20
91.9508909725
 11
148.4398188707
 21
83.3661704542
  0
LINE
  5
26F
100
AcDbEntity
  8
0
100
AcDbLine
 62
250
  6
CONTINUOUS
 10
133.4680633918
 20
92.1797594031
 11
148.3362775602
 21
83.5950388848
  0
LWPOLYLINE
  5
270
100
AcDbEntity
  8
0
100
AcDbPolyline
 62
250
  6
CONTINUOUS
 90
9
 70
0
 10
133.5716047023
 20
91.9508909725
 10
133.5560048
 20
91.9610997988
 10
133.5334255858
 20
91.9810157862
 10
133.5138995745
 20
92.0052000415
 10
133.4976336318
 20
92.0333963478
 10
133.4848000852
 20
92.0653059828
 10
133.475534898
 20
92.1005908842
 10
133.4699362287
 20
92.1388772309
 10
133.4680633918
 20
92.1797594031
  0
LWPOLYLINE
  5
271
100
AcDbEntity
  8
ASSI
100
AcDbPolyline
 62
250
  6
CONTINUOUS
 90
3
 70
0
 10
141.8920453828
 20
132.6405687454
 10
141.8715169372
 20
132.6129100449
 10
141.8527634511
 20
132.5844762422
  0
LWPOLYLINE
  5
272
100
AcDbEntity
  8
ASSI
100
AcDbPolyline
 62
250
  6
CONTINUOUS
 90
3
 70
0
 10
141.9384485297
 20
132.6944454378
 10
141.9143559136
 20
132.6677472097
 10
141.8920453828
 20
132.6405687454
  0
LWPOLYLINE
  5
273
100
AcDbEntity
  8
ASSI
100
AcDbPolyline
 62
250
  6
CONTINUOUS
 90
8
 70
0
 10
142.241270853
 20
132.9463119474
 10
142.2424504122
 20
132.947611179
 10
142.2464485499
 20
132.9540189122
 10
142.2488294935
 20
132.9618651219
 10
142.2495668153
 20
132.9710637068
 10
142.2486525393
 20
132.9815140204
 10
142.2460966873
 20
132.9931024258
 10
142.2419271243
 20
133.0057025986
  0
LINE
  5
274
100
AcDbEntity
  8
ASSI
100
AcDbLine
 62
250
  6
CONTINUOUS
 10
142.2419271243
 20
133.0057025986
 11
141.9384485297
 21
132.6944454378
  0
LINE
  5
275
100
AcDbEntity
  8
ASSI
100
AcDbLine
 62
7
  6
CONTINUOUS
 10
142.2412585338
 20
132.9462993036
 11
141.937779939
 21
132.6350421426
  0
LWPOLYLINE
  5
276
100
AcDbEntity
  8
ASSI
100
AcDbPolyline
 62
250
  6
CONTINUOUS
 90
3
 70
0
 10
145.7639298707
 20
133.2480999173
 10
145.7584446227
 20
133.2429493748
 10
145.7555585157
 20
133.2367344057
  0
LWPOLYLINE
  5
277
100
AcDbEntity
  8
ASSI
100
AcDbPolyline
 62
250
  6
CONTINUOUS
 90
10
 70
0
 10
148.4929357022
 20
131.3962977812
 10
148.4765176889
 20
131.3857140906
 10
148.4603216998
 20
131.3730652544
 10
148.444566758
 20
131.358522326
 10
148.4294659219
 20
131.3422819728
 10
148.4152234046
 20
131.3245638177
 10
148.4020318125
 20
131.3056074685
 10
148.3900695393
 20
131.2856692773
 10
148.3794983544
 20
131.265018874
 10
148.3704612151
 20
131.2439355196
  0
LWPOLYLINE
  5
278
100
AcDbEntity
  8
RACCORDO
100
AcDbPolyline
 62
250
  6
CONTINUOUS
 90
10
 70
0
 10
146.436945366
 20
129.3442763302
 10
146.4229339823
 20
129.3353974343
 10
146.409135307
 20
129.3245132172
 10
146.3957907072
 20
129.3118140663
 10
146.3831336074
 20
129.2975221158
 10
146.3713854065
 20
129.2818873615
 10
146.3607516047
 20
129.2651832874
 10
146.3514182089
 20
129.2477020822
 10
146.3435484797
 20
129.2297495281
 10
146.341402397
 20
129.2235493401
  0
LWPOLYLINE
  5
279
100
AcDbEntity
  8
ASSI
100
AcDbPolyline
 62
250
  6
CONTINUOUS
 90
35
 70
0
 10
150.5314504436
 20
131.2907009124
 10
150.5215278708
 20
131.2845148126
 10
150.5115210406
 20
131.2782022699
 10
150.5014523944
 20
131.2717718734
 10
150.4913639693
 20
131.2651959599
 10
150.4813029936
 20
131.2585125035
 10
150.471222239
 20
131.25168353
 10
150.461022058
 20
131.2445674544
 10
150.4507421108
 20
131.2372145948
 10
150.4403427372
 20
131.2295746331
 10
150.4296053086
 20
131.221355029
 10
150.4184871412
 20
131.2125630478
 10
150.4070309189
 20
131.2031914244
 10
150.3951460639
 20
131.1929258232
 10
150.3827711101
 20
131.1817577209
 10
150.3699675236
 20
131.1696956408
 10
150.3568291254
 20
131.1564508177
 10
150.3433254956
 20
131.1420466852
 10
150.3294870542
 20
131.1264598097
 10
150.3154988821
 20
131.109331125
 10
150.3012868222
 20
131.090644313
 10
150.2869250318
 20
131.0704156918
 10
150.2728210634
 20
131.0483351488
 10
150.2587997056
 20
131.0240514206
 10
150.2450361699
 20
130.9979157708
 10
150.2324636437
 20
130.9706718775
 10
150.2211761337
 20
130.9420153878
 10
150.2110796333
 20
130.9122506547
 10
150.20282531
 20
130.8830344159
 10
150.1967040395
 20
130.8545534285
 10
150.1924249461
 20
130.8266209354
 10
150.1897665693
 20
130.8003334034
 10
150.188655089
 20
130.7760563214
 10
150.1891643252
 20
130.7534242005
 10
150.191294278
 20
130.7324370407
  0
LINE
  5
27A
100
AcDbEntity
  8
ASSI
100
AcDbLine
 62
250
  6
CONTINUOUS
 10
150.5511354278
 20
131.3027729814
 11
150.5314504436
 21
131.2907009124
  0
LWPOLYLINE
  5
27B
100
AcDbEntity
  8
RACCORDO
100
AcDbPolyline
 62
7
  6
CONTINUOUS
 90
7
 70
0
 10
146.3351548658
 20
129.3531775509
 10
146.3281157377
 20
129.3488828731
 10
146.3109847616
 20
129.3362228526
 10
146.2956344449
 20
129.321521863
 10
146.2822644602
 20
129.3050134185
 10
146.2710637614
 20
129.2869794977
 10
146.2627376466
 20
129.2689693811
  0
LWPOLYLINE
  5
27C
100
AcDbEntity
  8
ASSI
100
AcDbPolyline
 62
250
  6
CONTINUOUS
 90
3
 70
0
 10
150.5804142216
 20
131.3204513445
 10
150.5706911529
 20
131.3146229797
 10
150.5511354278
 20
131.3027729814
  0
LWPOLYLINE
  5
27D
100
AcDbEntity
  8
ASSI
100
AcDbPolyline
 62
250
  6
CONTINUOUS
 90
10
 70
0
 10
150.1912942797
 20
130.7324370388
 10
150.2082646773
 20
130.7426064288
 10
150.2269377671
 20
130.7517537923
 10
150.2470619298
 20
130.7597558687
 10
150.2683659929
 20
130.7665048299
 10
150.2905628846
 20
130.7719097337
 10
150.3133535023
 20
130.7758977488
 10
150.3364307426
 20
130.7784151367
 10
150.3594836403
 20
130.7794279755
 10
150.3822015578
 20
130.7789226169
  0
LINE
  5
27E
100
AcDbEntity
  8
ASSI
100
AcDbLine
 62
250
  6
CONTINUOUS
 10
148.6293311282
 20
131.4778597888
 11
148.4929357022
 21
131.3962977812
  0
LINE
  5
27F
100
AcDbEntity
  8
ASSI
100
AcDbLine
 62
250
  6
CONTINUOUS
 10
145.9721716459
 20
129.7110896598
 11
145.7387547309
 21
129.5715105496
  0
LINE
  5
280
100
AcDbEntity
  8
ASSI
100
AcDbLine
 62
250
  6
CONTINUOUS
 10
148.7726610193
 20
131.2488888474
 11
148.6362655933
 21
131.1673268398
  0
LINE
  5
281
100
AcDbEntity
  8
ASSI
100
AcDbLine
 62
250
  6
CONTINUOUS
 10
146.115501537
 20
129.4821187185
 11
146.0064830044
 21
129.4169275999
  0
LINE
  5
282
100
AcDbEntity
  8
ASSI
100
AcDbLine
 62
250
  6
CONTINUOUS
 10
147.9932664316
 20
130.2083214291
 11
147.4133263469
 21
129.8615277057
  0
LINE
  5
283
100
AcDbEntity
  8
ASSI
100
AcDbLine
 62
250
  6
CONTINUOUS
 10
148.1365963227
 20
129.9793504877
 11
147.6810546204
 21
129.7069447561
  0
LINE
  5
284
100
AcDbEntity
  8
ASSI
100
AcDbLine
 62
250
  6
CONTINUOUS
 10
152.4534883434
 20
132.430862219
 11
151.2648952377
 21
131.7201049537
  0
LINE
  5
285
100
AcDbEntity
  8
ASSI
100
AcDbLine
 62
250
  6
CONTINUOUS
 10
153.3397549915
 20
132.9608337089
 11
154.0804587458
 21
133.4037612106
  0
LINE
  5
286
100
AcDbEntity
  8
ASSI
100
AcDbLine
 62
250
  6
CONTINUOUS
 10
152.5968182346
 20
132.2018912777
 11
151.4082251288
 21
131.4911340123
  0
LINE
  5
287
100
AcDbEntity
  8
ASSI
100
AcDbLine
 62
250
  6
CONTINUOUS
 10
153.4830849149
 20
132.7318627868
 11
154.2237886369
 21
133.1747902692
  0
LWPOLYLINE
  5
288
100
AcDbEntity
  8
ASSI
100
AcDbPolyline
 62
250
  6
CONTINUOUS
 90
7
 70
0
 10
151.0314691026
 20
131.2348464506
 10
151.0162824929
 20
131.2257865045
 10
151.0032319852
 20
131.215963665
 10
150.9924934155
 20
131.2055103036
 10
150.9842114652
 20
131.1945672886
 10
150.9784977048
 20
131.1832820791
 10
150.9769870234
 20
131.1776327432
  0
LWPOLYLINE
  5
289
100
AcDbEntity
  8
ASSI
100
AcDbPolyline
 62
250
  6
CONTINUOUS
 90
13
 70
0
 10
154.2237886369
 20
133.1747902692
 10
154.2280224406
 20
133.1772708999
 10
154.2322888976
 20
133.1796552398
 10
154.2365880078
 20
133.1819432887
 10
154.2409039585
 20
133.1841320318
 10
154.2452525625
 20
133.186224484
 10
154.2496812579
 20
133.1882296901
 10
154.2541935392
 20
133.1901547999
 10
154.2587859119
 20
133.1919926636
 10
154.2634953313
 20
133.1937308756
 10
154.2683341158
 20
133.1953653008
 10
154.2732899469
 20
133.1969000744
 10
154.2783628248
 20
133.1983351963
  0
LWPOLYLINE
  5
28A
100
AcDbEntity
  8
ASSI
100
AcDbPolyline
 62
250
  6
CONTINUOUS
 90
10
 70
0
 10
152.5999746862
 20
132.1727845542
 10
152.6185470871
 20
132.1835727556
 10
152.6391085983
 20
132.1931418054
 10
152.6613313904
 20
132.2013391358
 10
152.6848611465
 20
132.2080340497
 10
152.7093227116
 20
132.2131198041
 10
152.7343260739
 20
132.2165153122
 10
152.7594725831
 20
132.2181664364
 10
152.784361307
 20
132.2180468511
 10
152.808595423
 20
132.2161584629
  0
LINE
  5
28B
100
AcDbEntity
  8
RACCORDO
100
AcDbLine
 62
7
  6
CONTINUOUS
 10
149.8277663229
 20
133.4911837146
 11
153.5130617845
 21
135.6190406911
  0
LINE
  5
28C
100
AcDbEntity
  8
ASSI
100
AcDbLine
 62
7
  6
CONTINUOUS
 10
150.729236679
 20
131.9814750984
 11
153.5950820311
 21
133.6361783414
  0
LINE
  5
28D
100
AcDbEntity
  8
ASSI
100
AcDbLine
 62
250
  6
CONTINUOUS
 10
150.8293099559
 20
131.9716064362
 11
153.6950868631
 21
133.6262701058
  0
LINE
  5
28E
100
AcDbEntity
  8
RACCORDO
100
AcDbLine
 62
7
  6
CONTINUOUS
 10
146.3350784296
 20
129.3531342817
 11
147.2730102191
 21
129.8946862014
  0
LINE
  5
28F
100
AcDbEntity
  8
RACCORDO
100
AcDbLine
 62
250
  6
CONTINUOUS
 10
146.436945366
 20
129.3442763302
 11
147.3730582216
 21
129.8847780166
  0
LWPOLYLINE
  5
290
100
AcDbEntity
  8
ASSI
100
AcDbPolyline
 62
250
  6
CONTINUOUS
 90
13
 70
0
 10
154.0804587458
 20
133.4037612106
 10
154.087557617
 20
133.4078590502
 10
154.0947122598
 20
133.4118099801
 10
154.1019195661
 20
133.4156086949
 10
154.1091461355
 20
133.4192354969
 10
154.1164188852
 20
133.4227009223
 10
154.123824472
 20
133.42603821
 10
154.1313625355
 20
133.4292370236
 10
154.1390243026
 20
133.4322824129
 10
154.1468819005
 20
133.435187237
 10
154.1549543186
 20
133.4379395267
 10
154.1632082485
 20
133.4405094461
 10
154.1716354741
 20
133.4428758758
  0
LWPOLYLINE
  5
291
100
AcDbEntity
  8
ASSI
100
AcDbPolyline
 62
250
  6
CONTINUOUS
 90
13
 70
0
 10
151.4082251288
 20
131.4911340123
 10
151.3735163954
 20
131.471101395
 10
151.3391310442
 20
131.4524556956
 10
151.3050690753
 20
131.4351969142
 10
151.2713567073
 20
131.419361076
 10
151.2379677217
 20
131.4049121558
 10
151.2048234624
 20
131.3917420774
 10
151.1719316953
 20
131.3798349643
 10
151.1392846546
 20
131.369206693
 10
151.1067803869
 20
131.3597968173
 10
151.0743849076
 20
131.3515851882
 10
151.0421322013
 20
131.3445919545
 10
151.0100222679
 20
131.3388171164
  0
LWPOLYLINE
  5
292
100
AcDbEntity
  8
ASSI
100
AcDbPolyline
 62
250
  6
CONTINUOUS
 90
10
 70
0
 10
150.7175661961
 20
131.0952699621
 10
150.7078380308
 20
131.0897075078
 10
150.6979803337
 20
131.0842909152
 10
150.687991412
 20
131.079006714
 10
150.6778412156
 20
131.0738299288
 10
150.6675490303
 20
131.068759238
 10
150.6571931592
 20
131.0638110023
 10
150.6467646164
 20
131.0589573895
 10
150.6362700351
 20
131.0541874796
 10
150.6258312032
 20
131.0495308442
  0
LWPOLYLINE
  5
293
100
AcDbEntity
  8
ASSI
100
AcDbPolyline
 62
7
  6
CONTINUOUS
 90
10
 70
0
 10
150.7292366791
 20
131.9814750985
 10
150.7176919442
 20
131.9748792351
 10
150.6565217203
 20
131.9422532563
 10
150.5965497536
 20
131.914149091
 10
150.5381988514
 20
131.8906616202
 10
150.4816565442
 20
131.8717427832
 10
150.426982036
 20
131.8573118752
 10
150.3744385609
 20
131.8473529791
 10
150.3244149405
 20
131.8418265467
 10
150.3164673751
 20
131.8413360883
  0
LWPOLYLINE
  5
294
100
AcDbEntity
  8
ASSI
100
AcDbPolyline
 62
250
  6
CONTINUOUS
 90
10
 70
0
 10
151.2648952377
 20
131.7201049537
 10
151.2129029438
 20
131.6905632157
 10
151.1614073052
 20
131.6645744729
 10
151.1105282572
 20
131.6420911911
 10
151.0606987947
 20
131.6231691412
 10
151.0116908073
 20
131.6075885874
 10
150.9626492596
 20
131.5950510832
 10
150.9133881688
 20
131.585598086
 10
150.8643563274
 20
131.5794144806
 10
150.8156864967
 20
131.5765849146
  0
LINE
  5
295
100
AcDbEntity
  8
RACCORDO
100
AcDbLine
 62
250
  6
CONTINUOUS
 10
155.7496460417
 20
133.8639136291
 11
156.4432373409
 21
134.2577465084
  0
LINE
  5
296
100
AcDbEntity
  8
RACCORDO
100
AcDbLine
 62
250
  6
CONTINUOUS
 10
155.887217702
 20
133.6428130781
 11
156.5804299993
 21
134.0364307536
  0
LWPOLYLINE
  5
297
100
AcDbEntity
  8
ASSI
100
AcDbPolyline
 62
250
  6
CONTINUOUS
 90
7
 70
0
 10
153.6950868631
 20
133.6262701058
 10
153.7022988988
 20
133.6303517952
 10
153.7095396767
 20
133.6342839504
 10
153.7168060792
 20
133.6380622816
 10
153.7240605917
 20
133.6416656838
 10
153.7313343548
 20
133.6451084557
 10
153.7387264981
 20
133.648431635
  0
LWPOLYLINE
  5
298
100
AcDbEntity
  8
ASSI
100
AcDbPolyline
 62
250
  6
CONTINUOUS
 90
8
 70
0
 10
150.7293051239
 20
131.9815146718
 10
150.7319619182
 20
131.9829692405
 10
150.7456861435
 20
131.988283332
 10
150.7607475219
 20
131.9907196699
 10
150.7769052205
 20
131.9902392968
 10
150.7939008762
 20
131.9868498941
 10
150.8114627265
 20
131.9806056586
 10
150.8293099559
 20
131.9716064362
  0
LWPOLYLINE
  5
299
100
AcDbEntity
  8
ASSI
100
AcDbPolyline
 62
250
  6
CONTINUOUS
 90
13
 70
0
 10
152.4534883434
 20
132.430862219
 10
152.4812824987
 20
132.4459736938
 10
152.5110427691
 20
132.4593346575
 10
152.5427691545
 20
132.4709451101
 10
152.576826896
 20
132.4809062402
 10
152.6128507526
 20
132.4891168592
 10
152.6497450008
 20
132.4952734015
 10
152.6875489373
 20
132.499283895
 10
152.7262232655
 20
132.5012403119
 10
152.7645543728
 20
132.5011150033
 10
152.8021377219
 20
132.4988987529
 10
152.8393778502
 20
132.4946007771
 10
152.9039648774
 20
132.4834704949
  0
LWPOLYLINE
  5
29A
100
AcDbEntity
  8
RACCORDO
100
AcDbPolyline
 62
250
  6
CONTINUOUS
 90
12
 70
0
 10
146.3351539495
 20
129.3531778236
 10
146.3386178784
 20
129.3550448881
 10
146.3459702464
 20
129.358238398
 10
146.3537948881
 20
129.360639225
 10
146.3621090321
 20
129.3622210645
 10
146.3710051988
 20
129.3629455769
 10
146.3804467637
 20
129.3627390245
 10
146.3904245486
 20
129.3615317119
 10
146.4010887124
 20
129.359207635
 10
146.4124661652
 20
129.3556258177
 10
146.4244425772
 20
129.3506831663
 10
146.436945366
 20
129.3442763302
  0
LWPOLYLINE
  5
29B
100
AcDbEntity
  8
RACCORDO
100
AcDbPolyline
 62
7
  6
CONTINUOUS
 90
6
 70
0
 10
156.6133047584
 20
133.5835727336
 10
156.6202249981
 20
133.5872856673
 10
156.6259360109
 20
133.5901457918
 10
156.6303213698
 20
133.5921017778
 10
156.6332124237
 20
133.593146052
 10
156.6345089428
 20
133.5932516238
  0
LINE
  5
29C
100
AcDbEntity
  8
ASSI
100
AcDbLine
 62
250
  6
CONTINUOUS
 10
149.6563256056
 20
129.2167735327
 11
149.6524728838
 21
129.2148592673
  0
LWPOLYLINE
  5
29D
100
AcDbEntity
  8
ASSI
100
AcDbPolyline
 62
250
  6
CONTINUOUS
 90
13
 70
0
 10
152.5968182346
 20
132.2018912767
 10
152.6104808003
 20
132.2086111942
 10
152.6254001425
 20
132.2144873937
 10
152.6414475502
 20
132.2194441254
 10
152.658515134
 20
132.2234153985
 10
152.6764336009
 20
132.2263465778
 10
152.6949650851
 20
132.2281915497
 10
152.7139011877
 20
132.2289363156
 10
152.7331177886
 20
132.2285738405
 10
152.7524935817
 20
132.2270752344
 10
152.7718694378
 20
132.2244275335
 10
152.7910364375
 20
132.2206631832
 10
152.8097941334
 20
132.2158142313
  0
LWPOLYLINE
  5
29E
100
AcDbEntity
  8
ASSI
100
AcDbPolyline
 62
250
  6
CONTINUOUS
 90
27
 70
0
 10
150.5849270126
 20
131.0315533378
 10
150.5748129734
 20
131.0270452616
 10
150.5646034035
 20
131.0223700471
 10
150.5542167395
 20
131.0175015619
 10
150.5436954415
 20
131.0124241949
 10
150.5330647981
 20
131.0070193722
 10
150.5222586337
 20
131.0012441421
 10
150.5112970986
 20
130.9950841718
 10
150.5003324689
 20
130.9884431069
 10
150.4893711449
 20
130.981289531
 10
150.4783980515
 20
130.9735806109
 10
150.4675455642
 20
130.9651812908
 10
150.4568269896
 20
130.9560531149
 10
150.4462698937
 20
130.9461635797
 10
150.4360472219
 20
130.9353733355
 10
150.4261604148
 20
130.9235222416
 10
150.4167271257
 20
130.9107419357
 10
150.4081348421
 20
130.8973426104
 10
150.4005638173
 20
130.8832321177
 10
150.3940440824
 20
130.8685825065
 10
150.3887367597
 20
130.8541137957
 10
150.3848177054
 20
130.8399440265
 10
150.3822304472
 20
130.8260660788
 10
150.3807173918
 20
130.8129737494
 10
150.3801725347
 20
130.8008261284
 10
150.3806752871
 20
130.7894775882
 10
150.3822021874
 20
130.7789225307
  0
LINE
  5
29F
100
AcDbEntity
  8
ASSI
100
AcDbLine
 62
250
  6
CONTINUOUS
 10
150.6258312032
 20
131.0495308442
 11
150.5849270126
 21
131.0315533378
  0
LWPOLYLINE
  5
2A0
100
AcDbEntity
  8
RACCORDO
100
AcDbPolyline
 62
250
  6
CONTINUOUS
 90
5
 70
0
 10
154.5952423299
 20
93.7171883407
 10
154.6081721868
 20
93.7193547963
 10
154.6204014643
 20
93.7192339027
 10
154.6317255335
 20
93.7168276827
 10
154.6412920301
 20
93.7125656579
  0
LINE
  5
2A1
100
AcDbEntity
  8
RACCORDO
100
AcDbLine
 62
7
  6
CONTINUOUS
 10
145.9287826392
 20
94.1760866703
 11
146.0677183979
 21
94.1918040478
  0
LINE
  5
2A2
100
AcDbEntity
  8
RACCORDO
100
AcDbLine
 62
250
  6
CONTINUOUS
 10
145.9870074828
 20
94.2339190836
 11
146.0677183979
 21
94.2430496626
  0
LINE
  5
2A3
100
AcDbEntity
  8
RACCORDO
100
AcDbLine
 62
7
  6
CONTINUOUS
 10
151.4875510872
 20
93.9615191153
 11
151.4380615157
 21
93.9620178396
  0
LINE
  5
2A4
100
AcDbEntity
  8
RACCORDO
100
AcDbLine
 62
250
  6
CONTINUOUS
 10
151.4905741423
 20
94.0882876433
 11
151.4380615157
 21
94.088816832
  0
LINE
  5
2A5
100
AcDbEntity
  8
RACCORDO
100
AcDbLine
 62
250
  6
CONTINUOUS
 10
146.2141650073
 20
87.5988520684
 11
135.5901759447
 21
93.7330102033
  0
LINE
  5
2A6
100
AcDbEntity
  8
RACCORDO
100
AcDbLine
 62
250
  6
CONTINUOUS
 10
146.134705696
 20
87.764301527
 11
135.6937293352
 21
93.7927904215
  0
LWPOLYLINE
  5
2A7
100
AcDbEntity
  8
ASSI
100
AcDbPolyline
 62
250
  6
CONTINUOUS
 90
6
 70
0
 10
141.8527634511
 20
132.5844762422
 10
141.8357920502
 20
132.5555622033
 10
141.8206241119
 20
132.5270525262
 10
141.8073901446
 20
132.4993246681
 10
141.7959596398
 20
132.4720011718
 10
141.7859624495
 20
132.4448342635
  0
LWPOLYLINE
  5
2A8
100
AcDbEntity
  8
ASSI
100
AcDbPolyline
 62
250
  6
CONTINUOUS
 90
6
 70
0
 10
141.9377816682
 20
132.6350439163
 10
141.9429903336
 20
132.6428073882
 10
141.9456953997
 20
132.6528267724
 10
141.9458344287
 20
132.664915026
 10
141.9434050558
 20
132.6788668846
 10
141.9384485297
 20
132.6944454378
  0
LWPOLYLINE
  5
2A9
100
AcDbEntity
  8
ASSI
100
AcDbPolyline
 62
250
  6
CONTINUOUS
 90
11
 70
0
 10
146.115501537
 20
129.4821187185
 10
146.1281591822
 20
129.4951331213
 10
146.1391744947
 20
129.5086937537
 10
146.148434377
 20
129.52265771
 10
146.1558419169
 20
129.5368727358
 10
146.1613262125
 20
129.5511951442
 10
146.1648356252
 20
129.5654915335
 10
146.1663299789
 20
129.5796279427
 10
146.1657844111
 20
129.5934391354
 10
146.1632086758
 20
129.6067497035
 10
146.1618313529
 20
129.6112715473
  0
LINE
  5
2AA
100
AcDbEntity
  8
ASSI
100
AcDbLine
 62
250
  6
CONTINUOUS
 10
153.4540379765
 20
132.6804553505
 11
153.4679035411
 21
132.6914727139
  0
LWPOLYLINE
  5
2AB
100
AcDbEntity
  8
ASSI
100
AcDbPolyline
 62
7
  6
CONTINUOUS
 90
7
 70
0
 10
151.0433916484
 20
130.0879543109
 10
151.0324268298
 20
130.079808475
 10
151.0229794603
 20
130.0711628142
 10
151.0149876131
 20
130.0619448403
 10
151.0085132149
 20
130.0522270414
 10
151.0037420466
 20
130.0422268816
 10
151.0011450306
 20
130.0334060182
  0
LINE
  5
2AC
100
AcDbEntity
  8
ASSI
100
AcDbLine
 62
7
  6
CONTINUOUS
 10
149.8475903438
 20
129.2113668834
 11
150.5742707618
 21
129.723759314
  0
LINE
  5
2AD
100
AcDbEntity
  8
RACCORDO
100
AcDbLine
 62
250
  6
CONTINUOUS
 10
149.9107709454
 20
129.1752129569
 11
150.7097288857
 21
129.73856927
  0
LINE
  5
2AE
100
AcDbEntity
  8
ASSI
100
AcDbLine
 62
7
  6
CONTINUOUS
 10
151.4297555125
 20
128.6764330525
 11
152.2602836861
 21
129.21122338
  0
LWPOLYLINE
  5
2AF
100
AcDbEntity
  8
ASSI
100
AcDbPolyline
 62
7
  6
CONTINUOUS
 90
6
 70
0
 10
153.5219730662
 20
131.5048369051
 10
153.5080956035
 20
131.4959134937
 10
153.496141332
 20
131.4863877565
 10
153.4861102517
 20
131.4762596937
 10
153.4779190518
 20
131.465395495
 10
153.4760187648
 20
131.4619191617
  0
LINE
  5
2B0
100
AcDbEntity
  8
ASSI
100
AcDbLine
 62
250
  6
CONTINUOUS
 10
153.4679035411
 20
132.6914727139
 11
153.4843157837
 21
132.7016045775
  0
LINE
  5
2B1
100
AcDbEntity
  8
ASSI
100
AcDbLine
 62
7
  6
CONTINUOUS
 10
151.0558739162
 20
130.0956003217
 11
151.0433916484
 21
130.0879543109
  0
LINE
  5
2B2
100
AcDbEntity
  8
RACCORDO
100
AcDbLine
 62
250
  6
CONTINUOUS
 10
158.3972173077
 20
132.027880253
 11
154.3669781222
 21
129.6875608108
  0
LINE
  5
2B3
100
AcDbEntity
  8
RACCORDO
100
AcDbLine
 62
250
  6
CONTINUOUS
 10
158.5432748033
 20
131.7425625366
 11
154.6865870089
 21
129.5030226452
  0
LINE
  5
2B4
100
AcDbEntity
  8
RACCORDO
100
AcDbLine
 62
250
  6
CONTINUOUS
 10
150.6426653551
 20
128.7526262975
 11
151.5299980425
 21
129.2649561392
  0
LINE
  5
2B5
100
AcDbEntity
  8
RACCORDO
100
AcDbLine
 62
250
  6
CONTINUOUS
 10
150.9251074731
 20
128.5895477584
 11
151.6712255857
 21
129.0203428593
  0
LINE
  5
2B6
100
AcDbEntity
  8
RACCORDO
100
AcDbLine
 62
250
  6
CONTINUOUS
 10
153.9092919885
 20
130.1396933646
 11
158.2204675363
 21
132.6289206411
  0
LINE
  5
2B7
100
AcDbEntity
  8
RACCORDO
100
AcDbLine
 62
7
  6
CONTINUOUS
 10
151.1021926139
 20
128.4873010175
 11
151.4297555125
 21
128.6764330525
  0
LINE
  5
2B8
100
AcDbEntity
  8
RACCORDO
100
AcDbLine
 62
250
  6
CONTINUOUS
 10
151.2768700894
 20
128.3216199394
 11
150.678612574
 21
127.9761923619
  0
LINE
  5
2B9
100
AcDbEntity
  8
RACCORDO
100
AcDbLine
 62
250
  6
CONTINUOUS
 10
154.1000844416
 20
129.841661877
 11
158.3972173077
 21
132.3227810572
  0
LINE
  5
2BA
100
AcDbEntity
  8
RACCORDO
100
AcDbLine
 62
250
  6
CONTINUOUS
 10
151.4182699065
 20
128.0767082723
 11
150.9613983008
 21
127.8129154274
  0
LINE
  5
2BB
100
AcDbEntity
  8
0
100
AcDbLine
 62
250
  6
CONTINUOUS
 10
149.9961947431
 20
127.1133180448
 11
148.6805760019
 21
126.3537000186
  0
LINE
  5
2BC
100
AcDbEntity
  8
RACCORDO
100
AcDbLine
 62
250
  6
CONTINUOUS
 10
150.360548843
 20
127.0788368569
 11
151.2966616986
 21
127.6193385433
  0
LINE
  5
2BD
100
AcDbEntity
  8
ASSI
100
AcDbLine
 62
7
  6
CONTINUOUS
 10
155.8632152207
 20
132.8526327579
 11
153.5219730662
 21
131.5048369051
  0
LINE
  5
2BE
100
AcDbEntity
  8
ASSI
100
AcDbLine
 62
7
  6
CONTINUOUS
 10
152.7327815712
 20
131.0505186503
 11
151.524908126
 21
130.3551754419
  0
LINE
  5
2BF
100
AcDbEntity
  8
RACCORDO
100
AcDbLine
 62
250
  6
CONTINUOUS
 10
153.9930297868
 20
128.9301129278
 11
154.8027093682
 21
129.3873566806
  0
LINE
  5
2C0
100
AcDbEntity
  8
ASSI
100
AcDbLine
 62
7
  6
CONTINUOUS
 10
151.524908126
 20
130.3551754419
 11
151.0558746552
 21
130.0956007307
  0
LINE
  5
2C1
100
AcDbEntity
  8
ASSI
100
AcDbLine
 62
7
  6
CONTINUOUS
 10
150.3259316275
 20
129.691632225
 11
148.9890108381
 21
128.9517472285
  0
LINE
  5
2C2
100
AcDbEntity
  8
DRAFT
100
AcDbLine
 62
7
  6
CONTINUOUS
 10
151.3787179238
 20
128.6469643824
 11
151.0926916437
 21
128.4927867587
  0
LINE
  5
2C3
100
AcDbEntity
  8
ASSI
100
AcDbLine
 62
7
  6
CONTINUOUS
 10
149.6524728838
 20
129.2148592673
 11
149.0730138422
 21
128.9032449468
  0
LINE
  5
2C4
100
AcDbEntity
  8
RACCORDO
100
AcDbLine
 62
250
  6
CONTINUOUS
 10
149.7496662236
 20
129.2034083111
 11
149.130152431
 21
128.8702538417
  0
LINE
  5
2C5
100
AcDbEntity
  8
RACCORDO
100
AcDbLine
 62
250
  6
CONTINUOUS
 10
151.3658959129
 20
127.5583190232
 11
153.9929705825
 21
128.9301471116
  0
LWPOLYLINE
  5
2C6
100
AcDbEntity
  8
RACCORDO
100
AcDbPolyline
 62
250
  6
CONTINUOUS
 90
8
 70
0
 10
158.5432748033
 20
131.7425625366
 10
158.5567531286
 20
131.7492899551
 10
158.5696668064
 20
131.7540470064
 10
158.5817997562
 20
131.7567540938
 10
158.5929489617
 20
131.7573659221
 10
158.6029278667
 20
131.7558722555
 10
158.6115694965
 20
131.7522980896
 10
158.6153086313
 20
131.7497747626
  0
LWPOLYLINE
  5
2C7
100
AcDbEntity
  8
RACCORDO
100
AcDbPolyline
 62
250
  6
CONTINUOUS
 90
8
 70
0
 10
158.8875559151
 20
131.4736838884
 10
158.9010342123
 20
131.4804112947
 10
158.9139478688
 20
131.4851683434
 10
158.9260808043
 20
131.4878754365
 10
158.9372300023
 20
131.4884872768
 10
158.9472089065
 20
131.4869936268
 10
158.9558505432
 20
131.4834194791
 10
158.9595415977
 20
131.4809335632
  0
LWPOLYLINE
  5
2C8
100
AcDbEntity
  8
0
100
AcDbPolyline
 62
250
  6
CONTINUOUS
 90
16
 70
0
 10
149.0340082386
 20
125.7415374283
 10
148.9947839923
 20
125.7221662716
 10
148.9523100153
 20
125.7052331283
 10
148.9070389305
 20
125.6909184466
 10
148.8594475078
 20
125.6793735927
 10
148.8100481438
 20
125.6707234472
 10
148.7593852614
 20
125.6650616622
 10
148.7080116715
 20
125.6624456421
 10
148.6564626637
 20
125.6628983353
 10
148.60526815
 20
125.6664135059
 10
148.5549029578
 20
125.6729650672
 10
148.5059760655
 20
125.6824804391
 10
148.4591849075
 20
125.6948054288
 10
148.4150544788
 20
125.7097567166
 10
148.3739548858
 20
125.7271616087
 10
148.3362775602
 20
125.746811167
  0
LWPOLYLINE
  5
2C9
100
AcDbEntity
  8
RACCORDO
100
AcDbPolyline
 62
250
  6
CONTINUOUS
 90
7
 70
0
 10
158.2204675363
 20
132.6289206411
 10
158.2341413958
 20
132.6355153765
 10
158.2475554808
 20
132.6399329309
 10
158.2604853377
 20
132.6420993865
 10
158.2727146151
 20
132.6419784929
 10
158.2840386844
 20
132.6395722729
 10
158.2935823754
 20
132.6353233973
  0
LWPOLYLINE
  5
2CA
100
AcDbEntity
  8
RACCORDO
100
AcDbPolyline
 62
250
  6
CONTINUOUS
 90
7
 70
0
 10
154.8027093682
 20
129.3873566806
 10
154.8163832275
 20
129.3939514161
 10
154.8297973125
 20
129.3983689705
 10
154.8427271693
 20
129.4005354262
 10
154.8549564467
 20
129.4004145326
 10
154.8662805161
 20
129.3980083125
 10
154.8758100803
 20
129.3937675741
  0
LWPOLYLINE
  5
2CB
100
AcDbEntity
  8
RACCORDO
100
AcDbPolyline
 62
7
  6
CONTINUOUS
 90
6
 70
0
 10
145.8180022756
 20
94.198084452
 10
145.8385333438
 20
94.1879813972
 10
145.8631220587
 20
94.1799786203
 10
145.8886677157
 20
94.1756672583
 10
145.9150713691
 20
94.1750083218
 10
145.9287018992
 20
94.1760775973
  0
LWPOLYLINE
  5
2CC
100
AcDbEntity
  8
0
100
AcDbPolyline
 62
250
  6
CONTINUOUS
 90
9
 70
0
 10
133.3216167824
 20
92.3838966998
 10
133.3227314675
 20
92.364630269
 10
133.3288195292
 20
92.3350711984
 10
133.3401664353
 20
92.3059909677
 10
133.356646481
 20
92.2777411932
 10
133.3779926141
 20
92.2507245651
 10
133.4038873359
 20
92.2252442086
 10
133.4340315511
 20
92.2015138187
 10
133.4680633918
 20
92.1797594031
  0
LINE
  5
2CD
100
AcDbEntity
  8
RACCORDO
100
AcDbLine
 62
7
  6
CONTINUOUS
 10
133.3216167883
 20
113.29952843
 11
133.3216167824
 21
113.2995735237
  0
LINE
  5
2CE
100
AcDbEntity
  8
0
100
AcDbLine
 62
7
  6
CONTINUOUS
 10
133.3216167824
 20
92.3838966998
 11
133.3216167824
 21
113.2995714032
  0
LINE
  5
2CF
100
AcDbEntity
  8
0
100
AcDbLine
 62
7
  6
CONTINUOUS
 10
133.3216167824
 20
113.6335791132
 11
133.3216167824
 21
134.535668982
  0
LINE
  5
2D0
100
AcDbEntity
  8
RACCORDO
100
AcDbLine
 62
250
  6
CONTINUOUS
 10
133.4680633918
 20
92.1797594031
 11
133.4680633918
 21
113.0937642059
  0
LINE
  5
2D1
100
AcDbEntity
  8
DRAFT
100
AcDbLine
 62
250
  6
CONTINUOUS
 10
133.4680633918
 20
113.4357081782
 11
133.4680633918
 21
134.3315316853
  0
LWPOLYLINE
  5
2D2
100
AcDbEntity
  8
0
100
AcDbPolyline
 62
250
  6
CONTINUOUS
 90
16
 70
0
 10
133.4680633918
 20
134.3315316853
 10
133.4699362287
 20
134.3745765627
 10
133.475534898
 20
134.4193281122
 10
133.4848000852
 20
134.4653122196
 10
133.4976336318
 20
134.5120417126
 10
133.5138995745
 20
134.5590215218
 10
133.5334255858
 20
134.6057539255
 10
133.5560048
 20
134.6517438235
 10
133.5813980046
 20
134.6965039821
 10
133.6093361749
 20
134.739560196
 10
133.6395233237
 20
134.7804563121
 10
133.6716396374
 20
134.8187590617
 10
133.7053448639
 20
134.8540626514
 10
133.7402819175
 20
134.885993062
 10
133.7760806624
 20
134.9142120112
 10
133.8123618336
 20
134.9384205369
  0
LWPOLYLINE
  5
2D3
100
AcDbEntity
  8
RACCORDO
100
AcDbPolyline
 62
250
  6
CONTINUOUS
 90
10
 70
0
 10
133.4680633918
 20
113.0937642059
 10
133.4691141977
 20
113.1083943368
 10
133.4722352759
 20
113.123802709
 10
133.4773337243
 20
113.1395313503
 10
133.4842579239
 20
113.1551128933
 10
133.4928019661
 20
113.1700842568
 10
133.5027117133
 20
113.18400044
 10
133.5136925265
 20
113.1964480326
 10
133.5254180938
 20
113.2070574503
 10
133.5375399984
 20
113.2155137202
  0
LINE
  5
2D4
100
AcDbEntity
  8
ASSI
100
AcDbLine
 62
7
  6
CONTINUOUS
 10
144.1936655024
 20
132.6658595731
 11
144.575477773
 21
133.4757300889
  0
LINE
  5
2D5
100
AcDbEntity
  8
ASSI
100
AcDbLine
 62
250
  6
CONTINUOUS
 10
144.2520947507
 20
132.5915045653
 11
144.6339070213
 21
133.4013750811
  0
LWPOLYLINE
  5
2D6
100
AcDbEntity
  8
ASSI
100
AcDbPolyline
 62
7
  6
CONTINUOUS
 90
13
 70
0
 10
144.1936664373
 20
132.6658615557
 10
144.1834996802
 20
132.6455292501
 10
144.171172658
 20
132.6235258612
 10
144.1575816976
 20
132.6017695296
 10
144.1429126649
 20
132.5805671417
 10
144.1273762382
 20
132.5602170333
 10
144.1111447047
 20
132.5409237393
 10
144.0944486654
 20
132.5229220247
 10
144.0775633834
 20
132.5064542308
 10
144.0608041992
 20
132.4917437448
 10
144.0445331196
 20
132.4789868915
 10
144.0290972824
 20
132.4683064972
 10
144.0155752138
 20
132.4601615835
  0
LWPOLYLINE
  5
2D7
100
AcDbEntity
  8
ASSI
100
AcDbPolyline
 62
7
  6
CONTINUOUS
 90
7
 70
0
 10
148.5980410677
 20
134.6461897059
 10
148.598396446
 20
134.646744496
 10
148.5978585745
 20
134.6461207389
 10
148.5951144773
 20
134.6433384282
 10
148.5899413449
 20
134.6389521882
 10
148.5824885811
 20
134.6336110623
 10
148.5720364588
 20
134.6272678442
  0
LWPOLYLINE
  5
2D8
100
AcDbEntity
  8
RACCORDO
100
AcDbPolyline
 62
7
  6
CONTINUOUS
 90
6
 70
0
 10
133.3738808669
 20
113.4523745238
 10
133.3545703521
 20
113.4223744687
 10
133.3396713539
 20
113.3913033469
 10
133.3292435585
 20
113.3595606536
 10
133.3232537674
 20
113.3274621146
 10
133.3216205488
 20
113.2995757713
  0
LWPOLYLINE
  5
2D9
100
AcDbEntity
  8
ASSI
100
AcDbPolyline
 62
250
  6
CONTINUOUS
 90
11
 70
0
 10
150.8342001349
 20
131.1883819839
 10
150.8203309022
 20
131.1746344142
 10
150.8125214315
 20
131.167081362
 10
150.8039963885
 20
131.159148835
 10
150.7947413371
 20
131.150813398
 10
150.7845994779
 20
131.1421248865
 10
150.7734582097
 20
131.1331593909
 10
150.7613333382
 20
131.1239278263
 10
150.7481144018
 20
131.114474733
 10
150.7335817576
 20
131.1048937162
 10
150.7175661961
 20
131.0952699621
  0
LWPOLYLINE
  5
2DA
100
AcDbEntity
  8
RACCORDO
100
AcDbPolyline
 62
7
  6
CONTINUOUS
 90
3
 70
0
 10
133.4005405469
 20
113.4839217323
 10
133.3974238198
 20
113.4808986522
 10
133.3738808669
 20
113.4523745238
  0
LWPOLYLINE
  5
2DB
100
AcDbEntity
  8
ASSI
100
AcDbPolyline
 62
250
  6
CONTINUOUS
 90
3
 70
0
 10
153.4597871734
 20
132.7134364895
 10
153.4707911925
 20
132.7230615278
 10
153.4830849089
 20
132.7318627539
  0
LWPOLYLINE
  5
2DC
100
AcDbEntity
  8
RACCORDO
100
AcDbPolyline
 62
250
  6
CONTINUOUS
 90
7
 70
0
 10
158.3972173077
 20
132.3227810572
 10
158.4097650152
 20
132.3313264587
 10
158.4202972703
 20
132.3407355633
 10
158.4286378429
 20
132.3508509289
 10
158.4346471767
 20
132.3615032967
 10
158.4382247227
 20
132.3725144218
 10
158.4393162761
 20
132.3828656567
  0
LWPOLYLINE
  5
2DD
100
AcDbEntity
  8
RACCORDO
100
AcDbPolyline
 62
250
  6
CONTINUOUS
 90
7
 70
0
 10
158.3972173077
 20
132.027880253
 10
158.409764969
 20
132.0364256208
 10
158.4202972009
 20
132.0458346913
 10
158.4286377706
 20
132.0559500255
 10
158.434647118
 20
132.0666023666
 10
158.4382246907
 20
132.0776134724
 10
158.4393163376
 20
132.0880433085
  0
LWPOLYLINE
  5
2DE
100
AcDbEntity
  8
RACCORDO
100
AcDbPolyline
 62
250
  6
CONTINUOUS
 90
7
 70
0
 10
159.0336134108
 20
131.1883661721
 10
159.0461610753
 20
131.1969115424
 10
159.0566933087
 20
131.2063206154
 10
159.0650338786
 20
131.2164359518
 10
159.0710432251
 20
131.2270882949
 10
159.0746207959
 20
131.238099402
 10
159.075712414
 20
131.248477587
  0
LWPOLYLINE
  5
2DF
100
AcDbEntity
  8
RACCORDO
100
AcDbPolyline
 62
250
  6
CONTINUOUS
 90
7
 70
0
 10
159.0336134108
 20
130.8086119952
 10
159.0461610721
 20
130.817157363
 10
159.0566933039
 20
130.8265664335
 10
159.0650338736
 20
130.8366817677
 10
159.0710432211
 20
130.8473341089
 10
159.0746207937
 20
130.8583452146
 10
159.0757124318
 20
130.8687451284
  0
LWPOLYLINE
  5
2E0
100
AcDbEntity
  8
RACCORDO
100
AcDbPolyline
 62
7
  6
CONTINUOUS
 90
16
 70
0
 10
155.5173209058
 20
128.3995642084
 10
155.5318918841
 20
128.4094869458
 10
155.5467439232
 20
128.4222318567
 10
155.5601448848
 20
128.4367841557
 10
155.5718066172
 20
128.452886101
 10
155.5815807148
 20
128.4703570774
 10
155.5894040124
 20
128.4891872438
 10
155.5951282987
 20
128.5092833742
 10
155.598557903
 20
128.530249134
 10
155.5996160906
 20
128.5517870863
 10
155.5982131073
 20
128.5742547598
 10
155.5942458277
 20
128.5970449332
 10
155.5880789896
 20
128.6187275097
 10
155.579827267
 20
128.6396165461
 10
155.5695273879
 20
128.6597599076
 10
155.5647360703
 20
128.6677507755
  0
LWPOLYLINE
  5
2E1
100
AcDbEntity
  8
0
100
AcDbPolyline
 62
250
  6
CONTINUOUS
 90
16
 70
0
 10
148.6805760019
 20
126.3537000186
 10
148.6442948307
 20
126.3294914928
 10
148.6084960858
 20
126.3012725437
 10
148.5735590322
 20
126.2693421331
 10
148.5398538058
 20
126.2340385434
 10
148.5077374921
 20
126.1957357937
 10
148.4775503432
 20
126.1548396777
 10
148.449612173
 20
126.1117834638
 10
148.4242189684
 20
126.0670233052
 10
148.4016397542
 20
126.0210334072
 10
148.3821137429
 20
125.9743010035
 10
148.3658478002
 20
125.9273211943
 10
148.3530142536
 20
125.8805917013
 10
148.3437490663
 20
125.8346075939
 10
148.3381503971
 20
125.7898560444
 10
148.3362775602
 20
125.746811167
  0
LWPOLYLINE
  5
2E2
100
AcDbEntity
  8
ASSI
100
AcDbPolyline
 62
250
  6
CONTINUOUS
 90
9
 70
0
 10
151.4182699065
 20
128.0767082723
 10
151.4319248196
 20
128.0857720867
 10
151.4438721173
 20
128.0956032675
 10
151.4539839579
 20
128.1060949151
 10
151.4621482211
 20
128.1171263975
 10
151.4682849485
 20
128.1285843556
 10
151.472334909
 20
128.1403662078
 10
151.4742463575
 20
128.1523715842
 10
151.4744019224
 20
128.1568690913
  0
LWPOLYLINE
  5
2E3
100
AcDbEntity
  8
ASSI
100
AcDbPolyline
 62
250
  6
CONTINUOUS
 90
8
 70
0
 10
151.4182699065
 20
127.7073972827
 10
151.431876271
 20
127.7164252808
 10
151.4437913076
 20
127.7262178895
 10
151.4538870397
 20
127.7366699341
 10
151.4620552359
 20
127.747669479
 10
151.4682078401
 20
127.7590980873
 10
151.4722785019
 20
127.7708319843
 10
151.4740838083
 20
127.781886035
  0
LWPOLYLINE
  5
2E4
100
AcDbEntity
  8
RACCORDO
100
AcDbPolyline
 62
7
  6
CONTINUOUS
 90
9
 70
0
 10
150.8443159087
 20
125.7279251339
 10
150.8478481471
 20
125.7302621976
 10
150.8573529832
 20
125.7383295869
 10
150.8655490091
 20
125.7481474419
 10
150.872358954
 20
125.7596028335
 10
150.8777190926
 20
125.7725596992
 10
150.8815798582
 20
125.7868654157
 10
150.8839045499
 20
125.8023545433
 10
150.8846752279
 20
125.8188505721
  0
LWPOLYLINE
  5
2E5
100
AcDbEntity
  8
RACCORDO
100
AcDbPolyline
 62
250
  6
CONTINUOUS
 90
25
 70
0
 10
155.5173242859
 20
128.3995662049
 10
155.5215766168
 20
128.4023587572
 10
155.5267511078
 20
128.4064126366
 10
155.5316064598
 20
128.4110033699
 10
155.5360872596
 20
128.4160839452
 10
155.5402121763
 20
128.421681177
 10
155.5440435036
 20
128.4279328292
 10
155.5475603475
 20
128.4349223745
 10
155.5506744959
 20
128.4426112856
 10
155.5533240092
 20
128.4509746904
 10
155.5554617223
 20
128.4600080148
 10
155.5570424463
 20
128.4697074321
 10
155.5580195716
 20
128.480030077
 10
155.5583545731
 20
128.4909579482
 10
155.558010156
 20
128.5024558416
 10
155.5569587789
 20
128.5144368635
 10
155.5551904798
 20
128.5267839038
 10
155.5526831856
 20
128.5395115135
 10
155.5493784146
 20
128.5527243106
 10
155.5452513482
 20
128.5663253902
 10
155.5402639286
 20
128.5802777805
 10
155.5342754044
 20
128.5947656154
 10
155.5271835049
 20
128.6097706046
 10
155.5189763782
 20
128.6250716643
 10
155.5096233141
 20
128.6405130148
  0
LWPOLYLINE
  5
2E6
100
AcDbEntity
  8
RACCORDO
100
AcDbPolyline
 62
250
  6
CONTINUOUS
 90
6
 70
0
 10
151.3635997536
 20
125.1909692881
 10
151.3753217068
 20
125.1986415547
 10
151.3845145673
 20
125.2073881569
 10
151.3908894899
 20
125.2169345304
 10
151.3942460864
 20
125.2269809917
 10
151.3947642961
 20
125.2328514466
  0
LWPOLYLINE
  5
2E7
100
AcDbEntity
  8
RACCORDO
100
AcDbPolyline
 62
250
  6
CONTINUOUS
 90
13
 70
0
 10
150.360548843
 20
127.0788368569
 10
150.3464941169
 20
127.0699851458
 10
150.3326484478
 20
127.0591297074
 10
150.319253198
 20
127.0464606126
 10
150.30654069
 20
127.0322000643
 10
150.2947336503
 20
127.0165974919
 10
150.2840411718
 20
126.9999253772
 10
150.2746493093
 20
126.9824759812
 10
150.2667213714
 20
126.9645551622
 10
150.2603982464
 20
126.9464761704
 10
150.2557904012
 20
126.9285555325
 10
150.252976214
 20
126.9111074605
 10
150.2520038184
 20
126.8944375148
  0
LINE
  5
2E8
100
AcDbEntity
  8
RACCORDO
100
AcDbLine
 62
250
  6
CONTINUOUS
 10
150.8846752279
 20
125.8188505721
 11
151.4380615157
 21
126.1610729534
  0
LINE
  5
2E9
100
AcDbEntity
  8
RACCORDO
100
AcDbLine
 62
7
  6
CONTINUOUS
 10
150.8443166466
 20
125.7279255602
 11
151.398383225
 21
126.0705686435
  0
LINE
  5
2EA
100
AcDbEntity
  8
RACCORDO
100
AcDbLine
 62
250
  6
CONTINUOUS
 10
153.0980331966
 20
127.1770113059
 11
155.5096233141
 21
128.6405130148
  0
LINE
  5
2EB
100
AcDbEntity
  8
RACCORDO
100
AcDbLine
 62
7
  6
CONTINUOUS
 10
153.2605090408
 20
127.0305136033
 11
155.516105205
 21
128.398845067
  0
LINE
  5
2EC
100
AcDbEntity
  8
RACCORDO
100
AcDbLine
 62
7
  6
CONTINUOUS
 10
150.842526293
 20
125.7268554456
 11
150.8443159087
 21
125.7279251339
  0
LINE
  5
2ED
100
AcDbEntity
  8
RACCORDO
100
AcDbLine
 62
250
  6
CONTINUOUS
 10
150.931934976
 20
125.7740286028
 11
150.8044869343
 21
125.6989881425
  0
LINE
  5
2EE
100
AcDbEntity
  8
RACCORDO
100
AcDbLine
 62
250
  6
CONTINUOUS
 10
150.9785247632
 20
125.6259987808
 11
150.9549533344
 21
125.6121222205
  0
LINE
  5
2EF
100
AcDbEntity
  8
RACCORDO
100
AcDbLine
 62
250
  6
CONTINUOUS
 10
158.8875559151
 20
131.4736838884
 11
155.0713510615
 21
129.2576520343
  0
LINE
  5
2F0
100
AcDbEntity
  8
RACCORDO
100
AcDbLine
 62
250
  6
CONTINUOUS
 10
159.0336134108
 20
131.1883661721
 11
155.3092307717
 21
129.0256545564
  0
LINE
  5
2F1
100
AcDbEntity
  8
RACCORDO
100
AcDbLine
 62
250
  6
CONTINUOUS
 10
150.5372931347
 20
126.8543327165
 11
151.4380615157
 21
127.3744268762
  0
LINE
  5
2F2
100
AcDbEntity
  8
0
100
AcDbLine
 62
250
  6
CONTINUOUS
 10
150.3496269798
 20
126.5011554545
 11
149.0340082386
 21
125.7415374283
  0
LINE
  5
2F3
100
AcDbEntity
  8
RACCORDO
100
AcDbLine
 62
250
  6
CONTINUOUS
 10
150.6738209106
 20
125.6971055139
 11
150.8846752279
 21
125.8188505721
  0
LINE
  5
2F4
100
AcDbEntity
  8
RACCORDO
100
AcDbLine
 62
7
  6
CONTINUOUS
 10
150.62995804
 20
125.604120779
 11
150.8425267893
 21
125.7268557322
  0
LWPOLYLINE
  5
2F5
100
AcDbEntity
  8
RACCORDO
100
AcDbPolyline
 62
250
  6
CONTINUOUS
 90
9
 70
0
 10
155.5096233141
 20
128.6405130148
 10
155.5225524572
 20
128.6478626379
 10
155.5340608709
 20
128.6542118911
 10
155.5439559886
 20
128.6594545343
 10
155.5520722384
 20
128.6635028439
 10
155.5582738136
 20
128.6662890809
 10
155.562456945
 20
128.6677666241
 10
155.5645516378
 20
128.66791075
 10
155.5647360703
 20
128.6677507755
  0
LINE
  5
2F6
100
AcDbEntity
  8
DRAFT
100
AcDbLine
 62
7
  6
CONTINUOUS
 10
150.8195716163
 20
123.6972206426
 11
150.3496269798
 21
123.4304985506
  0
LINE
  5
2F7
100
AcDbEntity
  8
RACCORDO
100
AcDbLine
 62
250
  6
CONTINUOUS
 10
154.6360377515
 20
128.2664711378
 11
155.4674419937
 21
128.7355708247
  0
LWPOLYLINE
  5
2F8
100
AcDbEntity
  8
RACCORDO
100
AcDbPolyline
 62
250
  6
CONTINUOUS
 90
8
 70
0
 10
155.4674419937
 20
128.7355708247
 10
155.4789584868
 20
128.7419075547
 10
155.4888662872
 20
128.7471301515
 10
155.4969996244
 20
128.7511512362
 10
155.5032224104
 20
128.7539035297
 10
155.5074305289
 20
128.7553409868
 10
155.5095535947
 20
128.7554395736
 10
155.5097466668
 20
128.7552657812
  0
LINE
  5
2F9
100
AcDbEntity
  8
RACCORDO
100
AcDbLine
 62
250
  6
CONTINUOUS
 10
150.5219948439
 20
125.5640696057
 11
150.3496269798
 21
125.4696257629
  0
LINE
  5
2FA
100
AcDbEntity
  8
RACCORDO
100
AcDbLine
 62
250
  6
CONTINUOUS
 10
150.7654947676
 20
125.5362425684
 11
150.3496269798
 21
125.3083801872
  0
LWPOLYLINE
  5
2FB
100
AcDbEntity
  8
RACCORDO
100
AcDbPolyline
 62
250
  6
CONTINUOUS
 90
9
 70
0
 10
150.5372931347
 20
125.7787444378
 10
150.5177010154
 20
125.7684840845
 10
150.4959350492
 20
125.7598062138
 10
150.4723759076
 20
125.7528626446
 10
150.4474356327
 20
125.7477748642
 10
150.4215504531
 20
125.7446319065
 10
150.3951731563
 20
125.743488787
 10
150.3687651223
 20
125.7443655368
 10
150.3496269798
 20
125.7464883171
  0
LWPOLYLINE
  5
2FC
100
AcDbEntity
  8
RACCORDO
100
AcDbPolyline
 62
250
  6
CONTINUOUS
 90
9
 70
0
 10
150.5372931347
 20
123.0757421023
 10
150.5177003189
 20
123.0654814225
 10
150.4959336749
 20
123.0568033909
 10
150.4723739461
 20
123.0498598041
 10
150.4474332407
 20
123.0447721198
 10
150.421547823
 20
123.041629332
 10
150.3951704822
 20
123.0404864145
 10
150.3687626123
 20
123.0413633594
 10
150.3496269798
 20
123.0434859998
  0
LINE
  5
2FD
100
AcDbEntity
  8
RACCORDO
100
AcDbLine
 62
250
  6
CONTINUOUS
 10
151.4380615157
 20
126.605195878
 11
154.6360377515
 21
128.2664711378
  0
LWPOLYLINE
  5
2FE
100
AcDbEntity
  8
RACCORDO
100
AcDbPolyline
 62
250
  6
CONTINUOUS
 90
9
 70
0
 10
152.4836116366
 20
100.7979244946
 10
152.5589047007
 20
100.8169875084
 10
152.6318624761
 20
100.828348226
 10
152.7026507992
 20
100.8320843753
 10
152.7710691164
 20
100.8281327387
 10
152.8364950796
 20
100.8164740636
 10
152.8984525554
 20
100.7971880253
 10
152.9569200103
 20
100.7702307429
 10
152.9676904995
 20
100.7641935134
  0
LWPOLYLINE
  5
2FF
100
AcDbEntity
  8
RACCORDO
100
AcDbPolyline
 62
7
  6
CONTINUOUS
 90
5
 70
0
 10
151.4380615157
 20
100.0735601716
 10
151.4482112025
 20
100.0748377409
 10
151.4683495674
 20
100.079946571
 10
151.4877143878
 20
100.0875153808
 10
151.5009366153
 20
100.0943915194
  0
LWPOLYLINE
  5
300
100
AcDbEntity
  8
RACCORDO
100
AcDbPolyline
 62
250
  6
CONTINUOUS
 90
7
 70
0
 10
151.4380615157
 20
100.1605517084
 10
151.4572859556
 20
100.1613846943
 10
151.476700019
 20
100.1637417854
 10
151.4954055481
 20
100.1675575488
 10
151.5130753447
 20
100.172765239
 10
151.5294003278
 20
100.1792737628
 10
151.5440949397
 20
100.1869692727
  0
LWPOLYLINE
  5
301
100
AcDbEntity
  8
RACCORDO
100
AcDbPolyline
 62
250
  6
CONTINUOUS
 90
10
 70
0
 10
151.4905741423
 20
98.0782077442
 10
151.5167208583
 20
98.078866884
 10
151.5426685843
 20
98.080839287
 10
151.5682198424
 20
98.0841099424
 10
151.5931801725
 20
98.088653959
 10
151.6173596106
 20
98.0944367544
 10
151.6405741349
 20
98.1014143176
 10
151.6626470683
 20
98.1095335452
 10
151.6834104228
 20
98.118732645
 10
151.7027061766
 20
98.1289416063
  0
LINE
  5
302
100
AcDbEntity
  8
RACCORDO
100
AcDbLine
 62
250
  6
CONTINUOUS
 10
151.4380615157
 20
98.0776785555
 11
151.4905741423
 21
98.0782077442
  0
LINE
  5
303
100
AcDbEntity
  8
RACCORDO
100
AcDbLine
 62
250
  6
CONTINUOUS
 10
151.4380615157
 20
98.4936982692
 11
151.4868719278
 21
98.4941901494
  0
LWPOLYLINE
  5
304
100
AcDbEntity
  8
RACCORDO
100
AcDbPolyline
 62
250
  6
CONTINUOUS
 90
15
 70
0
 10
154.6216110132
 20
95.7271422012
 10
154.6287259073
 20
95.725410495
 10
154.6407721643
 20
95.7210742941
 10
154.6526465878
 20
95.7151558344
 10
154.6642999848
 20
95.7078869287
 10
154.674934741
 20
95.6994710849
 10
154.6842763397
 20
95.6899642843
 10
154.6925992975
 20
95.6793105456
 10
154.6999295508
 20
95.6675454324
 10
154.7063009593
 20
95.6548876306
 10
154.7116796632
 20
95.6411184544
 10
154.7159900201
 20
95.6256174105
 10
154.7192068158
 20
95.6081776679
 10
154.7213552645
 20
95.5890060577
 10
154.7224353661
 20
95.5681025799
  0
LWPOLYLINE
  5
305
100
AcDbEntity
  8
RACCORDO
100
AcDbPolyline
 62
250
  6
CONTINUOUS
 90
6
 70
0
 10
154.6831885153
 20
93.6883751558
 10
154.673607149
 20
93.6926457635
 10
154.6622830796
 20
93.695051984
 10
154.6500538019
 20
93.695172878
 10
154.6371239445
 20
93.6930064226
 10
154.6237098588
 20
93.6885888683
  0
LINE
  5
306
100
AcDbEntity
  8
RACCORDO
100
AcDbLine
 62
7
  6
CONTINUOUS
 10
136.8176330763
 20
99.3947845309
 11
145.818187405
 21
94.197977265
  0
LINE
  5
307
100
AcDbEntity
  8
RACCORDO
100
AcDbLine
 62
250
  6
CONTINUOUS
 10
136.9623780855
 20
99.8988368243
 11
145.9663425321
 21
94.700060599
  0
LINE
  5
308
100
AcDbEntity
  8
RACCORDO
100
AcDbLine
 62
250
  6
CONTINUOUS
 10
138.2176007281
 20
100.6750853352
 11
146.0677183979
 21
96.1425257778
  0
LINE
  5
309
100
AcDbEntity
  8
RACCORDO
100
AcDbLine
 62
250
  6
CONTINUOUS
 10
138.2870773347
 20
100.7968348496
 11
146.0677183979
 21
96.304390214
  0
LINE
  5
30A
100
AcDbEntity
  8
RACCORDO
100
AcDbLine
 62
250
  6
CONTINUOUS
 10
151.8476787986
 20
93.5408072023
 11
151.4380615157
 21
93.7773128114
  0
LWPOLYLINE
  5
30B
100
AcDbEntity
  8
RACCORDO
100
AcDbPolyline
 62
250
  6
CONTINUOUS
 90
4
 70
0
 10
136.8176330775
 20
99.3947845302
 10
136.8151776388
 20
99.3962505454
 10
136.8090103889
 20
99.4003858682
 10
136.8043467325
 20
99.4040456702
  0
LINE
  5
30C
100
AcDbEntity
  8
RACCORDO
100
AcDbLine
 62
250
  6
CONTINUOUS
 10
138.1567706639
 20
100.7075899263
 11
138.1456775176
 21
100.715208147
  0
LWPOLYLINE
  5
30D
100
AcDbEntity
  8
RACCORDO
100
AcDbPolyline
 62
250
  6
CONTINUOUS
 90
42
 70
0
 10
136.8032001498
 20
99.4049454504
 10
136.7977166663
 20
99.4099357668
 10
136.7925611194
 20
99.4153448731
 10
136.7877422036
 20
99.4211521732
 10
136.7832481019
 20
99.4273628736
 10
136.7790838992
 20
99.4339652383
 10
136.7752562007
 20
99.440943691
 10
136.77176051
 20
99.4483043229
 10
136.7686018697
 20
99.456040006
 10
136.7657889886
 20
99.4641332597
 10
136.763325594
 20
99.4725775471
 10
136.7612167558
 20
99.4813638366
 10
136.7594692509
 20
99.4904738141
 10
136.7580885592
 20
99.4998861718
 10
136.7570780271
 20
99.5095852355
 10
136.7564405131
 20
99.5195539193
 10
136.7561781047
 20
99.5297667163
 10
136.7562912181
 20
99.5402037922
 10
136.7567796345
 20
99.5508479847
 10
136.7576421539
 20
99.5616763839
 10
136.7588766436
 20
99.5726681908
 10
136.7604805988
 20
99.5838048593
 10
136.7624508494
 20
99.595066265
 10
136.7647833494
 20
99.6064318261
 10
136.7674736036
 20
99.6178816001
 10
136.7705169037
 20
99.629396221
 10
136.7739073679
 20
99.6409547872
 10
136.7776387603
 20
99.6525371372
 10
136.7817052395
 20
99.6641249722
 10
136.7860992155
 20
99.6756971731
 10
136.7908129585
 20
99.6872337748
 10
136.7958400889
 20
99.698718218
 10
136.8011720825
 20
99.7101305691
 10
136.8067994271
 20
99.7214499697
 10
136.8127139521
 20
99.7326585001
 10
136.8189048508
 20
99.7437350265
 10
136.8253619266
 20
99.7546606291
 10
136.8320777149
 20
99.7654206591
 10
136.8390485774
 20
99.7760068577
 10
136.8462553476
 20
99.7863876616
 10
136.8536650033
 20
99.7965154742
 10
136.8612360743
 20
99.8063394921
  0
LWPOLYLINE
  5
30E
100
AcDbEntity
  8
RACCORDO
100
AcDbPolyline
 62
250
  6
CONTINUOUS
 90
7
 70
0
 10
133.4230953147
 20
113.3530059683
 10
133.4207356765
 20
113.3734102506
 10
133.420947151
 20
113.3929779967
 10
133.4235905836
 20
113.4113577489
 10
133.4288051289
 20
113.4289009649
 10
133.4361625505
 20
113.4460032377
 10
133.4401724096
 20
113.4533158587
  0
LWPOLYLINE
  5
30F
100
AcDbEntity
  8
0
100
AcDbPolyline
 62
250
  6
CONTINUOUS
 90
9
 70
0
 10
133.3216167828
 20
134.5356575751
 10
133.3227333186
 20
134.5163865782
 10
133.3288247426
 20
134.4868259422
 10
133.3401749059
 20
134.4577458006
 10
133.3566575302
 20
134.4294973427
 10
133.3780047418
 20
134.4024833798
 10
133.4038982965
 20
134.3770068704
 10
133.4340386146
 20
134.3532810967
 10
133.4680633918
 20
134.3315316853
  0
LWPOLYLINE
  5
310
100
AcDbEntity
  8
RACCORDO
100
AcDbPolyline
 62
250
  6
CONTINUOUS
 90
23
 70
0
 10
134.7464496833
 20
135.8833240471
 10
134.7465261722
 20
135.8809161748
 10
134.7468327617
 20
135.8779065976
 10
134.747376019
 20
135.8748578351
 10
134.7481590573
 20
135.8717665991
 10
134.7491861298
 20
135.8686331673
 10
134.7504585983
 20
135.8654673895
 10
134.7519732774
 20
135.8622803098
 10
134.7537300856
 20
135.8590753192
 10
134.7557277276
 20
135.8558590552
 10
134.7579556143
 20
135.8526467176
 10
134.7604065839
 20
135.8494455775
 10
134.7630784432
 20
135.8462569552
 10
134.7659644166
 20
135.8430863528
 10
134.7690395946
 20
135.8399581024
 10
134.7723152956
 20
135.8368547319
 10
134.7758494238
 20
135.833722179
 10
134.7796068177
 20
135.8306053824
 10
134.7836275626
 20
135.8274726826
 10
134.7881227629
 20
135.8241710057
 10
134.7931987637
 20
135.8206705751
 10
134.7988232214
 20
135.8170518411
 10
134.805028327
 20
135.8133430672
  0
LINE
  5
311
100
AcDbEntity
  8
RACCORDO
100
AcDbLine
 62
7
  6
CONTINUOUS
 10
134.7464496833
 20
135.7205839346
 11
134.7464496833
 21
135.8833219862
  0
LINE
  5
312
100
AcDbEntity
  8
RACCORDO
100
AcDbLine
 62
250
  6
CONTINUOUS
 10
134.805028327
 20
135.757578653
 11
134.805028327
 21
135.8133275674
  0
LINE
  5
313
100
AcDbEntity
  8
RACCORDO
100
AcDbLine
 62
250
  6
CONTINUOUS
 10
135.5901759447
 20
109.6727258613
 11
135.5901759447
 21
93.7330102033
  0
LINE
  5
314
100
AcDbEntity
  8
RACCORDO
100
AcDbLine
 62
250
  6
CONTINUOUS
 10
136.2910585205
 20
109.6691942654
 11
136.2910585205
 21
95.2801883723
  0
LINE
  5
315
100
AcDbEntity
  8
RACCORDO
100
AcDbLine
 62
7
  6
CONTINUOUS
 10
136.8009511451
 20
109.3759966067
 11
136.8009511451
 21
103.3770618802
  0
LINE
  5
316
100
AcDbEntity
  8
RACCORDO
100
AcDbLine
 62
7
  6
CONTINUOUS
 10
136.9070171623
 20
109.1554829595
 11
136.9070171623
 21
106.9031306811
  0
LINE
  5
317
100
AcDbEntity
  8
RACCORDO
100
AcDbLine
 62
7
  6
CONTINUOUS
 10
136.9070171623
 20
105.0731315755
 11
136.9070171623
 21
102.5797284245
  0
LINE
  5
318
100
AcDbEntity
  8
DRAFT
100
AcDbLine
 62
7
  6
CONTINUOUS
 10
137.1606758331
 20
100.6728920037
 11
137.1606758331
 21
100.0555048006
  0
LWPOLYLINE
  5
319
100
AcDbEntity
  8
RACCORDO
100
AcDbPolyline
 62
250
  6
CONTINUOUS
 90
19
 70
0
 10
135.5901759447
 20
109.6727258613
 10
135.5920901539
 20
109.7216708076
 10
135.5976589294
 20
109.7675351798
 10
135.606882271
 20
109.8103189781
 10
135.6199004743
 20
109.8503620611
 10
135.6365732437
 20
109.8873245701
 10
135.6564796933
 20
109.9201869291
 10
135.6796715645
 20
109.9487742782
 10
135.7060971158
 20
109.9732614772
 10
135.7351802366
 20
109.9931535289
 10
135.76696998
 20
110.0083718869
 10
135.8014172929
 20
110.0189950977
 10
135.8377989052
 20
110.0247638033
 10
135.8762510242
 20
110.025535751
 10
135.9166374426
 20
110.0214531935
 10
135.957826269
 20
110.0126835316
 10
135.9994402062
 20
109.9992825657
 10
136.0418565513
 20
109.9811944953
 10
136.0850753044
 20
109.9584193206
  0
LWPOLYLINE
  5
31A
100
AcDbEntity
  8
ASSI
100
AcDbPolyline
 62
250
  6
CONTINUOUS
 90
7
 70
0
 10
141.7859624495
 20
132.4448342635
 10
141.7772657989
 20
132.4179784937
 10
141.7700024627
 20
132.391279312
 10
141.7642006166
 20
132.3640252932
 10
141.7598696523
 20
132.3359792958
 10
141.757000178
 20
132.3073784614
 10
141.7555921938
 20
132.27822279
  0
LWPOLYLINE
  5
31B
100
AcDbEntity
  8
ASSI
100
AcDbPolyline
 62
250
  6
CONTINUOUS
 90
9
 70
0
 10
144.1936655024
 20
132.6658595731
 10
144.1927140654
 20
132.6631117055
 10
144.1926775329
 20
132.6558195527
 10
144.1956416146
 20
132.6472860758
 10
144.201557413
 20
132.6376520491
 10
144.2103273367
 20
132.6270764022
 10
144.221806711
 20
132.6157335986
 10
144.2358061639
 20
132.603810757
 10
144.2520947507
 20
132.5915045653
  0
LWPOLYLINE
  5
31C
100
AcDbEntity
  8
ASSI
100
AcDbPolyline
 62
250
  6
CONTINUOUS
 90
11
 70
0
 10
144.575477773
 20
133.4757300889
 10
144.5748775274
 20
133.4742299088
 10
144.5741460163
 20
133.4686898654
 10
144.5753491817
 20
133.4623171659
 10
144.578471296
 20
133.4551876756
 10
144.5834734912
 20
133.4473800062
 10
144.5902983424
 20
133.4389774694
 10
144.5988618057
 20
133.4300773513
 10
144.6090624854
 20
133.420778091
 10
144.6207875128
 20
133.4111767753
 10
144.6339070213
 20
133.4013750811
  0
LWPOLYLINE
  5
31D
100
AcDbEntity
  8
ASSI
100
AcDbPolyline
 62
250
  6
CONTINUOUS
 90
10
 70
0
 10
144.6339070213
 20
133.4013750811
 10
144.642944157
 20
133.4224584279
 10
144.6535153383
 20
133.4431088258
 10
144.6654776082
 20
133.4630470138
 10
144.6786691979
 20
133.4820033619
 10
144.6929117139
 20
133.4997215179
 10
144.7080125506
 20
133.5159618738
 10
144.723767495
 20
133.5305048065
 10
144.7399634886
 20
133.5431536475
 10
144.7563815084
 20
133.5537373427
  0
LWPOLYLINE
  5
31E
100
AcDbEntity
  8
RACCORDO
100
AcDbPolyline
 62
250
  6
CONTINUOUS
 90
5
 70
0
 10
156.5804299993
 20
134.0364307536
 10
156.5895621338
 20
134.0471690276
 10
156.5958103597
 20
134.0583393676
 10
156.5990457496
 20
134.0697112814
 10
156.5994063237
 20
134.0789597201
  0
LWPOLYLINE
  5
31F
100
AcDbEntity
  8
ASSI
100
AcDbPolyline
 62
250
  6
CONTINUOUS
 90
10
 70
0
 10
151.0100231006
 20
131.3388173276
 10
150.9962782816
 20
131.322799461
 10
150.9846483421
 20
131.3061129215
 10
150.9752898901
 20
131.2889823808
 10
150.96832895
 20
131.2716384876
 10
150.9638592685
 20
131.2543147752
 10
150.9619410469
 20
131.2372445156
 10
150.9626001266
 20
131.2206575623
 10
150.9658276462
 20
131.2047772552
 10
150.9699382922
 20
131.1933922952
  0
LINE
  5
320
100
AcDbEntity
  8
ASSI
100
AcDbLine
 62
250
  6
CONTINUOUS
 10
151.3149890543
 20
127.6014692029
 11
151.4182699065
 21
127.7073972827
  0
LINE
  5
321
100
AcDbEntity
  8
ASSI
100
AcDbLine
 62
7
  6
CONTINUOUS
 10
151.3488280154
 20
127.5774579345
 11
151.417601316
 21
127.6479939877
  0
LINE
  5
322
100
AcDbEntity
  8
RACCORDO
100
AcDbLine
 62
7
  6
CONTINUOUS
 10
156.5935536554
 20
133.568280326
 11
155.9403618972
 21
132.9107385133
  0
LWPOLYLINE
  5
323
100
AcDbEntity
  8
RACCORDO
100
AcDbPolyline
 62
250
  6
CONTINUOUS
 90
11
 70
0
 10
159.0138296565
 20
130.7318761736
 10
159.0148510864
 20
130.7327554899
 10
159.0195833315
 20
130.7375618074
 10
159.0237676552
 20
130.7431455623
 10
159.0273955801
 20
130.7495815196
 10
159.0303949703
 20
130.7568683452
 10
159.0327125117
 20
130.7650343288
 10
159.034303148
 20
130.7742496415
 10
159.0350601349
 20
130.7846032102
 10
159.0348650482
 20
130.7960582173
 10
159.0336134108
 20
130.8086119952
  0
LINE
  5
324
100
AcDbEntity
  8
RACCORDO
100
AcDbLine
 62
250
  6
CONTINUOUS
 10
153.6855040086
 20
126.3322737997
 11
159.0336134108
 21
130.8086119952
  0
LINE
  5
325
100
AcDbEntity
  8
RACCORDO
100
AcDbLine
 62
7
  6
CONTINUOUS
 10
153.7093422911
 20
126.2920493832
 11
159.0138300366
 21
130.7318764917
  0
LWPOLYLINE
  5
326
100
AcDbEntity
  8
RACCORDO
100
AcDbPolyline
 62
250
  6
CONTINUOUS
 90
19
 70
0
 10
150.6738209106
 20
123.3206415482
 10
150.6620600836
 20
123.3127632652
 10
150.6505542413
 20
123.3039332286
 10
150.6393033837
 20
123.2941514386
 10
150.6282261216
 20
123.2833269349
 10
150.6174038441
 20
123.2715506778
 10
150.6070807189
 20
123.2590955471
 10
150.5972949971
 20
123.2460004056
 10
150.5880084274
 20
123.2322263906
 10
150.5793504236
 20
123.217929794
 10
150.571301849
 20
123.2030941324
 10
150.5638818403
 20
123.1877358892
 10
150.5572772208
 20
123.1720608067
 10
150.5514707537
 20
123.1559902832
 10
150.5464796758
 20
123.1396029204
 10
150.5425425215
 20
123.1233402661
 10
150.5397388023
 20
123.107349503
 10
150.5379890067
 20
123.0914834484
 10
150.5372931347
 20
123.0757421023
  0
LINE
  5
327
100
AcDbEntity
  8
RACCORDO
100
AcDbLine
 62
250
  6
CONTINUOUS
 10
150.9465511738
 20
123.489302034
 11
150.6738209106
 21
123.3206415482
  0
LINE
  5
328
100
AcDbEntity
  8
RACCORDO
100
AcDbLine
 62
250
  6
CONTINUOUS
 10
155.3905944336
 20
123.1202869899
 11
151.4380615125
 21
120.7845863551
  0
LINE
  5
329
100
AcDbEntity
  8
DRAFT
100
AcDbLine
 62
7
  6
CONTINUOUS
 10
151.1435561369
 20
123.1106050899
 11
151.4380615157
 21
123.2806493884
  0
LWPOLYLINE
  5
32A
100
AcDbEntity
  8
RACCORDO
100
AcDbPolyline
 62
250
  6
CONTINUOUS
 90
7
 70
0
 10
151.4380615157
 20
102.1525475009
 10
151.4572876407
 20
102.1533158783
 10
151.4767032926
 20
102.1556067479
 10
151.4954093807
 20
102.1593597151
 10
151.5130785282
 20
102.1645088594
 10
151.5294021432
 20
102.1709618215
 10
151.5440949397
 20
102.1786046008
  0
LWPOLYLINE
  5
32B
100
AcDbEntity
  8
RACCORDO
100
AcDbPolyline
 62
250
  6
CONTINUOUS
 90
6
 70
0
 10
154.7888205614
 20
95.4565811578
 10
154.7792463057
 20
95.4608476617
 10
154.7679222363
 20
95.4632538832
 10
154.7556929582
 20
95.463374778
 10
154.7427631
 20
95.4612083229
 10
154.729349013
 20
95.4567907685
  0
LWPOLYLINE
  5
32C
100
AcDbEntity
  8
RACCORDO
100
AcDbPolyline
 62
250
  6
CONTINUOUS
 90
6
 70
0
 10
154.732198533
 20
95.4892740082
 10
154.7226171643
 20
95.4935446166
 10
154.711293095
 20
95.4959508366
 10
154.6990638176
 20
95.4960717302
 10
154.6861339607
 20
95.4939052745
 10
154.6727198757
 20
95.4894877202
  0
LWPOLYLINE
  5
32D
100
AcDbEntity
  8
RACCORDO
100
AcDbPolyline
 62
250
  6
CONTINUOUS
 90
6
 70
0
 10
154.6100359984
 20
93.6819941325
 10
154.6157007069
 20
93.6787810921
 10
154.6214193335
 20
93.675282521
 10
154.6271823346
 20
93.6714953218
 10
154.6329513836
 20
93.6674373593
 10
154.638744398
 20
93.6630890125
  0
LINE
  5
32E
100
AcDbEntity
  8
RACCORDO
100
AcDbLine
 62
250
  6
CONTINUOUS
 10
152.1903798279
 20
94.1583265989
 11
151.9681441113
 21
94.2866414814
  0
LINE
  5
32F
100
AcDbEntity
  8
RACCORDO
100
AcDbLine
 62
250
  6
CONTINUOUS
 10
154.5681543854
 20
93.706176051
 11
154.6100359984
 21
93.6819941325
  0
LINE
  5
330
100
AcDbEntity
  8
RACCORDO
100
AcDbLine
 62
7
  6
CONTINUOUS
 10
154.6413069022
 20
93.7125570743
 11
154.6831885153
 21
93.6883751558
  0
LINE
  5
331
100
AcDbEntity
  8
RACCORDO
100
AcDbLine
 62
250
  6
CONTINUOUS
 10
154.6590460162
 20
95.4828929848
 11
154.715675151
 21
95.4501960321
  0
LINE
  5
332
100
AcDbEntity
  8
RACCORDO
100
AcDbLine
 62
7
  6
CONTINUOUS
 10
154.732198533
 20
95.4892740082
 11
154.7888276677
 21
95.4565770555
  0
LWPOLYLINE
  5
333
100
AcDbEntity
  8
RACCORDO
100
AcDbPolyline
 62
250
  6
CONTINUOUS
 90
12
 70
0
 10
154.715675151
 20
95.4501960321
 10
154.720350284
 20
95.447435779
 10
154.7250159422
 20
95.4445022846
 10
154.7296670914
 20
95.4413989854
 10
154.7342822925
 20
95.438141391
 10
154.7388731887
 20
95.4347225398
 10
154.7434836151
 20
95.4311072229
 10
154.7481096797
 20
95.4272927306
 10
154.7527430314
 20
95.4232801647
 10
154.7574184414
 20
95.419031097
 10
154.7621283527
 20
95.414540888
 10
154.7668631336
 20
95.4098069492
  0
LINE
  5
334
100
AcDbEntity
  8
RACCORDO
100
AcDbLine
 62
7
  6
CONTINUOUS
 10
154.6412920301
 20
93.7125656579
 11
154.6363947081
 21
93.715530005
  0
LWPOLYLINE
  5
335
100
AcDbEntity
  8
RACCORDO
100
AcDbPolyline
 62
7
  6
CONTINUOUS
 90
4
 70
0
 10
154.6363947081
 20
93.715530005
 10
154.6263754798
 20
93.7223884938
 10
154.61522376
 20
93.7312041043
 10
154.6033412542
 20
93.7419337223
  0
LWPOLYLINE
  5
336
100
AcDbEntity
  8
RACCORDO
100
AcDbPolyline
 62
250
  6
CONTINUOUS
 90
4
 70
0
 10
138.1730418515
 20
100.6845006937
 10
138.1714072186
 20
100.6896487741
 10
138.1654330305
 20
100.6989849033
 10
138.1567706639
 20
100.7075899263
  0
LINE
  5
337
100
AcDbEntity
  8
DRAFT
100
AcDbLine
 62
7
  6
CONTINUOUS
 10
136.8009511451
 20
103.3770618802
 11
137.1606758331
 21
100.6728920037
  0
LINE
  5
338
100
AcDbEntity
  8
RACCORDO
100
AcDbLine
 62
7
  6
CONTINUOUS
 10
137.2395881418
 20
105.2804935543
 11
137.2395881418
 21
105.4725599443
  0
LINE
  5
339
100
AcDbEntity
  8
RACCORDO
100
AcDbLine
 62
7
  6
CONTINUOUS
 10
137.2395881418
 20
106.3962906153
 11
137.2395881418
 21
106.5883570053
  0
LINE
  5
33A
100
AcDbEntity
  8
RACCORDO
100
AcDbLine
 62
250
  6
CONTINUOUS
 10
138.1456775176
 20
100.6664988056
 11
138.1456775176
 21
100.715208147
  0
LINE
  5
33B
100
AcDbEntity
  8
RACCORDO
100
AcDbLine
 62
250
  6
CONTINUOUS
 10
138.9736401717
 20
133.4859259304
 11
138.9736401682
 21
133.4776029113
  0
LINE
  5
33C
100
AcDbEntity
  8
RACCORDO
100
AcDbLine
 62
7
  6
CONTINUOUS
 10
139.9467802495
 20
132.9157240246
 11
139.9467802477
 21
134.0092491713
  0
LINE
  5
33D
100
AcDbEntity
  8
RACCORDO
100
AcDbLine
 62
250
  6
CONTINUOUS
 10
138.1456775176
 20
100.715208147
 11
138.1458896945
 21
100.7234577637
  0
LWPOLYLINE
  5
33E
100
AcDbEntity
  8
RACCORDO
100
AcDbPolyline
 62
250
  6
CONTINUOUS
 90
3
 70
0
 10
138.1458896945
 20
100.7234577637
 10
138.1464279463
 20
100.7313493558
 10
138.1472922732
 20
100.738882923
  0
LWPOLYLINE
  5
33F
100
AcDbEntity
  8
ASSI
100
AcDbPolyline
 62
250
  6
CONTINUOUS
 90
7
 70
0
 10
141.8117242337
 20
132.3584392406
 10
141.8102687044
 20
132.3445337493
 10
141.8054986075
 20
132.3298522749
 10
141.7974861443
 20
132.3156491534
 10
141.7863653847
 20
132.3021620411
 10
141.7723224089
 20
132.2896166137
 10
141.7555921938
 20
132.27822279
  0
LWPOLYLINE
  5
340
100
AcDbEntity
  8
RACCORDO
100
AcDbPolyline
 62
250
  6
CONTINUOUS
 90
28
 70
0
 10
138.1472922732
 20
100.738882923
 10
138.1484847688
 20
100.7460345281
 10
138.1500033395
 20
100.7528281084
 10
138.1518417039
 20
100.7593354762
 10
138.153996268
 20
100.7655889373
 10
138.1564706259
 20
100.7715561858
 10
138.1592692783
 20
100.7772121169
 10
138.1623919622
 20
100.7825640102
 10
138.1658389407
 20
100.7876045859
 10
138.1696155033
 20
100.7922868997
 10
138.1737272467
 20
100.7966166472
 10
138.1781685743
 20
100.8005881327
 10
138.1829279846
 20
100.8041373255
 10
138.1880191883
 20
100.8072630897
 10
138.1934284748
 20
100.8099665612
 10
138.1991032115
 20
100.8121871161
 10
138.2050463143
 20
100.813913223
 10
138.2112548672
 20
100.8151564133
 10
138.2176674891
 20
100.815890658
 10
138.2242414516
 20
100.8161232452
 10
138.2310194831
 20
100.8158468867
 10
138.2380683877
 20
100.8150136888
 10
138.2453773383
 20
100.8136591773
 10
138.2529571619
 20
100.8117478263
 10
138.2609071448
 20
100.8091251651
 10
138.2692603822
 20
100.8057397035
 10
138.2779837789
 20
100.8016429317
 10
138.2870773347
 20
100.7968348496
  0
LINE
  5
341
100
AcDbEntity
  8
RACCORDO
100
AcDbLine
 62
7
  6
CONTINUOUS
 10
136.2910585205
 20
95.2801883723
 11
137.1138496359
 21
99.2237528019
  0
LWPOLYLINE
  5
342
100
AcDbEntity
  8
RACCORDO
100
AcDbPolyline
 62
7
  6
CONTINUOUS
 90
4
 70
0
 10
138.1758382165
 20
100.6855335312
 10
138.1763084115
 20
100.6877148059
 10
138.1767418883
 20
100.6891761368
 10
138.1739130259
 20
100.6853292198
  0
LWPOLYLINE
  5
343
100
AcDbEntity
  8
RACCORDO
100
AcDbPolyline
 62
250
  6
CONTINUOUS
 90
6
 70
0
 10
150.4169966754
 20
123.46873494
 10
150.4136850871
 20
123.4651802825
 10
150.3928187193
 20
123.4402956739
 10
150.3730375937
 20
123.414139936
 10
150.3543968553
 20
123.3868123411
 10
150.3496269798
 20
123.3790407872
  0
LWPOLYLINE
  5
344
100
AcDbEntity
  8
RACCORDO
100
AcDbPolyline
 62
7
  6
CONTINUOUS
 90
9
 70
0
 10
159.0135984087
 20
130.7316839204
 10
159.0235304073
 20
130.7406633361
 10
159.0367744247
 20
130.7552477621
 10
159.0483779571
 20
130.7714922729
 10
159.0581137945
 20
130.789178131
 10
159.0658231377
 20
130.8081032886
 10
159.0713821728
 20
130.8280693607
 10
159.0746913127
 20
130.8488086236
 10
159.0757124318
 20
130.8687451284
  0
LINE
  5
345
100
AcDbEntity
  8
RACCORDO
100
AcDbLine
 62
250
  6
CONTINUOUS
 10
155.5042508022
 20
122.628113486
 11
151.5745892916
 21
120.3071285338
  0
LWPOLYLINE
  5
346
100
AcDbEntity
  8
RACCORDO
100
AcDbPolyline
 62
250
  6
CONTINUOUS
 90
16
 70
0
 10
136.2910585205
 20
109.6691942654
 10
136.2520183105
 20
109.6495763525
 10
136.2096749978
 20
109.6323936603
 10
136.1644822616
 20
109.6178302893
 10
136.1169243109
 20
109.606042276
 10
136.0675106959
 20
109.5971559208
 10
136.0167708495
 20
109.5912664347
 10
135.9652484139
 20
109.5884369196
 10
135.9134954163
 20
109.5886976918
 10
135.8620663541
 20
109.5920459573
 10
135.8115122542
 20
109.5984458416
 10
135.7623747687
 20
109.6078287746
 10
135.7151803717
 20
109.6200942245
 10
135.6704347185
 20
109.6351107756
 10
135.6286172276
 20
109.652717536
 10
135.5901759447
 20
109.6727258613
  0
LWPOLYLINE
  5
347
100
AcDbEntity
  8
RACCORDO
100
AcDbPolyline
 62
250
  6
CONTINUOUS
 90
3
 70
0
 10
156.6481457231
 20
116.5877486136
 10
156.6346347105
 20
116.5831746646
 10
156.6208752476
 20
116.5764049121
  0
LWPOLYLINE
  5
348
100
AcDbEntity
  8
RACCORDO
100
AcDbPolyline
 62
250
  6
CONTINUOUS
 90
3
 70
0
 10
152.0576983211
 20
105.5813989422
 10
152.0207238821
 20
105.578048183
 10
152.0056560603
 20
105.5749781462
  0
LWPOLYLINE
  5
349
100
AcDbEntity
  8
RACCORDO
100
AcDbPolyline
 62
250
  6
CONTINUOUS
 90
4
 70
0
 10
153.7341868363
 20
104.0082110569
 10
153.7170766446
 20
104.0101916818
 10
153.6977557022
 20
104.0135369404
 10
153.6765611064
 20
104.0181884238
  0
LINE
  5
34A
100
AcDbEntity
  8
RACCORDO
100
AcDbLine
 62
250
  6
CONTINUOUS
 10
152.5276217765
 20
101.0089651777
 11
152.4802077953
 21
101.0234767027
  0
LINE
  5
34B
100
AcDbEntity
  8
RACCORDO
100
AcDbLine
 62
7
  6
CONTINUOUS
 10
152.5408823368
 20
101.0052287193
 11
152.4802077953
 21
101.0276870355
  0
LINE
  5
34C
100
AcDbEntity
  8
RACCORDO
100
AcDbLine
 62
250
  6
CONTINUOUS
 10
152.5789948935
 20
100.9871880853
 11
152.5276217765
 21
101.0089651777
  0
LINE
  5
34D
100
AcDbEntity
  8
RACCORDO
100
AcDbLine
 62
7
  6
CONTINUOUS
 10
152.5707625972
 20
100.9915647083
 11
152.5408823368
 21
101.0052287193
  0
LINE
  5
34E
100
AcDbEntity
  8
RACCORDO
100
AcDbLine
 62
250
  6
CONTINUOUS
 10
152.1903798279
 20
98.7080875218
 11
151.8959801614
 21
98.8442126611
  0
LINE
  5
34F
100
AcDbEntity
  8
RACCORDO
100
AcDbLine
 62
7
  6
CONTINUOUS
 10
152.081871334
 20
98.9398839706
 11
152.0821863121
 21
98.9397379126
  0
LWPOLYLINE
  5
350
100
AcDbEntity
  8
RACCORDO
100
AcDbPolyline
 62
250
  6
CONTINUOUS
 90
4
 70
0
 10
152.0821863121
 20
98.9397379126
 10
152.0932608728
 20
98.9340469931
 10
152.1134098534
 20
98.9205067572
 10
152.1315214275
 20
98.9037957524
  0
LINE
  5
351
100
AcDbEntity
  8
ASSI
100
AcDbLine
 62
7
  6
CONTINUOUS
 10
137.2395881418
 20
106.4639469251
 11
137.4009495352
 21
106.3707788789
  0
LINE
  5
352
100
AcDbEntity
  8
RACCORDO
100
AcDbLine
 62
7
  6
CONTINUOUS
 10
137.133667327
 20
106.7722657166
 11
136.8009511451
 21
106.9643718701
  0
LINE
  5
353
100
AcDbEntity
  8
RACCORDO
100
AcDbLine
 62
7
  6
CONTINUOUS
 10
151.6662734817
 20
98.7071174676
 11
151.7562595672
 21
98.6551606296
  0
LINE
  5
354
100
AcDbEntity
  8
RACCORDO
100
AcDbLine
 62
7
  6
CONTINUOUS
 10
136.188616615
 20
109.7295508901
 11
145.8228069581
 21
104.1668901307
  0
LINE
  5
355
100
AcDbEntity
  8
RACCORDO
100
AcDbLine
 62
250
  6
CONTINUOUS
 10
136.0850753044
 20
109.9584193206
 11
145.7192656476
 21
104.3957585613
  0
LWPOLYLINE
  5
356
100
AcDbEntity
  8
RACCORDO
100
AcDbPolyline
 62
7
  6
CONTINUOUS
 90
6
 70
0
 10
154.7322148668
 20
95.4892637338
 10
154.7263582891
 20
95.4927890891
 10
154.7127970571
 20
95.5020135583
 10
154.6983015937
 20
95.5134427842
 10
154.68323852
 20
95.5270214579
 10
154.6809256318
 20
95.52926285
  0
LWPOLYLINE
  5
357
100
AcDbEntity
  8
RACCORDO
100
AcDbPolyline
 62
7
  6
CONTINUOUS
 90
22
 70
0
 10
145.8227986818
 20
104.1668949096
 10
145.8316303601
 20
104.1614579803
 10
145.8436115143
 20
104.1531432489
 10
145.8577062843
 20
104.1421677027
 10
145.8735708955
 20
104.1284160436
 10
145.8908145741
 20
104.1118696276
 10
145.9090413461
 20
104.0925541498
 10
145.9279486557
 20
104.0704498438
 10
145.9470534295
 20
104.0458106057
 10
145.9657174679
 20
104.0192043587
 10
145.9835982325
 20
103.990945533
 10
146.0003370191
 20
103.9615002573
 10
146.0153930542
 20
103.9318248667
 10
146.0285657063
 20
103.9024699804
 10
146.0397799118
 20
103.8738894714
 10
146.0488887782
 20
103.84690505
 10
146.0559371473
 20
103.8220554247
 10
146.0611170701
 20
103.7995752048
 10
146.0646248237
 20
103.7797867351
 10
146.0666863895
 20
103.7629936939
 10
146.0675903208
 20
103.7494319087
 10
146.0677184007
 20
103.7426747699
  0
LWPOLYLINE
  5
358
100
AcDbEntity
  8
RACCORDO
100
AcDbPolyline
 62
250
  6
CONTINUOUS
 90
16
 70
0
 10
151.4868719278
 20
98.4941901494
 10
151.5090727084
 20
98.4800527154
 10
151.5310706929
 20
98.4634088699
 10
151.5526247218
 20
98.4444410761
 10
151.5734984244
 20
98.4233573585
 10
151.5934630514
 20
98.4003887838
 10
151.6122999449
 20
98.3757868598
 10
151.6298026791
 20
98.3498210475
 10
151.6457791712
 20
98.3227761557
 10
151.6600540598
 20
98.2949489686
 10
151.6724728462
 20
98.2666395782
 10
151.6828966626
 20
98.2381632943
 10
151.6912072962
 20
98.2098475679
 10
151.6973162665
 20
98.1820070721
 10
151.7011620112
 20
98.154940307
 10
151.7027061766
 20
98.1289416063
  0
LINE
  5
359
100
AcDbEntity
  8
RACCORDO
100
AcDbLine
 62
250
  6
CONTINUOUS
 10
154.6468199831
 20
95.4907583229
 11
154.6590460162
 21
95.4828929848
  0
LWPOLYLINE
  5
35A
100
AcDbEntity
  8
RACCORDO
100
AcDbPolyline
 62
250
  6
CONTINUOUS
 90
4
 70
0
 10
136.188616615
 20
109.7295508901
 10
136.173969199
 20
109.7390629218
 10
136.1511541641
 20
109.7589293747
 10
136.1314192195
 20
109.7831204138
  0
LWPOLYLINE
  5
35B
100
AcDbEntity
  8
RACCORDO
100
AcDbPolyline
 62
250
  6
CONTINUOUS
 90
5
 70
0
 10
154.638744398
 20
93.6630890125
 10
154.6446332765
 20
93.658381453
 10
154.6506032064
 20
93.6533041061
 10
154.6566379954
 20
93.6478479047
 10
154.6627995057
 20
93.6419273583
  0
LWPOLYLINE
  5
35C
100
AcDbEntity
  8
RACCORDO
100
AcDbPolyline
 62
250
  6
CONTINUOUS
 90
6
 70
0
 10
136.1314192195
 20
109.7831204138
 10
136.1149758115
 20
109.8113768489
 10
136.1020001199
 20
109.8433959318
 10
136.0926311702
 20
109.8788346003
 10
136.0869693442
 20
109.9173131536
 10
136.0850753044
 20
109.9584193206
  0
LWPOLYLINE
  5
35D
100
AcDbEntity
  8
RACCORDO
100
AcDbPolyline
 62
7
  6
CONTINUOUS
 90
7
 70
0
 10
146.134705696
 20
87.764301527
 10
146.1456608867
 20
87.737171496
 10
146.1574890223
 20
87.7098028263
 10
146.1702221569
 20
87.6822390865
 10
146.1838919392
 20
87.6545264553
 10
146.1985294461
 20
87.626713688
 10
146.2141650073
 20
87.5988520684
  0
LINE
  5
35E
100
AcDbEntity
  8
ASSI
100
AcDbLine
 62
250
  6
CONTINUOUS
 10
141.7555921938
 20
132.27822279
 11
141.7555921938
 21
131.8713386778
  0
LINE
  5
35F
100
AcDbEntity
  8
ASSI
100
AcDbLine
 62
7
  6
CONTINUOUS
 10
141.8117242337
 20
132.3584401974
 11
141.8117242337
 21
131.8389287414
  0
LINE
  5
360
100
AcDbEntity
  8
ASSI
100
AcDbLine
 62
250
  6
CONTINUOUS
 10
142.2419271243
 20
133.3750135882
 11
142.2419271243
 21
133.0057025986
  0
LINE
  5
361
100
AcDbEntity
  8
ASSI
100
AcDbLine
 62
7
  6
CONTINUOUS
 10
142.2980591642
 20
133.4552309956
 11
142.2980591642
 21
133.085920006
  0
LWPOLYLINE
  5
362
100
AcDbEntity
  8
ASSI
100
AcDbPolyline
 62
7
  6
CONTINUOUS
 90
15
 70
0
 10
141.8117242337
 20
132.3584392406
 10
141.8121521084
 20
132.371486299
 10
141.8136388378
 20
132.3870763202
 10
141.8163969847
 20
132.404691079
 10
141.8206199613
 20
132.4242053284
 10
141.8264301395
 20
132.4452732026
 10
141.8338216476
 20
132.4673329556
 10
141.8427915721
 20
132.4900510022
 10
141.8532991067
 20
132.5130860182
 10
141.8651308305
 20
132.5358595184
 10
141.8781431343
 20
132.5580618986
 10
141.8921347679
 20
132.579353563
 10
141.9066845596
 20
132.5991801999
 10
141.9215391088
 20
132.6173343964
 10
141.9377816682
 20
132.6350439163
  0
LWPOLYLINE
  5
363
100
AcDbEntity
  8
ASSI
100
AcDbPolyline
 62
250
  6
CONTINUOUS
 90
9
 70
0
 10
142.2980591642
 20
133.085920006
 10
142.2978914086
 20
133.081191274
 10
142.295962878
 20
133.0692443995
 10
142.2919056747
 20
133.0574955877
 10
142.2857661135
 20
133.0460589333
 10
142.2776043734
 20
133.0350459188
 10
142.2675018738
 20
133.0245723005
 10
142.2555673437
 20
133.0147555698
 10
142.2419271243
 20
133.0057025986
  0
LWPOLYLINE
  5
364
100
AcDbEntity
  8
ASSI
100
AcDbPolyline
 62
250
  6
CONTINUOUS
 90
9
 70
0
 10
142.2980591542
 20
133.4551944686
 10
142.2978912521
 20
133.4505000592
 10
142.2959673681
 20
133.4385731638
 10
142.2919108888
 20
133.4268184344
 10
142.2857634478
 20
133.4153657383
 10
142.2775924137
 20
133.4043428395
 10
142.2674872181
 20
133.3938697974
 10
142.2555559198
 20
133.3840581309
 10
142.2419271243
 20
133.3750135882
  0
LWPOLYLINE
  5
365
100
AcDbEntity
  8
ASSI
100
AcDbPolyline
 62
250
  6
CONTINUOUS
 90
13
 70
0
 10
145.9196404701
 20
133.243499268
 10
145.9252303066
 20
133.2676571715
 10
145.9284573732
 20
133.2926010759
 10
145.9292697295
 20
133.3179295532
 10
145.9276542964
 20
133.3432349748
 10
145.9236370662
 20
133.3681101009
 10
145.9172826744
 20
133.3921546327
 10
145.90869337
 20
133.4149816069
 10
145.8980073722
 20
133.4362236464
 10
145.8853966327
 20
133.4555388961
 10
145.8710640842
 20
133.472616489
 10
145.8552403807
 20
133.4871815556
 10
145.8381801746
 20
133.4989996647
  0
LWPOLYLINE
  5
366
100
AcDbEntity
  8
ASSI
100
AcDbPolyline
 62
250
  6
CONTINUOUS
 90
13
 70
0
 10
147.501199951
 20
133.2818616628
 10
147.5067898215
 20
133.306019768
 10
147.5100168815
 20
133.3309638612
 10
147.5108291961
 20
133.3562925039
 10
147.5092136923
 20
133.3815980689
 10
147.5051963693
 20
133.4064733002
 10
147.49884188
 20
133.4305178675
 10
147.4902524905
 20
133.4533448089
 10
147.4795664346
 20
133.4745867582
 10
147.4669556884
 20
133.4939018576
 10
147.4526232036
 20
133.5109792588
 10
147.4367996403
 20
133.5255441261
 10
147.4197396555
 20
133.5373620595
  0
LWPOLYLINE
  5
367
100
AcDbEntity
  8
ASSI
100
AcDbPolyline
 62
250
  6
CONTINUOUS
 90
13
 70
0
 10
148.5478011948
 20
133.4601368092
 10
148.5422111475
 20
133.4359777228
 10
148.5389841185
 20
133.4110328079
 10
148.5381719867
 20
133.385703556
 10
148.5397877622
 20
133.3603976402
 10
148.5438053805
 20
133.3355223159
 10
148.550160136
 20
133.3114778701
 10
148.5587497092
 20
133.2886512492
 10
148.569435824
 20
133.2674097731
 10
148.5820465005
 20
133.2480952028
 10
148.5963787849
 20
133.2310183273
 10
148.6122020001
 20
133.2164539484
 10
148.6292614902
 20
133.2046364125
  0
LWPOLYLINE
  5
368
100
AcDbEntity
  8
ASSI
100
AcDbPolyline
 62
250
  6
CONTINUOUS
 90
16
 70
0
 10
148.0990754977
 20
130.3703060959
 10
148.0951167741
 20
130.3553393411
 10
148.090526172
 20
130.3409027962
 10
148.0853849737
 20
130.3270589979
 10
148.0797809482
 20
130.313876379
 10
148.073780537
 20
130.3013772215
 10
148.0674220275
 20
130.2895430517
 10
148.0608229195
 20
130.2784843883
 10
148.0539894718
 20
130.2681285362
 10
148.0467569817
 20
130.2582114351
 10
148.0391873732
 20
130.2487987754
 10
148.0312821809
 20
130.2399137976
 10
148.0227431827
 20
130.2313246836
 10
148.0134809757
 20
130.2230617145
 10
148.0036396064
 20
130.2153494484
 10
147.9932665592
 20
130.2083213554
  0
LWPOLYLINE
  5
369
100
AcDbEntity
  8
ASSI
100
AcDbPolyline
 62
250
  6
CONTINUOUS
 90
14
 70
0
 10
148.5841374946
 20
134.693027513
 10
148.5892475408
 20
134.7105774605
 10
148.5963230425
 20
134.7279745619
 10
148.6052864764
 20
134.7450282151
 10
148.6160396411
 20
134.7615515885
 10
148.6284647257
 20
134.777363652
 10
148.6424255963
 20
134.7922911619
 10
148.6577692948
 20
134.8061705696
 10
148.6743277117
 20
134.8188498087
 10
148.6919194304
 20
134.830189964
 10
148.7103517158
 20
134.8400667921
 10
148.7294226214
 20
134.8483720801
 10
148.7489232018
 20
134.8550148322
 10
148.7686398047
 20
134.8599222679
  0
LINE
  5
36A
100
AcDbEntity
  8
ASSI
100
AcDbLine
 62
250
  6
CONTINUOUS
 10
148.3704612151
 20
131.2439355196
 11
148.099076221
 21
130.3703056783
  0
LINE
  5
36B
100
AcDbEntity
  8
ASSI
100
AcDbLine
 62
250
  6
CONTINUOUS
 10
148.6362655933
 20
131.1673268398
 11
148.3648805992
 21
130.2936969985
  0
LWPOLYLINE
  5
36C
100
AcDbEntity
  8
ASSI
100
AcDbPolyline
 62
250
  6
CONTINUOUS
 90
16
 70
0
 10
148.3648805992
 20
130.2936969985
 10
148.3548878126
 20
130.2646396863
 10
148.3440530165
 20
130.2367941155
 10
148.3323762108
 20
130.210160286
 10
148.3197420636
 20
130.1847041644
 10
148.3062659068
 20
130.1604597842
 10
148.2922937364
 20
130.1375292461
 10
148.2779958292
 20
130.116071287
 10
148.2632019084
 20
130.09592717
 10
148.2477471396
 20
130.0767227848
 10
148.231732679
 20
130.058375359
 10
148.2150573704
 20
130.0409676651
 10
148.1972529108
 20
130.0243739103
 10
148.1781631991
 20
130.0085521637
 10
148.1579443364
 20
129.9935443561
 10
148.1365963227
 20
129.9793504877
  0
LWPOLYLINE
  5
36D
100
AcDbEntity
  8
RACCORDO
100
AcDbPolyline
 62
250
  6
CONTINUOUS
 90
10
 70
0
 10
150.8681133598
 20
125.5446416514
 10
150.8760519402
 20
125.5603732172
 10
150.8816025907
 20
125.5769181303
 10
150.8845926784
 20
125.593761789
 10
150.8849292132
 20
125.6103803001
 10
150.8826017394
 20
125.6262567827
 10
150.877682656
 20
125.6408974422
 10
150.8703249662
 20
125.6538469179
 10
150.8607575217
 20
125.6647024471
 10
150.8492779022
 20
125.6731263987
  0
LWPOLYLINE
  5
36E
100
AcDbEntity
  8
RACCORDO
100
AcDbPolyline
 62
250
  6
CONTINUOUS
 90
10
 70
0
 10
151.321093741
 20
125.283145717
 10
151.3290322896
 20
125.2988771999
 10
151.3345829386
 20
125.315422048
 10
151.3375730464
 20
125.3322656674
 10
151.3379096118
 20
125.3488841715
 10
151.3355821665
 20
125.3647606754
 10
151.3306631011
 20
125.3794013728
 10
151.3233054131
 20
125.3923508945
 10
151.3137379483
 20
125.4032064719
 10
151.3022582835
 20
125.4116304644
  0
LWPOLYLINE
  5
36F
100
AcDbEntity
  8
RACCORDO
100
AcDbPolyline
 62
250
  6
CONTINUOUS
 90
5
 70
0
 10
150.9563672931
 20
125.7972193608
 10
150.9555701141
 20
125.7959800973
 10
150.9483221665
 20
125.7872215006
 10
150.9404331961
 20
125.7798967583
 10
150.931934976
 20
125.7740286657
  0
LINE
  5
370
100
AcDbEntity
  8
DRAFT
100
AcDbLine
 62
7
  6
CONTINUOUS
 10
136.8009511451
 20
107.4007454804
 11
136.9070171623
 21
107.4704163744
  0
LINE
  5
371
100
AcDbEntity
  8
RACCORDO
100
AcDbLine
 62
250
  6
CONTINUOUS
 10
136.8009511451
 20
106.5537166046
 11
137.133667327
 21
106.7722657166
  0
LINE
  5
372
100
AcDbEntity
  8
RACCORDO
100
AcDbLine
 62
250
  6
CONTINUOUS
 10
136.8009511451
 20
106.3002323773
 11
137.2395881418
 21
106.5883570053
  0
LINE
  5
373
100
AcDbEntity
  8
RACCORDO
100
AcDbLine
 62
250
  6
CONTINUOUS
 10
136.8009511451
 20
109.1618221196
 11
137.0077477159
 21
109.2565948585
  0
LINE
  5
374
100
AcDbEntity
  8
RACCORDO
100
AcDbLine
 62
7
  6
CONTINUOUS
 10
136.8009511451
 20
109.106873996
 11
137.0608029779
 21
109.2259614152
  0
LWPOLYLINE
  5
375
100
AcDbEntity
  8
RACCORDO
100
AcDbPolyline
 62
250
  6
CONTINUOUS
 90
4
 70
0
 10
156.5337446996
 20
116.5448763878
 10
156.5595391981
 20
116.554613436
 10
156.5903761111
 20
116.5657999341
 10
156.6208752201
 20
116.576404928
  0
LINE
  5
376
100
AcDbEntity
  8
RACCORDO
100
AcDbLine
 62
7
  6
CONTINUOUS
 10
150.4519893731
 20
112.4837360263
 11
150.4519602071
 21
112.4837270919
  0
LWPOLYLINE
  5
377
100
AcDbEntity
  8
RACCORDO
100
AcDbPolyline
 62
250
  6
CONTINUOUS
 90
10
 70
0
 10
150.5372931347
 20
112.5947520693
 10
150.6593033603
 20
112.6303860334
 10
150.7774348006
 20
112.662319225
 10
150.8916874556
 20
112.6905516442
 10
151.0014553645
 20
112.7148658242
 10
151.1073444882
 20
112.7354792319
 10
151.211172709
 20
112.7530442669
 10
151.3130636751
 20
112.7677476695
 10
151.4128937384
 20
112.7794026995
 10
151.5121098369
 20
112.7881015362
  0
LWPOLYLINE
  5
378
100
AcDbEntity
  8
RACCORDO
100
AcDbPolyline
 62
7
  6
CONTINUOUS
 90
6
 70
0
 10
150.4520059248
 20
112.4837410926
 10
150.627461036
 20
112.5343057876
 10
150.8502596926
 20
112.5888850753
 10
151.0663809973
 20
112.6305403059
 10
151.2754030699
 20
112.6590931828
 10
151.4768360134
 20
112.6744392983
  0
LWPOLYLINE
  5
379
100
AcDbEntity
  8
RACCORDO
100
AcDbPolyline
 62
7
  6
CONTINUOUS
 90
3
 70
0
 10
152.0600166657
 20
105.6041646624
 10
152.0296583931
 20
105.6077592036
 10
152.0145084892
 20
105.6080797697
  0
LINE
  5
37A
100
AcDbEntity
  8
RACCORDO
100
AcDbLine
 62
250
  6
CONTINUOUS
 10
153.6765611064
 20
104.0181884238
 11
153.6658260168
 21
104.0209676816
  0
LWPOLYLINE
  5
37B
100
AcDbEntity
  8
RACCORDO
100
AcDbPolyline
 62
7
  6
CONTINUOUS
 90
6
 70
0
 10
136.1826762541
 20
109.7336879679
 10
136.178792853
 20
109.7347580331
 10
136.1776441068
 20
109.7351420467
 10
136.1791506401
 20
109.7345007619
 10
136.1831579733
 20
109.7325482742
 10
136.1886225014
 20
109.7295474915
  0
LWPOLYLINE
  5
37C
100
AcDbEntity
  8
DRAFT
100
AcDbPolyline
 62
7
  6
CONTINUOUS
 90
7
 70
0
 10
151.7727424115
 20
103.6245971652
 10
151.813970175
 20
103.6039559018
 10
151.8585692687
 20
103.5882457692
 10
151.9059153714
 20
103.5777215678
 10
151.9553969163
 20
103.5725092429
 10
152.0070688464
 20
103.5726374996
 10
152.0542202584
 20
103.5774046895
  0
LINE
  5
37D
100
AcDbEntity
  8
RACCORDO
100
AcDbLine
 62
250
  6
CONTINUOUS
 10
152.5789948923
 20
100.9871880859
 11
152.5710173766
 21
100.9914403576
  0
LWPOLYLINE
  5
37E
100
AcDbEntity
  8
RACCORDO
100
AcDbPolyline
 62
250
  6
CONTINUOUS
 90
5
 70
0
 10
152.5994470287
 20
100.9765654564
 10
152.5937099911
 20
100.9796591844
 10
152.5883810797
 20
100.982461153
 10
152.5834750535
 20
100.9849691078
 10
152.5789948935
 20
100.9871880853
  0
LWPOLYLINE
  5
37F
100
AcDbEntity
  8
RACCORDO
100
AcDbPolyline
 62
7
  6
CONTINUOUS
 90
6
 70
0
 10
152.6152654613
 20
100.9676787842
 10
152.6061985754
 20
100.9728435239
 10
152.5944796924
 20
100.9793176009
 10
152.5833421866
 20
100.9852264486
 10
152.5727363535
 20
100.9905962484
 10
152.5710173774
 20
100.9914403572
  0
LINE
  5
380
100
AcDbEntity
  8
RACCORDO
100
AcDbLine
 62
7
  6
CONTINUOUS
 10
152.6153156801
 20
100.9676499263
 11
152.9676861653
 21
100.7641960158
  0
LINE
  5
381
100
AcDbEntity
  8
RACCORDO
100
AcDbLine
 62
250
  6
CONTINUOUS
 10
148.3362775602
 20
104.5090436876
 11
133.4680633918
 21
113.0937642059
  0
LINE
  5
382
100
AcDbEntity
  8
RACCORDO
100
AcDbLine
 62
250
  6
CONTINUOUS
 10
148.4057541668
 20
104.6307932019
 11
133.5375399984
 21
113.2155137202
  0
LINE
  5
383
100
AcDbEntity
  8
DRAFT
100
AcDbLine
 62
7
  6
CONTINUOUS
 10
148.3362775602
 20
104.8509876599
 11
133.4680633918
 21
113.4357081782
  0
LINE
  5
384
100
AcDbEntity
  8
ASSI
100
AcDbLine
 62
7
  6
CONTINUOUS
 10
152.6177438525
 20
103.2520332289
 11
151.5965670693
 21
103.8416479052
  0
LWPOLYLINE
  5
385
100
AcDbEntity
  8
RACCORDO
100
AcDbPolyline
 62
250
  6
CONTINUOUS
 90
19
 70
0
 10
145.7192656476
 20
104.3957585613
 10
145.7626117771
 20
104.3685207821
 10
145.8051174251
 20
104.3375484928
 10
145.8467825915
 20
104.3028416934
 10
145.8879717666
 20
104.2640279379
 10
145.9283204601
 20
104.2214796723
 10
145.9667352013
 20
104.1763142347
 10
146.0030904258
 20
104.1285443803
 10
146.0375116981
 20
104.0781573537
 10
146.069282241
 20
104.026232227
 10
146.0983585582
 20
103.9727374747
 10
146.124784146
 20
103.9177046222
 10
146.1479727169
 20
103.862307318
 10
146.1678691823
 20
103.8064200962
 10
146.1845286307
 20
103.7501684227
 10
146.1975300397
 20
103.6951023443
 10
146.2067330684
 20
103.6417385433
 10
146.2122780576
 20
103.5895603373
 10
146.2141650073
 20
103.5385677264
  0
LWPOLYLINE
  5
386
100
AcDbEntity
  8
RACCORDO
100
AcDbPolyline
 62
250
  6
CONTINUOUS
 90
10
 70
0
 10
133.4680633918
 20
113.0937642068
 10
133.434695896
 20
113.1150824321
 10
133.4054854261
 20
113.1379705467
 10
133.3805730186
 20
113.1621481289
 10
133.3599460469
 20
113.1874800555
 10
133.3437830928
 20
113.213560841
 10
133.3322281014
 20
113.2396696634
 10
133.3250303006
 20
113.2654500945
 10
133.3218444825
 20
113.2907415387
 10
133.3216167883
 20
113.29952843
  0
LWPOLYLINE
  5
387
100
AcDbEntity
  8
RACCORDO
100
AcDbPolyline
 62
250
  6
CONTINUOUS
 90
9
 70
0
 10
145.8227986818
 20
104.1668949096
 10
145.8081595421
 20
104.1764021624
 10
145.7853445072
 20
104.1962686154
 10
145.7656095626
 20
104.2204596545
 10
145.7491661547
 20
104.2487160896
 10
145.7361904631
 20
104.2807351725
 10
145.7268215133
 20
104.316173841
 10
145.7211596873
 20
104.3546523942
 10
145.7192656476
 20
104.3957585613
  0
LWPOLYLINE
  5
388
100
AcDbEntity
  8
RACCORDO
100
AcDbPolyline
 62
250
  6
CONTINUOUS
 90
8
 70
0
 10
133.5375399984
 20
113.2155137202
 10
133.5107296361
 20
113.2329438813
 10
133.4873988699
 20
113.2511959918
 10
133.4675476998
 20
113.2702700519
 10
133.4511970535
 20
113.2904992969
 10
133.4383260032
 20
113.3115504915
 10
133.4288717661
 20
113.3324239294
 10
133.4230953147
 20
113.3530059683
  0
LWPOLYLINE
  5
389
100
AcDbEntity
  8
RACCORDO
100
AcDbPolyline
 62
250
  6
CONTINUOUS
 90
7
 70
0
 10
154.6627995057
 20
93.6419273583
 10
154.6690634999
 20
93.6355260401
 10
154.6754025652
 20
93.6286306104
 10
154.6818602239
 20
93.6211437881
 10
154.6884090471
 20
93.6130312308
 10
154.6949889143
 20
93.6042969593
 10
154.7015778405
 20
93.5948947343
  0
LWPOLYLINE
  5
38A
100
AcDbEntity
  8
RACCORDO
100
AcDbPolyline
 62
7
  6
CONTINUOUS
 90
14
 70
0
 10
154.6033412542
 20
93.7419337223
 10
154.5909876371
 20
93.754578885
 10
154.5784816608
 20
93.769041199
 10
154.5662637095
 20
93.7849854387
 10
154.5545875533
 20
93.8021966861
 10
154.5437100033
 20
93.8204011143
 10
154.5339723821
 20
93.8390556909
 10
154.5255157366
 20
93.8578162591
 10
154.5184447911
 20
93.8763325951
 10
154.5128908573
 20
93.8940041007
 10
154.5088109346
 20
93.9104901568
 10
154.5061044894
 20
93.9255265141
 10
154.5046467945
 20
93.9386653675
 10
154.5042035525
 20
93.9500240743
  0
LWPOLYLINE
  5
38B
100
AcDbEntity
  8
RACCORDO
100
AcDbPolyline
 62
250
  6
CONTINUOUS
 90
9
 70
0
 10
154.7668631336
 20
95.4098069492
 10
154.771650793
 20
95.4047866395
 10
154.7764813805
 20
95.399471858
 10
154.7813395402
 20
95.3938602645
 10
154.7862402539
 20
95.3879124081
 10
154.7911686903
 20
95.3816196464
 10
154.7961032005
 20
95.3749816197
 10
154.8010428008
 20
95.3679686388
 10
154.8059697356
 20
95.3605695194
  0
LWPOLYLINE
  5
38C
100
AcDbEntity
  8
RACCORDO
100
AcDbPolyline
 62
7
  6
CONTINUOUS
 90
3
 70
0
 10
154.6807702563
 20
95.5294159319
 10
154.6785849725
 20
95.5318130256
 10
154.6772657712
 20
95.5336051407
  0
LWPOLYLINE
  5
38D
100
AcDbEntity
  8
RACCORDO
100
AcDbPolyline
 62
250
  6
CONTINUOUS
 90
10
 70
0
 10
146.0370424406
 20
94.5776047655
 10
146.0357695757
 20
94.592287004
 10
146.0324254987
 20
94.6077847932
 10
146.0271117813
 20
94.6236274209
 10
146.0199898187
 20
94.6393337015
 10
146.0112759266
 20
94.6544265931
 10
146.0012347699
 20
94.6684476866
 10
145.9901713263
 20
94.680971125
 10
145.9784216235
 20
94.6916165385
 10
145.9663425321
 20
94.700060599
  0
LWPOLYLINE
  5
38E
100
AcDbEntity
  8
RACCORDO
100
AcDbPolyline
 62
250
  6
CONTINUOUS
 90
9
 70
0
 10
146.0677184007
 20
103.7426747699
 10
146.0686333249
 20
103.7252483372
 10
146.0744323171
 20
103.6955538412
 10
146.0855165279
 20
103.6663645375
 10
146.1017671975
 20
103.6379931692
 10
146.1230102113
 20
103.6107437159
 10
146.1490179651
 20
103.5849081365
 10
146.1795118039
 20
103.5607632414
 10
146.2141650073
 20
103.5385677264
  0
LINE
  5
38F
100
AcDbEntity
  8
DRAFT
100
AcDbLine
 62
7
  6
CONTINUOUS
 10
144.2338783508
 20
132.8312423402
 11
144.2338783508
 21
132.7511559419
  0
LINE
  5
390
100
AcDbEntity
  8
RACCORDO
100
AcDbLine
 62
7
  6
CONTINUOUS
 10
146.0677183979
 20
88.3029732571
 11
146.0677183979
 21
103.7427050231
  0
LINE
  5
391
100
AcDbEntity
  8
RACCORDO
100
AcDbLine
 62
250
  6
CONTINUOUS
 10
146.2141650073
 20
87.5988520684
 11
146.2141650073
 21
103.5385677264
  0
LINE
  5
392
100
AcDbEntity
  8
ASSI
100
AcDbLine
 62
250
  6
CONTINUOUS
 10
145.7555585157
 20
133.2367344057
 11
145.75523347
 21
133.2308762825
  0
LINE
  5
393
100
AcDbEntity
  8
ASSI
100
AcDbLine
 62
250
  6
CONTINUOUS
 10
148.5810488964
 20
134.6755170042
 11
148.5841374946
 21
134.693027513
  0
LWPOLYLINE
  5
394
100
AcDbEntity
  8
ASSI
100
AcDbPolyline
 62
250
  6
CONTINUOUS
 90
13
 70
0
 10
148.8624798993
 20
131.2776060591
 10
148.8672536111
 20
131.301411311
 10
148.8697642761
 20
131.3258564725
 10
148.8699735021
 20
131.3505680191
 10
148.8678780627
 20
131.3751683514
 10
148.8635099488
 20
131.3992815546
 10
148.8569358839
 20
131.4225391436
 10
148.8482562994
 20
131.4445857153
 10
148.8376038057
 20
131.4650843576
 10
148.8251411756
 20
131.483721794
 10
148.8110588426
 20
131.5002132016
 10
148.7955719858
 20
131.5143065585
 10
148.7789172541
 20
131.5257864788
  0
LWPOLYLINE
  5
395
100
AcDbEntity
  8
ASSI
100
AcDbPolyline
 62
250
  6
CONTINUOUS
 90
5
 70
0
 10
153.4311509584
 20
132.6684216538
 10
153.4357906307
 20
132.680431557
 10
153.4421753375
 20
132.6920322762
 10
153.4502090622
 20
132.703070292
 10
153.4597871734
 20
132.7134364895
  0
LWPOLYLINE
  5
396
100
AcDbEntity
  8
ASSI
100
AcDbPolyline
 62
250
  6
CONTINUOUS
 90
4
 70
0
 10
153.4311522982
 20
132.6474851992
 10
153.4347994358
 20
132.6565015208
 10
153.4429401272
 20
132.6687281324
 10
153.4540379765
 20
132.6804553505
  0
LINE
  5
397
100
AcDbEntity
  8
RACCORDO
100
AcDbLine
 62
7
  6
CONTINUOUS
 10
138.1766615641
 20
100.6890762844
 11
138.1757919489
 21
100.6876780631
  0
LWPOLYLINE
  5
398
100
AcDbEntity
  8
RACCORDO
100
AcDbPolyline
 62
250
  6
CONTINUOUS
 90
11
 70
0
 10
136.8612360743
 20
99.8063394921
 10
136.8689793793
 20
99.8158794853
 10
136.876942311
 20
99.8251901712
 10
136.8850840576
 20
99.8342179234
 10
136.8934207319
 20
99.8429749927
 10
136.9020958976
 20
99.8515900331
 10
136.9111051114
 20
99.8600234481
 10
136.9204354986
 20
99.8682277543
 10
136.9302271468
 20
99.8762769559
 10
136.9405192632
 20
99.884135804
 10
136.9512439429
 20
99.8916833974
  0
LINE
  5
399
100
AcDbEntity
  8
RACCORDO
100
AcDbLine
 62
7
  6
CONTINUOUS
 10
138.1739130259
 20
100.6853292198
 11
138.1708512565
 21
100.6824173392
  0
LINE
  5
39A
100
AcDbEntity
  8
RACCORDO
100
AcDbLine
 62
250
  6
CONTINUOUS
 10
136.8009511451
 20
105.0794707356
 11
137.2395881418
 21
105.2804935543
  0
LINE
  5
39B
100
AcDbEntity
  8
RACCORDO
100
AcDbLine
 62
7
  6
CONTINUOUS
 10
136.8009511451
 20
105.024522612
 11
137.2042611995
 21
105.2093554569
  0
LWPOLYLINE
  5
39C
100
AcDbEntity
  8
RACCORDO
100
AcDbPolyline
 62
7
  6
CONTINUOUS
 90
20
 70
0
 10
150.4597304542
 20
112.3571338946
 10
150.6143851626
 20
112.3962165319
 10
150.7652696556
 20
112.4299396328
 10
150.9123839332
 20
112.4583031974
 10
151.0555542835
 20
112.4812310851
 10
151.1949544185
 20
112.4987994364
 10
151.3311054738
 20
112.5112366731
 10
151.4640633622
 20
112.5186013402
 10
151.5937721709
 20
112.5208348926
 10
151.7205852968
 20
112.5179901164
 10
151.8445398612
 20
112.5101155674
 10
151.9655987428
 20
112.4971626899
 10
152.0840039751
 20
112.4790386026
 10
152.1998341526
 20
112.4557638045
 10
152.3130106806
 20
112.4273177966
 10
152.4235398086
 20
112.393546201
 10
152.5315192617
 20
112.3543986206
 10
152.6368513146
 20
112.3099254524
 10
152.739249042
 20
112.2601235101
 10
152.8212027907
 20
112.2151140142
  0
LWPOLYLINE
  5
39D
100
AcDbEntity
  8
RACCORDO
100
AcDbPolyline
 62
250
  6
CONTINUOUS
 90
8
 70
0
 10
151.5121098369
 20
112.7881015362
 10
151.6112978696
 20
112.7939636675
 10
151.7098719376
 20
112.7968696054
 10
151.8075212821
 20
112.796553065
 10
151.9044279308
 20
112.7929468309
 10
152.0004098559
 20
112.7861181185
 10
152.0946102154
 20
112.7760022883
 10
152.1868227844
 20
112.7625479234
  0
LWPOLYLINE
  5
39E
100
AcDbEntity
  8
RACCORDO
100
AcDbPolyline
 62
250
  6
CONTINUOUS
 90
7
 70
0
 10
158.8651404316
 20
103.8216089097
 10
158.8551336694
 20
103.826016798
 10
158.8437037354
 20
103.8283403327
 10
158.8313673659
 20
103.828351879
 10
158.8183333117
 20
103.8260512312
 10
158.8048221136
 20
103.8214773077
 10
158.7910623965
 20
103.8147074931
  0
LINE
  5
39F
100
AcDbEntity
  8
RACCORDO
100
AcDbLine
 62
250
  6
CONTINUOUS
 10
161.2284196991
 20
102.4087314651
 11
161.2146360777
 21
102.4153664241
  0
LWPOLYLINE
  5
3A0
100
AcDbEntity
  8
RACCORDO
100
AcDbPolyline
 62
250
  6
CONTINUOUS
 90
7
 70
0
 10
158.7910623965
 20
103.8147074931
 10
158.7777453037
 20
103.8216553493
 10
158.7645429827
 20
103.8264996803
 10
158.7516810818
 20
103.8291154936
 10
158.7393604073
 20
103.8294106851
 10
158.727836799
 20
103.8273247303
 10
158.7180988425
 20
103.8232766827
  0
LINE
  5
3A1
100
AcDbEntity
  8
RACCORDO
100
AcDbLine
 62
250
  6
CONTINUOUS
 10
161.2416203825
 20
102.4012212369
 11
161.2284196991
 21
102.4087314651
  0
LINE
  5
3A2
100
AcDbEntity
  8
DRAFT
100
AcDbLine
 62
250
  6
CONTINUOUS
 10
151.7536855852
 20
104.5211513866
 11
152.5139826557
 21
104.0821653869
  0
LINE
  5
3A3
100
AcDbEntity
  8
DRAFT
100
AcDbLine
 62
250
  6
CONTINUOUS
 10
152.7371157199
 20
104.7015701104
 11
151.9673293874
 21
105.1460350911
  0
LINE
  5
3A4
100
AcDbEntity
  8
DRAFT
100
AcDbLine
 62
7
  6
CONTINUOUS
 10
156.4662125665
 20
102.9585800082
 11
155.3491001077
 21
103.6035867411
  0
LINE
  5
3A5
100
AcDbEntity
  8
DRAFT
100
AcDbLine
 62
7
  6
CONTINUOUS
 10
155.5463498322
 20
104.1896700187
 11
157.024205087
 21
103.3363749164
  0
LINE
  5
3A6
100
AcDbEntity
  8
RACCORDO
100
AcDbLine
 62
250
  6
CONTINUOUS
 10
158.3894884962
 20
103.5947763621
 11
155.5463498322
 21
105.2363689938
  0
LINE
  5
3A7
100
AcDbEntity
  8
RACCORDO
100
AcDbLine
 62
7
  6
CONTINUOUS
 10
158.3905065361
 20
103.643861704
 11
155.5463498322
 21
105.2860421392
  0
LINE
  5
3A8
100
AcDbEntity
  8
RACCORDO
100
AcDbLine
 62
250
  6
CONTINUOUS
 10
161.2146360777
 20
102.4153664241
 11
158.7910623965
 21
103.8147074931
  0
LINE
  5
3A9
100
AcDbEntity
  8
RACCORDO
100
AcDbLine
 62
7
  6
CONTINUOUS
 10
161.2887141129
 20
102.4222678407
 11
158.8651404316
 21
103.8216089097
  0
LWPOLYLINE
  5
3AA
100
AcDbEntity
  8
RACCORDO
100
AcDbPolyline
 62
250
  6
CONTINUOUS
 90
8
 70
0
 10
152.1315214275
 20
98.9037957524
 10
152.1475108853
 20
98.883922128
 10
152.1612520584
 20
98.8608724595
 10
152.172512528
 20
98.8348492859
 10
152.1811069355
 20
98.8062681015
 10
152.1869662758
 20
98.7754746002
 10
152.190064945
 20
98.7426550962
 10
152.1903788988
 20
98.7080879514
  0
LWPOLYLINE
  5
3AB
100
AcDbEntity
  8
RACCORDO
100
AcDbPolyline
 62
250
  6
CONTINUOUS
 90
13
 70
0
 10
154.5483475889
 20
95.663345756
 10
154.5553768736
 20
95.6526011202
 10
154.5661841658
 20
95.6380382256
 10
154.5780532455
 20
95.6236605913
 10
154.590772998
 20
95.6096088633
 10
154.6039639616
 20
95.5964219178
 10
154.6174677096
 20
95.584029824
 10
154.63107369
 20
95.5722060042
 10
154.6441875212
 20
95.5611943809
 10
154.6564811319
 20
95.5510147034
 10
154.6678658455
 20
95.5413151959
 10
154.678133338
 20
95.5319532768
 10
154.6808193411
 20
95.5293665685
  0
LWPOLYLINE
  5
3AC
100
AcDbEntity
  8
RACCORDO
100
AcDbPolyline
 62
250
  6
CONTINUOUS
 90
13
 70
0
 10
154.7015778405
 20
93.5948947343
 10
154.7081364046
 20
93.584786412
 10
154.7145735929
 20
93.5740090941
 10
154.7207844369
 20
93.5626419413
 10
154.726704064
 20
93.5506988657
 10
154.732249413
 20
93.5382294245
 10
154.7373038033
 20
93.5253885191
 10
154.7418004301
 20
93.5122393282
 10
154.7456741475
 20
93.4988455741
 10
154.7488404925
 20
93.4853776103
 10
154.7512497341
 20
93.4719274323
 10
154.752859298
 20
93.4585681655
 10
154.7536262753
 20
93.4454441732
  0
LWPOLYLINE
  5
3AD
100
AcDbEntity
  8
RACCORDO
100
AcDbPolyline
 62
250
  6
CONTINUOUS
 90
3
 70
0
 10
154.8059697356
 20
95.3605695194
 10
154.8108513784
 20
95.3527940544
 10
154.8156599205
 20
95.3446456422
  0
LWPOLYLINE
  5
3AE
100
AcDbEntity
  8
RACCORDO
100
AcDbPolyline
 62
7
  6
CONTINUOUS
 90
7
 70
0
 10
154.8687240458
 20
95.37528774
 10
154.8613016526
 20
95.3873001794
 10
154.8488547668
 20
95.4044243174
 10
154.835149281
 20
95.4200674687
 10
154.8202546252
 20
95.4341904031
 10
154.8039630921
 20
95.4469051367
 10
154.7888205614
 20
95.4565811578
  0
LINE
  5
3AF
100
AcDbEntity
  8
RACCORDO
100
AcDbLine
 62
7
  6
CONTINUOUS
 10
154.6772657712
 20
95.5336051407
 11
154.6767213893
 21
95.5345124606
  0
LWPOLYLINE
  5
3B0
100
AcDbEntity
  8
RACCORDO
100
AcDbPolyline
 62
7
  6
CONTINUOUS
 90
12
 70
0
 10
151.7828082899
 20
91.7324758052
 10
151.7873627215
 20
91.7185005566
 10
151.7922188554
 20
91.698821446
 10
151.7954026099
 20
91.6795572225
 10
151.7968741518
 20
91.6609454273
 10
151.7966089891
 20
91.6432091736
 10
151.7946113779
 20
91.6265514826
 10
151.7909066436
 20
91.6111886047
 10
151.7855467617
 20
91.5973338716
 10
151.7786139898
 20
91.5851516153
 10
151.7702054545
 20
91.574767036
 10
151.7604348865
 20
91.5662924609
  0
LINE
  5
3B1
100
AcDbEntity
  8
ASSI
100
AcDbLine
 62
7
  6
CONTINUOUS
 10
145.75523347
 20
133.2308762825
 11
145.7552392856
 21
133.2308131227
  0
LINE
  5
3B2
100
AcDbEntity
  8
ASSI
100
AcDbLine
 62
250
  6
CONTINUOUS
 10
145.9293297367
 20
133.136760907
 11
145.9196404701
 21
133.243499268
  0
LWPOLYLINE
  5
3B3
100
AcDbEntity
  8
RACCORDO
100
AcDbPolyline
 62
250
  6
CONTINUOUS
 90
10
 70
0
 10
149.0340082386
 20
104.5093213408
 10
149.0327431417
 20
104.5240101618
 10
149.0294257995
 20
104.5395245637
 10
149.024157109
 20
104.5553933007
 10
149.0170971808
 20
104.5711344928
 10
149.0084605605
 20
104.5862700429
 10
148.9985097723
 20
104.6003401902
 10
148.9875471615
 20
104.6129177745
 10
148.9759056396
 20
104.6236211572
 10
148.9639387095
 20
104.6321256029
  0
LWPOLYLINE
  5
3B4
100
AcDbEntity
  8
0
100
AcDbPolyline
 62
250
  6
CONTINUOUS
 90
9
 70
0
 10
148.3362775602
 20
83.5950388848
 10
148.3381503971
 20
83.5541567125
 10
148.3437490663
 20
83.5158703659
 10
148.3530142536
 20
83.4805854645
 10
148.3658478002
 20
83.4486758294
 10
148.3821137429
 20
83.4204795232
 10
148.4016397542
 20
83.3962952679
 10
148.4242189684
 20
83.3763792805
 10
148.4398188707
 20
83.3661704542
  0
LINE
  5
3B5
100
AcDbEntity
  8
DRAFT
100
AcDbLine
 62
250
  6
CONTINUOUS
 10
148.3362775602
 20
125.746811167
 11
148.3362775602
 21
104.8509876599
  0
LINE
  5
3B6
100
AcDbEntity
  8
RACCORDO
100
AcDbLine
 62
250
  6
CONTINUOUS
 10
148.3362775602
 20
104.5090436876
 11
148.3362775602
 21
83.5950388848
  0
LINE
  5
3B7
100
AcDbEntity
  8
ASSI
100
AcDbLine
 62
7
  6
CONTINUOUS
 10
148.5515761292
 20
134.7542138462
 11
148.5515761292
 21
134.6219456396
  0
LINE
  5
3B8
100
AcDbEntity
  8
DRAFT
100
AcDbLine
 62
250
  6
CONTINUOUS
 10
149.0340082386
 20
125.7415374283
 11
149.0340082386
 21
104.824879272
  0
LINE
  5
3B9
100
AcDbEntity
  8
RACCORDO
100
AcDbLine
 62
250
  6
CONTINUOUS
 10
149.0340082386
 20
104.5093213408
 11
149.0340082386
 21
83.5897651461
  0
LINE
  5
3BA
100
AcDbEntity
  8
ASSI
100
AcDbLine
 62
250
  6
CONTINUOUS
 10
148.5792522135
 20
134.631646965
 11
148.5800155726
 21
134.6582378039
  0
LWPOLYLINE
  5
3BB
100
AcDbEntity
  8
ASSI
100
AcDbPolyline
 62
7
  6
CONTINUOUS
 90
22
 70
0
 10
148.5515761333
 20
134.7542138462
 10
148.5532132328
 20
134.7855167018
 10
148.5582577147
 20
134.8172556212
 10
148.5668775453
 20
134.8490838773
 10
148.5791683458
 20
134.8805896402
 10
148.5951968096
 20
134.9114434517
 10
148.6150874435
 20
134.9414471252
 10
148.639073924
 20
134.97047525
 10
148.6670290359
 20
134.9979709593
 10
148.698490309
 20
135.0233037261
 10
148.7336382011
 20
135.0464946374
 10
148.7721960504
 20
135.0672117722
 10
148.8126747298
 20
135.0847394201
 10
148.8544560954
 20
135.0990844141
 10
148.8976603502
 20
135.110485331
 10
148.9415567039
 20
135.1188962711
 10
148.9856560514
 20
135.1243950128
 10
149.0299470341
 20
135.1271048349
 10
149.074281581
 20
135.1270716455
 10
149.1184521566
 20
135.1243058901
 10
149.1622206405
 20
135.1187975604
 10
149.2053552576
 20
135.1105163079
  0
LINE
  5
3BC
100
AcDbEntity
  8
ASSI
100
AcDbLine
 62
250
  6
CONTINUOUS
 10
148.5800155894
 20
134.6582377837
 11
148.5810488964
 21
134.6755170042
  0
LWPOLYLINE
  5
3BD
100
AcDbEntity
  8
RACCORDO
100
AcDbPolyline
 62
250
  6
CONTINUOUS
 90
10
 70
0
 10
148.3362775602
 20
104.5090436876
 10
148.3373281335
 20
104.5236721775
 10
148.3404486361
 20
104.5390791621
 10
148.3455463432
 20
104.5548068272
 10
148.3524697778
 20
104.5703878301
 10
148.3610132123
 20
104.5853591858
 10
148.3709227809
 20
104.5992760251
 10
148.3819040238
 20
104.6117248131
 10
148.3936306367
 20
104.6223356379
 10
148.4057541668
 20
104.6307932019
  0
LWPOLYLINE
  5
3BE
100
AcDbEntity
  8
ASSI
100
AcDbPolyline
 62
250
  6
CONTINUOUS
 90
13
 70
0
 10
150.9361835514
 20
135.1195337752
 10
150.9387791058
 20
135.1432133584
 10
150.9390695099
 20
135.1676833835
 10
150.9370501091
 20
135.1925516529
 10
150.9327532696
 20
135.217419586
 10
150.9262478595
 20
135.2418886075
 10
150.9176381455
 20
135.2655665356
 10
150.9070621212
 20
135.2880738681
 10
150.8946892955
 20
135.3090498645
 10
150.8807179763
 20
135.328158328
 10
150.8653720913
 20
135.3450929941
 10
150.8488975994
 20
135.3595824394
 10
150.8315585486
 20
135.3713944316
  0
LWPOLYLINE
  5
3BF
100
AcDbEntity
  8
ASSI
100
AcDbPolyline
 62
250
  6
CONTINUOUS
 90
10
 70
0
 10
150.9068086263
 20
131.38395761
 10
150.9033829882
 20
131.3657889389
 10
150.9013353307
 20
131.3476921024
 10
150.9006839372
 20
131.3298286705
 10
150.9014346262
 20
131.3123581295
 10
150.9035806958
 20
131.2954364585
 10
150.9071029841
 20
131.2792147369
 10
150.9119700449
 20
131.2638377941
 10
150.9181384273
 20
131.2494429173
 10
150.9255530608
 20
131.2361586258
  0
LINE
  5
3C0
100
AcDbEntity
  8
RACCORDO
100
AcDbLine
 62
7
  6
CONTINUOUS
 10
138.1708512565
 20
100.6824173392
 11
138.1672797893
 21
100.6798578743
  0
LWPOLYLINE
  5
3C1
100
AcDbEntity
  8
RACCORDO
100
AcDbPolyline
 62
7
  6
CONTINUOUS
 90
17
 70
0
 10
136.9110546521
 20
99.9029894686
 10
136.8822855933
 20
99.8828333777
 10
136.8520550042
 20
99.8561232522
 10
136.8242272699
 20
99.8256243748
 10
136.7989278563
 20
99.7916218522
 10
136.7766509823
 20
99.754746024
 10
136.7581069579
 20
99.7161861148
 10
136.743546889
 20
99.6764556863
 10
136.7333186821
 20
99.6361840804
 10
136.727838727
 20
99.5966615622
 10
136.7272595254
 20
99.5579549785
 10
136.7318880139
 20
99.5207432715
 10
136.7415252089
 20
99.4869294288
 10
136.7555113118
 20
99.4573625067
 10
136.7735625247
 20
99.431731134
 10
136.7953114424
 20
99.4102562324
 10
136.8187163549
 20
99.3941684628
  0
LWPOLYLINE
  5
3C2
100
AcDbEntity
  8
RACCORDO
100
AcDbPolyline
 62
250
  6
CONTINUOUS
 90
10
 70
0
 10
138.2176007281
 20
100.6750853352
 10
138.2297242581
 20
100.6835428993
 10
138.241450871
 20
100.6941537241
 10
138.252432114
 20
100.7066025121
 10
138.2623416826
 20
100.7205193513
 10
138.2708851171
 20
100.7354907071
 10
138.2778085517
 20
100.75107171
 10
138.2829062587
 20
100.7667993751
 10
138.2860267613
 20
100.7822063596
 10
138.2870773347
 20
100.7968348496
  0
LINE
  5
3C3
100
AcDbEntity
  8
RACCORDO
100
AcDbLine
 62
250
  6
CONTINUOUS
 10
136.9512439429
 20
99.8916833974
 11
136.9623780855
 21
99.8988368243
  0
LINE
  5
3C4
100
AcDbEntity
  8
RACCORDO
100
AcDbLine
 62
7
  6
CONTINUOUS
 10
136.9110155991
 20
99.9029653548
 11
138.1672416873
 21
100.6798344115
  0
LINE
  5
3C5
100
AcDbEntity
  8
RACCORDO
100
AcDbLine
 62
250
  6
CONTINUOUS
 10
136.9623780855
 20
99.8988368243
 11
138.2176007281
 21
100.6750853352
  0
LINE
  5
3C6
100
AcDbEntity
  8
RACCORDO
100
AcDbLine
 62
250
  6
CONTINUOUS
 10
157.1577778779
 20
113.5514865513
 11
155.5463498322
 21
112.5883052935
  0
LINE
  5
3C7
100
AcDbEntity
  8
RACCORDO
100
AcDbLine
 62
7
  6
CONTINUOUS
 10
157.1277486249
 20
113.4834376634
 11
155.5463498322
 21
112.5382054624
  0
LWPOLYLINE
  5
3C8
100
AcDbEntity
  8
RACCORDO
100
AcDbPolyline
 62
250
  6
CONTINUOUS
 90
16
 70
0
 10
138.1672810836
 20
100.6798587368
 10
138.1685726562
 20
100.6806154989
 10
138.171271115
 20
100.6819599908
 10
138.1741045427
 20
100.6830650336
 10
138.1770645764
 20
100.6839239843
 10
138.1801464293
 20
100.684532305
 10
138.1833346345
 20
100.6848846181
 10
138.1865995764
 20
100.68497897
 10
138.1899522727
 20
100.6848167617
 10
138.1934411402
 20
100.6843880345
 10
138.1970562066
 20
100.6836813762
 10
138.2007940578
 20
100.6826839846
 10
138.2047190598
 20
100.6813563094
 10
138.208848216
 20
100.6796604113
 10
138.2131467828
 20
100.6775781755
 10
138.2176007281
 20
100.6750853352
  0
LWPOLYLINE
  5
3C9
100
AcDbEntity
  8
RACCORDO
100
AcDbPolyline
 62
250
  6
CONTINUOUS
 90
6
 70
0
 10
136.9110546521
 20
99.9029894686
 10
136.9164361244
 20
99.9056730795
 10
136.9265828784
 20
99.9080379366
 10
136.9378543131
 20
99.9076655061
 10
136.9499080842
 20
99.9045670996
 10
136.9623780855
 20
99.8988368243
  0
LINE
  5
3CA
100
AcDbEntity
  8
RACCORDO
100
AcDbLine
 62
250
  6
CONTINUOUS
 10
157.1577778779
 20
116.2281243945
 11
155.5463498322
 21
115.8855756079
  0
LINE
  5
3CB
100
AcDbEntity
  8
RACCORDO
100
AcDbLine
 62
250
  6
CONTINUOUS
 10
157.0832922519
 20
116.4241738679
 11
155.5463498322
 21
116.0974588388
  0
LINE
  5
3CC
100
AcDbEntity
  8
RACCORDO
100
AcDbLine
 62
250
  6
CONTINUOUS
 10
155.5463498322
 20
116.3244191735
 11
156.8179897707
 21
116.5773561956
  0
LINE
  5
3CD
100
AcDbEntity
  8
RACCORDO
100
AcDbLine
 62
7
  6
CONTINUOUS
 10
155.5463498322
 20
116.3484774624
 11
156.7562251589
 21
116.5891291225
  0
LWPOLYLINE
  5
3CE
100
AcDbEntity
  8
RACCORDO
100
AcDbPolyline
 62
250
  6
CONTINUOUS
 90
3
 70
0
 10
156.7562251561
 20
116.589129122
 10
156.7592615574
 20
116.5896710106
 10
156.7689818741
 20
116.590594008
  0
LWPOLYLINE
  5
3CF
100
AcDbEntity
  8
RACCORDO
100
AcDbPolyline
 62
7
  6
CONTINUOUS
 90
4
 70
0
 10
151.4768360134
 20
112.6744392983
 10
151.6701478195
 20
112.6765856157
 10
151.8548360553
 20
112.6656812613
 10
152.0306951628
 20
112.6419987437
  0
LWPOLYLINE
  5
3D0
100
AcDbEntity
  8
RACCORDO
100
AcDbPolyline
 62
250
  6
CONTINUOUS
 90
11
 70
0
 10
150.3496269798
 20
112.5624416219
 10
150.3635174144
 20
112.5607904286
 10
150.3845843094
 20
112.5596048613
 10
150.4057502678
 20
112.5597114662
 10
150.4267782153
 20
112.5611090566
 10
150.4474326323
 20
112.5637819878
 10
150.4674821551
 20
112.5677003271
 10
150.4867021728
 20
112.5728201826
 10
150.5048773923
 20
112.5790842033
 10
150.5218042454
 20
112.5864222297
 10
150.5372931347
 20
112.5947520693
  0
LWPOLYLINE
  5
3D1
100
AcDbEntity
  8
RACCORDO
100
AcDbPolyline
 62
250
  6
CONTINUOUS
 90
48
 70
0
 10
152.1868227844
 20
112.7625479234
 10
152.2772537877
 20
112.7458064407
 10
152.3656650577
 20
112.7258674523
 10
152.4519452723
 20
112.7027425602
 10
152.5362057537
 20
112.6764201623
 10
152.6185423003
 20
112.6469550638
 10
152.6989520693
 20
112.6143620908
 10
152.7774379034
 20
112.5786264172
 10
152.8541041299
 20
112.5397583697
 10
152.9289888773
 20
112.4977432849
 10
153.002054017
 20
112.4525958262
 10
153.073289491
 20
112.404370311
 10
153.1427451054
 20
112.3530023603
 10
153.210371054
 20
112.2985563531
 10
153.2760078605
 20
112.2412797444
 10
153.3395872243
 20
112.1812037126
 10
153.4011774459
 20
112.1182970793
 10
153.4608239507
 20
112.0527137642
 10
153.5183970147
 20
111.9846713364
 10
153.574026362
 20
111.9139522269
 10
153.6281465898
 20
111.8400576486
 10
153.6807415687
 20
111.7632194841
 10
153.7318274282
 20
111.6832058507
 10
153.7818871541
 20
111.5988223142
 10
153.8310202435
 20
111.5101829382
 10
153.8791271994
 20
111.417173659
 10
153.9263925166
 20
111.318257851
 10
153.9729531617
 20
111.2134169548
 10
154.0186721682
 20
111.1026695299
 10
154.063323131
 20
110.9845346288
 10
154.1070418536
 20
110.8587620605
 10
154.1496925324
 20
110.7256020161
 10
154.1906413525
 20
110.5843241203
 10
154.2298587191
 20
110.435082255
 10
154.2673742269
 20
110.2777225384
 10
154.3026428444
 20
110.1110529498
 10
154.3357785553
 20
109.9339012326
 10
154.3666673758
 20
109.7474396434
 10
154.3944223234
 20
109.5539929316
 10
154.4188818225
 20
109.3515869685
 10
154.4402074486
 20
109.1421958829
 10
154.4579969454
 20
108.9340668102
 10
154.4718281422
 20
108.7268448538
 10
154.4821232096
 20
108.5208849104
 10
154.4897464033
 20
108.3254988044
 10
154.4949858084
 20
108.1437904774
 10
154.4975533397
 20
107.9726559879
 10
154.4974489973
 20
107.812095336
  0
LINE
  5
3D2
100
AcDbEntity
  8
RACCORDO
100
AcDbLine
 62
7
  6
CONTINUOUS
 10
152.0306951628
 20
112.6419987437
 11
152.1977463282
 21
112.605865563
  0
LWPOLYLINE
  5
3D3
100
AcDbEntity
  8
RACCORDO
100
AcDbPolyline
 62
7
  6
CONTINUOUS
 90
5
 70
0
 10
152.1977463282
 20
112.605865563
 10
152.3557665609
 20
112.5577511233
 10
152.5047756517
 20
112.4981984587
 10
152.6452578221
 20
112.4276118068
 10
152.6708556789
 20
112.4130786279
  0
LINE
  5
3D4
100
AcDbEntity
  8
RACCORDO
100
AcDbLine
 62
250
  6
CONTINUOUS
 10
154.8156599205
 20
95.3446456422
 11
155.5199161322
 21
94.124838455
  0
LINE
  5
3D5
100
AcDbEntity
  8
RACCORDO
100
AcDbLine
 62
7
  6
CONTINUOUS
 10
154.8687240467
 20
95.3752877399
 11
155.5691693312
 21
94.1620809205
  0
LINE
  5
3D6
100
AcDbEntity
  8
RACCORDO
100
AcDbLine
 62
250
  6
CONTINUOUS
 10
155.5199161322
 20
94.124838455
 11
155.5235568607
 21
94.1181936368
  0
LWPOLYLINE
  5
3D7
100
AcDbEntity
  8
RACCORDO
100
AcDbPolyline
 62
250
  6
CONTINUOUS
 90
7
 70
0
 10
152.350408025
 20
100.5848671651
 10
152.3603849914
 20
100.565910507
 10
152.370572458
 20
100.5421702094
 10
152.3786080252
 20
100.5182100023
 10
152.3843543064
 20
100.4944396955
 10
152.3877130813
 20
100.4712658092
 10
152.3886269601
 20
100.4490846611
  0
LWPOLYLINE
  5
3D8
100
AcDbEntity
  8
RACCORDO
100
AcDbPolyline
 62
250
  6
CONTINUOUS
 90
8
 70
0
 10
155.5235568607
 20
94.1181936368
 10
155.5270243065
 20
94.1115149105
 10
155.5302862368
 20
94.1048742968
 10
155.5333728284
 20
94.0982210608
 10
155.5363614752
 20
94.0913779414
 10
155.5392502395
 20
94.0843163134
 10
155.5420061768
 20
94.0770812925
 10
155.5446390023
 20
94.0696044758
  0
LINE
  5
3D9
100
AcDbEntity
  8
RACCORDO
100
AcDbLine
 62
250
  6
CONTINUOUS
 10
151.6898238381
 20
98.6935197869
 11
151.679672661
 21
98.7151144622
  0
LINE
  5
3DA
100
AcDbEntity
  8
RACCORDO
100
AcDbLine
 62
7
  6
CONTINUOUS
 10
151.9249954206
 20
98.4934177276
 11
151.7898655278
 21
98.7808805619
  0
LWPOLYLINE
  5
3DB
100
AcDbEntity
  8
RACCORDO
100
AcDbPolyline
 62
250
  6
CONTINUOUS
 90
13
 70
0
 10
154.5322560875
 20
95.6493335719
 10
154.5375422373
 20
95.6348818388
 10
154.5442173674
 20
95.6191667788
 10
154.5517423207
 20
95.6036502708
 10
154.5600599186
 20
95.5884470615
 10
154.5691058031
 20
95.5736721211
 10
154.5788132669
 20
95.559435439
 10
154.5891138677
 20
95.5458398351
 10
154.599921968
 20
95.5329950302
 10
154.6111627214
 20
95.5209889883
 10
154.6227810601
 20
95.5098902713
 10
154.6347003958
 20
95.4997828291
 10
154.6468199831
 20
95.4907583229
  0
LWPOLYLINE
  5
3DC
100
AcDbEntity
  8
ASSI
100
AcDbPolyline
 62
250
  6
CONTINUOUS
 90
13
 70
0
 10
146.115501537
 20
129.4821187185
 10
146.1128473609
 20
129.503624607
 10
146.1080315428
 20
129.5258021248
 10
146.1011303003
 20
129.5483098783
 10
146.0922528919
 20
129.5707993618
 10
146.0815368309
 20
129.5929282903
 10
146.0691436175
 20
129.6143652719
 10
146.0552442246
 20
129.6348074606
 10
146.0400674816
 20
129.653911962
 10
146.0239061363
 20
129.6713259079
 10
146.0070372714
 20
129.6867848745
 10
145.9897042867
 20
129.7000982249
 10
145.9721716459
 20
129.7110896598
  0
LWPOLYLINE
  5
3DD
100
AcDbEntity
  8
ASSI
100
AcDbPolyline
 62
250
  6
CONTINUOUS
 90
13
 70
0
 10
148.0151240185
 20
133.4417342216
 10
148.0130607722
 20
133.4634369539
 10
148.0087721985
 20
133.4859598129
 10
148.0023269058
 20
133.5089426339
 10
147.9938279911
 20
133.5320178978
 10
147.9834113817
 20
133.5548166314
 10
147.971243655
 20
133.576974306
 10
147.9575193957
 20
133.5981366238
 10
147.9424580684
 20
133.6179652175
 10
147.9263004902
 20
133.6361430741
 10
147.9093050147
 20
133.6523795538
 10
147.8917434075
 20
133.6664150446
 10
147.8738964753
 20
133.6780251399
  0
LWPOLYLINE
  5
3DE
100
AcDbEntity
  8
ASSI
100
AcDbPolyline
 62
250
  6
CONTINUOUS
 90
13
 70
0
 10
148.3361854023
 20
133.394306932
 10
148.3382485754
 20
133.3726047091
 10
148.3425370008
 20
133.3500822797
 10
148.3489821061
 20
133.3270997797
 10
148.3574808335
 20
133.3040247018
 10
148.3678972875
 20
133.2812260185
 10
148.3800649078
 20
133.2590682833
 10
148.393789133
 20
133.2379058005
 10
148.4088505114
 20
133.2180769603
 10
148.4250082101
 20
133.199898828
 10
148.4420038657
 20
133.1836620736
 10
148.4595657161
 20
133.1696263245
 10
148.4774129454
 20
133.1580160138
  0
LINE
  5
3DF
100
AcDbEntity
  8
ASSI
100
AcDbLine
 62
250
  6
CONTINUOUS
 10
150.411065158
 20
130.4480022406
 11
150.4380062839
 21
130.1544174387
  0
LINE
  5
3E0
100
AcDbEntity
  8
ASSI
100
AcDbLine
 62
250
  6
CONTINUOUS
 10
150.3822015577
 20
130.7789226173
 11
150.411065158
 21
130.4480022406
  0
LWPOLYLINE
  5
3E1
100
AcDbEntity
  8
ASSI
100
AcDbPolyline
 62
250
  6
CONTINUOUS
 90
5
 70
0
 10
148.5515761292
 20
134.7542138462
 10
148.5533880936
 20
134.7296583696
 10
148.5587617312
 20
134.7054460684
 10
148.5676587475
 20
134.6815823405
 10
148.5800155726
 20
134.6582378039
  0
LWPOLYLINE
  5
3E2
100
AcDbEntity
  8
RACCORDO
100
AcDbPolyline
 62
250
  6
CONTINUOUS
 90
12
 70
0
 10
150.6738209106
 20
123.3206415482
 10
150.6722731383
 20
123.3424537725
 10
150.6682893007
 20
123.3652657233
 10
150.6619375823
 20
123.3886869354
 10
150.6533266985
 20
123.4123165138
 10
150.642604035
 20
123.4357499939
 10
150.6299531269
 20
123.4585862646
 10
150.6155905138
 20
123.4804344388
 10
150.5997620367
 20
123.5009205393
 10
150.5827386315
 20
123.5196938996
 10
150.564811687
 20
123.5364331727
 10
150.5527787628
 20
123.5457995123
  0
LWPOLYLINE
  5
3E3
100
AcDbEntity
  8
RACCORDO
100
AcDbPolyline
 62
250
  6
CONTINUOUS
 90
9
 70
0
 10
150.7654947676
 20
125.5362425684
 10
150.7644490027
 20
125.5510567106
 10
150.7613434827
 20
125.5666933024
 10
150.7562725671
 20
125.582677234
 10
150.7493903337
 20
125.5985228418
 10
150.7409058952
 20
125.613748665
 10
150.7310770456
 20
125.627892074
 10
150.7202024289
 20
125.6405233283
 10
150.7097587569
 20
125.6501968711
  0
LWPOLYLINE
  5
3E4
100
AcDbEntity
  8
0
100
AcDbPolyline
 62
250
  6
CONTINUOUS
 90
16
 70
0
 10
149.0340082386
 20
125.7415374283
 10
149.031118291
 20
125.7849143503
 10
149.02446959
 20
125.8301197459
 10
149.0141353973
 20
125.8766557315
 10
149.0002277458
 20
125.9240153043
 10
148.9829008626
 20
125.9716714146
 10
148.9623533471
 20
126.0190826702
 10
148.9388202202
 20
126.0657174203
 10
148.9125590404
 20
126.1110745475
 10
148.8838515679
 20
126.1546708585
 10
148.8529686613
 20
126.1960840047
 10
148.8202895298
 20
126.2347952218
 10
148.7863097131
 20
126.2702461391
 10
148.7514615322
 20
126.3020489357
 10
148.716088564
 20
126.3299511117
 10
148.6805759971
 20
126.3537000158
  0
LWPOLYLINE
  5
3E5
100
AcDbEntity
  8
RACCORDO
100
AcDbPolyline
 62
250
  6
CONTINUOUS
 90
8
 70
0
 10
151.5141831297
 20
92.8599190754
 10
151.5124335063
 20
92.8917800903
 10
151.5072608106
 20
92.9250554458
 10
151.4987478846
 20
92.9592129693
 10
151.4870309885
 20
92.9937063888
 10
151.4722975935
 20
93.027984143
 10
151.4547833594
 20
93.0614981977
 10
151.4380615157
 20
93.0884123777
  0
LWPOLYLINE
  5
3E6
100
AcDbEntity
  8
RACCORDO
100
AcDbPolyline
 62
250
  6
CONTINUOUS
 90
13
 70
0
 10
152.0523786058
 20
93.1822859238
 10
152.0506291855
 20
93.2141450257
 10
152.045457008
 20
93.2474187388
 10
152.0369447777
 20
93.2815750075
 10
152.0252286075
 20
93.316067664
 10
152.010495842
 20
93.3503451613
 10
151.9929820623
 20
93.3838593931
 10
151.9729673182
 20
93.4160744578
 10
151.950771651
 20
93.446475228
 10
151.9267499753
 20
93.474575587
 10
151.9012864042
 20
93.4999262027
 10
151.874788107
 20
93.5221217118
 10
151.8476787986
 20
93.5408072023
  0
LWPOLYLINE
  5
3E7
100
AcDbEntity
  8
ASSI
100
AcDbPolyline
 62
250
  6
CONTINUOUS
 90
10
 70
0
 10
151.0314691041
 20
131.2348464514
 10
151.0308125876
 20
131.2478653237
 10
151.0297220139
 20
131.2605172494
 10
151.0281973832
 20
131.2728022283
 10
151.0262354411
 20
131.2847198569
 10
151.0238394418
 20
131.2962705388
 10
151.0210191485
 20
131.3074554847
 10
151.0177778157
 20
131.318275098
 10
151.0141121888
 20
131.3287289752
 10
151.0100222679
 20
131.3388171164
  0
LWPOLYLINE
  5
3E8
100
AcDbEntity
  8
RACCORDO
100
AcDbPolyline
 62
7
  6
CONTINUOUS
 90
10
 70
0
 10
151.3947642885
 20
125.2328738772
 10
151.3938087583
 20
125.2557632491
 10
151.3901989578
 20
125.281950745
 10
151.3839909007
 20
125.3065684247
 10
151.3752748445
 20
125.3295233669
 10
151.3641781035
 20
125.3506245418
 10
151.3509711739
 20
125.3695558507
 10
151.3359664993
 20
125.3861190739
 10
151.3194417904
 20
125.4002661774
 10
151.3022226469
 20
125.4116510325
  0
LWPOLYLINE
  5
3E9
100
AcDbEntity
  8
RACCORDO
100
AcDbPolyline
 62
250
  6
CONTINUOUS
 90
19
 70
0
 10
150.5372931347
 20
125.7787444378
 10
150.5378452084
 20
125.7650139923
 10
150.5393407639
 20
125.752188067
 10
150.5417798014
 20
125.7402666617
 10
150.5451926634
 20
125.7291959972
 10
150.5495490073
 20
125.7190298527
 10
150.5547578049
 20
125.7099295663
 10
150.5608283152
 20
125.7019016034
 10
150.5677512793
 20
125.6949394986
 10
150.5754078914
 20
125.6891851931
 10
150.5837736982
 20
125.6846420785
 10
150.592873153
 20
125.6813067633
 10
150.6026608115
 20
125.6793110141
 10
150.6131929043
 20
125.6786478428
 10
150.6244132007
 20
125.6793242375
 10
150.6361075633
 20
125.6814929289
 10
150.6482046129
 20
125.6852048272
 10
150.6607757287
 20
125.6904090222
 10
150.6738209106
 20
125.6971055139
  0
LWPOLYLINE
  5
3EA
100
AcDbEntity
  8
RACCORDO
100
AcDbPolyline
 62
250
  6
CONTINUOUS
 90
10
 70
0
 10
150.931934976
 20
125.7740286028
 10
150.9324550002
 20
125.7584815773
 10
150.9342102959
 20
125.7423772681
 10
150.9371857371
 20
125.7258544507
 10
150.9413556837
 20
125.7090555071
 10
150.9466842018
 20
125.6921251988
 10
150.9531253742
 20
125.6752094192
 10
150.9606236952
 20
125.6584539366
 10
150.9691145498
 20
125.642003138
 10
150.9785247697
 20
125.6259987846
  0
LWPOLYLINE
  5
3EB
100
AcDbEntity
  8
ASSI
100
AcDbPolyline
 62
250
  6
CONTINUOUS
 90
16
 70
0
 10
151.4182699065
 20
128.0767082723
 10
151.4177314579
 20
128.0944163641
 10
151.415613795
 20
128.1128132148
 10
151.4119402428
 20
128.1316961294
 10
151.406750538
 20
128.1508594294
 10
151.4001022267
 20
128.1700896144
 10
151.3920717937
 20
128.189167736
 10
151.3827516763
 20
128.2078792836
 10
151.3722438976
 20
128.2260238164
 10
151.3606604859
 20
128.2434092515
 10
151.3481098143
 20
128.2598676026
 10
151.334746304
 20
128.2751914406
 10
151.3207740971
 20
128.2891588272
 10
151.3063724749
 20
128.3016176333
 10
151.2916841833
 20
128.3124703988
 10
151.2768700894
 20
128.3216199394
  0
LWPOLYLINE
  5
3EC
100
AcDbEntity
  8
RACCORDO
100
AcDbPolyline
 62
250
  6
CONTINUOUS
 90
9
 70
0
 10
151.3635997536
 20
125.1909692881
 10
151.3633212705
 20
125.2008786698
 10
151.3625048031
 20
125.2103895686
 10
151.3611503515
 20
125.2195019846
 10
151.3592863878
 20
125.2282032594
 10
151.3568844399
 20
125.2365060514
 10
151.3538590915
 20
125.2444483349
 10
151.3502319082
 20
125.2520969011
 10
151.3459813243
 20
125.2593849589
  0
LINE
  5
3ED
100
AcDbEntity
  8
ASSI
100
AcDbLine
 62
250
  6
CONTINUOUS
 10
151.0412335638
 20
130.8955050575
 11
151.0314691041
 21
131.2348464514
  0
LWPOLYLINE
  5
3EE
100
AcDbEntity
  8
RACCORDO
100
AcDbPolyline
 62
250
  6
CONTINUOUS
 90
31
 70
0
 10
151.5440823859
 20
102.1785968374
 10
151.5438975368
 20
102.1856755073
 10
151.5435144981
 20
102.1926296687
 10
151.542964505
 20
102.1994326968
 10
151.542292972
 20
102.2059444763
 10
151.5415202943
 20
102.2122589479
 10
151.5406078086
 20
102.2187159148
 10
151.539534274
 20
102.2253707709
 10
151.5383115863
 20
102.2321551103
 10
151.5369066471
 20
102.2392363281
 10
151.53529321
 20
102.2466334384
 10
151.5334637492
 20
102.2543126198
 10
151.5313919539
 20
102.2623628468
 10
151.5290500511
 20
102.2707815192
 10
151.5264199398
 20
102.2795413354
 10
151.5234780999
 20
102.2886890641
 10
151.5201917895
 20
102.2982198594
 10
151.516543789
 20
102.308081117
 10
151.5125319924
 20
102.3182397287
 10
151.508142439
 20
102.3286541254
 10
151.5033564958
 20
102.3392742633
 10
151.4981709301
 20
102.3500454205
 10
151.4925914179
 20
102.3608875418
 10
151.4866067678
 20
102.3717515958
 10
151.4801922665
 20
102.3826138211
 10
151.4733631173
 20
102.3933834945
 10
151.4661288623
 20
102.4039656644
 10
151.4584605102
 20
102.4143020188
 10
151.4503727668
 20
102.4242818186
 10
151.4419294659
 20
102.4337542521
 10
151.4380615157
 20
102.4376594578
  0
LINE
  5
3EF
100
AcDbEntity
  8
ASSI
100
AcDbLine
 62
250
  6
CONTINUOUS
 10
151.0484996012
 20
130.5808499074
 11
151.0412335638
 21
130.8955050575
  0
LWPOLYLINE
  5
3F0
100
AcDbEntity
  8
RACCORDO
100
AcDbPolyline
 62
250
  6
CONTINUOUS
 90
13
 70
0
 10
151.5745892916
 20
120.3071285338
 10
151.5740241228
 20
120.335764931
 10
151.5724568708
 20
120.3641137729
 10
151.5699809977
 20
120.3920804543
 10
151.5666982805
 20
120.4195182431
 10
151.5626925784
 20
120.4464107591
 10
151.558010073
 20
120.4728782323
 10
151.5527360018
 20
120.498783427
 10
151.5469246445
 20
120.5241575728
 10
151.5405203074
 20
120.5493959077
 10
151.5335776449
 20
120.5743712388
 10
151.5261051804
 20
120.5991437567
 10
151.5178887949
 20
120.6244042387
  0
LINE
  5
3F1
100
AcDbEntity
  8
ASSI
100
AcDbLine
 62
250
  6
CONTINUOUS
 10
151.052436751
 20
130.3622312183
 11
151.0484996012
 21
130.5808499074
  0
LWPOLYLINE
  5
3F2
100
AcDbEntity
  8
ASSI
100
AcDbPolyline
 62
250
  6
CONTINUOUS
 90
3
 70
0
 10
151.0558746552
 20
130.0956007307
 10
151.0552040046
 20
130.1595554173
 10
151.052436751
 20
130.3622312183
  0
LINE
  5
3F3
100
AcDbEntity
  8
RACCORDO
100
AcDbLine
 62
250
  6
CONTINUOUS
 10
151.4884134302
 20
98.2536955008
 11
151.4905741423
 21
98.0782077442
  0
LINE
  5
3F4
100
AcDbEntity
  8
RACCORDO
100
AcDbLine
 62
250
  6
CONTINUOUS
 10
151.4870644127
 20
98.4284321545
 11
151.4884134302
 21
98.2536955008
  0
LWPOLYLINE
  5
3F5
100
AcDbEntity
  8
RACCORDO
100
AcDbPolyline
 62
250
  6
CONTINUOUS
 90
14
 70
0
 10
151.0911186724
 20
125.8805516351
 10
151.091181057
 20
125.8551253072
 10
151.0897648583
 20
125.8296626918
 10
151.0868505037
 20
125.8053269556
 10
151.0825248511
 20
125.7820817415
 10
151.0768674238
 20
125.7599335836
 10
151.0698014637
 20
125.7388780121
 10
151.0611791509
 20
125.7188619796
 10
151.0508774647
 20
125.69966572
 10
151.0390213823
 20
125.6815104916
 10
151.025835076
 20
125.6650048181
 10
151.0113937778
 20
125.6503519872
 10
150.9956235714
 20
125.6373498648
 10
150.9785247632
 20
125.6259987808
  0
LWPOLYLINE
  5
3F6
100
AcDbEntity
  8
ASSI
100
AcDbPolyline
 62
250
  6
CONTINUOUS
 90
16
 70
0
 10
150.9068081757
 20
131.3839576592
 10
150.9067704424
 20
131.399956103
 10
150.9057668824
 20
131.4159167192
 10
150.9038039915
 20
131.4317373498
 10
150.9008944082
 20
131.4473166932
 10
150.8970568279
 20
131.462555093
 10
150.8923158556
 20
131.4773551639
 10
150.8867018534
 20
131.4916222397
 10
150.8802508136
 20
131.5052649588
 10
150.8730041108
 20
131.5181959858
 10
150.8650081278
 20
131.5303326358
 10
150.8563141204
 20
131.54159718
 10
150.8469779737
 20
131.5519173683
 10
150.8370595815
 20
131.5612271734
 10
150.8266224228
 20
131.5694671588
 10
150.8157333515
 20
131.5765846764
  0
LINE
  5
3F7
100
AcDbEntity
  8
RACCORDO
100
AcDbLine
 62
250
  6
CONTINUOUS
 10
151.4868719278
 20
98.4941901494
 11
151.4870644127
 21
98.4284321545
  0
LINE
  5
3F8
100
AcDbEntity
  8
RACCORDO
100
AcDbLine
 62
250
  6
CONTINUOUS
 10
150.2520038184
 20
126.8944375148
 11
150.2520038184
 21
126.8384115068
  0
LINE
  5
3F9
100
AcDbEntity
  8
RACCORDO
100
AcDbLine
 62
7
  6
CONTINUOUS
 10
150.3496269798
 20
112.4552740637
 11
150.3496269798
 21
123.4304985506
  0
LINE
  5
3FA
100
AcDbEntity
  8
RACCORDO
100
AcDbLine
 62
7
  6
CONTINUOUS
 10
150.3496269798
 20
125.3083801872
 11
150.3496269798
 21
126.5011554545
  0
LINE
  5
3FB
100
AcDbEntity
  8
RACCORDO
100
AcDbLine
 62
250
  6
CONTINUOUS
 10
150.5372931347
 20
126.8543327165
 11
150.5372931347
 21
125.7787444378
  0
LINE
  5
3FC
100
AcDbEntity
  8
RACCORDO
100
AcDbLine
 62
250
  6
CONTINUOUS
 10
150.5372931347
 20
123.0757421023
 11
150.5372931347
 21
112.5947520693
  0
LINE
  5
3FD
100
AcDbEntity
  8
ASSI
100
AcDbLine
 62
7
  6
CONTINUOUS
 10
151.0011450306
 20
131.0593287766
 11
151.0011450306
 21
129.9905580898
  0
LINE
  5
3FE
100
AcDbEntity
  8
ASSI
100
AcDbLine
 62
7
  6
CONTINUOUS
 10
151.1552188032
 20
130.0167100967
 11
151.1552188032
 21
130.1505802367
  0
LINE
  5
3FF
100
AcDbEntity
  8
RACCORDO
100
AcDbLine
 62
250
  6
CONTINUOUS
 10
151.3635997536
 20
123.8515923541
 11
151.3635997536
 21
125.1909692881
  0
LINE
  5
400
100
AcDbEntity
  8
RACCORDO
100
AcDbLine
 62
7
  6
CONTINUOUS
 10
151.3947642961
 20
123.9743745778
 11
151.3947642961
 21
125.2328514466
  0
LINE
  5
401
100
AcDbEntity
  8
ASSI
100
AcDbLine
 62
250
  6
CONTINUOUS
 10
151.4182699065
 20
127.7073972827
 11
151.4182699065
 21
128.0767082723
  0
LINE
  5
402
100
AcDbEntity
  8
RACCORDO
100
AcDbLine
 62
7
  6
CONTINUOUS
 10
151.4380615157
 20
84.8361606928
 11
151.4380615157
 21
105.8737674259
  0
LINE
  5
403
100
AcDbEntity
  8
RACCORDO
100
AcDbLine
 62
7
  6
CONTINUOUS
 10
151.4380615125
 20
120.7115493804
 11
151.4380615157
 21
123.2806493884
  0
LINE
  5
404
100
AcDbEntity
  8
RACCORDO
100
AcDbLine
 62
7
  6
CONTINUOUS
 10
151.4380615157
 20
126.1610729534
 11
151.4380615157
 21
127.3744268762
  0
LINE
  5
405
100
AcDbEntity
  8
ASSI
100
AcDbLine
 62
7
  6
CONTINUOUS
 10
151.4744019464
 20
89.7563614176
 11
151.4744019464
 21
89.3870504281
  0
LINE
  5
406
100
AcDbEntity
  8
ASSI
100
AcDbLine
 62
7
  6
CONTINUOUS
 10
151.4744019464
 20
127.7876146901
 11
151.4744019464
 21
128.1569256797
  0
LINE
  5
407
100
AcDbEntity
  8
RACCORDO
100
AcDbLine
 62
250
  6
CONTINUOUS
 10
151.4905741423
 20
94.0882876433
 11
151.4905741423
 21
98.0782077442
  0
LINE
  5
408
100
AcDbEntity
  8
RACCORDO
100
AcDbLine
 62
250
  6
CONTINUOUS
 10
151.5440949397
 20
100.1869692727
 11
151.5440949397
 21
102.1786046008
  0
LINE
  5
409
100
AcDbEntity
  8
DRAFT
100
AcDbLine
 62
7
  6
CONTINUOUS
 10
151.6712255857
 20
128.8319194811
 11
151.6712255857
 21
129.0203428593
  0
LINE
  5
40A
100
AcDbEntity
  8
RACCORDO
100
AcDbLine
 62
250
  6
CONTINUOUS
 10
151.7027061766
 20
94.1390215054
 11
151.7027061766
 21
98.1289416063
  0
LINE
  5
40B
100
AcDbEntity
  8
RACCORDO
100
AcDbLine
 62
7
  6
CONTINUOUS
 10
151.9683916016
 20
98.3718277614
 11
151.9683916016
 21
94.2029422194
  0
LINE
  5
40C
100
AcDbEntity
  8
RACCORDO
100
AcDbLine
 62
250
  6
CONTINUOUS
 10
152.1903798279
 20
98.7080875218
 11
152.1903798279
 21
94.1583265989
  0
LINE
  5
40D
100
AcDbEntity
  8
DRAFT
100
AcDbLine
 62
250
  6
CONTINUOUS
 10
152.2013460242
 20
129.9646086773
 11
152.2013460242
 21
129.1732724801
  0
LINE
  5
40E
100
AcDbEntity
  8
RACCORDO
100
AcDbLine
 62
250
  6
CONTINUOUS
 10
152.2836503552
 20
112.5255618689
 11
152.2836503552
 21
112.5797092661
  0
LINE
  5
40F
100
AcDbEntity
  8
RACCORDO
100
AcDbLine
 62
7
  6
CONTINUOUS
 10
152.3257493851
 20
112.5012544166
 11
152.3257493851
 21
112.5668908364
  0
LINE
  5
410
100
AcDbEntity
  8
ASSI
100
AcDbLine
 62
250
  6
CONTINUOUS
 10
151.4744019224
 20
128.1568690913
 11
151.4744019464
 21
128.1569256797
  0
LWPOLYLINE
  5
411
100
AcDbEntity
  8
ASSI
100
AcDbPolyline
 62
7
  6
CONTINUOUS
 90
21
 70
0
 10
151.0010906294
 20
129.9905592049
 10
151.0010722759
 20
129.9881379964
 10
150.9991527478
 20
129.9658925564
 10
150.9940751166
 20
129.9440133811
 10
150.9857607452
 20
129.9223622627
 10
150.9742882708
 20
129.9010774089
 10
150.9598936048
 20
129.8805734434
 10
150.942541178
 20
129.8608791276
 10
150.9222665596
 20
129.8419657
 10
150.899412369
 20
129.8241615003
 10
150.8738954962
 20
129.8074653935
 10
150.8457990512
 20
129.7918785145
 10
150.8157149831
 20
129.7777326079
 10
150.7836343487
 20
129.7650726461
 10
150.7495660912
 20
129.7538536567
 10
150.7141289888
 20
129.7442724668
 10
150.6772970333
 20
129.7363533417
 10
150.6390962329
 20
129.7300720162
 10
150.6002233896
 20
129.7255525211
 10
150.5609107707
 20
129.7228362001
 10
150.520926109
 20
129.7218817096
  0
LWPOLYLINE
  5
412
100
AcDbEntity
  8
RACCORDO
100
AcDbPolyline
 62
250
  6
CONTINUOUS
 90
19
 70
0
 10
152.1903789994
 20
94.1583270773
 10
152.1900750373
 20
94.1214527757
 10
152.1870637162
 20
94.0834181774
 10
152.1814002259
 20
94.0445060594
 10
152.1731741038
 20
94.0050142281
 10
152.1624608458
 20
93.965223033
 10
152.1493111756
 20
93.9253916119
 10
152.1338458809
 20
93.8858368681
 10
152.1161880584
 20
93.846818235
 10
152.0963870017
 20
93.8085098133
 10
152.0745875646
 20
93.7712130694
 10
152.0509394182
 20
93.7351990675
 10
152.0254847053
 20
93.7006148269
 10
151.9982574898
 20
93.6676187487
 10
151.9695681959
 20
93.6366644927
 10
151.9399053076
 20
93.60829282
 10
151.9095961218
 20
93.5827866019
 10
151.8787775281
 20
93.560238513
 10
151.8476781791
 20
93.54080756
  0
LWPOLYLINE
  5
413
100
AcDbEntity
  8
RACCORDO
100
AcDbPolyline
 62
7
  6
CONTINUOUS
 90
12
 70
0
 10
151.3947705805
 20
123.9743747995
 10
151.3946107733
 20
123.9648550812
 10
151.3940463536
 20
123.9546764948
 10
151.3930811966
 20
123.9441848238
 10
151.3916800385
 20
123.9333952529
 10
151.3897252125
 20
123.9223277758
 10
151.3872229213
 20
123.9109665022
 10
151.3841313482
 20
123.8993485696
 10
151.3802585506
 20
123.887576522
 10
151.3755284025
 20
123.8756956877
 10
151.3699812267
 20
123.8636942037
 10
151.3635997536
 20
123.8515923541
  0
LINE
  5
414
100
AcDbEntity
  8
RACCORDO
100
AcDbLine
 62
250
  6
CONTINUOUS
 10
151.4894399334
 20
94.0215866792
 11
151.4905741423
 21
94.0882876433
  0
LWPOLYLINE
  5
415
100
AcDbEntity
  8
ASSI
100
AcDbPolyline
 62
250
  6
CONTINUOUS
 90
16
 70
0
 10
152.809794086
 20
132.2160167019
 10
152.8101583244
 20
132.2336821953
 10
152.8112470491
 20
132.2523473742
 10
152.8130483319
 20
132.271807739
 10
152.8155424374
 20
132.2918500777
 10
152.8187020396
 20
132.3122548023
 10
152.8224925213
 20
132.3327983548
 10
152.8268723533
 20
132.3532556556
 10
152.8317935491
 20
132.3734025704
 10
152.8372021911
 20
132.3930183656
 10
152.8430390212
 20
132.4118881265
 10
152.8492400898
 20
132.4298051119
 10
152.855737457
 20
132.4465730202
 10
152.8624599364
 20
132.4620081387
 10
152.869333875
 20
132.4759413565
 10
152.8762839604
 20
132.4882200182
  0
LWPOLYLINE
  5
416
100
AcDbEntity
  8
ASSI
100
AcDbPolyline
 62
250
  6
CONTINUOUS
 90
8
 70
0
 10
151.4744019464
 20
89.3870504281
 10
151.4742463575
 20
89.3824963323
 10
151.4723349089
 20
89.370490956
 10
151.4682849485
 20
89.3587091038
 10
151.462148221
 20
89.3472511457
 10
151.4539839578
 20
89.3362196634
 10
151.4438721172
 20
89.3257280158
 10
151.4380615157
 20
89.3209465936
  0
LINE
  5
417
100
AcDbEntity
  8
ASSI
100
AcDbLine
 62
250
  6
CONTINUOUS
 10
151.4742239914
 20
127.7827443885
 11
151.4744019464
 21
127.7876146901
  0
LWPOLYLINE
  5
418
100
AcDbEntity
  8
ASSI
100
AcDbPolyline
 62
250
  6
CONTINUOUS
 90
8
 70
0
 10
151.4744019464
 20
89.7563614176
 10
151.4742239914
 20
89.7514911159
 10
151.4722785019
 20
89.7395787118
 10
151.4682078401
 20
89.7278448148
 10
151.4620552359
 20
89.7164162064
 10
151.4538870397
 20
89.7054166616
 10
151.4437913076
 20
89.694964617
 10
151.4380615157
 20
89.6902554741
  0
LWPOLYLINE
  5
419
100
AcDbEntity
  8
RACCORDO
100
AcDbPolyline
 62
250
  6
CONTINUOUS
 90
8
 70
0
 10
151.5141831297
 20
98.7165915802
 10
151.5124337095
 20
98.6866277604
 10
151.5072615319
 20
98.6590671169
 10
151.4987493016
 20
98.6343503518
 10
151.4870331314
 20
98.6128726929
 10
151.472300366
 20
98.5949775736
 10
151.4547865862
 20
98.5809511419
 10
151.4521285105
 20
98.5793099249
  0
LWPOLYLINE
  5
41A
100
AcDbEntity
  8
ASSI
100
AcDbPolyline
 62
250
  6
CONTINUOUS
 90
22
 70
0
 10
151.0011450306
 20
131.0593287766
 10
150.9998324549
 20
131.0384240585
 10
150.9948063615
 20
131.0135055581
 10
150.9860524967
 20
130.988933074
 10
150.9736369452
 20
130.964892135
 10
150.9576534647
 20
130.9415643079
 10
150.9382227441
 20
130.9191257447
 10
150.9154914946
 20
130.8977458775
 10
150.8896313708
 20
130.8775861647
 10
150.8608376824
 20
130.8587988622
 10
150.829327889
 20
130.8415258474
 10
150.7953399163
 20
130.8258975365
 10
150.7591303873
 20
130.8120319276
 10
150.7209727179
 20
130.8000337219
 10
150.6811550566
 20
130.7899935268
 10
150.6399780745
 20
130.7819871596
 10
150.5977527011
 20
130.7760750795
 10
150.554797801
 20
130.7723019343
 10
150.5114377636
 20
130.7706962182
 10
150.4680000221
 20
130.7712700544
 10
150.4248125799
 20
130.7740191077
 10
150.3822015577
 20
130.7789226173
  0
LWPOLYLINE
  5
41B
100
AcDbEntity
  8
0
100
AcDbPolyline
 62
250
  6
CONTINUOUS
 90
9
 70
0
 10
149.0340082386
 20
83.5897651461
 10
149.0311186108
 20
83.5476073451
 10
149.0244707008
 20
83.5082198339
 10
149.0141377151
 20
83.472036351
 10
149.0002315533
 20
83.4394516535
 10
148.9829064136
 20
83.4108292204
 10
148.9623611224
 20
83.3864923232
 10
148.9388312593
 20
83.366708297
 10
148.9200812778
 20
83.3553465362
  0
LINE
  5
41C
100
AcDbEntity
  8
RACCORDO
100
AcDbLine
 62
250
  6
CONTINUOUS
 10
153.4974339641
 20
135.792890744
 11
153.4961694325
 21
135.7756308912
  0
LWPOLYLINE
  5
41D
100
AcDbEntity
  8
RACCORDO
100
AcDbPolyline
 62
250
  6
CONTINUOUS
 90
7
 70
0
 10
150.6738209106
 20
125.6971055139
 10
150.6722731249
 20
125.6762878008
 10
150.6682892585
 20
125.6571994962
 10
150.6619375028
 20
125.6401673327
 10
150.6533265801
 20
125.6254828482
 10
150.6426038828
 20
125.6133973957
 10
150.62995804
 20
125.604120779
  0
LWPOLYLINE
  5
41E
100
AcDbEntity
  8
ASSI
100
AcDbPolyline
 62
250
  6
CONTINUOUS
 90
3
 70
0
 10
153.4280040952
 20
132.6524549985
 10
153.4283097897
 20
132.6561454859
 10
153.4311509584
 20
132.6684216538
  0
LWPOLYLINE
  5
41F
100
AcDbEntity
  8
ASSI
100
AcDbPolyline
 62
7
  6
CONTINUOUS
 90
20
 70
0
 10
153.4759990666
 20
131.3575684368
 10
153.4737356421
 20
131.3305149882
 10
153.46742144
 20
131.3054604498
 10
153.4571271983
 20
131.280638133
 10
153.4430907536
 20
131.2566646132
 10
153.4252196077
 20
131.2335685873
 10
153.4036062588
 20
131.2113213584
 10
153.3787660379
 20
131.1904534113
 10
153.3506213686
 20
131.1709978887
 10
153.3192498274
 20
131.1529216479
 10
153.2853994736
 20
131.1366557456
 10
153.2490107312
 20
131.1222437006
 10
153.2101431763
 20
131.1096419942
 10
153.1697235975
 20
131.099151127
 10
153.1277002206
 20
131.0908231398
 10
153.0841248198
 20
131.0846059918
 10
153.0400795067
 20
131.0806440617
 10
152.9959249849
 20
131.0789854757
 10
152.9513005508
 20
131.0795821076
 10
152.9062062042
 20
131.0824339573
  0
LWPOLYLINE
  5
420
100
AcDbEntity
  8
RACCORDO
100
AcDbPolyline
 62
250
  6
CONTINUOUS
 90
10
 70
0
 10
150.5372931347
 20
112.5947520693
 10
150.5327861104
 20
112.5765447292
 10
150.527088137
 20
112.5595735572
 10
150.5201006196
 20
112.5438837511
 10
150.5115524577
 20
112.5294901927
 10
150.501487537
 20
112.5165340164
 10
150.4903412318
 20
112.5053262388
 10
150.4781390511
 20
112.4960207719
 10
150.4648206866
 20
112.4886507725
 10
150.4519893731
 20
112.4837360263
  0
LWPOLYLINE
  5
421
100
AcDbEntity
  8
RACCORDO
100
AcDbPolyline
 62
250
  6
CONTINUOUS
 90
7
 70
0
 10
145.9870074828
 20
94.2339190836
 10
145.9814243917
 20
94.2188668109
 10
145.9739159133
 20
94.2055200075
 10
145.9647083486
 20
94.1942809382
 10
145.9540792079
 20
94.1854883415
 10
145.9423488473
 20
94.1794072211
 10
145.9287826392
 20
94.1760866703
  0
LINE
  5
422
100
AcDbEntity
  8
RACCORDO
100
AcDbLine
 62
250
  6
CONTINUOUS
 10
150.9801440814
 20
105.7764444716
 11
148.9639387095
 21
104.6321256029
  0
LINE
  5
423
100
AcDbEntity
  8
RACCORDO
100
AcDbLine
 62
250
  6
CONTINUOUS
 10
151.4380615157
 20
105.8737674259
 11
149.0340082386
 21
104.5093213408
  0
LINE
  5
424
100
AcDbEntity
  8
RACCORDO
100
AcDbLine
 62
7
  6
CONTINUOUS
 10
151.4380615157
 20
103.1947543164
 11
152.099472413
 21
103.5512766626
  0
LWPOLYLINE
  5
425
100
AcDbEntity
  8
RACCORDO
100
AcDbPolyline
 62
250
  6
CONTINUOUS
 90
5
 70
0
 10
154.4974489973
 20
107.812095336
 10
154.4778559698
 20
107.8018345592
 10
154.4560891229
 20
107.7931564816
 10
154.4325292225
 20
107.7862128921
 10
154.4122918987
 20
107.782084701
  0
LWPOLYLINE
  5
426
100
AcDbEntity
  8
RACCORDO
100
AcDbPolyline
 62
250
  6
CONTINUOUS
 90
19
 70
0
 10
149.0340082386
 20
104.5093213732
 10
148.9970381624
 20
104.4903960955
 10
148.9575797155
 20
104.4738177118
 10
148.9160858633
 20
104.4596655908
 10
148.8728050191
 20
104.4479393314
 10
148.8283705088
 20
104.438735547
 10
148.7838617122
 20
104.4321380183
 10
148.7398055688
 20
104.4280273023
 10
148.6965199895
 20
104.4262386512
 10
148.6547608336
 20
104.4265951229
 10
148.615414022
 20
104.4288155429
 10
148.5780738851
 20
104.4326600693
 10
148.5415313456
 20
104.4381333488
 10
148.5060794539
 20
104.4451577312
 10
148.4718091382
 20
104.4536896114
 10
148.4374102358
 20
104.4641631457
 10
148.4027940546
 20
104.476890105
 10
148.3689197042
 20
104.4918258113
 10
148.3362775602
 20
104.5090436883
  0
LWPOLYLINE
  5
427
100
AcDbEntity
  8
RACCORDO
100
AcDbPolyline
 62
250
  6
CONTINUOUS
 90
19
 70
0
 10
148.9639387095
 20
104.6321256029
 10
148.9337640113
 20
104.6168048146
 10
148.9023180443
 20
104.6034552071
 10
148.8696008085
 20
104.5920767804
 10
148.8350960064
 20
104.5826727674
 10
148.7993199354
 20
104.5752399352
 10
148.7638214886
 20
104.5697685853
 10
148.7287392414
 20
104.5664005284
 10
148.6939346182
 20
104.5649939537
 10
148.6605407854
 20
104.5651137302
 10
148.6291358506
 20
104.5666922043
 10
148.599141706
 20
104.5697970294
 10
148.5699571951
 20
104.5741960355
 10
148.5415632639
 20
104.5796825851
 10
148.5139789663
 20
104.5864633157
 10
148.4866603073
 20
104.5949259685
 10
148.4594259552
 20
104.6051997907
 10
148.4324572417
 20
104.6171555352
 10
148.4057541668
 20
104.6307932019
  0
LINE
  5
428
100
AcDbEntity
  8
RACCORDO
100
AcDbLine
 62
7
  6
CONTINUOUS
 10
149.0340082386
 20
104.824879272
 11
151.6398464904
 21
106.0990066693
  0
LWPOLYLINE
  5
429
100
AcDbEntity
  8
RACCORDO
100
AcDbPolyline
 62
250
  6
CONTINUOUS
 90
6
 70
0
 10
156.7689818741
 20
116.590594008
 10
156.778835816
 20
116.5903141227
 10
156.7887436153
 20
116.5888336204
 10
156.7986250634
 20
116.5861644863
 10
156.8084001607
 20
116.5823283264
 10
156.8179897707
 20
116.5773561956
  0
LINE
  5
42A
100
AcDbEntity
  8
RACCORDO
100
AcDbLine
 62
7
  6
CONTINUOUS
 10
152.1793786524
 20
112.5857652716
 11
152.1055241657
 21
112.6258132242
  0
LWPOLYLINE
  5
42B
100
AcDbEntity
  8
RACCORDO
100
AcDbPolyline
 62
250
  6
CONTINUOUS
 90
3
 70
0
 10
152.1787788508
 20
112.5861133612
 10
152.1194083417
 20
112.6191127529
 10
152.1063749611
 20
112.6256291971
  0
LINE
  5
42C
100
AcDbEntity
  8
RACCORDO
100
AcDbLine
 62
250
  6
CONTINUOUS
 10
150.3541291277
 20
112.418106777
 11
150.4597304542
 21
112.3571338946
  0
LINE
  5
42D
100
AcDbEntity
  8
ASSI
100
AcDbLine
 62
7
  6
CONTINUOUS
 10
152.6227532339
 20
112.3297681167
 11
152.17878066
 21
112.5861123166
  0
LINE
  5
42E
100
AcDbEntity
  8
RACCORDO
100
AcDbLine
 62
7
  6
CONTINUOUS
 10
152.17928881
 20
112.5858188209
 11
152.1787788508
 21
112.5861133612
  0
LINE
  5
42F
100
AcDbEntity
  8
RACCORDO
100
AcDbLine
 62
7
  6
CONTINUOUS
 10
152.6697178047
 20
112.413736195
 11
152.6709047598
 21
112.4130502673
  0
LWPOLYLINE
  5
430
100
AcDbEntity
  8
RACCORDO
100
AcDbPolyline
 62
250
  6
CONTINUOUS
 90
4
 70
0
 10
152.6709047598
 20
112.4130502673
 10
152.6846216142
 20
112.405044748
 10
152.7553465306
 20
112.3613519816
 10
152.8243034517
 20
112.3146564229
  0
LWPOLYLINE
  5
431
100
AcDbEntity
  8
RACCORDO
100
AcDbPolyline
 62
7
  6
CONTINUOUS
 90
31
 70
0
 10
152.8212027907
 20
112.2151140142
 10
152.8388216895
 20
112.2048093144
 10
152.9354600114
 20
112.1441663445
 10
153.0285493443
 20
112.0787418523
 10
153.1178771061
 20
112.0085613409
 10
153.2036558789
 20
111.9335993071
 10
153.2859087458
 20
111.8543264928
 10
153.3642321953
 20
111.7713767011
 10
153.4390297389
 20
111.6841161289
 10
153.5115349945
 20
111.5911141088
 10
153.5819408268
 20
111.492690311
 10
153.650054371
 20
111.3885250652
 10
153.7165306508
 20
111.2762286932
 10
153.7816432516
 20
111.1559468145
 10
153.8451185879
 20
111.0275338096
 10
153.9067909262
 20
110.8881631408
 10
153.9669582129
 20
110.7375678032
 10
154.0253225017
 20
110.5760148018
 10
154.0808242205
 20
110.4014786134
 10
154.1336950101
 20
110.212378695
 10
154.1837032297
 20
110.0102955898
 10
154.2290943847
 20
109.7979454036
 10
154.2694872317
 20
109.5746014017
 10
154.305263014
 20
109.3409903189
 10
154.3358109672
 20
109.1020084664
 10
154.3607414599
 20
108.8575157446
 10
154.3804441235
 20
108.607652253
 10
154.3954770877
 20
108.3577346013
 10
154.4060263957
 20
108.1095349929
 10
154.4119060044
 20
107.8612812244
 10
154.4131159137
 20
107.6129732958
  0
LINE
  5
432
100
AcDbEntity
  8
RACCORDO
100
AcDbLine
 62
250
  6
CONTINUOUS
 10
152.8243034517
 20
112.3146564229
 11
152.8915598255
 21
112.2649236238
  0
LWPOLYLINE
  5
433
100
AcDbEntity
  8
RACCORDO
100
AcDbPolyline
 62
250
  6
CONTINUOUS
 90
9
 70
0
 10
152.8915598255
 20
112.2649236238
 10
152.9570601637
 20
112.2122059223
 10
153.0206252722
 20
112.1566842408
 10
153.0822278977
 20
112.0984453948
 10
153.1419463834
 20
112.0374789916
 10
153.1997786763
 20
111.9738481822
 10
153.2556034397
 20
111.9077703066
 10
153.3096014582
 20
111.8391169499
 10
153.3419757037
 20
111.79494782
  0
LWPOLYLINE
  5
434
100
AcDbEntity
  8
DRAFT
100
AcDbPolyline
 62
7
  6
CONTINUOUS
 90
4
 70
0
 10
152.6058256569
 20
112.3395418875
 10
152.5629315098
 20
112.3855128365
 10
152.4255100282
 20
112.5113820458
 10
152.3774905732
 20
112.5490689496
  0
LWPOLYLINE
  5
435
100
AcDbEntity
  8
RACCORDO
100
AcDbPolyline
 62
250
  6
CONTINUOUS
 90
21
 70
0
 10
155.5446390023
 20
94.0696044758
 10
155.5471228234
 20
94.0619003618
 10
155.5494322298
 20
94.0539818177
 10
155.5515610828
 20
94.0457821389
 10
155.5534738089
 20
94.0373145723
 10
155.5551289218
 20
94.0286148919
 10
155.5564940539
 20
94.0196592257
 10
155.5575224855
 20
94.0104604413
 10
155.558158912
 20
94.0010904579
 10
155.5583524378
 20
93.9916236004
 10
155.5580532946
 20
93.9821048475
 10
155.5572117681
 20
93.9726096265
 10
155.5557899138
 20
93.9632598064
 10
155.5537607075
 20
93.9541625818
 10
155.551084169
 20
93.9453474655
 10
155.5477024149
 20
93.936832313
 10
155.5435832844
 20
93.9287289578
 10
155.5386826501
 20
93.9211177723
 10
155.532891935
 20
93.9140201527
 10
155.5261322031
 20
93.9075573506
 10
155.5175754391
 20
93.901414929
  0
LWPOLYLINE
  5
436
100
AcDbEntity
  8
ASSI
100
AcDbPolyline
 62
250
  6
CONTINUOUS
 90
7
 70
0
 10
145.6413270485
 20
133.3373917414
 10
145.6442629359
 20
133.3230761066
 10
145.6498932099
 20
133.3070127539
 10
145.6583908782
 20
133.2896696375
 10
145.6698795553
 20
133.2713793431
 10
145.6844540558
 20
133.2525597015
 10
145.7021952411
 20
133.2337532523
  0
LWPOLYLINE
  5
437
100
AcDbEntity
  8
ASSI
100
AcDbPolyline
 62
250
  6
CONTINUOUS
 90
13
 70
0
 10
148.6362655933
 20
131.1673268398
 10
148.6336193555
 20
131.1887862836
 10
148.6288192077
 20
131.2109201537
 10
148.6219394374
 20
131.2333893543
 10
148.6130869426
 20
131.2558479812
 10
148.6023973959
 20
131.2779543378
 10
148.5900316485
 20
131.2993757534
 10
148.5761670662
 20
131.3197994338
 10
148.5610245938
 20
131.3388949619
 10
148.5448703188
 20
131.3563347384
 10
148.5279682139
 20
131.3718525268
 10
148.5105681177
 20
131.3852367786
 10
148.4929357022
 20
131.3962977812
  0
LWPOLYLINE
  5
438
100
AcDbEntity
  8
ASSI
100
AcDbPolyline
 62
250
  6
CONTINUOUS
 90
13
 70
0
 10
148.1365963227
 20
129.9793504877
 10
148.1339563007
 20
130.0007735272
 10
148.1291687078
 20
130.0228720827
 10
148.1223066246
 20
130.0453088294
 10
148.1134747978
 20
130.0677412797
 10
148.1028080416
 20
130.089827012
 10
148.0904691795
 20
130.1112288968
 10
148.0766465588
 20
130.1316202437
 10
148.0615511761
 20
130.1506897873
 10
148.0454134558
 20
130.1681464392
 10
148.0284797335
 20
130.1837237311
 10
148.0110084951
 20
130.1971838822
 10
147.9932664316
 20
130.2083214291
  0
LWPOLYLINE
  5
439
100
AcDbEntity
  8
ASSI
100
AcDbPolyline
 62
250
  6
CONTINUOUS
 90
13
 70
0
 10
148.7726610193
 20
131.2488888474
 10
148.7700209972
 20
131.2703118869
 10
148.7652334043
 20
131.2924104425
 10
148.7583713211
 20
131.3148471891
 10
148.7495394944
 20
131.3372796395
 10
148.7388727382
 20
131.3593653717
 10
148.726533876
 20
131.3807672566
 10
148.7127112554
 20
131.4011586034
 10
148.6976158726
 20
131.420228147
 10
148.6814781524
 20
131.4376847989
 10
148.66454443
 20
131.4532620908
 10
148.6470731916
 20
131.4667222419
 10
148.6293311282
 20
131.4778597888
  0
LINE
  5
43A
100
AcDbEntity
  8
ASSI
100
AcDbLine
 62
250
  6
CONTINUOUS
 10
152.5968182346
 20
132.2018912777
 11
152.60987094
 21
132.082386744
  0
LINE
  5
43B
100
AcDbEntity
  8
ASSI
100
AcDbLine
 62
250
  6
CONTINUOUS
 10
150.4568059256
 20
129.9580652424
 11
150.4802692039
 21
129.7226890428
  0
LWPOLYLINE
  5
43C
100
AcDbEntity
  8
ASSI
100
AcDbPolyline
 62
250
  6
CONTINUOUS
 90
13
 70
0
 10
150.8809009257
 20
135.0963978912
 10
150.8788377526
 20
135.1181001142
 10
150.8745493272
 20
135.1406225436
 10
150.8681042218
 20
135.1636050435
 10
150.8596054944
 20
135.1866801215
 10
150.8491890405
 20
135.2094788047
 10
150.8370214202
 20
135.23163654
 10
150.8232971949
 20
135.2527990228
 10
150.8082358165
 20
135.2726278629
 10
150.7920781179
 20
135.2908059953
 10
150.7750824623
 20
135.3070427497
 10
150.7575206119
 20
135.3210784988
 10
150.7396733825
 20
135.3326888095
  0
LINE
  5
43D
100
AcDbEntity
  8
ASSI
100
AcDbLine
 62
250
  6
CONTINUOUS
 10
150.4380062839
 20
130.1544174387
 11
150.4568059256
 21
129.9580652424
  0
LINE
  5
43E
100
AcDbEntity
  8
ASSI
100
AcDbLine
 62
250
  6
CONTINUOUS
 10
152.8770230161
 20
131.4050299322
 11
152.9062062808
 21
131.0824339573
  0
LINE
  5
43F
100
AcDbEntity
  8
ASSI
100
AcDbLine
 62
250
  6
CONTINUOUS
 10
152.8448252405
 20
131.7812928655
 11
152.8770230161
 21
131.4050299322
  0
LINE
  5
440
100
AcDbEntity
  8
ASSI
100
AcDbLine
 62
250
  6
CONTINUOUS
 10
152.8097940929
 20
132.2160166979
 11
152.8448252405
 21
131.7812928655
  0
LWPOLYLINE
  5
441
100
AcDbEntity
  8
RACCORDO
100
AcDbPolyline
 62
250
  6
CONTINUOUS
 90
8
 70
0
 10
153.0267170826
 20
103.0954803738
 10
153.0251692969
 20
103.11729269
 10
153.0211854305
 20
103.1401047206
 10
153.0148336747
 20
103.1635259942
 10
153.0062227521
 20
103.1871556111
 10
152.9955000548
 20
103.2105891054
 10
152.9828491224
 20
103.2334253683
 10
152.9765604489
 20
103.2429915773
  0
LWPOLYLINE
  5
442
100
AcDbEntity
  8
RACCORDO
100
AcDbPolyline
 62
250
  6
CONTINUOUS
 90
16
 70
0
 10
154.4621045226
 20
93.8898598013
 10
154.4628637696
 20
93.8769041348
 10
154.4647428039
 20
93.8633804216
 10
154.4677322231
 20
93.8494348996
 10
154.4718168005
 20
93.8352044946
 10
154.4769567931
 20
93.8208610311
 10
154.4830759544
 20
93.8066092502
 10
154.4900884752
 20
93.7926308597
 10
154.4979269727
 20
93.7790524551
 10
154.5065223218
 20
93.7659930362
 10
154.5157943176
 20
93.753578317
 10
154.5256313076
 20
93.7419670025
 10
154.5359063371
 20
93.7313142199
 10
154.5464960249
 20
93.7217393322
 10
154.5572860473
 20
93.7133316293
 10
154.5681543854
 20
93.706176051
  0
LINE
  5
443
100
AcDbEntity
  8
RACCORDO
100
AcDbLine
 62
250
  6
CONTINUOUS
 10
153.4961694325
 20
135.7756308912
 11
153.5033440018
 21
135.6134162006
  0
LINE
  5
444
100
AcDbEntity
  8
RACCORDO
100
AcDbLine
 62
7
  6
CONTINUOUS
 10
153.5401022757
 20
135.8370063864
 11
153.5489134291
 21
135.6377890579
  0
LINE
  5
445
100
AcDbEntity
  8
ASSI
100
AcDbLine
 62
250
  6
CONTINUOUS
 10
153.5005795761
 20
132.266777298
 11
153.4830849149
 21
132.7318627868
  0
LINE
  5
446
100
AcDbEntity
  8
ASSI
100
AcDbLine
 62
250
  6
CONTINUOUS
 10
153.5102631036
 20
131.9630376126
 11
153.5005795761
 21
132.266777298
  0
LINE
  5
447
100
AcDbEntity
  8
ASSI
100
AcDbLine
 62
250
  6
CONTINUOUS
 10
153.5179289413
 20
131.6805160491
 11
153.5102631036
 21
131.9630376126
  0
LINE
  5
448
100
AcDbEntity
  8
ASSI
100
AcDbLine
 62
250
  6
CONTINUOUS
 10
153.5219721506
 20
131.5048363711
 11
153.5179289413
 21
131.6805160491
  0
LWPOLYLINE
  5
449
100
AcDbEntity
  8
RACCORDO
100
AcDbPolyline
 62
250
  6
CONTINUOUS
 90
8
 70
0
 10
153.5401060355
 20
135.8369194652
 10
153.5401459902
 20
135.8349701658
 10
153.5388501827
 20
135.8242255833
 10
153.5350117638
 20
135.8135862796
 10
153.5286964101
 20
135.8032342961
 10
153.5200121789
 20
135.7933467581
 10
153.50910766
 20
135.7840928441
 10
153.4961694325
 20
135.7756308912
  0
LWPOLYLINE
  5
44A
100
AcDbEntity
  8
RACCORDO
100
AcDbPolyline
 62
7
  6
CONTINUOUS
 90
12
 70
0
 10
153.3321894643
 20
99.9985464285
 10
153.3316160348
 20
100.0389194816
 10
153.3250224222
 20
100.1386083948
 10
153.3111159008
 20
100.2337171993
 10
153.289925525
 20
100.3237778404
 10
153.2615200045
 20
100.4083365641
 10
153.226037635
 20
100.4869154258
 10
153.1836114423
 20
100.5590877582
 10
153.1344494948
 20
100.624405919
 10
153.0789570497
 20
100.6822454377
 10
153.0175668833
 20
100.7321072695
 10
152.9678037136
 20
100.7641184545
  0
LINE
  5
44B
100
AcDbEntity
  8
RACCORDO
100
AcDbLine
 62
7
  6
CONTINUOUS
 10
152.4802077953
 20
100.7274709591
 11
152.4802077953
 21
101.8788956957
  0
LINE
  5
44C
100
AcDbEntity
  8
RACCORDO
100
AcDbLine
 62
250
  6
CONTINUOUS
 10
152.6069209499
 20
98.7164861632
 11
152.6069209499
 21
94.1667252404
  0
LINE
  5
44D
100
AcDbEntity
  8
RACCORDO
100
AcDbLine
 62
250
  6
CONTINUOUS
 10
153.2760575034
 20
99.9184316557
 11
153.2760575034
 21
93.7649362161
  0
LINE
  5
44E
100
AcDbEntity
  8
RACCORDO
100
AcDbLine
 62
7
  6
CONTINUOUS
 10
153.3321895433
 20
99.9986490631
 11
153.3321895433
 21
93.8451536199
  0
LINE
  5
44F
100
AcDbEntity
  8
ASSI
100
AcDbLine
 62
7
  6
CONTINUOUS
 10
153.4760187648
 20
132.4882898532
 11
153.4760187648
 21
131.3575682483
  0
LINE
  5
450
100
AcDbEntity
  8
RACCORDO
100
AcDbLine
 62
250
  6
CONTINUOUS
 10
154.4621045226
 20
93.8898598013
 11
154.4621045226
 21
103.0550553661
  0
LINE
  5
451
100
AcDbEntity
  8
RACCORDO
100
AcDbLine
 62
7
  6
CONTINUOUS
 10
154.5042035525
 20
93.9500228568
 11
154.5042035525
 21
103.0810900377
  0
LINE
  5
452
100
AcDbEntity
  8
RACCORDO
100
AcDbLine
 62
250
  6
CONTINUOUS
 10
154.7224353661
 20
95.5681025799
 11
154.7224359245
 21
95.495457116
  0
LWPOLYLINE
  5
453
100
AcDbEntity
  8
RACCORDO
100
AcDbPolyline
 62
250
  6
CONTINUOUS
 90
9
 70
0
 10
154.7536262753
 20
93.4454441732
 10
154.7535279908
 20
93.4327305296
 10
154.7525513797
 20
93.420421948
 10
154.7506419241
 20
93.4084179593
 10
154.7477529102
 20
93.3968710959
 10
154.7438330378
 20
93.3858813016
 10
154.7387204572
 20
93.3753684598
 10
154.7322712623
 20
93.3654871241
 10
154.7244380445
 20
93.3565575069
  0
LWPOLYLINE
  5
454
100
AcDbEntity
  8
RACCORDO
100
AcDbPolyline
 62
250
  6
CONTINUOUS
 90
13
 70
0
 10
154.4974489973
 20
107.812095336
 10
154.4917681086
 20
107.5085556739
 10
154.4746607799
 20
107.1994492865
 10
154.4461270111
 20
106.8847761737
 10
154.4057490632
 20
106.5626401488
 10
154.3539446753
 20
106.2349373985
 10
154.2919670641
 20
105.9073564833
 10
154.2193000169
 20
105.579852686
 10
154.1364597465
 20
105.2524707238
 10
154.0462481078
 20
104.9310333085
 10
153.9495990523
 20
104.6174813443
 10
153.8455786285
 20
104.309873927
 10
153.7341868363
 20
104.0082110568
  0
LWPOLYLINE
  5
455
100
AcDbEntity
  8
RACCORDO
100
AcDbPolyline
 62
250
  6
CONTINUOUS
 90
22
 70
0
 10
153.2760575034
 20
93.7649362161
 10
153.2731364577
 20
93.6813904591
 10
153.2653466464
 20
93.5967709235
 10
153.2526880695
 20
93.5110776093
 10
153.2350515978
 20
93.424024328
 10
153.2125463605
 20
93.335897268
 10
153.185499745
 20
93.247554995
 10
153.1537979479
 20
93.1587350363
 10
153.1175547726
 20
93.0696998644
 10
153.0774390174
 20
92.9820954626
 10
153.0330533032
 20
92.895604531
 10
152.984795009
 20
92.8105443695
 10
152.9345250705
 20
92.7295128607
 10
152.8828814196
 20
92.6535677506
 10
152.8292261244
 20
92.5816512932
 10
152.7735063253
 20
92.5131881325
 10
152.7159673756
 20
92.4480119597
 10
152.656363922
 20
92.3862890835
 10
152.5939070456
 20
92.3279430743
 10
152.5283337733
 20
92.2729484553
 10
152.4599070781
 20
92.2213307033
 10
152.3886269601
 20
92.1730898181
  0
LWPOLYLINE
  5
456
100
AcDbEntity
  8
RACCORDO
100
AcDbPolyline
 62
250
  6
CONTINUOUS
 90
19
 70
0
 10
152.6069209499
 20
94.1667252404
 10
152.6046513579
 20
94.1078793639
 10
152.5984016186
 20
94.0480183633
 10
152.5881717321
 20
93.9871422385
 10
152.5738201167
 20
93.9248089206
 10
152.555488354
 20
93.8614604785
 10
152.5336011892
 20
93.798423119
 10
152.508126308
 20
93.7357413074
 10
152.4790960246
 20
93.6733705784
 10
152.4470320269
 20
93.612503743
 10
152.411909399
 20
93.5531499583
 10
152.3737530568
 20
93.4953000672
 10
152.3331594354
 20
93.4401194092
 10
152.2898543505
 20
93.3874458426
 10
152.2441119865
 20
93.3374415092
 10
152.1973513313
 20
93.2917581741
 10
152.1500453807
 20
93.2509464257
 10
152.1017211389
 20
93.2144556756
 10
152.0523786058
 20
93.1822859238
  0
LWPOLYLINE
  5
457
100
AcDbEntity
  8
RACCORDO
100
AcDbPolyline
 62
250
  6
CONTINUOUS
 90
8
 70
0
 10
152.0523786058
 20
99.0378012771
 10
152.0506289593
 20
99.0078355751
 10
152.0454562044
 20
98.9802737427
 10
152.0369431986
 20
98.9555564419
 10
152.0252262186
 20
98.9340788332
 10
152.0104927501
 20
98.9161842096
 10
151.9929784625
 20
98.9021585405
 10
151.9904696201
 20
98.9006067015
  0
LWPOLYLINE
  5
458
100
AcDbEntity
  8
RACCORDO
100
AcDbPolyline
 62
250
  6
CONTINUOUS
 90
7
 70
0
 10
153.3321895433
 20
93.8451536199
 10
153.3307336564
 20
93.8312454694
 10
153.3259632201
 20
93.8165641224
 10
153.3179505474
 20
93.8023612646
 10
153.3068297945
 20
93.7888745341
 10
153.2927871042
 20
93.7763295606
 10
153.2760575034
 20
93.7649362161
  0
LWPOLYLINE
  5
459
100
AcDbEntity
  8
RACCORDO
100
AcDbPolyline
 62
250
  6
CONTINUOUS
 90
7
 70
0
 10
153.3321894643
 20
99.9985464285
 10
153.330734014
 20
99.9847426149
 10
153.3259639172
 20
99.9700611406
 10
153.3179514539
 20
99.9558580191
 10
153.3068306943
 20
99.9423709068
 10
153.2927877185
 20
99.9298254794
 10
153.2760575034
 20
99.9184316557
  0
LWPOLYLINE
  5
45A
100
AcDbEntity
  8
RACCORDO
100
AcDbPolyline
 62
250
  6
CONTINUOUS
 90
7
 70
0
 10
155.5463497108
 20
122.688166377
 10
155.5452581852
 20
122.6778467052
 10
155.5416806127
 20
122.6668355993
 10
155.5356712652
 20
122.6561832581
 10
155.5273306955
 20
122.646067924
 10
155.5167984637
 20
122.6366588536
 10
155.5042508022
 20
122.628113486
  0
LWPOLYLINE
  5
45B
100
AcDbEntity
  8
DRAFT
100
AcDbPolyline
 62
7
  6
CONTINUOUS
 90
18
 70
0
 10
151.6544412226
 20
104.5485621177
 10
151.6275995672
 20
104.4786049167
 10
151.6049426256
 20
104.4093695916
 10
151.586470398
 20
104.3408561422
 10
151.5721199777
 20
104.272601183
 10
151.5619542713
 20
104.2050680995
 10
151.5561619988
 20
104.1396470489
 10
151.5548151024
 20
104.0765405312
 10
151.5578416398
 20
104.0155460463
 10
151.5652145038
 20
103.9574462518
 10
151.577050726
 20
103.9020992686
 10
151.5932332748
 20
103.8496469758
 10
151.6133839481
 20
103.8012976673
 10
151.6374837908
 20
103.7572994847
 10
151.6655517581
 20
103.7174042864
 10
151.6972665138
 20
103.6820759421
 10
151.7328208723
 20
103.6512627157
 10
151.7727424115
 20
103.6245971652
  0
LINE
  5
45C
100
AcDbEntity
  8
RACCORDO
100
AcDbLine
 62
250
  6
CONTINUOUS
 10
153.7341868363
 20
104.0082110568
 11
153.7025264619
 21
103.9301376742
  0
LWPOLYLINE
  5
45D
100
AcDbEntity
  8
RACCORDO
100
AcDbPolyline
 62
250
  6
CONTINUOUS
 90
15
 70
0
 10
153.7025264619
 20
103.9301376742
 10
153.6680029408
 20
103.8537723893
 10
153.6306162731
 20
103.7791152023
 10
153.5899040549
 20
103.7055966589
 10
153.54632869
 20
103.6337862134
 10
153.5012773903
 20
103.5653922281
 10
153.4552916267
 20
103.5011889389
 10
153.4078299282
 20
103.4404021098
 10
153.3586550943
 20
103.3824173956
 10
153.3077043085
 20
103.3269057351
 10
153.2550403872
 20
103.2741961893
 10
153.200614579
 20
103.2246615965
 10
153.1444106337
 20
103.178426236
 10
153.0864448015
 20
103.1353658284
 10
153.0267170826
 20
103.0954803738
  0
LWPOLYLINE
  5
45E
100
AcDbEntity
  8
RACCORDO
100
AcDbPolyline
 62
250
  6
CONTINUOUS
 90
12
 70
0
 10
155.5042508022
 20
103.7490092528
 10
155.5107600109
 20
103.7531618223
 10
155.5167947518
 20
103.7575517332
 10
155.5223287356
 20
103.762161068
 10
155.5273380007
 20
103.7669712495
 10
155.53180001
 20
103.771962164
 10
155.5356941254
 20
103.7771121292
 10
155.5390036547
 20
103.7824006569
 10
155.5417130095
 20
103.7878047069
 10
155.5438085327
 20
103.7932974957
 10
155.5452824876
 20
103.7988588018
 10
155.5460393482
 20
103.8038755967
  0
LINE
  5
45F
100
AcDbEntity
  8
RACCORDO
100
AcDbLine
 62
250
  6
CONTINUOUS
 10
152.6926804789
 20
103.2214650861
 11
151.4380615157
 21
102.4455898996
  0
LINE
  5
460
100
AcDbEntity
  8
RACCORDO
100
AcDbLine
 62
250
  6
CONTINUOUS
 10
153.0267170826
 20
103.0954803738
 11
151.5440949397
 21
102.1786046008
  0
LINE
  5
461
100
AcDbEntity
  8
RACCORDO
100
AcDbLine
 62
250
  6
CONTINUOUS
 10
152.4802077953
 20
101.8788956957
 11
155.5042508022
 21
103.7490092528
  0
LINE
  5
462
100
AcDbEntity
  8
RACCORDO
100
AcDbLine
 62
7
  6
CONTINUOUS
 10
152.4802077953
 20
101.8294207008
 11
155.475244669
 21
103.68159643
  0
LWPOLYLINE
  5
463
100
AcDbEntity
  8
RACCORDO
100
AcDbPolyline
 62
250
  6
CONTINUOUS
 90
11
 70
0
 10
151.5009314766
 20
100.0943884639
 10
151.5041248005
 20
100.0963545258
 10
151.5112412137
 20
100.1016666985
 10
151.5178195114
 20
100.107985834
 10
151.5238792925
 20
100.1154217241
 10
151.529314995
 20
100.123980951
 10
151.534047105
 20
100.1336973955
 10
151.5380494361
 20
100.1448007489
 10
151.5411817493
 20
100.1574114044
 10
151.5432515709
 20
100.1714732017
 10
151.5440949397
 20
100.1869692727
  0
LINE
  5
464
100
AcDbEntity
  8
RACCORDO
100
AcDbLine
 62
250
  6
CONTINUOUS
 10
151.5440949397
 20
100.1869692727
 11
152.4802077953
 21
100.7274709591
  0
LINE
  5
465
100
AcDbEntity
  8
RACCORDO
100
AcDbLine
 62
7
  6
CONTINUOUS
 10
151.5008382223
 20
100.0943345243
 11
152.4387698175
 21
100.6358863318
  0
LINE
  5
466
100
AcDbEntity
  8
RACCORDO
100
AcDbLine
 62
250
  6
CONTINUOUS
 10
151.4380615157
 20
99.9002382024
 11
152.3886269601
 21
100.4490846611
  0
LINE
  5
467
100
AcDbEntity
  8
RACCORDO
100
AcDbLine
 62
7
  6
CONTINUOUS
 10
135.6937293352
 20
93.7927904215
 11
135.5901759447
 21
93.7330102033
  0
LINE
  5
468
100
AcDbEntity
  8
RACCORDO
100
AcDbLine
 62
7
  6
CONTINUOUS
 10
158.7180841667
 20
103.8232686484
 11
158.3905037084
 21
103.6438617181
  0
LINE
  5
469
100
AcDbEntity
  8
RACCORDO
100
AcDbLine
 62
250
  6
CONTINUOUS
 10
158.7910623965
 20
103.8147074931
 11
158.3894884962
 21
103.5947763621
  0
LWPOLYLINE
  5
46A
100
AcDbEntity
  8
RACCORDO
100
AcDbPolyline
 62
250
  6
CONTINUOUS
 90
22
 70
0
 10
152.3886269601
 20
100.4490846611
 10
152.4584208062
 20
100.4859222228
 10
152.5265482988
 20
100.5160390834
 10
152.5930094378
 20
100.5394352428
 10
152.6579928991
 20
100.5560881062
 10
152.7213100068
 20
100.5660202685
 10
152.7823947339
 20
100.5692995141
 10
152.8414072512
 20
100.5658872264
 10
152.8981873878
 20
100.555822022
 10
152.9516886045
 20
100.5392875344
 10
153.0019908751
 20
100.5158176289
 10
153.0490142257
 20
100.4858784401
 10
153.0914721956
 20
100.4510520061
 10
153.1287617751
 20
100.4117671858
 10
153.1614859739
 20
100.3675951202
 10
153.19016736
 20
100.3188312695
 10
153.2150669464
 20
100.2660178224
 10
153.2359237202
 20
100.2086125902
 10
153.2524772099
 20
100.145284468
 10
153.2646405918
 20
100.075589754
 10
153.2725006896
 20
99.9999721499
 10
153.2760575034
 20
99.9184316557
  0
LWPOLYLINE
  5
46B
100
AcDbEntity
  8
RACCORDO
100
AcDbPolyline
 62
250
  6
CONTINUOUS
 90
4
 70
0
 10
156.6208727145
 20
116.5764039902
 10
156.6312671593
 20
116.5729305243
 10
156.6413994769
 20
116.5701802402
 10
156.6509607632
 20
116.5681913854
  0
LWPOLYLINE
  5
46C
100
AcDbEntity
  8
RACCORDO
100
AcDbPolyline
 62
250
  6
CONTINUOUS
 90
5
 70
0
 10
156.6949534289
 20
116.5833064351
 10
156.6849459601
 20
116.5877145503
 10
156.6735159959
 20
116.590037938
 10
156.6611796657
 20
116.5900493527
 10
156.6481457231
 20
116.5877486136
  0
LWPOLYLINE
  5
46D
100
AcDbEntity
  8
RACCORDO
100
AcDbPolyline
 62
250
  6
CONTINUOUS
 90
9
 70
0
 10
161.3231212849
 20
102.324157033
 10
161.3150018063
 20
102.3349706828
 10
161.3063538422
 20
102.3454810373
 10
161.2971580829
 20
102.3556828432
 10
161.28732714
 20
102.3656174455
 10
161.2769100474
 20
102.375173027
 10
161.2659120263
 20
102.3842849001
 10
161.2541601397
 20
102.3930020695
 10
161.2416203825
 20
102.4012212369
  0
LWPOLYLINE
  5
46E
100
AcDbEntity
  8
RACCORDO
100
AcDbPolyline
 62
250
  6
CONTINUOUS
 90
6
 70
0
 10
151.5178887949
 20
120.6244042387
 10
151.5088859446
 20
120.6501714269
 10
151.4990915137
 20
120.676364716
 10
151.4882528344
 20
120.7035220062
 10
151.4762254667
 20
120.731786221
 10
151.4630215951
 20
120.7609079584
  0
LINE
  5
46F
100
AcDbEntity
  8
ASSI
100
AcDbLine
 62
250
  6
CONTINUOUS
 10
146.1686734649
 20
129.3232808607
 11
146.115501537
 21
129.4821187185
  0
LINE
  5
470
100
AcDbEntity
  8
ASSI
100
AcDbLine
 62
7
  6
CONTINUOUS
 10
146.2706730118
 20
129.286134272
 11
146.1618272044
 21
129.611283943
  0
LWPOLYLINE
  5
471
100
AcDbEntity
  8
RACCORDO
100
AcDbPolyline
 62
7
  6
CONTINUOUS
 90
9
 70
0
 10
151.4661979687
 20
120.535283991
 10
151.462701479
 20
120.5465862017
 10
151.4570300225
 20
120.5670985901
 10
151.4518757795
 20
120.5884105383
 10
151.447283086
 20
120.6105618424
 10
151.4435731883
 20
120.6339151166
 10
151.4408531684
 20
120.658591232
 10
151.4390159442
 20
120.6844693175
 10
151.4380615157
 20
120.7115493729
  0
LWPOLYLINE
  5
472
100
AcDbEntity
  8
ASSI
100
AcDbPolyline
 62
7
  6
CONTINUOUS
 90
4
 70
0
 10
151.1410577706
 20
130.1427431714
 10
151.1479337287
 20
130.1100239156
 10
151.1533099432
 20
130.0648919311
 10
151.1552188032
 20
130.0167100967
  0
LWPOLYLINE
  5
473
100
AcDbEntity
  8
ASSI
100
AcDbPolyline
 62
7
  6
CONTINUOUS
 90
5
 70
0
 10
150.9947057743
 20
131.1212283373
 10
150.9975233501
 20
131.1058359058
 10
150.9995376575
 20
131.0903521946
 10
151.0007439883
 20
131.0748369915
 10
151.0011450264
 20
131.0593287766
  0
LINE
  5
474
100
AcDbEntity
  8
ASSI
100
AcDbLine
 62
250
  6
CONTINUOUS
 10
150.3019439306
 20
129.8633570726
 11
150.3259316275
 21
129.691632225
  0
LINE
  5
475
100
AcDbEntity
  8
ASSI
100
AcDbLine
 62
250
  6
CONTINUOUS
 10
150.2766032867
 20
130.0511152464
 11
150.3019439306
 21
129.8633570726
  0
LINE
  5
476
100
AcDbEntity
  8
ASSI
100
AcDbLine
 62
250
  6
CONTINUOUS
 10
150.2496853811
 20
130.2578048237
 11
150.2766032867
 21
130.0511152464
  0
LINE
  5
477
100
AcDbEntity
  8
ASSI
100
AcDbLine
 62
250
  6
CONTINUOUS
 10
150.2211626408
 20
130.4850933503
 11
150.2496853811
 21
130.2578048237
  0
LWPOLYLINE
  5
478
100
AcDbEntity
  8
ASSI
100
AcDbPolyline
 62
250
  6
CONTINUOUS
 90
13
 70
0
 10
151.4082251288
 20
131.4911340123
 10
151.4055850207
 20
131.5125575559
 10
151.4007972718
 20
131.5346565323
 10
151.3939349981
 20
131.5570935905
 10
151.3851029839
 20
131.5795262197
 10
151.3744360739
 20
131.6016119992
 10
151.362097108
 20
131.6230138233
 10
151.3482744559
 20
131.6434050087
 10
151.3331791265
 20
131.6624743127
 10
151.3170415291
 20
131.6799306961
 10
151.3001079903
 20
131.6955077197
 10
151.2826369992
 20
131.7089676182
 10
151.2648952383
 20
131.720104954
  0
LWPOLYLINE
  5
479
100
AcDbEntity
  8
ASSI
100
AcDbPolyline
 62
250
  6
CONTINUOUS
 90
13
 70
0
 10
152.5968182345
 20
132.2018912776
 10
152.5941782125
 20
132.2233143168
 10
152.5893906197
 20
132.2454128721
 10
152.5825285366
 20
132.2678496186
 10
152.5736967099
 20
132.2902820689
 10
152.5630299537
 20
132.3123678013
 10
152.5506910915
 20
132.3337696863
 10
152.5368684708
 20
132.3541610332
 10
152.521773088
 20
132.3732305769
 10
152.5056353677
 20
132.3906872289
 10
152.4887016453
 20
132.4062645209
 10
152.4712304069
 20
132.419724672
 10
152.4534883434
 20
132.430862219
  0
LWPOLYLINE
  5
47A
100
AcDbEntity
  8
ASSI
100
AcDbPolyline
 62
250
  6
CONTINUOUS
 90
13
 70
0
 10
150.5804142216
 20
131.3204513445
 10
150.5829640651
 20
131.2996878719
 10
150.5875372096
 20
131.2782788939
 10
150.5940679317
 20
131.2565321015
 10
150.6024623733
 20
131.2347600403
 10
150.6125998905
 20
131.2132756211
 10
150.6243347869
 20
131.1923876217
 10
150.6374984087
 20
131.172396247
 10
150.6519015679
 20
131.1535888164
 10
150.6673372598
 20
131.1362356353
 10
150.6835836406
 20
131.1205861071
 10
150.7004072162
 20
131.1068651492
 10
150.7175661961
 20
131.0952699621
  0
LINE
  5
47B
100
AcDbEntity
  8
ASSI
100
AcDbLine
 62
250
  6
CONTINUOUS
 10
152.6839818647
 20
131.440402551
 11
152.7171319597
 21
131.1727472046
  0
LINE
  5
47C
100
AcDbEntity
  8
ASSI
100
AcDbLine
 62
250
  6
CONTINUOUS
 10
150.191294278
 20
130.7324370407
 11
150.2211626408
 21
130.4850933503
  0
LINE
  5
47D
100
AcDbEntity
  8
ASSI
100
AcDbLine
 62
250
  6
CONTINUOUS
 10
152.6481455462
 20
131.7430848252
 11
152.6839818647
 21
131.440402551
  0
LINE
  5
47E
100
AcDbEntity
  8
ASSI
100
AcDbLine
 62
250
  6
CONTINUOUS
 10
152.60987094
 20
132.082386744
 11
152.6481455462
 21
131.7430848252
  0
LWPOLYLINE
  5
47F
100
AcDbEntity
  8
RACCORDO
100
AcDbPolyline
 62
250
  6
CONTINUOUS
 90
3
 70
0
 10
155.4969707749
 20
122.7374521013
 10
155.5024234391
 20
122.6823986488
 10
155.5042508022
 20
122.628113486
  0
LWPOLYLINE
  5
480
100
AcDbEntity
  8
RACCORDO
100
AcDbPolyline
 62
7
  6
CONTINUOUS
 90
11
 70
0
 10
153.5401060355
 20
135.8369194652
 10
153.5379934056
 20
135.8587202882
 10
153.5327614645
 20
135.8836899756
 10
153.5250372872
 20
135.9071662904
 10
153.5147838724
 20
135.9298930395
 10
153.5020625516
 20
135.9516506774
 10
153.4876220102
 20
135.9712886752
 10
153.4716806869
 20
135.9887907763
 10
153.4539798296
 20
136.0044480689
 10
153.4351372934
 20
136.0176820364
 10
153.4298201413
 20
136.0208654718
  0
LINE
  5
481
100
AcDbEntity
  8
ASSI
100
AcDbLine
 62
250
  6
CONTINUOUS
 10
155.8632152207
 20
132.8526327579
 11
155.8088957728
 21
133.6008967229
  0
LINE
  5
482
100
AcDbEntity
  8
ASSI
100
AcDbLine
 62
250
  6
CONTINUOUS
 10
155.9403618972
 20
132.9107385133
 11
155.887217702
 21
133.6428130781
  0
LINE
  5
483
100
AcDbEntity
  8
RACCORDO
100
AcDbLine
 62
250
  6
CONTINUOUS
 10
156.5804299993
 20
134.0364307536
 11
156.6133047584
 21
133.5835727336
  0
LINE
  5
484
100
AcDbEntity
  8
RACCORDO
100
AcDbLine
 62
7
  6
CONTINUOUS
 10
156.6346831306
 20
133.593012905
 11
156.5994056619
 21
134.0789688501
  0
LWPOLYLINE
  5
485
100
AcDbEntity
  8
RACCORDO
100
AcDbPolyline
 62
7
  6
CONTINUOUS
 90
11
 70
0
 10
155.5463497108
 20
122.6881663772
 10
155.5456493709
 20
122.7211717628
 10
155.5420486909
 20
122.7710446235
 10
155.5354622904
 20
122.8216667111
 10
155.5259700084
 20
122.8727579507
 10
155.5137113878
 20
122.9238927603
 10
155.4988119237
 20
122.9748835762
 10
155.4813830664
 20
123.0255511904
 10
155.4616553468
 20
123.0754419572
 10
155.4398521182
 20
123.1242428322
 10
155.4277654648
 20
123.1490958062
  0
LWPOLYLINE
  5
486
100
AcDbEntity
  8
RACCORDO
100
AcDbPolyline
 62
7
  6
CONTINUOUS
 90
3
 70
0
 10
158.3905093727
 20
103.6438584666
 10
158.3905103501
 20
103.643279008
 10
158.3902853969
 20
103.6386754624
  0
LWPOLYLINE
  5
487
100
AcDbEntity
  8
RACCORDO
100
AcDbPolyline
 62
250
  6
CONTINUOUS
 90
9
 70
0
 10
156.5804299993
 20
134.0364307536
 10
156.5804222071
 20
134.0467572605
 10
156.5798940223
 20
134.0572604782
 10
156.578836303
 20
134.0679084039
 10
156.5772547372
 20
134.0785770373
 10
156.5751398158
 20
134.0893225002
 10
156.5724211941
 20
134.1003795147
 10
156.5690195608
 20
134.1118111881
 10
156.5649189389
 20
134.1234581731
  0
LINE
  5
488
100
AcDbEntity
  8
RACCORDO
100
AcDbLine
 62
250
  6
CONTINUOUS
 10
155.5042508022
 20
122.628113486
 11
155.5042508022
 21
103.7490092528
  0
LINE
  5
489
100
AcDbEntity
  8
RACCORDO
100
AcDbLine
 62
7
  6
CONTINUOUS
 10
155.5463498322
 20
122.6882765412
 11
155.5463498322
 21
103.8091723083
  0
LINE
  5
48A
100
AcDbEntity
  8
RACCORDO
100
AcDbLine
 62
7
  6
CONTINUOUS
 10
155.5496947227
 20
105.6493059591
 11
155.5496947227
 21
105.2841548863
  0
LINE
  5
48B
100
AcDbEntity
  8
RACCORDO
100
AcDbLine
 62
250
  6
CONTINUOUS
 10
157.1577778779
 20
116.2281243945
 11
157.1577778779
 21
113.5514865513
  0
LINE
  5
48C
100
AcDbEntity
  8
RACCORDO
100
AcDbLine
 62
7
  6
CONTINUOUS
 10
157.2007903105
 20
116.2888288282
 11
157.2007903105
 21
113.612190985
  0
LINE
  5
48D
100
AcDbEntity
  8
RACCORDO
100
AcDbLine
 62
250
  6
CONTINUOUS
 10
158.3972173077
 20
132.027880253
 11
158.3972173077
 21
132.3227810572
  0
LINE
  5
48E
100
AcDbEntity
  8
RACCORDO
100
AcDbLine
 62
250
  6
CONTINUOUS
 10
157.2007903105
 20
116.2888288282
 11
157.2007902996
 21
116.2887959096
  0
LINE
  5
48F
100
AcDbEntity
  8
RACCORDO
100
AcDbLine
 62
7
  6
CONTINUOUS
 10
158.4393162761
 20
132.3828656567
 11
158.4393163376
 21
132.3829441051
  0
LWPOLYLINE
  5
490
100
AcDbEntity
  8
RACCORDO
100
AcDbPolyline
 62
250
  6
CONTINUOUS
 90
7
 70
0
 10
155.5042508022
 20
103.7490092528
 10
155.5035653344
 20
103.7336855305
 10
155.5010460899
 20
103.7196529078
 10
155.4967361571
 20
103.7071513937
 10
155.4907092516
 20
103.6963948098
 10
155.4830684554
 20
103.687567133
 10
155.475244669
 20
103.68159643
  0
LINE
  5
491
100
AcDbEntity
  8
RACCORDO
100
AcDbLine
 62
250
  6
CONTINUOUS
 10
155.5461278436
 20
103.8044621826
 11
155.5463498322
 21
103.8091723083
  0
LWPOLYLINE
  5
492
100
AcDbEntity
  8
RACCORDO
100
AcDbPolyline
 62
250
  6
CONTINUOUS
 90
7
 70
0
 10
157.1577778779
 20
113.5514865513
 10
157.1569824295
 20
113.5360920627
 10
157.1543702033
 20
113.5219994921
 10
157.1499858857
 20
113.5094499445
 10
157.1439044855
 20
113.4986581331
 10
157.1362300397
 20
113.4898086855
 10
157.1277486249
 20
113.4834376634
  0
LWPOLYLINE
  5
493
100
AcDbEntity
  8
RACCORDO
100
AcDbPolyline
 62
250
  6
CONTINUOUS
 90
7
 70
0
 10
157.2007902996
 20
116.2887959096
 10
157.1995596497
 20
116.2777573772
 10
157.195793928
 20
116.2666617292
 10
157.1895813291
 20
116.2559783068
 10
157.1810614256
 20
116.2458941914
 10
157.1703940851
 20
116.2365603128
 10
157.1577778779
 20
116.2281243945
  0
LWPOLYLINE
  5
494
100
AcDbEntity
  8
RACCORDO
100
AcDbPolyline
 62
250
  6
CONTINUOUS
 90
7
 70
0
 10
157.2007903105
 20
113.612190985
 10
157.1995100651
 20
113.6008996333
 10
157.1956750992
 20
113.5897663529
 10
157.1894028419
 20
113.5790901812
 10
157.18087121
 20
113.5690645102
 10
157.1702572016
 20
113.5598182117
 10
157.1577778779
 20
113.5514865513
  0
LINE
  5
495
100
AcDbEntity
  8
RACCORDO
100
AcDbLine
 62
250
  6
CONTINUOUS
 10
157.1610636171
 20
116.2462994625
 11
157.1577778779
 21
116.2281243945
  0
LINE
  5
496
100
AcDbEntity
  8
RACCORDO
100
AcDbLine
 62
250
  6
CONTINUOUS
 10
154.6840140012
 20
95.5263223969
 11
154.6850061781
 21
95.5293770911
  0
LWPOLYLINE
  5
497
100
AcDbEntity
  8
RACCORDO
100
AcDbPolyline
 62
250
  6
CONTINUOUS
 90
3
 70
0
 10
151.4380615157
 20
98.6647177513
 10
151.4747199753
 20
98.6910772526
 10
151.5141831297
 20
98.7165915802
  0
LINE
  5
498
100
AcDbEntity
  8
DRAFT
100
AcDbLine
 62
7
  6
CONTINUOUS
 10
154.5042035525
 20
101.6301804541
 11
157.024205087
 21
103.3363749164
  0
LWPOLYLINE
  5
499
100
AcDbEntity
  8
RACCORDO
100
AcDbPolyline
 62
7
  6
CONTINUOUS
 90
3
 70
0
 10
151.4380615157
 20
98.5703534095
 10
151.4448389647
 20
98.5748643326
 10
151.4520265342
 20
98.5792446437
  0
LWPOLYLINE
  5
49A
100
AcDbEntity
  8
RACCORDO
100
AcDbPolyline
 62
250
  6
CONTINUOUS
 90
64
 70
0
 10
146.0370424406
 20
94.5776047655
 10
146.0289613159
 20
94.5726063169
 10
146.021183744
 20
94.5673939458
 10
146.0137097252
 20
94.5619676522
 10
146.0065481394
 20
94.5562981592
 10
145.9996901066
 20
94.5504147438
 10
145.9931089862
 20
94.5444052364
 10
145.9868137842
 20
94.5382926759
 10
145.9807954947
 20
94.5320540234
 10
145.975000459
 20
94.5257079933
 10
145.9694219228
 20
94.5192605944
 10
145.9640666404
 20
94.5127058178
 10
145.9589012164
 20
94.5060443519
 10
145.9539160386
 20
94.4992714685
 10
145.9491207193
 20
94.4923918956
 10
145.9445107
 20
94.4854205062
 10
145.9400831007
 20
94.4783567105
 10
145.9358408015
 20
94.4712010982
 10
145.9317878842
 20
94.4639703113
 10
145.9279221352
 20
94.4566627386
 10
145.9242457682
 20
94.4492799913
 10
145.9207695059
 20
94.4418435447
 10
145.917491082
 20
94.4343483065
 10
145.9144127629
 20
94.4267993689
 10
145.911552071
 20
94.419233484
 10
145.9089093324
 20
94.4116476918
 10
145.906484221
 20
94.4040449521
 10
145.9042932812
 20
94.3964708971
 10
145.9023384714
 20
94.3889259273
 10
145.9006178331
 20
94.381409642
 10
145.8991420356
 20
94.3739664715
 10
145.8979130099
 20
94.3665980057
 10
145.8969288249
 20
94.3593026547
 10
145.8961943566
 20
94.3521200782
 10
145.8957110788
 20
94.3450516119
 10
145.8954775177
 20
94.33809592
 10
145.8954941274
 20
94.331288655
 10
145.8957621507
 20
94.3246307503
 10
145.8962803448
 20
94.3181212725
 10
145.8970454362
 20
94.311793073
 10
145.8980584734
 20
94.3056473765
 10
145.8993184079
 20
94.2996829583
 10
145.9008188202
 20
94.2939289966
 10
145.9025607503
 20
94.2883862835
 10
145.9045431583
 20
94.2830540269
 10
145.9067565046
 20
94.2779590289
 10
145.9092010882
 20
94.2731029472
 10
145.9118766102
 20
94.2684841241
 10
145.9147726339
 20
94.2641243891
 10
145.9178933661
 20
94.2600219172
 10
145.9212346001
 20
94.2561785335
 10
145.9247732795
 20
94.2526215424
 10
145.9284921606
 20
94.2493612288
 10
145.9324084872
 20
94.2463873078
 10
145.9365509341
 20
94.24369623
 10
145.9409031389
 20
94.2412767635
 10
145.945481464
 20
94.2391401401
 10
145.9503636713
 20
94.237316506
 10
145.9555455513
 20
94.2357821573
 10
145.9610313134
 20
94.234560798
 10
145.9669113486
 20
94.2337536852
 10
145.973215787
 20
94.2333945714
 10
145.9799144984
 20
94.2334497042
 10
145.9870074828
 20
94.2339190836
  0
LWPOLYLINE
  5
49B
100
AcDbEntity
  8
RACCORDO
100
AcDbPolyline
 62
250
  6
CONTINUOUS
 90
56
 70
0
 10
145.9663425321
 20
94.700060599
 10
145.9543330599
 20
94.6926633504
 10
145.9427297337
 20
94.6847813653
 10
145.9315606076
 20
94.6765011608
 10
145.9208749441
 20
94.667927748
 10
145.9106612614
 20
94.6591182993
 10
145.9008512659
 20
94.6500686817
 10
145.8914641959
 20
94.6408446987
 10
145.8824981778
 20
94.6314921203
 10
145.8738570099
 20
94.6219471502
 10
145.8655400949
 20
94.6122359047
 10
145.857562071
 20
94.6024023102
 10
145.8498579929
 20
94.5923866674
 10
145.8424246082
 20
94.5821974477
 10
145.8352817885
 20
94.5718747289
 10
145.8284061564
 20
94.561395044
 10
145.8218038075
 20
94.5507748617
 10
145.8154857242
 20
94.5400391712
 10
145.8094403504
 20
94.5291727569
 10
145.8036751635
 20
94.5181911174
 10
145.7982010761
 20
94.5071171013
 10
145.793015336
 20
94.4959445439
 10
145.7881245909
 20
94.4846848958
 10
145.7835417555
 20
94.4733648154
 10
145.7792749745
 20
94.4620006549
 10
145.7753315795
 20
94.450608018
 10
145.7717212556
 20
94.439210757
 10
145.7684543508
 20
94.4278377759
 10
145.7655372322
 20
94.416509397
 10
145.7629753889
 20
94.4052451237
 10
145.7607754273
 20
94.3940723698
 10
145.7589413077
 20
94.3830122313
 10
145.7574757053
 20
94.3720823612
 10
145.7563813443
 20
94.361304421
 10
145.7556597985
 20
94.3506979944
 10
145.7553117817
 20
94.340280395
 10
145.7553375178
 20
94.3300692885
 10
145.7557366119
 20
94.320082421
 10
145.7565079943
 20
94.3103367176
 10
145.7576500423
 20
94.3008480607
 10
145.7591604511
 20
94.2916332709
 10
145.7610364124
 20
94.2827075395
 10
145.7632749976
 20
94.274083869
 10
145.7658724698
 20
94.2657770834
 10
145.7688243627
 20
94.257801751
 10
145.7721262595
 20
94.2501701374
 10
145.7757720267
 20
94.2428971138
 10
145.7797562742
 20
94.2359940242
 10
145.7840758434
 20
94.2294680913
 10
145.7887285618
 20
94.2233266993
 10
145.7937037543
 20
94.2175877121
 10
145.7989837321
 20
94.2122718171
 10
145.8045348951
 20
94.2074067474
 10
145.8103684705
 20
94.2029769198
 10
145.816540591
 20
94.198948721
 10
145.8180049999
 20
94.1980828337
  0
LINE
  5
49C
100
AcDbEntity
  8
RACCORDO
100
AcDbLine
 62
250
  6
CONTINUOUS
 10
151.4868719278
 20
98.4941901494
 11
151.7562595672
 21
98.6551606296
  0
LINE
  5
49D
100
AcDbEntity
  8
RACCORDO
100
AcDbLine
 62
250
  6
CONTINUOUS
 10
151.7027061766
 20
98.1289416063
 11
151.9683916016
 21
98.2876998572
  0
LINE
  5
49E
100
AcDbEntity
  8
RACCORDO
100
AcDbLine
 62
250
  6
CONTINUOUS
 10
151.5141831297
 20
98.7165915802
 11
152.0523786058
 21
99.0378012771
  0
LINE
  5
49F
100
AcDbEntity
  8
RACCORDO
100
AcDbLine
 62
7
  6
CONTINUOUS
 10
151.4521285105
 20
98.5793099249
 11
151.9903239871
 21
98.9005196221
  0
LWPOLYLINE
  5
4A0
100
AcDbEntity
  8
RACCORDO
100
AcDbPolyline
 62
7
  6
CONTINUOUS
 90
9
 70
0
 10
151.9904696204
 20
98.9006067017
 10
151.9993349213
 20
98.9057515702
 10
152.0185714487
 20
98.9159116573
 10
152.0362966286
 20
98.9239618381
 10
152.0523325383
 20
98.9300147902
 10
152.0661702326
 20
98.9341120984
 10
152.0769840417
 20
98.9363819881
 10
152.0843348788
 20
98.9372731951
 10
152.0854038681
 20
98.9373408088
  0
LINE
  5
4A1
100
AcDbEntity
  8
RACCORDO
100
AcDbLine
 62
250
  6
CONTINUOUS
 10
146.0677183979
 20
94.7585935593
 11
145.9663425321
 21
94.700060599
  0
LINE
  5
4A2
100
AcDbEntity
  8
RACCORDO
100
AcDbLine
 62
250
  6
CONTINUOUS
 10
146.0677183979
 20
94.59531662
 11
146.0370424406
 21
94.5776047655
  0
LWPOLYLINE
  5
4A3
100
AcDbEntity
  8
RACCORDO
100
AcDbPolyline
 62
250
  6
CONTINUOUS
 90
19
 70
0
 10
152.0523786058
 20
99.0378012771
 10
152.101190816
 20
99.0642752717
 10
152.1488504245
 20
99.0853839861
 10
152.1953574313
 20
99.1011274201
 10
152.2410163281
 20
99.1115232332
 10
152.2855226233
 20
99.1165537659
 10
152.3279628414
 20
99.1161660401
 10
152.3682834181
 20
99.1102890989
 10
152.4065379178
 20
99.0989938991
 10
152.4419735584
 20
99.082440333
 10
152.4745704057
 20
99.0605849215
 10
152.5043483939
 20
99.0334711438
 10
152.5306145436
 20
99.0013893294
 10
152.5533658586
 20
98.9640164092
 10
152.572605335
 20
98.9216754523
 10
152.5876489815
 20
98.8756259956
 10
152.5982688009
 20
98.8262878847
 10
152.6046927904
 20
98.7732412739
 10
152.6069209499
 20
98.7164861632
  0
LWPOLYLINE
  5
4A4
100
AcDbEntity
  8
RACCORDO
100
AcDbPolyline
 62
250
  6
CONTINUOUS
 90
13
 70
0
 10
152.6069209499
 20
98.7164861632
 10
152.5785555642
 20
98.7015660687
 10
152.5471238482
 20
98.688858507
 10
152.5131400027
 20
98.678571365
 10
152.4771599796
 20
98.6708729329
 10
152.4397723867
 20
98.6658891518
 10
152.4015888588
 20
98.6637015529
 10
152.3632340515
 20
98.6643459236
 10
152.3253354225
 20
98.6678117225
 10
152.2885129668
 20
98.6740422517
 10
152.2533690738
 20
98.682935584
 10
152.2204786729
 20
98.6943462307
 10
152.1903798279
 20
98.7080875218
  0
LWPOLYLINE
  5
4A5
100
AcDbEntity
  8
RACCORDO
100
AcDbPolyline
 62
250
  6
CONTINUOUS
 90
7
 70
0
 10
161.2146360777
 20
102.4153664241
 10
161.2283956387
 20
102.4221361737
 10
161.2419067129
 20
102.4267100896
 10
161.25494068
 20
102.4290107768
 10
161.2672769927
 20
102.4289993054
 10
161.2787069088
 20
102.4266758695
 10
161.2885997892
 20
102.4223336488
  0
LWPOLYLINE
  5
4A6
100
AcDbEntity
  8
RACCORDO
100
AcDbPolyline
 62
250
  6
CONTINUOUS
 90
6
 70
0
 10
157.1256255926
 20
116.4188273095
 10
157.1211401989
 20
116.42110303
 10
157.1125188218
 20
116.4240633468
 10
157.1032616431
 20
116.4255595222
 10
157.0934826408
 20
116.425590441
 10
157.0832922519
 20
116.4241738679
  0
LWPOLYLINE
  5
4A7
100
AcDbEntity
  8
RACCORDO
100
AcDbPolyline
 62
250
  6
CONTINUOUS
 90
6
 70
0
 10
156.8604914533
 20
116.571912874
 10
156.8562902639
 20
116.5740808728
 10
156.8476258236
 20
116.5771420235
 10
156.8382850224
 20
116.5787149335
 10
156.8283697532
 20
116.578785725
 10
156.8179897707
 20
116.5773561956
  0
LINE
  5
4A8
100
AcDbEntity
  8
RACCORDO
100
AcDbLine
 62
7
  6
CONTINUOUS
 10
156.7039274702
 20
116.5785567934
 11
156.6949609739
 21
116.5833020125
  0
LINE
  5
4A9
100
AcDbEntity
  8
RACCORDO
100
AcDbLine
 62
250
  6
CONTINUOUS
 10
157.1257939345
 20
116.4187305464
 11
157.1256255926
 21
116.4188273095
  0
LINE
  5
4AA
100
AcDbEntity
  8
RACCORDO
100
AcDbLine
 62
250
  6
CONTINUOUS
 10
155.5463498322
 20
117.1968224569
 11
156.6208752201
 21
116.576404928
  0
LINE
  5
4AB
100
AcDbEntity
  8
RACCORDO
100
AcDbLine
 62
7
  6
CONTINUOUS
 10
155.5463498322
 20
117.2464957565
 11
156.6949534289
 21
116.5833064351
  0
LINE
  5
4AC
100
AcDbEntity
  8
RACCORDO
100
AcDbLine
 62
250
  6
CONTINUOUS
 10
156.8179897707
 20
116.5773561956
 11
157.0832922519
 21
116.4241738679
  0
LINE
  5
4AD
100
AcDbEntity
  8
RACCORDO
100
AcDbLine
 62
7
  6
CONTINUOUS
 10
156.8604914533
 20
116.571912874
 11
157.1257939345
 21
116.4187305464
  0
LWPOLYLINE
  5
4AE
100
AcDbEntity
  8
RACCORDO
100
AcDbPolyline
 62
250
  6
CONTINUOUS
 90
5
 70
0
 10
157.0832922519
 20
116.4241738679
 10
157.0969448119
 20
116.4150626813
 10
157.1098103593
 20
116.4037989556
 10
157.1216695093
 20
116.3905747545
 10
157.1323200311
 20
116.3756155818
  0
LWPOLYLINE
  5
4AF
100
AcDbEntity
  8
RACCORDO
100
AcDbPolyline
 62
7
  6
CONTINUOUS
 90
15
 70
0
 10
151.5745892916
 20
120.3071285338
 10
151.5654479771
 20
120.3230423128
 10
151.556434169
 20
120.3390152546
 10
151.547547867
 20
120.3550473591
 10
151.5387704161
 20
120.3710846739
 10
151.5301204715
 20
120.3871811513
 10
151.5216539988
 20
120.403498649
 10
151.5133629572
 20
120.4200367678
 10
151.5052553875
 20
120.4367959069
 10
151.4974113783
 20
120.4539391209
 10
151.4898210422
 20
120.4714500762
 10
151.4824942665
 20
120.4893451065
 10
151.4755408017
 20
120.5078362675
 10
151.4689344849
 20
120.5269131692
 10
151.4661979687
 20
120.535283991
  0
LINE
  5
4B0
100
AcDbEntity
  8
RACCORDO
100
AcDbLine
 62
7
  6
CONTINUOUS
 10
151.1435561369
 20
123.1106050899
 11
150.9465511738
 21
123.489302034
  0
LINE
  5
4B1
100
AcDbEntity
  8
RACCORDO
100
AcDbLine
 62
250
  6
CONTINUOUS
 10
151.4485834412
 20
120.7908198704
 11
151.4380615126
 21
120.8116259833
  0
LINE
  5
4B2
100
AcDbEntity
  8
RACCORDO
100
AcDbLine
 62
250
  6
CONTINUOUS
 10
151.4630215951
 20
120.7609079584
 11
151.4485834412
 21
120.7908198704
  0
LWPOLYLINE
  5
4B3
100
AcDbEntity
  8
RACCORDO
100
AcDbPolyline
 62
250
  6
CONTINUOUS
 90
6
 70
0
 10
161.3543412247
 20
102.2690391339
 10
161.3493795351
 20
102.2799571218
 10
161.3437737253
 20
102.2909988798
 10
161.3375310788
 20
102.3020820057
 10
161.3306452951
 20
102.3131572401
 10
161.3231212849
 20
102.324157033
  0
LWPOLYLINE
  5
4B4
100
AcDbEntity
  8
ASSI
100
AcDbPolyline
 62
250
  6
CONTINUOUS
 90
3
 70
0
 10
148.5800155726
 20
134.6582378039
 10
148.586971032
 20
134.6419348348
 10
148.5879507129
 20
134.6375255744
  0
LWPOLYLINE
  5
4B5
100
AcDbEntity
  8
ASSI
100
AcDbPolyline
 62
250
  6
CONTINUOUS
 90
8
 70
0
 10
151.4182699065
 20
127.7073972827
 10
151.4224485869
 20
127.6947643011
 10
151.425003883
 20
127.6831542172
 10
151.4259101535
 20
127.6726926094
 10
151.4251603926
 20
127.6634951486
 10
151.4227657493
 20
127.6556565953
 10
151.4187496995
 20
127.6492546078
 10
151.4176165928
 20
127.6480096697
  0
LWPOLYLINE
  5
4B6
100
AcDbEntity
  8
RACCORDO
100
AcDbPolyline
 62
250
  6
CONTINUOUS
 90
5
 70
0
 10
157.1553249746
 20
116.3230002543
 10
157.1595749392
 20
116.3038799381
 10
157.1619698735
 20
116.284502957
 10
157.1624689361
 20
116.2651997483
 10
157.1610636171
 20
116.2462994625
  0
LINE
  5
4B7
100
AcDbEntity
  8
ASSI
100
AcDbLine
 62
250
  6
CONTINUOUS
 10
152.7171319597
 20
131.1727472046
 11
152.7327789736
 21
131.0505171546
  0
LWPOLYLINE
  5
4B8
100
AcDbEntity
  8
ASSI
100
AcDbPolyline
 62
250
  6
CONTINUOUS
 90
13
 70
0
 10
153.4830849138
 20
132.7318627862
 10
153.480444894
 20
132.7532858126
 10
153.4756573048
 20
132.7753843588
 10
153.4687952254
 20
132.7978211003
 10
153.4599634008
 20
132.8202535517
 10
153.4492966442
 20
132.8423392895
 10
153.4369577808
 20
132.8637411799
 10
153.4231351588
 20
132.8841325311
 10
153.4080397742
 20
132.9032020787
 10
153.3919020521
 20
132.9206587338
 10
153.3749683281
 20
132.9362360279
 10
153.3574970884
 20
132.9496961806
 10
153.3397550239
 20
132.9608337283
  0
LWPOLYLINE
  5
4B9
100
AcDbEntity
  8
RACCORDO
100
AcDbPolyline
 62
250
  6
CONTINUOUS
 90
3
 70
0
 10
154.0853729362
 20
129.8556196504
 10
154.0827421362
 20
129.8785420468
 10
154.0781781787
 20
129.9020699526
  0
LWPOLYLINE
  5
4BA
100
AcDbEntity
  8
RACCORDO
100
AcDbPolyline
 62
7
  6
CONTINUOUS
 90
12
 70
0
 10
156.5994063236
 20
134.0789597203
 10
156.598947017
 20
134.0843143107
 10
156.5957036301
 20
134.1057188551
 10
156.5901437487
 20
134.1272549151
 10
156.5825108081
 20
134.1480073428
 10
156.5727745886
 20
134.1681609439
 10
156.5608571894
 20
134.1876796691
 10
156.5473659132
 20
134.2055498188
 10
156.5323707666
 20
134.2217915863
 10
156.5156996462
 20
134.2365204862
 10
156.4980467681
 20
134.2491001875
 10
156.4907693114
 20
134.2535117779
  0
LWPOLYLINE
  5
4BB
100
AcDbEntity
  8
RACCORDO
100
AcDbPolyline
 62
7
  6
CONTINUOUS
 90
12
 70
0
 10
159.075712414
 20
131.248477587
 10
159.0748293083
 20
131.2694800127
 10
159.0715527794
 20
131.2943748573
 10
159.0658387417
 20
131.319577908
 10
159.0576491743
 20
131.3449533941
 10
159.0472559849
 20
131.3696288063
 10
159.0346675718
 20
131.3936282456
 10
159.0198639406
 20
131.4168366629
 10
159.0034037643
 20
131.4383343465
 10
158.9855432351
 20
131.457882425
 10
158.9660445735
 20
131.4756950507
 10
158.9595415977
 20
131.4809335632
  0
LWPOLYLINE
  5
4BC
100
AcDbEntity
  8
RACCORDO
100
AcDbPolyline
 62
250
  6
CONTINUOUS
 90
4
 70
0
 10
158.3972173077
 20
132.3227810572
 10
158.3964759071
 20
132.3441530379
 10
158.3938936398
 20
132.3663596079
 10
158.3894938675
 20
132.3891709719
  0
LWPOLYLINE
  5
4BD
100
AcDbEntity
  8
RACCORDO
100
AcDbPolyline
 62
7
  6
CONTINUOUS
 90
14
 70
0
 10
158.4393162761
 20
132.3828656567
 10
158.4389661684
 20
132.3960463847
 10
158.4366673701
 20
132.4193871935
 10
158.4322307612
 20
132.4429961369
 10
158.4256279667
 20
132.4667698505
 10
158.417071378
 20
132.4900158628
 10
158.4065721614
 20
132.5127793836
 10
158.394135106
 20
132.5349778423
 10
158.3802237978
 20
132.5558033902
 10
158.3649322137
 20
132.5752053674
 10
158.3482158329
 20
132.5932271064
 10
158.3305328406
 20
132.609361281
 10
158.312000607
 20
132.6235793126
 10
158.2935823754
 20
132.6353233973
  0
LWPOLYLINE
  5
4BE
100
AcDbEntity
  8
RACCORDO
100
AcDbPolyline
 62
250
  6
CONTINUOUS
 90
10
 70
0
 10
161.3735239149
 20
102.182042034
 10
161.3733403548
 20
102.1907578201
 10
161.3727084612
 20
102.1997157694
 10
161.371618759
 20
102.2088942563
 10
161.3700751205
 20
102.2182019254
 10
161.3680655947
 20
102.2276810877
 10
161.3655289353
 20
102.2375128151
 10
161.3624034918
 20
102.247753836
 10
161.3586768694
 20
102.2582891918
 10
161.3543412247
 20
102.2690391339
  0
LWPOLYLINE
  5
4BF
100
AcDbEntity
  8
RACCORDO
100
AcDbPolyline
 62
7
  6
CONTINUOUS
 90
13
 70
0
 10
161.3996314332
 20
102.2308583861
 10
161.3995371767
 20
102.236956612
 10
161.3976744924
 20
102.258794654
 10
161.3934356584
 20
102.2807013294
 10
161.3870502611
 20
102.301886428
 10
161.3785160073
 20
102.3226166665
 10
161.3677993381
 20
102.3428422439
 10
161.3554715957
 20
102.3615396165
 10
161.3415912727
 20
102.3787826448
 10
161.325947412
 20
102.3947511471
 10
161.3090802569
 20
102.40880598
 10
161.2910669463
 20
102.4208875326
 10
161.2885997892
 20
102.4223336488
  0
LWPOLYLINE
  5
4C0
100
AcDbEntity
  8
RACCORDO
100
AcDbPolyline
 62
250
  6
CONTINUOUS
 90
7
 70
0
 10
159.0336134108
 20
131.1883661721
 10
159.0334994484
 20
131.1977351895
 10
159.0330095389
 20
131.2074605317
 10
159.0321250293
 20
131.2175309486
 10
159.0308259661
 20
131.2279446622
 10
159.029096125
 20
131.238673907
 10
159.0269278265
 20
131.2496633712
  0
LINE
  5
4C1
100
AcDbEntity
  8
RACCORDO
100
AcDbLine
 62
7
  6
CONTINUOUS
 10
158.4393163376
 20
132.0880433085
 11
158.4393163376
 21
132.3829441051
  0
LINE
  5
4C2
100
AcDbEntity
  8
RACCORDO
100
AcDbLine
 62
250
  6
CONTINUOUS
 10
159.0336134108
 20
97.8951268377
 11
159.0336134108
 21
99.5690329105
  0
LINE
  5
4C3
100
AcDbEntity
  8
RACCORDO
100
AcDbLine
 62
250
  6
CONTINUOUS
 10
159.0336134108
 20
130.8086119952
 11
159.0336134108
 21
131.1883661721
  0
LINE
  5
4C4
100
AcDbEntity
  8
RACCORDO
100
AcDbLine
 62
7
  6
CONTINUOUS
 10
159.0757124407
 20
97.9552898932
 11
159.0757124407
 21
99.6056919731
  0
LINE
  5
4C5
100
AcDbEntity
  8
RACCORDO
100
AcDbLine
 62
7
  6
CONTINUOUS
 10
159.0757124407
 20
130.8687750508
 11
159.0757124407
 21
131.2485292276
  0
LINE
  5
4C6
100
AcDbEntity
  8
RACCORDO
100
AcDbLine
 62
250
  6
CONTINUOUS
 10
161.3735239149
 20
101.6628387829
 11
161.3735239149
 21
102.182042034
  0
LINE
  5
4C7
100
AcDbEntity
  8
RACCORDO
100
AcDbLine
 62
7
  6
CONTINUOUS
 10
161.3996314339
 20
101.7116635532
 11
161.3996314339
 21
102.2308668037
  0
LWPOLYLINE
  5
4C8
100
AcDbEntity
  8
RACCORDO
100
AcDbPolyline
 62
7
  6
CONTINUOUS
 90
7
 70
0
 10
158.3902853969
 20
103.6386754624
 10
158.3901758258
 20
103.6345549846
 10
158.3900956617
 20
103.6291888586
 10
158.3899461083
 20
103.6225710676
 10
158.3897281238
 20
103.6146586083
 10
158.3895519503
 20
103.605402991
 10
158.3894884962
 20
103.5947763621
  0
LWPOLYLINE
  5
4C9
100
AcDbEntity
  8
RACCORDO
100
AcDbPolyline
 62
250
  6
CONTINUOUS
 90
4
 70
0
 10
154.6850061781
 20
95.5293770911
 10
154.6910149627
 20
95.5400303143
 10
154.6993552488
 20
95.5501465228
 10
154.7098874667
 20
95.5595564336
  0
LWPOLYLINE
  5
4CA
100
AcDbEntity
  8
RACCORDO
100
AcDbPolyline
 62
250
  6
CONTINUOUS
 90
7
 70
0
 10
151.4875510872
 20
93.9615191153
 10
151.4875952767
 20
93.96158097
 10
151.4878394599
 20
93.9638312259
 10
151.4881131632
 20
93.9692940199
 10
151.4884134258
 20
93.9779103824
 10
151.4887370576
 20
93.9895893157
 10
151.4894399334
 20
94.0215866792
  0
LWPOLYLINE
  5
4CB
100
AcDbEntity
  8
RACCORDO
100
AcDbPolyline
 62
250
  6
CONTINUOUS
 90
5
 70
0
 10
161.3735239149
 20
102.182042034
 10
161.3850166383
 20
102.1935779144
 10
161.3933127004
 20
102.2059942436
 10
161.3982162191
 20
102.218997852
 10
161.3996314332
 20
102.2308583861
  0
LWPOLYLINE
  5
4CC
100
AcDbEntity
  8
RACCORDO
100
AcDbPolyline
 62
250
  6
CONTINUOUS
 90
5
 70
0
 10
161.3735239149
 20
101.6628387829
 10
161.385016634
 20
101.6743746584
 10
161.3933126955
 20
101.6867909834
 10
161.3982162161
 20
101.6997945889
 10
161.3996314237
 20
101.7116316261
  0
LWPOLYLINE
  5
4CD
100
AcDbEntity
  8
RACCORDO
100
AcDbPolyline
 62
250
  6
CONTINUOUS
 90
6
 70
0
 10
161.3405052628
 20
101.5778319942
 10
161.3450665047
 20
101.5821147242
 10
161.3510062552
 20
101.5887933117
 10
161.3564337494
 20
101.5963595823
 10
161.3612548647
 20
101.6048103502
 10
161.3653964122
 20
101.6141670472
  0
LWPOLYLINE
  5
4CE
100
AcDbEntity
  8
RACCORDO
100
AcDbPolyline
 62
7
  6
CONTINUOUS
 90
9
 70
0
 10
161.3401444313
 20
101.5775197811
 10
161.3457931215
 20
101.5826405449
 10
161.3594686518
 20
101.5972616532
 10
161.3714458949
 20
101.6135948509
 10
161.3814909883
 20
101.6314111694
 10
161.389444671
 20
101.6505016491
 10
161.3951770306
 20
101.6706578571
 10
161.3985836489
 20
101.6915843125
 10
161.3996314237
 20
101.7116316261
  0
LINE
  5
4CF
100
AcDbEntity
  8
RACCORDO
100
AcDbLine
 62
250
  6
CONTINUOUS
 10
161.3735239149
 20
101.6628387829
 11
154.5042035525
 21
95.6811606918
  0
LINE
  5
4D0
100
AcDbEntity
  8
RACCORDO
100
AcDbLine
 62
7
  6
CONTINUOUS
 10
161.3405054135
 20
101.5778321255
 11
154.5042035525
 21
95.6249059393
  0
LINE
  5
4D1
100
AcDbEntity
  8
RACCORDO
100
AcDbLine
 62
250
  6
CONTINUOUS
 10
154.5042035525
 20
96.8220881217
 11
161.2146360777
 21
102.4153664241
  0
LINE
  5
4D2
100
AcDbEntity
  8
RACCORDO
100
AcDbLine
 62
250
  6
CONTINUOUS
 10
154.5042035525
 20
96.4563275751
 11
161.3735239149
 21
102.182042034
  0
LWPOLYLINE
  5
4D3
100
AcDbEntity
  8
RACCORDO
100
AcDbPolyline
 62
7
  6
CONTINUOUS
 90
10
 70
0
 10
158.9843704251
 20
97.7822183342
 10
159.0029678182
 20
97.7953081912
 10
159.0191520737
 20
97.8099179508
 10
159.0336679553
 20
97.8265196106
 10
159.0462840063
 20
97.8449236988
 10
159.0567929901
 20
97.8648815708
 10
159.0651081034
 20
97.8863056365
 10
159.0711096578
 20
97.909075718
 10
159.0746654532
 20
97.9329428804
 10
159.075712426
 20
97.9552515317
  0
LWPOLYLINE
  5
4D4
100
AcDbEntity
  8
RACCORDO
100
AcDbPolyline
 62
7
  6
CONTINUOUS
 90
4
 70
0
 10
158.3483161681
 20
97.3829163869
 10
158.3632363627
 20
97.3931834481
 10
158.379881173
 20
97.4075387106
 10
158.3857938605
 20
97.414024925
  0
LINE
  5
4D5
100
AcDbEntity
  8
RACCORDO
100
AcDbLine
 62
250
  6
CONTINUOUS
 10
154.7098874667
 20
95.5595564336
 11
154.7224353662
 21
95.5681025799
  0
LWPOLYLINE
  5
4D6
100
AcDbEntity
  8
RACCORDO
100
AcDbPolyline
 62
250
  6
CONTINUOUS
 90
7
 70
0
 10
159.0336134108
 20
97.8951268377
 10
159.0461610721
 20
97.9036722055
 10
159.0566933039
 20
97.913081276
 10
159.0650338736
 20
97.9231966102
 10
159.0710432211
 20
97.9338489513
 10
159.0746207937
 20
97.9448600571
 10
159.075712426
 20
97.9552515317
  0
LINE
  5
4D7
100
AcDbEntity
  8
RACCORDO
100
AcDbLine
 62
250
  6
CONTINUOUS
 10
158.3483714798
 20
97.3829409031
 11
158.3497857431
 21
97.3838352571
  0
LWPOLYLINE
  5
4D8
100
AcDbEntity
  8
RACCORDO
100
AcDbPolyline
 62
250
  6
CONTINUOUS
 90
9
 70
0
 10
151.6367533272
 20
93.9995275688
 10
151.6457794096
 20
94.0052052814
 10
151.6600542897
 20
94.017244179
 10
151.6724730416
 20
94.0319638562
 10
151.6828968113
 20
94.0492010046
 10
151.6912073939
 20
94.068755465
 10
151.6973163169
 20
94.0904053672
 10
151.7011620263
 20
94.1139139534
 10
151.7027061766
 20
94.1390215054
  0
LINE
  5
4D9
100
AcDbEntity
  8
RACCORDO
100
AcDbLine
 62
250
  6
CONTINUOUS
 10
158.984394992
 20
97.782233153
 11
158.9857965166
 21
97.7831144937
  0
LINE
  5
4DA
100
AcDbEntity
  8
ASSI
100
AcDbLine
 62
7
  6
CONTINUOUS
 10
158.3483722603
 20
97.3829413858
 11
154.9332358316
 21
95.2709697901
  0
LINE
  5
4DB
100
AcDbEntity
  8
RACCORDO
100
AcDbLine
 62
7
  6
CONTINUOUS
 10
158.3482984116
 20
97.3828957687
 11
158.3483714798
 21
97.3829409031
  0
LINE
  5
4DC
100
AcDbEntity
  8
RACCORDO
100
AcDbLine
 62
250
  6
CONTINUOUS
 10
159.0336134108
 20
97.8951268377
 11
154.88748706
 21
95.3447844536
  0
LINE
  5
4DD
100
AcDbEntity
  8
ASSI
100
AcDbLine
 62
7
  6
CONTINUOUS
 10
158.9843949605
 20
97.7822331337
 11
154.9243567877
 21
95.284844835
  0
LINE
  5
4DE
100
AcDbEntity
  8
RACCORDO
100
AcDbLine
 62
250
  6
CONTINUOUS
 10
151.8476787986
 20
93.5408072023
 11
151.4380615157
 21
93.295455767
  0
LINE
  5
4DF
100
AcDbEntity
  8
RACCORDO
100
AcDbLine
 62
250
  6
CONTINUOUS
 10
152.0523786058
 20
93.1822859238
 11
151.5141831297
 21
92.8599190754
  0
LINE
  5
4E0
100
AcDbEntity
  8
RACCORDO
100
AcDbLine
 62
250
  6
CONTINUOUS
 10
154.6590460162
 20
95.4828929848
 11
154.5042035525
 21
95.3934644873
  0
LINE
  5
4E1
100
AcDbEntity
  8
RACCORDO
100
AcDbLine
 62
250
  6
CONTINUOUS
 10
154.8687240467
 20
95.3752877399
 11
154.8156599205
 21
95.3446456422
  0
LINE
  5
4E2
100
AcDbEntity
  8
RACCORDO
100
AcDbLine
 62
250
  6
CONTINUOUS
 10
154.5042035525
 20
95.1685183328
 11
154.8156599205
 21
95.3446456422
  0
LINE
  5
4E3
100
AcDbEntity
  8
RACCORDO
100
AcDbLine
 62
250
  6
CONTINUOUS
 10
154.5042035525
 20
95.3306419241
 11
154.715675151
 21
95.4501960321
  0
LINE
  5
4E4
100
AcDbEntity
  8
RACCORDO
100
AcDbLine
 62
250
  6
CONTINUOUS
 10
151.6366027652
 20
93.9994435063
 11
151.6367533272
 21
93.9995275688
  0
LINE
  5
4E5
100
AcDbEntity
  8
RACCORDO
100
AcDbLine
 62
250
  6
CONTINUOUS
 10
151.9683916016
 20
94.2870701237
 11
151.7027061766
 21
94.1390215054
  0
LINE
  5
4E6
100
AcDbEntity
  8
RACCORDO
100
AcDbLine
 62
7
  6
CONTINUOUS
 10
151.9049290674
 20
94.1489637078
 11
151.6366027652
 21
93.9994435063
  0
LWPOLYLINE
  5
4E7
100
AcDbEntity
  8
RACCORDO
100
AcDbPolyline
 62
250
  6
CONTINUOUS
 90
3
 70
0
 10
151.5141831297
 20
92.8599190754
 10
151.464750631
 20
92.833005537
 10
151.4380615157
 20
92.8211661391
  0
LWPOLYLINE
  5
4E8
100
AcDbEntity
  8
RACCORDO
100
AcDbPolyline
 62
250
  6
CONTINUOUS
 90
10
 70
0
 10
151.7027061766
 20
94.1390215054
 10
151.6834104269
 20
94.1288125461
 10
151.6626470763
 20
94.1196134475
 10
151.6405741464
 20
94.1114942205
 10
151.6173596253
 20
94.1045166574
 10
151.5931801895
 20
94.0987338617
 10
151.5682198594
 20
94.0941898441
 10
151.5426685983
 20
94.0909191875
 10
151.5167208666
 20
94.0889467835
 10
151.4905741423
 20
94.0882876433
  0
LWPOLYLINE
  5
4E9
100
AcDbEntity
  8
RACCORDO
100
AcDbPolyline
 62
250
  6
CONTINUOUS
 90
13
 70
0
 10
152.6069209499
 20
94.1667252404
 10
152.5785536184
 20
94.1518042469
 10
152.5471200273
 20
94.1390962412
 10
152.5131345728
 20
94.1288090464
 10
152.4771533948
 20
94.1211108721
 10
152.4397651907
 20
94.1161275465
 10
152.401581572
 20
94.1139404834
 10
152.3632272318
 20
94.1145853685
 10
152.3253295811
 20
94.1180515577
 10
152.2885084037
 20
94.1242822877
 10
152.253365959
 20
94.1331755905
 10
152.2204771204
 20
94.1445859277
 10
152.1903798279
 20
94.1583265989
  0
LINE
  5
4EA
100
AcDbEntity
  8
RACCORDO
100
AcDbLine
 62
250
  6
CONTINUOUS
 10
154.6727198757
 20
95.4894877202
 11
154.6590460162
 21
95.4828929848
  0
LINE
  5
4EB
100
AcDbEntity
  8
RACCORDO
100
AcDbLine
 62
250
  6
CONTINUOUS
 10
154.729349013
 20
95.4567907685
 11
154.715675151
 21
95.4501960321
  0
LWPOLYLINE
  5
4EC
100
AcDbEntity
  8
RACCORDO
100
AcDbPolyline
 62
250
  6
CONTINUOUS
 90
4
 70
0
 10
150.7985485334
 20
125.6875719971
 10
150.7866564449
 20
125.6876425506
 10
150.7737454857
 20
125.686598366
 10
150.7724205021
 20
125.6863771016
  0
LWPOLYLINE
  5
4ED
100
AcDbEntity
  8
RACCORDO
100
AcDbPolyline
 62
7
  6
CONTINUOUS
 90
11
 70
0
 10
150.3496269798
 20
125.586699024
 10
150.3579789778
 20
125.5824243438
 10
150.3857961319
 20
125.5717613233
 10
150.415030505
 20
125.564176599
 10
150.445411909
 20
125.5598499032
 10
150.4765341163
 20
125.5589196365
 10
150.507923761
 20
125.5614208298
 10
150.5393231481
 20
125.5673315291
 10
150.5704760038
 20
125.5766013706
 10
150.6010522175
 20
125.5890829189
 10
150.6299842487
 20
125.6041359191
  0
LWPOLYLINE
  5
4EE
100
AcDbEntity
  8
RACCORDO
100
AcDbPolyline
 62
250
  6
CONTINUOUS
 90
6
 70
0
 10
150.8492806576
 20
125.673124808
 10
150.8401018323
 20
125.6778320987
 10
150.8303826975
 20
125.681657489
 10
150.8201489875
 20
125.6845739398
 10
150.8095715867
 20
125.6865375899
 10
150.7985485334
 20
125.6875719971
  0
LWPOLYLINE
  5
4EF
100
AcDbEntity
  8
RACCORDO
100
AcDbPolyline
 62
250
  6
CONTINUOUS
 90
13
 70
0
 10
150.8681133598
 20
125.5446416514
 10
150.8619107485
 20
125.5478366685
 10
150.8553821294
 20
125.5504126271
 10
150.8485275025
 20
125.552369527
 10
150.8414334418
 20
125.5537497491
 10
150.8340133732
 20
125.5545109125
 10
150.8260075751
 20
125.5545258752
 10
150.8173168164
 20
125.5538429449
 10
150.8080403281
 20
125.5524138138
 10
150.7982160819
 20
125.5499664171
 10
150.787856735
 20
125.5464100665
 10
150.7769496302
 20
125.5418354503
 10
150.7654947676
 20
125.5362425684
  0
LINE
  5
4F0
100
AcDbEntity
  8
RACCORDO
100
AcDbLine
 62
7
  6
CONTINUOUS
 10
151.4380615157
 20
123.2806493884
 11
150.8981605148
 21
123.5923814597
  0
LINE
  5
4F1
100
AcDbEntity
  8
ASSI
100
AcDbLine
 62
7
  6
CONTINUOUS
 10
150.8993027501
 20
123.5943608792
 11
150.8086318891
 21
123.646713098
  0
LINE
  5
4F2
100
AcDbEntity
  8
0
100
AcDbLine
 62
250
  6
CONTINUOUS
 10
148.3362775602
 20
125.746811167
 11
133.4680633918
 21
134.3315316853
  0
LINE
  5
4F3
100
AcDbEntity
  8
0
100
AcDbLine
 62
250
  6
CONTINUOUS
 10
148.6805760019
 20
126.3537000186
 11
133.8123618336
 21
134.9384205369
  0
LINE
  5
4F4
100
AcDbEntity
  8
RACCORDO
100
AcDbLine
 62
250
  6
CONTINUOUS
 10
151.321093741
 20
125.283145717
 11
150.8681133598
 21
125.5446416514
  0
LINE
  5
4F5
100
AcDbEntity
  8
RACCORDO
100
AcDbLine
 62
7
  6
CONTINUOUS
 10
151.3022582835
 20
125.4116304644
 11
150.7993744501
 21
125.7019400268
  0
LINE
  5
4F6
100
AcDbEntity
  8
RACCORDO
100
AcDbLine
 62
250
  6
CONTINUOUS
 10
151.3284884165
 20
125.2780034218
 11
151.321093741
 21
125.283145717
  0
LWPOLYLINE
  5
4F7
100
AcDbEntity
  8
ASSI
100
AcDbPolyline
 62
250
  6
CONTINUOUS
 90
7
 70
0
 10
145.7422660474
 20
133.2739407194
 10
145.7369145319
 20
133.2807673074
 10
145.7215565807
 20
133.2968763386
 10
145.7040336666
 20
133.3107895085
 10
145.6846168079
 20
133.3222916815
 10
145.6636062914
 20
133.3312050264
 10
145.6413270483
 20
133.337391743
  0
LWPOLYLINE
  5
4F8
100
AcDbEntity
  8
RACCORDO
100
AcDbPolyline
 62
250
  6
CONTINUOUS
 90
4
 70
0
 10
151.3459813243
 20
125.2593849589
 10
151.340957227
 20
125.2661501092
 10
151.3351095785
 20
125.2723382192
 10
151.3284884165
 20
125.2780034218
  0
LWPOLYLINE
  5
4F9
100
AcDbEntity
  8
RACCORDO
100
AcDbPolyline
 62
250
  6
CONTINUOUS
 90
9
 70
0
 10
153.0980331966
 20
127.1770113059
 10
153.3481248459
 20
126.7725245901
 10
153.5986621479
 20
126.3583288617
 10
153.8493682419
 20
125.9344093141
 10
154.09841766
 20
125.5034564437
 10
154.3471088578
 20
125.0628144477
 10
154.5995824397
 20
124.6043301321
 10
154.8566997827
 20
124.1251700731
 10
155.1163238501
 20
123.6279753152
  0
LINE
  5
4FA
100
AcDbEntity
  8
RACCORDO
100
AcDbLine
 62
7
  6
CONTINUOUS
 10
153.4246758999
 20
126.7646631878
 11
153.2281309857
 21
127.0838865364
  0
LWPOLYLINE
  5
4FB
100
AcDbEntity
  8
ASSI
100
AcDbPolyline
 62
250
  6
CONTINUOUS
 90
4
 70
0
 10
148.5800156816
 20
134.6580332258
 10
148.5856321224
 20
134.6488079495
 10
148.5894392042
 20
134.6393062707
 10
148.5895660078
 20
134.6386831977
  0
LWPOLYLINE
  5
4FC
100
AcDbEntity
  8
RACCORDO
100
AcDbPolyline
 62
250
  6
CONTINUOUS
 90
4
 70
0
 10
157.1323200311
 20
116.3756155818
 10
157.1415803168
 20
116.3591765096
 10
157.1492924694
 20
116.3415378197
 10
157.1553249746
 20
116.3230002543
  0
LWPOLYLINE
  5
4FD
100
AcDbEntity
  8
ASSI
100
AcDbPolyline
 62
250
  6
CONTINUOUS
 90
16
 70
0
 10
148.7686400163
 20
134.8599216536
 10
148.7777441507
 20
134.8429420795
 10
148.7845542054
 20
134.82578549
 10
148.7890701805
 20
134.808451885
 10
148.7913029055
 20
134.7908358341
 10
148.7912415508
 20
134.7730427677
 10
148.7888536278
 20
134.7553889774
 10
148.7840772484
 20
134.7378607764
 10
148.7769743007
 20
134.7204718515
 10
148.7676979602
 20
134.7035795545
 10
148.7562031908
 20
134.6872127908
 10
148.7425350286
 20
134.6713426552
 10
148.7269817582
 20
134.6562397835
 10
148.7096394747
 20
134.6419943877
 10
148.6904120831
 20
134.6285162559
 10
148.6692995833
 20
134.6158053881
  0
LWPOLYLINE
  5
4FE
100
AcDbEntity
  8
ASSI
100
AcDbPolyline
 62
250
  6
CONTINUOUS
 90
4
 70
0
 10
150.9697329831
 20
131.1938310551
 10
150.9674669088
 20
131.1982083092
 10
150.9628680109
 20
131.2057427251
 10
150.9578910876
 20
131.2124439728
  0
LINE
  5
4FF
100
AcDbEntity
  8
RACCORDO
100
AcDbLine
 62
250
  6
CONTINUOUS
 10
155.1163238501
 20
123.6279753152
 11
155.3777946113
 21
123.1127062986
  0
LWPOLYLINE
  5
500
100
AcDbEntity
  8
RACCORDO
100
AcDbPolyline
 62
7
  6
CONTINUOUS
 90
9
 70
0
 10
155.4277672572
 20
123.149092238
 10
155.1946637623
 20
123.6091700844
 10
154.9564605986
 20
124.0672253808
 10
154.7132366519
 20
124.5231067208
 10
154.4650726444
 20
124.9766630531
 10
154.21205051
 20
125.4277448285
 10
153.9542533312
 20
125.8762040237
 10
153.6917661343
 20
126.3218927225
 10
153.4246758999
 20
126.7646631878
  0
LINE
  5
501
100
AcDbEntity
  8
ASSI
100
AcDbLine
 62
7
  6
CONTINUOUS
 10
150.9697511873
 20
131.1937936429
 11
150.9697329831
 21
131.1938310551
  0
LINE
  5
502
100
AcDbEntity
  8
RACCORDO
100
AcDbLine
 62
250
  6
CONTINUOUS
 10
155.3777946113
 20
123.1127062986
 11
155.4017919739
 21
123.0622452507
  0
LWPOLYLINE
  5
503
100
AcDbEntity
  8
ASSI
100
AcDbPolyline
 62
7
  6
CONTINUOUS
 90
6
 70
0
 10
150.9697699037
 20
131.1937552615
 10
150.9753023315
 20
131.181772895
 10
150.9813855141
 20
131.1668233966
 10
150.9866489074
 20
131.151717153
 10
150.9910857826
 20
131.1365132287
 10
150.9947057743
 20
131.1212283373
  0
LINE
  5
504
100
AcDbEntity
  8
ASSI
100
AcDbLine
 62
7
  6
CONTINUOUS
 10
150.9699382922
 20
131.1933922952
 11
150.9699703602
 21
131.1933185796
  0
LWPOLYLINE
  5
505
100
AcDbEntity
  8
RACCORDO
100
AcDbPolyline
 62
250
  6
CONTINUOUS
 90
7
 70
0
 10
155.4017919739
 20
123.0622452507
 10
155.4238809591
 20
123.0102906693
 10
155.4438103871
 20
122.9570839952
 10
155.4613139872
 20
122.9029344878
 10
155.47615921
 20
122.8481093568
 10
155.4881288084
 20
122.7928363073
 10
155.4969707749
 20
122.7374521013
  0
LWPOLYLINE
  5
506
100
AcDbEntity
  8
RACCORDO
100
AcDbPolyline
 62
250
  6
CONTINUOUS
 90
12
 70
0
 10
154.0717310623
 20
129.9259456273
 10
154.0634713641
 20
129.94990768
 10
154.053489406
 20
129.9736939313
 10
154.041894402
 20
129.9970439691
 10
154.0288133171
 20
130.019701955
 10
154.0143893673
 20
130.0414196676
 10
153.9987804661
 20
130.0619592562
 10
153.9821575615
 20
130.0810956863
 10
153.964702783
 20
130.0986191926
 10
153.9466073367
 20
130.1143377931
 10
153.9280693901
 20
130.1280793586
 10
153.9092919892
 20
130.139693365
  0
LWPOLYLINE
  5
507
100
AcDbEntity
  8
RACCORDO
100
AcDbPolyline
 62
250
  6
CONTINUOUS
 90
8
 70
0
 10
155.4277672572
 20
123.149092238
 10
155.4278755004
 20
123.1487326211
 10
155.4269772372
 20
123.146459463
 10
155.4238472519
 20
123.1431078327
 10
155.4185378727
 20
123.1387337916
 10
155.4111379207
 20
123.1334105264
 10
155.4017712051
 20
123.1272271075
 10
155.3905944336
 20
123.1202869899
  0
LINE
  5
508
100
AcDbEntity
  8
RACCORDO
100
AcDbLine
 62
250
  6
CONTINUOUS
 10
154.0781781787
 20
129.9020699526
 11
154.0717310623
 21
129.9259456273
  0
LWPOLYLINE
  5
509
100
AcDbEntity
  8
RACCORDO
100
AcDbPolyline
 62
250
  6
CONTINUOUS
 90
5
 70
0
 10
161.3653964122
 20
101.6141670472
 10
161.3688320791
 20
101.6246186074
 10
161.3714389875
 20
101.6362492203
 10
161.3730502721
 20
101.6489967259
 10
161.3735239149
 20
101.6628387829
  0
LWPOLYLINE
  5
50A
100
AcDbEntity
  8
RACCORDO
100
AcDbPolyline
 62
250
  6
CONTINUOUS
 90
14
 70
0
 10
158.9918694327
 20
97.7874096273
 10
158.9975735634
 20
97.7922481358
 10
159.0028829722
 20
97.7976013012
 10
159.0077997728
 20
97.8034640877
 10
159.0123310554
 20
97.8098470461
 10
159.0164433288
 20
97.8167047097
 10
159.0201444068
 20
97.8240517072
 10
159.023476131
 20
97.8320177746
 10
159.0263995149
 20
97.8406042765
 10
159.0288792368
 20
97.8498184636
 10
159.0309098401
 20
97.8598433642
 10
159.0324299629
 20
97.8707605008
 10
159.0333549719
 20
97.8825211554
 10
159.0336134108
 20
97.8951268377
  0
LINE
  5
50B
100
AcDbEntity
  8
RACCORDO
100
AcDbLine
 62
250
  6
CONTINUOUS
 10
154.7244380445
 20
93.3565575069
 11
154.715159981
 21
93.3488350017
  0
LWPOLYLINE
  5
50C
100
AcDbEntity
  8
RACCORDO
100
AcDbPolyline
 62
250
  6
CONTINUOUS
 90
4
 70
0
 10
158.3497857431
 20
97.3838352571
 10
158.3613446305
 20
97.3928257935
 10
158.3716802715
 20
97.404196551
 10
158.3729072138
 20
97.4060981619
  0
LWPOLYLINE
  5
50D
100
AcDbEntity
  8
RACCORDO
100
AcDbPolyline
 62
250
  6
CONTINUOUS
 90
7
 70
0
 10
152.3499521151
 20
92.083206054
 10
152.3603838306
 20
92.0911669916
 10
152.370571559
 20
92.1029372274
 10
152.3786074332
 20
92.1172793393
 10
152.3843540103
 20
92.1339480248
 10
152.387713003
 20
92.1526581884
 10
152.3886269601
 20
92.1730898181
  0
LWPOLYLINE
  5
50E
100
AcDbEntity
  8
RACCORDO
100
AcDbPolyline
 62
7
  6
CONTINUOUS
 90
20
 70
0
 10
154.7212602924
 20
93.3528452843
 10
154.7298274187
 20
93.3593474527
 10
154.7446522124
 20
93.3729271861
 10
154.7579646882
 20
93.388455519
 10
154.7694487228
 20
93.4056990967
 10
154.7788694341
 20
93.4244264318
 10
154.7860864355
 20
93.4444965062
 10
154.7909632285
 20
93.4658098669
 10
154.7933197156
 20
93.4879304306
 10
154.7931080014
 20
93.5104063594
 10
154.7902638656
 20
93.5335343678
 10
154.78472964
 20
93.5568421569
 10
154.7768634601
 20
93.5791165714
 10
154.7666441927
 20
93.6007111708
 10
154.7539866377
 20
93.6216132786
 10
154.7397670279
 20
93.6404427801
 10
154.7242491597
 20
93.6571629318
 10
154.7071401719
 20
93.6721451653
 10
154.6890714037
 20
93.684841136
 10
154.6832042828
 20
93.6883660481
  0
LINE
  5
50F
100
AcDbEntity
  8
RACCORDO
100
AcDbLine
 62
7
  6
CONTINUOUS
 10
154.7212602923
 20
93.3528452844
 11
154.7209927905
 21
93.35265572
  0
LINE
  5
510
100
AcDbEntity
  8
RACCORDO
100
AcDbLine
 62
250
  6
CONTINUOUS
 10
154.715159981
 20
93.3488350017
 11
154.6598220401
 21
93.3098119333
  0
LWPOLYLINE
  5
511
100
AcDbEntity
  8
RACCORDO
100
AcDbPolyline
 62
250
  6
CONTINUOUS
 90
3
 70
0
 10
154.5983485334
 20
93.2674619863
 10
154.5410253914
 20
93.2287351522
 10
154.4744986336
 20
93.1842471414
  0
LWPOLYLINE
  5
512
100
AcDbEntity
  8
RACCORDO
100
AcDbPolyline
 62
250
  6
CONTINUOUS
 90
7
 70
0
 10
154.4621045226
 20
93.8898598013
 10
154.4746521839
 20
93.8984051691
 10
154.4851844158
 20
93.9078142396
 10
154.4935249855
 20
93.9179295738
 10
154.4995343329
 20
93.9285819149
 10
154.5031119056
 20
93.9395930207
 10
154.5042035525
 20
93.9500228568
  0
LWPOLYLINE
  5
513
100
AcDbEntity
  8
RACCORDO
100
AcDbPolyline
 62
250
  6
CONTINUOUS
 90
3
 70
0
 10
154.412124877
 20
93.1433839318
 10
154.3665002539
 20
93.1139682124
 10
154.2864847766
 20
93.0631490661
  0
LINE
  5
514
100
AcDbEntity
  8
RACCORDO
100
AcDbLine
 62
250
  6
CONTINUOUS
 10
154.7209927905
 20
93.35265572
 11
154.7151599809
 21
93.3488350018
  0
LWPOLYLINE
  5
515
100
AcDbEntity
  8
RACCORDO
100
AcDbPolyline
 62
7
  6
CONTINUOUS
 90
22
 70
0
 10
152.3499019504
 20
92.0831750621
 10
152.4025133632
 20
92.1172784954
 10
152.4807193897
 20
92.1738281794
 10
152.557291717
 20
92.2361966586
 10
152.6318475454
 20
92.3039707172
 10
152.7041131773
 20
92.3767839365
 10
152.7738616391
 20
92.4543013688
 10
152.8408209633
 20
92.5361681193
 10
152.9046836156
 20
92.6219478029
 10
152.9651234716
 20
92.7111706944
 10
153.0218432576
 20
92.8033907044
 10
153.0745834457
 20
92.8981465997
 10
153.1230595874
 20
92.9949378912
 10
153.1670200878
 20
93.0932973695
 10
153.2062469617
 20
93.1927350992
 10
153.2405071687
 20
93.2927334011
 10
153.2695935605
 20
93.3928037524
 10
153.2933485394
 20
93.4925196577
 10
153.3116054583
 20
93.5915048054
 10
153.3241972889
 20
93.6893333615
 10
153.3309762889
 20
93.785472761
 10
153.3321895141
 20
93.8452160102
  0
LWPOLYLINE
  5
516
100
AcDbEntity
  8
RACCORDO
100
AcDbPolyline
 62
7
  6
CONTINUOUS
 90
16
 70
0
 10
155.5172708904
 20
93.901233612
 10
155.5233224065
 20
93.9050802282
 10
155.5392011469
 20
93.9170819716
 10
155.5536655918
 20
93.9310143384
 10
155.5663908564
 20
93.9466077936
 10
155.5772290227
 20
93.9636797507
 10
155.5861329167
 20
93.9822439605
 10
155.5929306502
 20
94.0021776315
 10
155.5974095003
 20
94.0230908742
 10
155.599477886
 20
94.044767605
 10
155.5990318773
 20
94.0675365121
 10
155.5959306402
 20
94.0907354347
 10
155.5904629392
 20
94.1129830982
 10
155.5827297522
 20
94.1346164458
 10
155.5727711438
 20
94.1556103533
 10
155.5691693067
 20
94.162080902
  0
LINE
  5
517
100
AcDbEntity
  8
RACCORDO
100
AcDbLine
 62
250
  6
CONTINUOUS
 10
154.2232210937
 20
93.02377906
 11
154.1916959656
 21
93.004414916
  0
LINE
  5
518
100
AcDbEntity
  8
RACCORDO
100
AcDbLine
 62
250
  6
CONTINUOUS
 10
152.3886269601
 20
92.1730898181
 11
151.4380615157
 21
91.5852458885
  0
LINE
  5
519
100
AcDbEntity
  8
RACCORDO
100
AcDbLine
 62
7
  6
CONTINUOUS
 10
152.3499521151
 20
92.083206054
 11
151.4380615157
 21
91.5192792287
  0
LWPOLYLINE
  5
51A
100
AcDbEntity
  8
RACCORDO
100
AcDbPolyline
 62
7
  6
CONTINUOUS
 90
10
 70
0
 10
154.15966349
 20
92.9849084505
 10
154.2232210937
 20
93.02377906
 10
154.2864847766
 20
93.0631490661
 10
154.3494531976
 20
93.1030176611
 10
154.412124877
 20
93.1433839318
 10
154.4744986336
 20
93.1842471414
 10
154.5365735783
 20
93.2256067402
 10
154.5983485334
 20
93.2674619863
 10
154.6598220401
 20
93.3098119333
 10
154.7209927905
 20
93.35265572
  0
LINE
  5
51B
100
AcDbEntity
  8
RACCORDO
100
AcDbLine
 62
250
  6
CONTINUOUS
 10
155.516105205
 20
94.1314388228
 11
154.7287508135
 21
93.6523125018
  0
LINE
  5
51C
100
AcDbEntity
  8
RACCORDO
100
AcDbLine
 62
7
  6
CONTINUOUS
 10
154.7892198027
 20
93.4581904615
 11
155.5175755612
 21
93.9014150033
  0
LINE
  5
51D
100
AcDbEntity
  8
ASSI
100
AcDbLine
 62
7
  6
CONTINUOUS
 10
154.1596634901
 20
92.9849084503
 11
151.4380615157
 21
91.3349362008
  0
LINE
  5
51E
100
AcDbEntity
  8
RACCORDO
100
AcDbLine
 62
250
  6
CONTINUOUS
 10
154.6100359984
 20
93.6819941325
 11
152.9402617732
 21
92.674469207
  0
LINE
  5
51F
100
AcDbEntity
  8
RACCORDO
100
AcDbLine
 62
250
  6
CONTINUOUS
 10
154.715159981
 20
93.3488350017
 11
151.4380615157
 21
91.3706669769
  0
LINE
  5
520
100
AcDbEntity
  8
RACCORDO
100
AcDbLine
 62
250
  6
CONTINUOUS
 10
153.1919516607
 20
93.1564973842
 11
154.4621045226
 21
93.8898598013
  0
LINE
  5
521
100
AcDbEntity
  8
RACCORDO
100
AcDbLine
 62
250
  6
CONTINUOUS
 10
153.0300030633
 20
92.8180510558
 11
154.5681543854
 21
93.706176051
  0
LINE
  5
522
100
AcDbEntity
  8
RACCORDO
100
AcDbLine
 62
250
  6
CONTINUOUS
 10
155.5691693067
 20
94.162080902
 11
155.516105205
 21
94.1314388228
  0
LWPOLYLINE
  5
523
100
AcDbEntity
  8
RACCORDO
100
AcDbPolyline
 62
250
  6
CONTINUOUS
 90
3
 70
0
 10
154.5681543854
 20
93.706176051
 10
154.5818282449
 20
93.7127707863
 10
154.5952423299
 20
93.7171883407
  0
LINE
  5
524
100
AcDbEntity
  8
RACCORDO
100
AcDbLine
 62
250
  6
CONTINUOUS
 10
154.6237098588
 20
93.6885888683
 11
154.6100359984
 21
93.6819941325
  0
LINE
  5
525
100
AcDbEntity
  8
RACCORDO
100
AcDbLine
 62
250
  6
CONTINUOUS
 10
153.7862143989
 20
133.6654131741
 11
156.2662759675
 21
134.3599217875
  0
LINE
  5
526
100
AcDbEntity
  8
ASSI
100
AcDbLine
 62
7
  6
CONTINUOUS
 10
153.6956792936
 20
133.6791403422
 11
156.1777061435
 21
134.3741993068
  0
LWPOLYLINE
  5
527
100
AcDbEntity
  8
ASSI
100
AcDbPolyline
 62
250
  6
CONTINUOUS
 90
13
 70
0
 10
155.7021684221
 20
133.8454374023
 10
155.7064093233
 20
133.8465863484
 10
155.7105834175
 20
133.8477937123
 10
155.7146907046
 20
133.8490594941
 10
155.7187197807
 20
133.8503762719
 10
155.7226820497
 20
133.8517514676
 10
155.7266117235
 20
133.8532073466
 10
155.7305175263
 20
133.8547427337
 10
155.7343907339
 20
133.8563588042
 10
155.7382393854
 20
133.8580813498
 10
155.7420661603
 20
133.8599189678
 10
155.7458683791
 20
133.8618630609
 10
155.7496460417
 20
133.8639136291
  0
LINE
  5
528
100
AcDbEntity
  8
ASSI
100
AcDbLine
 62
250
  6
CONTINUOUS
 10
154.2783628248
 20
133.1983351963
 11
155.8088957728
 21
133.6008967229
  0
LINE
  5
529
100
AcDbEntity
  8
ASSI
100
AcDbLine
 62
250
  6
CONTINUOUS
 10
154.1716354741
 20
133.4428758758
 11
155.7021684221
 21
133.8454374023
  0
LWPOLYLINE
  5
52A
100
AcDbEntity
  8
ASSI
100
AcDbPolyline
 62
7
  6
CONTINUOUS
 90
10
 70
0
 10
150.4802694044
 20
129.7226890496
 10
150.4607456703
 20
129.7229762242
 10
150.4417136751
 20
129.7223027069
 10
150.4231734188
 20
129.7206684976
 10
150.4049887601
 20
129.7180385984
 10
150.3872958402
 20
129.7144480073
 10
150.3705030832
 20
129.7100017181
 10
150.3547466306
 20
129.7047347288
 10
150.3398903409
 20
129.6986120414
 10
150.3259342141
 20
129.6916336559
  0
LINE
  5
52B
100
AcDbEntity
  8
ASSI
100
AcDbLine
 62
7
  6
CONTINUOUS
 10
150.520926109
 20
129.7218817096
 11
150.4802694044
 21
129.7226890496
  0
LWPOLYLINE
  5
52C
100
AcDbEntity
  8
ASSI
100
AcDbPolyline
 62
250
  6
CONTINUOUS
 90
8
 70
0
 10
149.8428019655
 20
129.2142429619
 10
149.8315173837
 20
129.2184939619
 10
149.8193293472
 20
129.2208187424
 10
149.8063684447
 20
129.2211923816
 10
149.7927735633
 20
129.2196108698
 10
149.7786903716
 20
129.2160911534
 10
149.7642697556
 20
129.2106709427
 10
149.7496662236
 20
129.2034083111
  0
LWPOLYLINE
  5
52D
100
AcDbEntity
  8
RACCORDO
100
AcDbPolyline
 62
7
  6
CONTINUOUS
 90
10
 70
0
 10
153.0980331965
 20
127.1770113058
 10
153.1198004407
 20
127.166905396
 10
153.1398211537
 20
127.1566795417
 10
153.1580382991
 20
127.1463150383
 10
153.174413945
 20
127.1357624346
 10
153.1889607195
 20
127.125085638
 10
153.2016879826
 20
127.1144267545
 10
153.2125858474
 20
127.1037905473
 10
153.2216516332
 20
127.0931845452
 10
153.228134309
 20
127.0838811846
  0
LWPOLYLINE
  5
52E
100
AcDbEntity
  8
ASSI
100
AcDbPolyline
 62
250
  6
CONTINUOUS
 90
9
 70
0
 10
151.3744067784
 20
128.3301279706
 10
151.3700056847
 20
128.3324546607
 10
151.3587210793
 20
128.3367056379
 10
151.3465330474
 20
128.3390303885
 10
151.3335721716
 20
128.3394040036
 10
151.3199773229
 20
128.3378224785
 10
151.3058941631
 20
128.3343027584
 10
151.2914735828
 20
128.3288825541
 10
151.2768700894
 20
128.3216199394
  0
LINE
  5
52F
100
AcDbEntity
  8
ASSI
100
AcDbLine
 62
250
  6
CONTINUOUS
 10
149.8472029127
 20
129.2119163423
 11
149.8428019655
 21
129.2142429619
  0
LINE
  5
530
100
AcDbEntity
  8
ASSI
100
AcDbLine
 62
250
  6
CONTINUOUS
 10
140.6708601305
 20
134.5102216582
 11
140.6664591833
 21
134.5125482777
  0
LWPOLYLINE
  5
531
100
AcDbEntity
  8
ASSI
100
AcDbPolyline
 62
250
  6
CONTINUOUS
 90
8
 70
0
 10
149.7496662236
 20
129.2034083111
 10
149.7353344321
 20
129.2110872396
 10
149.721072319
 20
129.2169500748
 10
149.7070354506
 20
129.2209112968
 10
149.6933621972
 20
129.2229060525
 10
149.6802272126
 20
129.2228821134
 10
149.667830793
 20
129.2208279
 10
149.6567423978
 20
129.2169204081
  0
LWPOLYLINE
  5
532
100
AcDbEntity
  8
ASSI
100
AcDbPolyline
 62
250
  6
CONTINUOUS
 90
8
 70
0
 10
140.5733234414
 20
134.501713627
 10
140.5589916498
 20
134.5093925554
 10
140.5447295368
 20
134.5152553907
 10
140.5306926684
 20
134.5192166126
 10
140.5170194149
 20
134.5212113684
 10
140.5038844304
 20
134.5211874292
 10
140.4914880108
 20
134.5191332159
 10
140.4803996156
 20
134.5152257239
  0
LWPOLYLINE
  5
533
100
AcDbEntity
  8
ASSI
100
AcDbPolyline
 62
250
  6
CONTINUOUS
 90
9
 70
0
 10
146.072176478
 20
129.7209978954
 10
146.0699665692
 20
129.7222186773
 10
146.0582637557
 20
129.7270537788
 10
146.0455375026
 20
129.7297579896
 10
146.0319390972
 20
129.7302991462
 10
146.0176302089
 20
129.7286708081
 10
146.0027809411
 20
129.7248923336
 10
145.9875678053
 20
129.7190086373
 10
145.9721716459
 20
129.7110896598
  0
LWPOLYLINE
  5
534
100
AcDbEntity
  8
RACCORDO
100
AcDbPolyline
 62
250
  6
CONTINUOUS
 90
31
 70
0
 10
150.2520038184
 20
126.8944510752
 10
150.2578123691
 20
126.8912079515
 10
150.2636906562
 20
126.8881235688
 10
150.269614184
 20
126.8851925395
 10
150.2754777473
 20
126.882446167
 10
150.2813376538
 20
126.8798371598
 10
150.2874327991
 20
126.8772570433
 10
150.293814203
 20
126.8746998155
 10
150.300428916
 20
126.8721913987
 10
150.307384298
 20
126.8696941103
 10
150.3146816966
 20
126.8672286167
 10
150.3223209676
 20
126.8648088144
 10
150.3304169192
 20
126.862403145
 10
150.3389931496
 20
126.8600355598
 10
150.3480237302
 20
126.8577405222
 10
150.3575513286
 20
126.8555164191
 10
150.3675877144
 20
126.8533946527
 10
150.3780944718
 20
126.8514187029
 10
150.3890319435
 20
126.8496094363
 10
150.4003600768
 20
126.8480015213
 10
150.4120523625
 20
126.8466351816
 10
150.4240782419
 20
126.8455398688
 10
150.4363681437
 20
126.8447536485
 10
150.4488767553
 20
126.8443135022
 10
150.4615932977
 20
126.8442539755
 10
150.4744232704
 20
126.844610113
 10
150.4872782709
 20
126.8454242844
 10
150.5001273113
 20
126.8467545369
 10
150.5128617555
 20
126.8486485756
 10
150.5253050486
 20
126.8511307504
 10
150.5372931347
 20
126.8542239483
  0
LINE
  5
535
100
AcDbEntity
  8
RACCORDO
100
AcDbLine
 62
250
  6
CONTINUOUS
 10
134.805028327
 20
135.8133275674
 11
134.8621067723
 21
135.7803711885
  0
LINE
  5
536
100
AcDbEntity
  8
RACCORDO
100
AcDbLine
 62
250
  6
CONTINUOUS
 10
150.1949253732
 20
126.9273938937
 11
150.2520038184
 21
126.8944375148
  0
LINE
  5
537
100
AcDbEntity
  8
0
100
AcDbLine
 62
7
  6
CONTINUOUS
 10
149.9961947431
 20
127.1133180448
 11
135.0608374023
 21
135.7368061894
  0
LINE
  5
538
100
AcDbEntity
  8
RACCORDO
100
AcDbLine
 62
250
  6
CONTINUOUS
 10
141.8117242337
 20
131.8601510998
 11
141.8395965582
 21
131.844057969
  0
LINE
  5
539
100
AcDbEntity
  8
ASSI
100
AcDbLine
 62
250
  6
CONTINUOUS
 10
146.2820429075
 20
129.3046567029
 11
146.2602627653
 21
129.317232284
  0
LINE
  5
53A
100
AcDbEntity
  8
RACCORDO
100
AcDbLine
 62
250
  6
CONTINUOUS
 10
146.436945366
 20
129.3442763302
 11
150.3652333105
 21
127.0761681173
  0
LINE
  5
53B
100
AcDbEntity
  8
ASSI
100
AcDbLine
 62
250
  6
CONTINUOUS
 10
145.9721716459
 20
129.7110896598
 11
142.1205188463
 21
131.9349857138
  0
LINE
  5
53C
100
AcDbEntity
  8
ASSI
100
AcDbLine
 62
7
  6
CONTINUOUS
 10
146.072176478
 20
129.7209978954
 11
142.2205236784
 21
131.9448939493
  0
LINE
  5
53D
100
AcDbEntity
  8
RACCORDO
100
AcDbLine
 62
7
  6
CONTINUOUS
 10
151.2966616986
 20
127.6193385433
 11
147.3730582216
 21
129.8847780166
  0
LINE
  5
53E
100
AcDbEntity
  8
RACCORDO
100
AcDbLine
 62
7
  6
CONTINUOUS
 10
139.8052942674
 20
134.2543100774
 11
135.8816907904
 21
136.5197495507
  0
LINE
  5
53F
100
AcDbEntity
  8
ASSI
100
AcDbLine
 62
250
  6
CONTINUOUS
 10
144.1129555657
 20
132.4487642914
 11
147.9932664316
 21
130.2083214291
  0
LINE
  5
540
100
AcDbEntity
  8
ASSI
100
AcDbLine
 62
250
  6
CONTINUOUS
 10
151.2768700894
 20
128.3216199394
 11
149.7496662236
 21
129.2034083111
  0
LINE
  5
541
100
AcDbEntity
  8
ASSI
100
AcDbLine
 62
250
  6
CONTINUOUS
 10
142.1005273072
 20
133.6199252553
 11
140.5733234414
 21
134.501713627
  0
LINE
  5
542
100
AcDbEntity
  8
ASSI
100
AcDbLine
 62
7
  6
CONTINUOUS
 10
151.3744067784
 20
128.3301279706
 11
149.8472029127
 21
129.2119163423
  0
LINE
  5
543
100
AcDbEntity
  8
ASSI
100
AcDbLine
 62
7
  6
CONTINUOUS
 10
142.1980639962
 20
133.6284332865
 11
140.6708601305
 21
134.5102216582
  0
LINE
  5
544
100
AcDbEntity
  8
ASSI
100
AcDbLine
 62
250
  6
CONTINUOUS
 10
144.2520947507
 20
132.5915045653
 11
148.099076221
 21
130.3703056783
  0
LINE
  5
545
100
AcDbEntity
  8
DRAFT
100
AcDbLine
 62
7
  6
CONTINUOUS
 10
150.3514595595
 20
129.5666520483
 11
150.228443582
 21
129.6376799319
  0
LWPOLYLINE
  5
546
100
AcDbEntity
  8
RACCORDO
100
AcDbPolyline
 62
250
  6
CONTINUOUS
 90
30
 70
0
 10
150.3652333105
 20
127.0761681173
 10
150.3700774238
 20
127.0732546662
 10
150.3750973614
 20
127.0700968988
 10
150.380305876
 20
127.0666667335
 10
150.3856743525
 20
127.0629666672
 10
150.3911340792
 20
127.0590380586
 10
150.3966235004
 20
127.054917494
 10
150.4021868156
 20
127.0505663697
 10
150.4079114602
 20
127.0459119732
 10
150.4137800652
 20
127.0409421251
 10
150.4197801771
 20
127.0356491826
 10
150.4259972011
 20
127.0299500536
 10
150.4324219876
 20
127.0238113423
 10
150.4390110611
 20
127.0172366986
 10
150.445786951
 20
127.0101890469
 10
150.4527280808
 20
127.0026411847
 10
150.4597765345
 20
126.9946025563
 10
150.4668929022
 20
126.9860947495
 10
150.4740260076
 20
126.9771330886
 10
150.4811271945
 20
126.9677188248
 10
150.4881549034
 20
126.9578619522
 10
150.4950404417
 20
126.9476019234
 10
150.5017279583
 20
126.9369573714
 10
150.508180776
 20
126.9259177015
 10
150.5143195919
 20
126.9145447943
 10
150.5200624091
 20
126.9028921037
 10
150.5253425434
 20
126.8909548551
 10
150.5300627675
 20
126.8788006501
 10
150.5341117022
 20
126.8665681671
 10
150.5373856898
 20
126.8543861569
  0
LWPOLYLINE
  5
547
100
AcDbEntity
  8
ASSI
100
AcDbPolyline
 62
250
  6
CONTINUOUS
 90
16
 70
0
 10
142.1005273072
 20
133.6199252553
 10
142.1152292474
 20
133.6108516749
 10
142.1298261618
 20
133.6000858207
 10
142.1441593038
 20
133.5877170362
 10
142.1580775874
 20
133.5738453436
 10
142.1714118656
 20
133.5586077123
 10
142.183981551
 20
133.5421851271
 10
142.1956500936
 20
133.5247322197
 10
142.2062663826
 20
133.5064492069
 10
142.2156601599
 20
133.4876229038
 10
142.2237165809
 20
133.4685067271
 10
142.2303742826
 20
133.4492732323
 10
142.2355744241
 20
133.4301002493
 10
142.2392601836
 20
133.4111881751
 10
142.2413860101
 20
133.3927578727
 10
142.2419271243
 20
133.3750135882
  0
LWPOLYLINE
  5
548
100
AcDbEntity
  8
RACCORDO
100
AcDbPolyline
 62
250
  6
CONTINUOUS
 90
25
 70
0
 10
138.8359210283
 20
133.7330125196
 10
138.8430760944
 20
133.7285560027
 10
138.8503225486
 20
133.7235962517
 10
138.8576390715
 20
133.7181263254
 10
138.8649702449
 20
133.7121688727
 10
138.8723243543
 20
133.7056979038
 10
138.879768872
 20
133.6986207991
 10
138.8873106015
 20
133.6908816513
 10
138.8948685559
 20
133.6825115144
 10
138.9023712526
 20
133.6735434069
 10
138.9097754925
 20
133.6639851715
 10
138.9170360177
 20
133.6538486646
 10
138.9240797462
 20
133.643189869
 10
138.9308573069
 20
133.6320407419
 10
138.9373229474
 20
133.6204303824
 10
138.9434130655
 20
133.6084244951
 10
138.9490525623
 20
133.5961334737
 10
138.9542274961
 20
133.5835454749
 10
138.958946681
 20
133.5705485792
 10
138.9631320193
 20
133.5572301685
 10
138.9667209928
 20
133.543636938
 10
138.9696831201
 20
133.5296131039
 10
138.9719122239
 20
133.5151888997
 10
138.9732709444
 20
133.5005756481
 10
138.9736401717
 20
133.4859259304
  0
LWPOLYLINE
  5
549
100
AcDbEntity
  8
ASSI
100
AcDbPolyline
 62
250
  6
CONTINUOUS
 90
3
 70
0
 10
145.7021952411
 20
133.2337532523
 10
145.7231545799
 20
133.2153000494
 10
145.7473543031
 20
133.1973004274
  0
LWPOLYLINE
  5
54A
100
AcDbEntity
  8
ASSI
100
AcDbPolyline
 62
250
  6
CONTINUOUS
 90
7
 70
0
 10
150.9578910876
 20
131.2124439728
 10
150.9526199344
 20
131.2183814983
 10
150.9471663853
 20
131.2235513886
 10
150.9416621691
 20
131.2278785613
 10
150.9361924937
 20
131.2313710765
 10
150.9308042516
 20
131.2341151479
 10
150.9255530608
 20
131.2361586258
  0
LWPOLYLINE
  5
54B
100
AcDbEntity
  8
RACCORDO
100
AcDbPolyline
 62
7
  6
CONTINUOUS
 90
12
 70
0
 10
155.5029591948
 20
128.7659760693
 10
155.4519525816
 20
128.8425359826
 10
155.3980718159
 20
128.9167296102
 10
155.3415538377
 20
128.9881723808
 10
155.2826306285
 20
129.0565003691
 10
155.221515226
 20
129.1214265476
 10
155.1584099537
 20
129.1826706023
 10
155.0935477813
 20
129.2399322241
 10
155.0271686998
 20
129.2929231498
 10
154.9594998309
 20
129.3413636565
 10
154.8907973242
 20
129.3849838544
 10
154.8758100804
 20
129.393767574
  0
LWPOLYLINE
  5
54C
100
AcDbEntity
  8
RACCORDO
100
AcDbPolyline
 62
250
  6
CONTINUOUS
 90
11
 70
0
 10
155.4545095087
 20
128.7282259895
 10
155.4004801078
 20
128.8103524377
 10
155.3449499542
 20
128.8876762855
 10
155.2883968974
 20
128.960058839
 10
155.231198847
 20
129.0275075493
 10
155.1738253501
 20
129.0899100946
 10
155.1168581346
 20
129.147070367
 10
155.0606505878
 20
129.1991018821
 10
155.0055073906
 20
129.2461633957
 10
154.9519046684
 20
129.2882650449
 10
154.9001477791
 20
129.3256094634
  0
LWPOLYLINE
  5
54D
100
AcDbEntity
  8
ASSI
100
AcDbPolyline
 62
7
  6
CONTINUOUS
 90
10
 70
0
 10
153.4207022049
 20
132.6639818693
 10
153.4324053082
 20
132.6455071795
 10
153.4427119977
 20
132.626616776
 10
153.4516141257
 20
132.6073906114
 10
153.4590949188
 20
132.5879571767
 10
153.4651844768
 20
132.5683521569
 10
153.4699258916
 20
132.5485150944
 10
153.4733173609
 20
132.5284797695
 10
153.4753457018
 20
132.5083767566
 10
153.4760187606
 20
132.4882898532
  0
LWPOLYLINE
  5
54E
100
AcDbEntity
  8
ASSI
100
AcDbPolyline
 62
250
  6
CONTINUOUS
 90
13
 70
0
 10
154.6360377509
 20
128.2664711375
 10
154.5914068517
 20
128.3370192206
 10
154.5445447419
 20
128.405545907
 10
154.4956166073
 20
128.4718041795
 10
154.444792354
 20
128.535553709
 10
154.3922541098
 20
128.5965661243
 10
154.3381955699
 20
128.6546258161
 10
154.2828090142
 20
128.7095225023
 10
154.2262891638
 20
128.7610591607
 10
154.1688403931
 20
128.8090564832
 10
154.1106674277
 20
128.8533427651
 10
154.0519748156
 20
128.8937551892
 10
153.9929705825
 20
128.9301471116
  0
LINE
  5
54F
100
AcDbEntity
  8
RACCORDO
100
AcDbLine
 62
250
  6
CONTINUOUS
 10
155.5096233141
 20
128.6405130148
 11
155.4545095044
 21
128.7282259871
  0
LINE
  5
550
100
AcDbEntity
  8
RACCORDO
100
AcDbLine
 62
7
  6
CONTINUOUS
 10
155.5647380286
 20
128.6677476835
 11
155.5029591948
 21
128.7659760693
  0
LWPOLYLINE
  5
551
100
AcDbEntity
  8
ASSI
100
AcDbPolyline
 62
250
  6
CONTINUOUS
 90
16
 70
0
 10
153.255287182
 20
132.7148578861
 10
153.245158408
 20
132.7316428839
 10
153.2373115652
 20
132.748651192
 10
153.2317466534
 20
132.7658828102
 10
153.228446453
 20
132.7834428854
 10
153.2274281837
 20
132.8012262709
 10
153.2287435051
 20
132.8189175263
 10
153.2324534368
 20
132.8365315819
 10
153.2384969592
 20
132.8540535075
 10
153.2467426729
 20
132.8711230721
 10
153.2572373403
 20
132.8877122991
 10
153.2699341989
 20
132.9038491651
 10
153.2845615621
 20
132.9192573692
 10
153.3010288674
 20
132.9338448111
 10
153.3194266772
 20
132.947703591
 10
153.3397549915
 20
132.9608337089
  0
LWPOLYLINE
  5
552
100
AcDbEntity
  8
RACCORDO
100
AcDbPolyline
 62
250
  6
CONTINUOUS
 90
10
 70
0
 10
153.4672232379
 20
135.9284264265
 10
153.4732767662
 20
135.915418506
 10
153.4787631133
 20
135.9019375238
 10
153.4836586102
 20
135.8879756863
 10
153.4879522111
 20
135.8734149624
 10
153.4915536765
 20
135.8583596364
 10
153.4943922531
 20
135.8428592435
 10
153.4964085967
 20
135.8267240959
 10
153.4974709912
 20
135.8099838898
 10
153.4974339641
 20
135.792890744
  0
LWPOLYLINE
  5
553
100
AcDbEntity
  8
RACCORDO
100
AcDbPolyline
 62
250
  6
CONTINUOUS
 90
5
 70
0
 10
158.3894938675
 20
132.3891709719
 10
158.3833070254
 20
132.4123886444
 10
158.3754006858
 20
132.4357339173
 10
158.3659067341
 20
132.4588505584
 10
158.3550412021
 20
132.4813174368
  0
LWPOLYLINE
  5
554
100
AcDbEntity
  8
RACCORDO
100
AcDbPolyline
 62
250
  6
CONTINUOUS
 90
9
 70
0
 10
159.0269278265
 20
131.2496633712
 10
159.0243063511
 20
131.2609059229
 10
159.0212246001
 20
131.2723617863
 10
159.0177017405
 20
131.2839208053
 10
159.0137454257
 20
131.2955393136
 10
159.0093550927
 20
131.3072015769
 10
159.0045531703
 20
131.3188370579
 10
158.9993507888
 20
131.3304137852
 10
158.993759049
 20
131.3419019849
  0
LWPOLYLINE
  5
555
100
AcDbEntity
  8
ASSI
100
AcDbPolyline
 62
250
  6
CONTINUOUS
 90
12
 70
0
 10
150.4461374734
 20
135.5939317299
 10
150.4391026399
 20
135.5919388482
 10
150.4320020648
 20
135.5897547376
 10
150.4248384711
 20
135.5873785937
 10
150.4176507691
 20
135.5848227169
 10
150.4104059553
 20
135.582075352
 10
150.4029978413
 20
135.5790913386
 10
150.3954192431
 20
135.5758572745
 10
150.3876817899
 20
135.5723683404
 10
150.3797063407
 20
135.5685775677
 10
150.3714683867
 20
135.5644563225
 10
150.362998706
 20
135.5600014224
  0
LINE
  5
556
100
AcDbEntity
  8
RACCORDO
100
AcDbLine
 62
250
  6
CONTINUOUS
 10
144.9917138693
 20
134.808793912
 11
145.0351690647
 21
134.8208707904
  0
LWPOLYLINE
  5
557
100
AcDbEntity
  8
ASSI
100
AcDbPolyline
 62
250
  6
CONTINUOUS
 90
13
 70
0
 10
150.8315585486
 20
135.3713944316
 10
150.8244180065
 20
135.3694388093
 10
150.8172342336
 20
135.367286303
 10
150.8100101202
 20
135.3649369111
 10
150.80278806
 20
135.3624052165
 10
150.7955318509
 20
135.3596789582
 10
150.7881252986
 20
135.3567087607
 10
150.7805583773
 20
135.353480689
 10
150.7728454998
 20
135.3499902586
 10
150.7649058155
 20
135.346186391
 10
150.756714211
 20
135.3420386249
 10
150.7483020013
 20
135.3375446397
 10
150.7396733825
 20
135.3326888095
  0
LINE
  5
558
100
AcDbEntity
  8
ASSI
100
AcDbLine
 62
250
  6
CONTINUOUS
 10
151.9586532109
 20
136.006896168
 11
150.4461374734
 21
135.5939317299
  0
LINE
  5
559
100
AcDbEntity
  8
ASSI
100
AcDbLine
 62
7
  6
CONTINUOUS
 10
151.8693725584
 20
136.0209702312
 11
150.3568568209
 21
135.6080057931
  0
LWPOLYLINE
  5
55A
100
AcDbEntity
  8
ASSI
100
AcDbPolyline
 62
250
  6
CONTINUOUS
 90
13
 70
0
 10
150.9361835514
 20
135.1195337752
 10
150.9318733759
 20
135.1183735446
 10
150.9275426238
 20
135.1170942039
 10
150.9231912952
 20
135.1156957533
 10
150.9188415944
 20
135.1141898162
 10
150.9144713171
 20
135.1125647691
 10
150.9100138502
 20
135.1107857417
 10
150.9054619493
 20
135.1088563092
 10
150.9008228588
 20
135.1067728964
 10
150.8960516991
 20
135.1044899078
 10
150.8911335105
 20
135.1019921448
 10
150.8860832527
 20
135.099294806
 10
150.8809009257
 20
135.0963978912
  0
LINE
  5
55B
100
AcDbEntity
  8
ASSI
100
AcDbLine
 62
250
  6
CONTINUOUS
 10
151.9638134587
 20
136.0082400588
 11
151.9586532109
 21
136.006896168
  0
LINE
  5
55C
100
AcDbEntity
  8
RACCORDO
100
AcDbLine
 62
250
  6
CONTINUOUS
 10
153.4961694325
 20
135.7756308912
 11
150.9361835514
 21
135.1195337752
  0
LINE
  5
55D
100
AcDbEntity
  8
RACCORDO
100
AcDbLine
 62
250
  6
CONTINUOUS
 10
153.3822652957
 20
136.0251134043
 11
150.8315585486
 21
135.3713944316
  0
LWPOLYLINE
  5
55E
100
AcDbEntity
  8
ASSI
100
AcDbPolyline
 62
250
  6
CONTINUOUS
 90
6
 70
0
 10
153.6956792936
 20
133.6791403422
 10
153.7120856789
 20
133.6823205062
 10
153.7304567374
 20
133.6827548849
 10
153.7491348081
 20
133.6800445445
 10
153.7678205249
 20
133.6742329253
 10
153.7862143989
 20
133.6654131741
  0
LWPOLYLINE
  5
55F
100
AcDbEntity
  8
RACCORDO
100
AcDbPolyline
 62
250
  6
CONTINUOUS
 90
5
 70
0
 10
156.4432373409
 20
134.2577465084
 10
156.4577960389
 20
134.2603094829
 10
156.4714676106
 20
134.259985573
 10
156.4839633573
 20
134.2567816186
 10
156.4907693114
 20
134.2535117779
  0
LWPOLYLINE
  5
560
100
AcDbEntity
  8
RACCORDO
100
AcDbPolyline
 62
250
  6
CONTINUOUS
 90
5
 70
0
 10
156.2662759675
 20
134.3599217875
 10
156.2808346761
 20
134.362484762
 10
156.2945062545
 20
134.3621608487
 10
156.3070020041
 20
134.3589568892
 10
156.3137361029
 20
134.3557284107
  0
LWPOLYLINE
  5
561
100
AcDbEntity
  8
ASSI
100
AcDbPolyline
 62
250
  6
CONTINUOUS
 90
3
 70
0
 10
145.0241425585
 20
133.6784318231
 10
145.0321066914
 20
133.679436896
 10
145.0396883308
 20
133.6801537042
  0
LWPOLYLINE
  5
562
100
AcDbEntity
  8
ASSI
100
AcDbPolyline
 62
250
  6
CONTINUOUS
 90
7
 70
0
 10
146.9909717313
 20
133.7849272852
 10
147.034037627
 20
133.7886440711
 10
147.0788435492
 20
133.7951585
 10
147.1253284523
 20
133.804586236
 10
147.1732942182
 20
133.8170136781
 10
147.2227840935
 20
133.8325531442
 10
147.2740949487
 20
133.8514120342
  0
LWPOLYLINE
  5
563
100
AcDbEntity
  8
ASSI
100
AcDbPolyline
 62
250
  6
CONTINUOUS
 90
9
 70
0
 10
150.3869580595
 20
131.824127341
 10
150.4215573169
 20
131.826957691
 10
150.4561562422
 20
131.8314855502
 10
150.4906812666
 20
131.8376103817
 10
150.5246689793
 20
131.845136677
 10
150.5584421043
 20
131.8540237423
 10
150.5931482044
 20
131.864566034
 10
150.6288860022
 20
131.876879539
 10
150.6655001024
 20
131.8909820179
  0
LWPOLYLINE
  5
564
100
AcDbEntity
  8
ASSI
100
AcDbPolyline
 62
7
  6
CONTINUOUS
 90
7
 70
0
 10
144.9761909108
 20
133.6978083426
 10
144.9597001727
 20
133.6965111894
 10
144.9228734292
 20
133.6907625774
 10
144.8846540962
 20
133.6807139381
 10
144.8468188551
 20
133.6667091581
 10
144.8099374776
 20
133.649144863
 10
144.8001656321
 20
133.6438340543
  0
LINE
  5
565
100
AcDbEntity
  8
ASSI
100
AcDbLine
 62
250
  6
CONTINUOUS
 10
145.0396883308
 20
133.6801537042
 11
145.0468920594
 21
133.6806110541
  0
LWPOLYLINE
  5
566
100
AcDbEntity
  8
ASSI
100
AcDbPolyline
 62
250
  6
CONTINUOUS
 90
16
 70
0
 10
148.8624798993
 20
131.2776060591
 10
148.855329256
 20
131.2771947288
 10
148.848326218
 20
131.2765013867
 10
148.8414707851
 20
131.2755260328
 10
148.8347547057
 20
131.2742410291
 10
148.8281862315
 20
131.2726740136
 10
148.821790118
 20
131.2709079006
 10
148.8155685766
 20
131.2689457257
 10
148.8095193959
 20
131.2667844532
 10
148.8036606966
 20
131.2644978908
 10
148.7979942165
 20
131.2620886481
 10
148.7925182178
 20
131.2595541156
 10
148.787245608
 20
131.2569602714
 10
148.7821806895
 20
131.2543291084
 10
148.7773191599
 20
131.2516386337
 10
148.7726610193
 20
131.2488888474
  0
LWPOLYLINE
  5
567
100
AcDbEntity
  8
ASSI
100
AcDbPolyline
 62
250
  6
CONTINUOUS
 90
16
 70
0
 10
148.7789172559
 20
131.5257864788
 10
148.7671394789
 20
131.5251257603
 10
148.7555400964
 20
131.5239064247
 10
148.7441471712
 20
131.5221782477
 10
148.7329918851
 20
131.519989804
 10
148.722091609
 20
131.5173890567
 10
148.7114496512
 20
131.5144215479
 10
148.7010815312
 20
131.5111298023
 10
148.6910059631
 20
131.5075561956
 10
148.6812275887
 20
131.5037418705
 10
148.6717567354
 20
131.4997243516
 10
148.662606137
 20
131.4955409611
 10
148.6537814964
 20
131.4912297571
 10
148.6452894239
 20
131.4868252976
 10
148.6371375439
 20
131.482358541
 10
148.6293311282
 20
131.4778597888
  0
LINE
  5
568
100
AcDbEntity
  8
ASSI
100
AcDbLine
 62
250
  6
CONTINUOUS
 10
148.8808553273
 20
131.7421971652
 11
150.3869580595
 21
131.824127341
  0
LINE
  5
569
100
AcDbEntity
  8
ASSI
100
AcDbLine
 62
7
  6
CONTINUOUS
 10
148.8097914363
 20
131.7593740378
 11
150.3163271144
 21
131.8413285395
  0
LINE
  5
56A
100
AcDbEntity
  8
ASSI
100
AcDbLine
 62
250
  6
CONTINUOUS
 10
145.0468920594
 20
133.6806110541
 11
146.9910088828
 21
133.7849058344
  0
LINE
  5
56B
100
AcDbEntity
  8
ASSI
100
AcDbLine
 62
7
  6
CONTINUOUS
 10
144.9761909107
 20
133.6978083426
 11
146.9205227872
 21
133.8021148599
  0
LWPOLYLINE
  5
56C
100
AcDbEntity
  8
ASSI
100
AcDbPolyline
 62
250
  6
CONTINUOUS
 90
16
 70
0
 10
145.8381801746
 20
133.4989996647
 10
145.800997815
 20
133.4971249125
 10
145.7672917747
 20
133.4939377892
 10
145.7370620538
 20
133.4894382948
 10
145.7103899104
 20
133.4835865263
 10
145.6871940864
 20
133.4764223867
 10
145.6672308071
 20
133.4680655851
 10
145.6503684573
 20
133.4586004589
 10
145.6367386522
 20
133.4479426707
 10
145.6264924628
 20
133.435958917
 10
145.6194967776
 20
133.4225511622
 10
145.6158847081
 20
133.4078174419
 10
145.6162066599
 20
133.3919185593
 10
145.6206461015
 20
133.3749081156
 10
145.6290195644
 20
133.3567325096
 10
145.6413270485
 20
133.3373917414
  0
LWPOLYLINE
  5
56D
100
AcDbEntity
  8
ASSI
100
AcDbPolyline
 62
250
  6
CONTINUOUS
 90
10
 70
0
 10
148.6292614902
 20
133.2046364125
 10
148.6145774404
 20
133.2039165548
 10
148.5993614213
 20
133.2022412317
 10
148.5836268657
 20
133.1995560114
 10
148.5674705661
 20
133.1958331353
 10
148.5508370013
 20
133.191006179
 10
148.5335091783
 20
133.1849190186
 10
148.515431012
 20
133.1774367474
 10
148.4967174916
 20
133.1684983079
 10
148.4774129454
 20
133.1580160138
  0
LWPOLYLINE
  5
56E
100
AcDbEntity
  8
ASSI
100
AcDbPolyline
 62
250
  6
CONTINUOUS
 90
10
 70
0
 10
148.5478011948
 20
133.4601368092
 10
148.5273886401
 20
133.4591450113
 10
148.506260373
 20
133.4566772219
 10
148.4844163933
 20
133.4527334407
 10
148.461935855
 20
133.4474532234
 10
148.4387396041
 20
133.4406970145
 10
148.4145901796
 20
133.4320461475
 10
148.3894084275
 20
133.421361067
 10
148.3632735017
 20
133.4087813285
 10
148.3361854023
 20
133.394306932
  0
LWPOLYLINE
  5
56F
100
AcDbEntity
  8
ASSI
100
AcDbPolyline
 62
7
  6
CONTINUOUS
 90
17
 70
0
 10
148.8097914362
 20
131.7593740378
 10
148.7928490726
 20
131.7586969746
 10
148.7618150692
 20
131.7584963574
 10
148.7276312537
 20
131.7595494994
 10
148.690725967
 20
131.7619268042
 10
148.6516574298
 20
131.7656395242
 10
148.610700799
 20
131.7706838095
 10
148.5680651824
 20
131.7770605887
 10
148.5240942985
 20
131.7847428586
 10
148.4790724939
 20
131.7936937029
 10
148.4332479638
 20
131.8038784229
 10
148.3868823522
 20
131.8152547951
 10
148.3402742827
 20
131.8277599751
 10
148.2937066081
 20
131.8413278661
 10
148.247455621
 20
131.8558913953
 10
148.2018825114
 20
131.871343869
 10
148.1919570627
 20
131.8748596498
  0
LINE
  5
570
100
AcDbEntity
  8
ASSI
100
AcDbLine
 62
250
  6
CONTINUOUS
 10
148.8385789572
 20
131.7411303324
 11
148.8808553273
 21
131.7421971652
  0
LINE
  5
571
100
AcDbEntity
  8
ASSI
100
AcDbLine
 62
250
  6
CONTINUOUS
 10
150.5804142216
 20
131.3204513445
 11
148.8624798993
 21
131.2776060591
  0
LINE
  5
572
100
AcDbEntity
  8
ASSI
100
AcDbLine
 62
250
  6
CONTINUOUS
 10
150.8156888323
 20
131.5765835661
 11
148.7789172559
 21
131.5257864788
  0
LINE
  5
573
100
AcDbEntity
  8
ASSI
100
AcDbLine
 62
250
  6
CONTINUOUS
 10
149.6439055497
 20
133.2292476753
 11
148.6292614902
 21
133.2046364125
  0
LINE
  5
574
100
AcDbEntity
  8
ASSI
100
AcDbLine
 62
250
  6
CONTINUOUS
 10
147.501199951
 20
133.2818616628
 11
145.9196404701
 21
133.243499268
  0
LINE
  5
575
100
AcDbEntity
  8
ASSI
100
AcDbLine
 62
250
  6
CONTINUOUS
 10
149.8277663229
 20
133.4911837146
 11
148.5478011948
 21
133.4601368092
  0
LINE
  5
576
100
AcDbEntity
  8
ASSI
100
AcDbLine
 62
250
  6
CONTINUOUS
 10
147.4197396555
 20
133.5373620595
 11
145.8381801746
 21
133.4989996647
  0
LWPOLYLINE
  5
577
100
AcDbEntity
  8
ASSI
100
AcDbPolyline
 62
250
  6
CONTINUOUS
 90
5
 70
0
 10
148.8102243825
 20
131.7593983637
 10
148.8229652997
 20
131.7594238854
 10
148.84271409
 20
131.7568231854
 10
148.8621148414
 20
131.7510499749
 10
148.8808553273
 20
131.7421971652
  0
LWPOLYLINE
  5
578
100
AcDbEntity
  8
ASSI
100
AcDbPolyline
 62
250
  6
CONTINUOUS
 90
5
 70
0
 10
150.316467375
 20
131.8413360883
 10
150.3290692776
 20
131.8413539985
 10
150.3488177098
 20
131.8387531713
 10
150.3682180377
 20
131.8329799727
 10
150.3869580595
 20
131.824127341
  0
LWPOLYLINE
  5
579
100
AcDbEntity
  8
ASSI
100
AcDbPolyline
 62
250
  6
CONTINUOUS
 90
5
 70
0
 10
144.9764109452
 20
133.6978203468
 10
144.9905721871
 20
133.6977543252
 10
145.0097879025
 20
133.6950196303
 10
145.0286573068
 20
133.6892759504
 10
145.0468920594
 20
133.6806110541
  0
LWPOLYLINE
  5
57A
100
AcDbEntity
  8
ASSI
100
AcDbPolyline
 62
250
  6
CONTINUOUS
 90
6
 70
0
 10
145.8261883627
 20
133.2567723427
 10
145.809131186
 20
133.2572295396
 10
145.7943455541
 20
133.2565215182
 10
145.7818961592
 20
133.2547847738
 10
145.7717864417
 20
133.252072348
 10
145.7643049049
 20
133.2482895417
  0
LWPOLYLINE
  5
57B
100
AcDbEntity
  8
ASSI
100
AcDbPolyline
 62
250
  6
CONTINUOUS
 90
3
 70
0
 10
148.749924383
 20
131.7439194864
 10
148.794935309
 20
131.7417044395
 10
148.8385789572
 20
131.7411303324
  0
LWPOLYLINE
  5
57C
100
AcDbEntity
  8
ASSI
100
AcDbPolyline
 62
7
  6
CONTINUOUS
 90
10
 70
0
 10
152.9062062042
 20
131.0824339573
 10
152.8846924712
 20
131.0836800292
 10
152.8635618697
 20
131.0836909281
 10
152.8428143998
 20
131.082466654
 10
152.8222127937
 20
131.0799577154
 10
152.8019943192
 20
131.0762136039
 10
152.7828707794
 20
131.0713827941
 10
152.765079442
 20
131.0655147777
 10
152.7483830392
 20
131.0585600631
 10
152.7327815712
 20
131.0505186503
  0
LWPOLYLINE
  5
57D
100
AcDbEntity
  8
ASSI
100
AcDbPolyline
 62
250
  6
CONTINUOUS
 90
24
 70
0
 10
152.9039648774
 20
132.4834704949
 10
152.9318102772
 20
132.4802703525
 10
152.9598109571
 20
132.4786206484
 10
152.9882232731
 20
132.4785333745
 10
153.0167908691
 20
132.4799965391
 10
153.0447446774
 20
132.4829741666
 10
153.0720631183
 20
132.4875055797
 10
153.0987677714
 20
132.4935514557
 10
153.1241543079
 20
132.5009578505
 10
153.1481956925
 20
132.5097638547
 10
153.1709189604
 20
132.5199303777
 10
153.1917008878
 20
132.5311862032
 10
153.2104873442
 20
132.5435643524
 10
153.2273324601
 20
132.5570318042
 10
153.2417754035
 20
132.5712182796
 10
153.2537449906
 20
132.5861401164
 10
153.2633124053
 20
132.6017809768
 10
153.2702303662
 20
132.6177215682
 10
153.2744282188
 20
132.633968904
 10
153.2759766177
 20
132.6505159708
 10
153.2748402452
 20
132.6669224357
 10
153.2710073289
 20
132.6830415211
 10
153.2644896411
 20
132.6990200045
 10
153.255287182
 20
132.7148578861
  0
LWPOLYLINE
  5
57E
100
AcDbEntity
  8
ASSI
100
AcDbPolyline
 62
250
  6
CONTINUOUS
 90
16
 70
0
 10
148.6362655933
 20
131.1673268398
 10
148.6225025208
 20
131.1689896892
 10
148.6073686902
 20
131.1713297765
 10
148.5910242088
 20
131.1743223452
 10
148.5736416642
 20
131.1779358079
 10
148.5554052515
 20
131.1821318861
 10
148.5365089672
 20
131.1868659107
 10
148.5171535311
 20
131.1920875141
 10
148.4975430271
 20
131.1977415595
 10
148.477883761
 20
131.203768537
 10
148.4583759571
 20
131.2101072783
 10
148.4392339027
 20
131.2166883711
 10
148.420680876
 20
131.2234344286
 10
148.4029171099
 20
131.2302711449
 10
148.3861195797
 20
131.2371288458
 10
148.3704612151
 20
131.2439355196
  0
LWPOLYLINE
  5
57F
100
AcDbEntity
  8
ASSI
100
AcDbPolyline
 62
250
  6
CONTINUOUS
 90
13
 70
0
 10
148.3648805992
 20
130.2936969985
 10
148.3474709361
 20
130.2958801153
 10
148.327984004
 20
130.2991106683
 10
148.3067412706
 20
130.303335365
 10
148.2840931688
 20
130.308484513
 10
148.2604133167
 20
130.3144731689
 10
148.236092354
 20
130.3212025401
 10
148.2115314959
 20
130.3285616146
 10
148.1871359161
 20
130.3364289924
 10
148.1633080639
 20
130.344674887
 10
148.1404410217
 20
130.3531632681
 10
148.1189120211
 20
130.3617541055
 10
148.099076221
 20
130.3703056783
  0
LWPOLYLINE
  5
580
100
AcDbEntity
  8
ASSI
100
AcDbPolyline
 62
250
  6
CONTINUOUS
 90
4
 70
0
 10
148.1919274087
 20
131.8748698769
 10
148.1913140969
 20
131.8749562574
 10
148.1883905563
 20
131.8734264223
 10
148.184482267
 20
131.8690057915
  0
LWPOLYLINE
  5
581
100
AcDbEntity
  8
ASSI
100
AcDbPolyline
 62
250
  6
CONTINUOUS
 90
24
 70
0
 10
152.8097940929
 20
132.2160166979
 10
152.850224855
 20
132.2088821055
 10
152.8915549671
 20
132.2037450923
 10
152.9334889468
 20
132.2006423856
 10
152.9757269944
 20
132.1995961688
 10
153.0179671351
 20
132.2006139228
 10
153.0599073777
 20
132.2036883721
 10
153.1012478821
 20
132.2087975381
 10
153.1416930845
 20
132.2159048939
 10
153.1809538109
 20
132.2249596231
 10
153.2187493628
 20
132.235896985
 10
153.2548095404
 20
132.2486387853
 10
153.2888765536
 20
132.2630939338
 10
153.3207068465
 20
132.2791590874
 10
153.3500728507
 20
132.2967193907
 10
153.3767646255
 20
132.315649306
 10
153.4005913487
 20
132.3358135081
 10
153.4213826572
 20
132.3570678288
 10
153.4389898842
 20
132.3792602893
 10
153.4532871501
 20
132.4022322156
 10
153.4641722541
 20
132.4258193819
 10
153.4715673829
 20
132.44985316
 10
153.4754196682
 20
132.474161692
 10
153.4760187648
 20
132.4882898532
  0
LWPOLYLINE
  5
582
100
AcDbEntity
  8
ASSI
100
AcDbPolyline
 62
250
  6
CONTINUOUS
 90
27
 70
0
 10
150.9068081757
 20
131.3839576592
 10
150.8993035873
 20
131.3853902981
 10
150.8918379979
 20
131.3866136922
 10
150.8844147824
 20
131.3876275947
 10
150.8770864426
 20
131.3884245885
 10
150.8698057633
 20
131.38901181
 10
150.8624255636
 20
131.3894109405
 10
150.8549121726
 20
131.3896326032
 10
150.8473013067
 20
131.3896661175
 10
150.8395490801
 20
131.3895012427
 10
150.8316562154
 20
131.3891405986
 10
150.8236216924
 20
131.3885815716
 10
150.8153983185
 20
131.3878060882
 10
150.8069789705
 20
131.3868142227
 10
150.7983675264
 20
131.3856060077
 10
150.7895322666
 20
131.3841633621
 10
150.7804638132
 20
131.3824829622
 10
150.7711645536
 20
131.3805685889
 10
150.7616191865
 20
131.3784129743
 10
150.7518212193
 20
131.3760116598
 10
150.7417661386
 20
131.3733704314
 10
150.7314407376
 20
131.3704976794
 10
150.7208420527
 20
131.3673905096
 10
150.7099588179
 20
131.3640546999
 10
150.6987654374
 20
131.3605120193
 10
150.6872638596
 20
131.3567640032
 10
150.6632287751
 20
131.3486874333
  0
LWPOLYLINE
  5
583
100
AcDbEntity
  8
ASSI
100
AcDbPolyline
 62
250
  6
CONTINUOUS
 90
5
 70
0
 10
145.9196404701
 20
133.243499268
 10
145.8925013856
 20
133.2488094101
 10
145.8678555985
 20
133.2526902256
 10
145.8457247526
 20
133.2552762337
 10
145.8261883627
 20
133.2567723427
  0
LWPOLYLINE
  5
584
100
AcDbEntity
  8
ASSI
100
AcDbPolyline
 62
250
  6
CONTINUOUS
 90
21
 70
0
 10
150.9220377447
 20
131.2371646303
 10
150.9185423466
 20
131.237891916
 10
150.9150711591
 20
131.2383500553
 10
150.9116482139
 20
131.2385569581
 10
150.9082579548
 20
131.2385144448
 10
150.9048354075
 20
131.2382047699
 10
150.9013486466
 20
131.2376438394
 10
150.8978137765
 20
131.2368280579
 10
150.894223253
 20
131.2357086008
 10
150.8905581109
 20
131.2343022289
 10
150.886808999
 20
131.2326086964
 10
150.8829695992
 20
131.230557333
 10
150.8790074897
 20
131.2281672464
 10
150.874906599
 20
131.2254431159
 10
150.8706670915
 20
131.2222994505
 10
150.8662426554
 20
131.2187583947
 10
150.8616037709
 20
131.2148341144
 10
150.8567525424
 20
131.2104390415
 10
150.8516261828
 20
131.2056011157
 10
150.8461760541
 20
131.2003460965
 10
150.8342001349
 20
131.1883819839
  0
LINE
  5
585
100
AcDbEntity
  8
ASSI
100
AcDbLine
 62
250
  6
CONTINUOUS
 10
148.1416110503
 20
131.8806836662
 11
148.1844822668
 21
131.8690057915
  0
LWPOLYLINE
  5
586
100
AcDbEntity
  8
ASSI
100
AcDbPolyline
 62
250
  6
CONTINUOUS
 90
3
 70
0
 10
148.0189309429
 20
131.9137033792
 10
148.0588499656
 20
131.902469838
 10
148.1416110503
 20
131.8806836662
  0
LINE
  5
587
100
AcDbEntity
  8
ASSI
100
AcDbLine
 62
250
  6
CONTINUOUS
 10
150.9255530608
 20
131.2361586258
 11
150.9220377447
 21
131.2371646303
  0
LWPOLYLINE
  5
588
100
AcDbEntity
  8
ASSI
100
AcDbPolyline
 62
250
  6
CONTINUOUS
 90
11
 70
0
 10
148.2739596024
 20
131.8390245418
 10
148.3197477271
 20
131.8252067444
 10
148.3663273762
 20
131.8121082125
 10
148.4136066632
 20
131.7997915657
 10
148.4613099287
 20
131.7884446618
 10
148.5095659297
 20
131.7780258265
 10
148.5582459092
 20
131.7685767343
 10
148.6066879373
 20
131.760410266
 10
148.6550478128
 20
131.7535112768
 10
148.7031697369
 20
131.7478949117
 10
148.749924383
 20
131.7439194864
  0
LINE
  5
589
100
AcDbEntity
  8
ASSI
100
AcDbLine
 62
250
  6
CONTINUOUS
 10
148.2288711156
 20
131.8536242242
 11
148.2739596024
 21
131.8390245418
  0
LWPOLYLINE
  5
58A
100
AcDbEntity
  8
ASSI
100
AcDbPolyline
 62
250
  6
CONTINUOUS
 90
3
 70
0
 10
147.9443075221
 20
131.9380046682
 10
147.9803684929
 20
131.9255901233
 10
148.0189309429
 20
131.9137033792
  0
LINE
  5
58B
100
AcDbEntity
  8
ASSI
100
AcDbLine
 62
7
  6
CONTINUOUS
 10
148.1919570627
 20
131.8748596498
 11
148.1919274087
 21
131.8748698769
  0
LINE
  5
58C
100
AcDbEntity
  8
ASSI
100
AcDbLine
 62
250
  6
CONTINUOUS
 10
148.1844822668
 20
131.8690057915
 11
148.2288711156
 21
131.8536242242
  0
LINE
  5
58D
100
AcDbEntity
  8
ASSI
100
AcDbLine
 62
7
  6
CONTINUOUS
 10
148.1919274093
 20
131.8748698767
 11
148.1255105109
 21
131.8981641457
  0
LWPOLYLINE
  5
58E
100
AcDbEntity
  8
ASSI
100
AcDbPolyline
 62
7
  6
CONTINUOUS
 90
8
 70
0
 10
148.1255105109
 20
131.8981641457
 10
148.0907812239
 20
131.9104672088
 10
148.0580758631
 20
131.922562781
 10
148.0275108226
 20
131.9345769194
 10
147.9990084997
 20
131.9466731463
 10
147.9729348648
 20
131.9587789203
 10
147.9493617365
 20
131.9707929703
 10
147.9325829581
 20
131.9801075238
  0
LWPOLYLINE
  5
58F
100
AcDbEntity
  8
ASSI
100
AcDbPolyline
 62
250
  6
CONTINUOUS
 90
8
 70
0
 10
140.6664591833
 20
134.5125482777
 10
140.6551746015
 20
134.5167992778
 10
140.6429865649
 20
134.5191240583
 10
140.6300256625
 20
134.5194976975
 10
140.6164307811
 20
134.5179161857
 10
140.6023475894
 20
134.5143964692
 10
140.5879269733
 20
134.5089762585
 10
140.5733234414
 20
134.501713627
  0
LWPOLYLINE
  5
590
100
AcDbEntity
  8
RACCORDO
100
AcDbPolyline
 62
250
  6
CONTINUOUS
 90
7
 70
0
 10
154.0566765123
 20
129.8667247664
 10
154.0472359265
 20
129.8709143953
 10
154.0359115875
 20
129.8733207724
 10
154.0236818764
 20
129.8734419171
 10
154.0107514261
 20
129.8712758039
 10
153.9973365836
 20
129.8668586856
 10
153.9836618028
 20
129.8602644798
  0
LWPOLYLINE
  5
591
100
AcDbEntity
  8
RACCORDO
100
AcDbPolyline
 62
250
  6
CONTINUOUS
 90
7
 70
0
 10
146.4943397949
 20
134.2331233618
 10
146.4848578958
 20
134.2373366914
 10
146.4735340955
 20
134.2397427575
 10
146.46130525
 20
134.2398634024
 10
146.4483759836
 20
134.2376966056
 10
146.4349626519
 20
134.233278615
 10
146.4212897089
 20
134.226683348
  0
LWPOLYLINE
  5
592
100
AcDbEntity
  8
RACCORDO
100
AcDbPolyline
 62
250
  6
CONTINUOUS
 90
7
 70
0
 10
145.6753946602
 20
134.7059721706
 10
145.6658132916
 20
134.710242779
 10
145.6544892224
 20
134.712648999
 10
145.6422599449
 20
134.7127698926
 10
145.629330088
 20
134.7106034369
 10
145.615916003
 20
134.7061858826
 10
145.6022421434
 20
134.6995911472
  0
LWPOLYLINE
  5
593
100
AcDbEntity
  8
ASSI
100
AcDbPolyline
 62
250
  6
CONTINUOUS
 90
7
 70
0
 10
147.9324998948
 20
131.9801555633
 10
147.9252989031
 20
131.98375346
 10
147.9124804767
 20
131.9878031188
 10
147.8986115966
 20
131.9894776626
 10
147.8838743985
 20
131.9887550919
 10
147.8684624284
 20
131.9856448887
 10
147.8525780925
 20
131.9801878924
  0
LWPOLYLINE
  5
594
100
AcDbEntity
  8
ASSI
100
AcDbPolyline
 62
250
  6
CONTINUOUS
 90
7
 70
0
 10
145.8547199214
 20
133.1798396778
 10
145.8475299714
 20
133.1834311842
 10
145.8347115128
 20
133.1874808337
 10
145.8208426037
 20
133.1891553728
 10
145.8061053852
 20
133.1884328097
 10
145.7906934019
 20
133.1853226337
 10
145.7748090602
 20
133.1798656911
  0
LWPOLYLINE
  5
595
100
AcDbEntity
  8
RACCORDO
100
AcDbPolyline
 62
250
  6
CONTINUOUS
 90
4
 70
0
 10
146.4515238412
 20
134.2099394006
 10
146.4438744909
 20
134.2140174346
 10
146.4362711334
 20
134.2181685808
 10
146.4287428727
 20
134.2223905519
  0
LWPOLYLINE
  5
596
100
AcDbEntity
  8
ASSI
100
AcDbPolyline
 62
250
  6
CONTINUOUS
 90
4
 70
0
 10
147.8525777185
 20
131.9801881083
 10
147.8805716949
 20
131.9650873495
 10
147.9111527854
 20
131.9510609953
 10
147.9443075221
 20
131.9380046682
  0
LWPOLYLINE
  5
597
100
AcDbEntity
  8
RACCORDO
100
AcDbPolyline
 62
7
  6
CONTINUOUS
 90
13
 70
0
 10
145.6754081456
 20
134.7059643815
 10
145.620576076
 20
134.7358789159
 10
145.5521836574
 20
134.7683363922
 10
145.4840378178
 20
134.7952998523
 10
145.4162806938
 20
134.8166827013
 10
145.3492417642
 20
134.8323682542
 10
145.2834575856
 20
134.8422653768
 10
145.2190833488
 20
134.8463986505
 10
145.1563907988
 20
134.8448010712
 10
145.0960979769
 20
134.8376019415
 10
145.0385924691
 20
134.8250585891
 10
144.9839372862
 20
134.8074225011
 10
144.9589699957
 20
134.7973119093
  0
LINE
  5
598
100
AcDbEntity
  8
ASSI
100
AcDbLine
 62
7
  6
CONTINUOUS
 10
151.5299980425
 20
129.2649561392
 11
150.7097288857
 21
129.73856927
  0
LINE
  5
599
100
AcDbEntity
  8
ASSI
100
AcDbLine
 62
250
  6
CONTINUOUS
 10
144.6339070213
 20
133.4013750811
 11
148.3704612151
 21
131.2439355196
  0
LINE
  5
59A
100
AcDbEntity
  8
ASSI
100
AcDbLine
 62
250
  6
CONTINUOUS
 10
144.7563815084
 20
133.5537373427
 11
148.4929357022
 21
131.3962977812
  0
LINE
  5
59B
100
AcDbEntity
  8
ASSI
100
AcDbLine
 62
250
  6
CONTINUOUS
 10
151.037656513
 20
130.0845890897
 11
151.1552188032
 21
130.0167100967
  0
LINE
  5
59C
100
AcDbEntity
  8
ASSI
100
AcDbLine
 62
250
  6
CONTINUOUS
 10
148.6293311282
 20
131.4778597888
 11
144.8976419484
 21
133.6324903522
  0
LINE
  5
59D
100
AcDbEntity
  8
ASSI
100
AcDbLine
 62
250
  6
CONTINUOUS
 10
145.7748090602
 20
133.1798656911
 11
147.8525777185
 21
131.9801881083
  0
LINE
  5
59E
100
AcDbEntity
  8
ASSI
100
AcDbLine
 62
7
  6
CONTINUOUS
 10
145.854731077
 20
133.1798332381
 11
147.9324998948
 21
131.9801555633
  0
LINE
  5
59F
100
AcDbEntity
  8
ASSI
100
AcDbLine
 62
250
  6
CONTINUOUS
 10
148.7789172559
 20
131.5257864788
 11
148.1844822668
 21
131.8690057915
  0
LINE
  5
5A0
100
AcDbEntity
  8
ASSI
100
AcDbLine
 62
250
  6
CONTINUOUS
 10
145.6413270485
 20
133.3373917414
 11
145.0468920594
 21
133.6806110541
  0
LINE
  5
5A1
100
AcDbEntity
  8
ASSI
100
AcDbLine
 62
7
  6
CONTINUOUS
 10
144.781933118
 20
134.2484847022
 11
145.6711047641
 21
133.7350881377
  0
LINE
  5
5A2
100
AcDbEntity
  8
ASSI
100
AcDbLine
 62
7
  6
CONTINUOUS
 10
151.524908126
 20
130.3551754419
 11
153.9929705825
 21
128.9301471116
  0
LINE
  5
5A3
100
AcDbEntity
  8
ASSI
100
AcDbLine
 62
250
  6
CONTINUOUS
 10
150.8156888323
 20
131.5765835661
 11
150.3869580595
 21
131.824127341
  0
LINE
  5
5A4
100
AcDbEntity
  8
ASSI
100
AcDbLine
 62
250
  6
CONTINUOUS
 10
147.4197396555
 20
133.5373620595
 11
146.9910088828
 21
133.7849058344
  0
LINE
  5
5A5
100
AcDbEntity
  8
RACCORDO
100
AcDbLine
 62
250
  6
CONTINUOUS
 10
145.6022421434
 20
134.6995911472
 11
146.4287428727
 21
134.2223905519
  0
LINE
  5
5A6
100
AcDbEntity
  8
RACCORDO
100
AcDbLine
 62
7
  6
CONTINUOUS
 10
154.8758618847
 20
129.3937377041
 11
154.0568173803
 21
129.866643736
  0
LINE
  5
5A7
100
AcDbEntity
  8
RACCORDO
100
AcDbLine
 62
7
  6
CONTINUOUS
 10
145.6753946602
 20
134.7059721706
 11
146.494439165
 21
134.2330661386
  0
LINE
  5
5A8
100
AcDbEntity
  8
ASSI
100
AcDbLine
 62
250
  6
CONTINUOUS
 10
150.6159605669
 20
131.9232454194
 11
148.4774129454
 21
133.1580160138
  0
LINE
  5
5A9
100
AcDbEntity
  8
ASSI
100
AcDbLine
 62
250
  6
CONTINUOUS
 10
150.7338535914
 20
131.98947131
 11
148.6292614902
 21
133.2046364125
  0
LINE
  5
5AA
100
AcDbEntity
  8
ASSI
100
AcDbLine
 62
250
  6
CONTINUOUS
 10
151.2648952377
 20
131.7201049537
 11
150.8293099559
 21
131.9716064362
  0
LINE
  5
5AB
100
AcDbEntity
  8
ASSI
100
AcDbLine
 62
250
  6
CONTINUOUS
 10
147.8738964753
 20
133.6780251399
 11
147.4383111935
 21
133.9295266225
  0
LINE
  5
5AC
100
AcDbEntity
  8
ASSI
100
AcDbLine
 62
7
  6
CONTINUOUS
 10
151.2671042
 20
132.2920331181
 11
149.6439055497
 21
133.2292476753
  0
LWPOLYLINE
  5
5AD
100
AcDbEntity
  8
RACCORDO
100
AcDbPolyline
 62
250
  6
CONTINUOUS
 90
52
 70
0
 10
154.8027093682
 20
129.3873566806
 10
153.976227266
 20
129.8645676555
 10
153.9689189066
 20
129.8689121628
 10
153.9617367246
 20
129.8732980018
 10
153.9546842348
 20
129.877708626
 10
153.9477579224
 20
129.8821605819
 10
153.9409472431
 20
129.8867035085
 10
153.9342503581
 20
129.891336994
 10
153.9276691061
 20
129.8960614503
 10
153.9211984591
 20
129.9009277518
 10
153.9148167196
 20
129.9059516677
 10
153.9085455851
 20
129.9111174288
 10
153.9024451198
 20
129.9164286029
 10
153.8965090095
 20
129.9218964654
 10
153.8907435684
 20
129.9275097409
 10
153.8852278041
 20
129.9332381705
 10
153.8799633162
 20
129.9390936478
 10
153.874948505
 20
129.9450642793
 10
153.8702575792
 20
129.9510841258
 10
153.8659081795
 20
129.9571452764
 10
153.8618826652
 20
129.9632556421
 10
153.8582023224
 20
129.969373016
 10
153.8548765062
 20
129.9754878737
 10
153.8518958616
 20
129.9816097398
 10
153.8492536103
 20
129.9877249809
 10
153.8469498141
 20
129.9938332844
 10
153.8449844112
 20
129.999934963
 10
153.8433504373
 20
130.0060173218
 10
153.8420472324
 20
130.0120776147
 10
153.8410754565
 20
130.0181185878
 10
153.8404301245
 20
130.0241357843
 10
153.8401083816
 20
130.0301282354
 10
153.8401130826
 20
130.0360969099
 10
153.8404478071
 20
130.0420402574
 10
153.8411087441
 20
130.0479591378
 10
153.8420997046
 20
130.0538526912
 10
153.8434357005
 20
130.0597167875
 10
153.8451130148
 20
130.0655540325
 10
153.8471353646
 20
130.0713618204
 10
153.8495289133
 20
130.0771282031
 10
153.8522938183
 20
130.0828601765
 10
153.8554299223
 20
130.0885507447
 10
153.858962917
 20
130.0941669716
 10
153.8628945036
 20
130.0997120194
 10
153.8672229809
 20
130.1051827259
 10
153.8719689374
 20
130.1105366685
 10
153.8771377887
 20
130.1157756348
 10
153.8827241191
 20
130.120897837
 10
153.8887322701
 20
130.1258554897
 10
153.895163689
 20
130.1306326643
 10
153.9020169284
 20
130.1352452892
 10
153.9092919885
 20
130.1396933646
  0
LWPOLYLINE
  5
5AE
100
AcDbEntity
  8
RACCORDO
100
AcDbPolyline
 62
7
  6
CONTINUOUS
 90
7
 70
0
 10
154.0566765246
 20
129.8667247875
 10
154.0542081814
 20
129.8681632816
 10
154.04530386
 20
129.8736032629
 10
154.0381225951
 20
129.878367305
 10
154.0324940656
 20
129.8824552493
 10
154.0283896878
 20
129.8857478769
 10
154.0279333085
 20
129.8861384194
  0
LINE
  5
5AF
100
AcDbEntity
  8
RACCORDO
100
AcDbLine
 62
250
  6
CONTINUOUS
 10
154.8503632512
 20
129.358541456
 11
154.8027093682
 21
129.3873566806
  0
LWPOLYLINE
  5
5B0
100
AcDbEntity
  8
ASSI
100
AcDbPolyline
 62
7
  6
CONTINUOUS
 90
11
 70
0
 10
145.8547199212
 20
133.1798396779
 10
145.8331299519
 20
133.1930014556
 10
145.8151411005
 20
133.2051605675
 10
145.7997163615
 20
133.2166499494
 10
145.7864196862
 20
133.2275423564
 10
145.7751257588
 20
133.2376500487
 10
145.7656902916
 20
133.2468270738
 10
145.7577291313
 20
133.2552311833
 10
145.7510496597
 20
133.2628582684
 10
145.7457076482
 20
133.2694248569
 10
145.7422806593
 20
133.2739209962
  0
LINE
  5
5B1
100
AcDbEntity
  8
ASSI
100
AcDbLine
 62
250
  6
CONTINUOUS
 10
145.7473543031
 20
133.1973004274
 11
145.7748090602
 21
133.1798656911
  0
LINE
  5
5B2
100
AcDbEntity
  8
RACCORDO
100
AcDbLine
 62
250
  6
CONTINUOUS
 10
154.9001477791
 20
129.3256094634
 11
154.8503632512
 21
129.358541456
  0
LWPOLYLINE
  5
5B3
100
AcDbEntity
  8
ASSI
100
AcDbPolyline
 62
250
  6
CONTINUOUS
 90
10
 70
0
 10
151.010023034
 20
131.3388173566
 10
150.9998024275
 20
131.3464536023
 10
150.9890510073
 20
131.3534750682
 10
150.9778453647
 20
131.3598357434
 10
150.9661527234
 20
131.3654594144
 10
150.9541348796
 20
131.3703715573
 10
150.9421356111
 20
131.3746829926
 10
150.9302830565
 20
131.3784147644
 10
150.9185018473
 20
131.3815108932
 10
150.906808793
 20
131.3839614589
  0
LWPOLYLINE
  5
5B4
100
AcDbEntity
  8
RACCORDO
100
AcDbPolyline
 62
250
  6
CONTINUOUS
 90
5
 70
0
 10
153.438817913
 20
135.9739987293
 10
153.4464227971
 20
135.9636558557
 10
153.4537337288
 20
135.9525886989
 10
153.4606838793
 20
135.9408400908
 10
153.4672232379
 20
135.9284264265
  0
LWPOLYLINE
  5
5B5
100
AcDbEntity
  8
ASSI
100
AcDbPolyline
 62
250
  6
CONTINUOUS
 90
12
 70
0
 10
153.4207022049
 20
132.6639818693
 10
153.4165232356
 20
132.6697411931
 10
153.4059094625
 20
132.6816712474
 10
153.3936454423
 20
132.6921758151
 10
153.3798655443
 20
132.7011398034
 10
153.3647207437
 20
132.7084650009
 10
153.3483769709
 20
132.714071151
 10
153.3310132908
 20
132.7178968322
 10
153.3128199403
 20
132.7199001294
 10
153.2939962478
 20
132.7200590933
 10
153.2747484504
 20
132.7183719811
 10
153.2552874307
 20
132.7148572764
  0
LINE
  5
5B6
100
AcDbEntity
  8
ASSI
100
AcDbLine
 62
7
  6
CONTINUOUS
 10
153.4207402532
 20
132.663925849
 11
153.4207022049
 21
132.6639818693
  0
LINE
  5
5B7
100
AcDbEntity
  8
RACCORDO
100
AcDbLine
 62
250
  6
CONTINUOUS
 10
156.5483132296
 20
134.1587777892
 11
156.5413114483
 21
134.1704131664
  0
LWPOLYLINE
  5
5B8
100
AcDbEntity
  8
RACCORDO
100
AcDbPolyline
 62
250
  6
CONTINUOUS
 90
5
 70
0
 10
158.993759049
 20
131.3419019849
 10
158.9878098394
 20
131.3532357813
 10
158.9815361317
 20
131.3643590353
 10
158.9749416749
 20
131.3752713105
 10
158.9680150844
 20
131.3859897981
  0
LWPOLYLINE
  5
5B9
100
AcDbEntity
  8
RACCORDO
100
AcDbPolyline
 62
250
  6
CONTINUOUS
 90
4
 70
0
 10
156.5649189389
 20
134.1234581731
 10
156.560115717
 20
134.1352118558
 10
156.5545878567
 20
134.147006857
 10
156.5483132296
 20
134.1587777892
  0
LINE
  5
5BA
100
AcDbEntity
  8
0
100
AcDbLine
 62
250
  6
CONTINUOUS
 10
149.0340082386
 20
83.5897651461
 11
151.4380615157
 21
84.8361606928
  0
LINE
  5
5BB
100
AcDbEntity
  8
0
100
AcDbLine
 62
7
  6
CONTINUOUS
 10
148.9199676182
 20
83.3552875532
 11
151.3279456283
 21
84.6037179008
  0
LWPOLYLINE
  5
5BC
100
AcDbEntity
  8
0
100
AcDbPolyline
 62
250
  6
CONTINUOUS
 90
16
 70
0
 10
149.0340082386
 20
83.5897651461
 10
148.9947812658
 20
83.5703927778
 10
148.9523042972
 20
83.5534588098
 10
148.9070300738
 20
83.5391436981
 10
148.8594356801
 20
83.5275988479
 10
148.8100334376
 20
83.5189490619
 10
148.7593672379
 20
83.5132879183
 10
148.7079889594
 20
83.510672883
 10
148.6564349994
 20
83.5111271219
 10
148.6052377744
 20
83.5146442338
 10
148.5548727367
 20
83.5211976758
 10
148.5059481245
 20
83.5307145365
 10
148.4591615826
 20
83.5430401489
 10
148.4150378168
 20
83.5579907629
 10
148.3739462188
 20
83.5753934049
 10
148.3362775602
 20
83.5950388848
  0
LWPOLYLINE
  5
5BD
100
AcDbEntity
  8
RACCORDO
100
AcDbPolyline
 62
250
  6
CONTINUOUS
 90
11
 70
0
 10
145.0351690647
 20
134.8208707904
 10
145.0807232063
 20
134.8292353554
 10
145.127893349
 20
134.8337359261
 10
145.1769369138
 20
134.8343390862
 10
145.2289577184
 20
134.8308138366
 10
145.2842617665
 20
134.822701635
 10
145.3424151202
 20
134.809627206
 10
145.4034627444
 20
134.7911712559
 10
145.4672972141
 20
134.7669181393
 10
145.533646044
 20
134.7365054128
 10
145.6022421475
 20
134.6995911495
  0
LINE
  5
5BE
100
AcDbEntity
  8
ASSI
100
AcDbLine
 62
250
  6
CONTINUOUS
 10
151.8868531715
 20
136.0241287435
 11
151.8693725584
 21
136.0209702312
  0
LWPOLYLINE
  5
5BF
100
AcDbEntity
  8
ASSI
100
AcDbPolyline
 62
250
  6
CONTINUOUS
 90
5
 70
0
 10
149.4243788316
 20
135.0725292579
 10
149.3871336848
 20
135.0671227714
 10
149.3491096188
 20
135.0638794172
 10
149.3103403255
 20
135.0627064846
 10
149.2720403502
 20
135.0636070571
  0
LWPOLYLINE
  5
5C0
100
AcDbEntity
  8
ASSI
100
AcDbPolyline
 62
7
  6
CONTINUOUS
 90
6
 70
0
 10
151.9647273322
 20
136.0378018375
 10
151.9543057146
 20
136.0367520825
 10
151.9287686586
 20
136.0334269345
 10
151.9037031908
 20
136.02903678
 10
151.8790981713
 20
136.0235162493
 10
151.8693112437
 20
136.0209534696
  0
LWPOLYLINE
  5
5C1
100
AcDbEntity
  8
ASSI
100
AcDbPolyline
 62
250
  6
CONTINUOUS
 90
12
 70
0
 10
152.0197397913
 20
136.0175147514
 10
152.0144860473
 20
136.0169975493
 10
152.0092927015
 20
136.0164227864
 10
152.0041597539
 20
136.0157904627
 10
151.9991092323
 20
136.0151058442
 10
151.994119109
 20
136.014363665
 10
151.9891232999
 20
136.013548127
 10
151.9841088019
 20
136.0126608757
 10
151.9790886182
 20
136.0117002656
 10
151.9740356747
 20
136.0106455632
 10
151.9689409466
 20
136.0094898572
 10
151.9638134587
 20
136.0082400588
  0
LINE
  5
5C2
100
AcDbEntity
  8
RACCORDO
100
AcDbLine
 62
250
  6
CONTINUOUS
 10
153.2053039223
 20
136.1272886835
 11
152.0197397913
 21
136.0175147514
  0
LINE
  5
5C3
100
AcDbEntity
  8
ASSI
100
AcDbLine
 62
7
  6
CONTINUOUS
 10
153.1465828796
 20
136.1472323913
 11
151.9646976977
 21
136.037799101
  0
LWPOLYLINE
  5
5C4
100
AcDbEntity
  8
RACCORDO
100
AcDbPolyline
 62
250
  6
CONTINUOUS
 90
9
 70
0
 10
146.7806934012
 20
134.1444613795
 10
146.770374269
 20
134.1436138118
 10
146.7600138691
 20
134.1429602933
 10
146.7496076739
 20
134.1425029784
 10
146.739162697
 20
134.1422332799
 10
146.7286803866
 20
134.1421490214
 10
146.7181592944
 20
134.1422523793
 10
146.70760209
 20
134.1425412961
 10
146.6970070147
 20
134.1430141699
  0
LINE
  5
5C5
100
AcDbEntity
  8
RACCORDO
100
AcDbLine
 62
250
  6
CONTINUOUS
 10
153.1465790946
 20
136.1472320408
 11
153.1508902555
 21
136.1474840474
  0
LWPOLYLINE
  5
5C6
100
AcDbEntity
  8
ASSI
100
AcDbPolyline
 62
250
  6
CONTINUOUS
 90
6
 70
0
 10
146.9206631946
 20
133.8021223107
 10
146.9301249482
 20
133.8022499148
 10
146.9457071325
 20
133.8008548237
 10
146.9611495165
 20
133.7974741344
 10
146.9762962797
 20
133.7921402433
 10
146.9909955123
 20
133.7849051171
  0
LINE
  5
5C7
100
AcDbEntity
  8
RACCORDO
100
AcDbLine
 62
250
  6
CONTINUOUS
 10
153.1508902555
 20
136.1474840474
 11
153.1590864728
 21
136.1471735043
  0
LWPOLYLINE
  5
5C8
100
AcDbEntity
  8
RACCORDO
100
AcDbPolyline
 62
250
  6
CONTINUOUS
 90
11
 70
0
 10
146.6970070147
 20
134.1430141699
 10
146.6863758271
 20
134.1436726025
 10
146.6757164717
 20
134.1445193419
 10
146.6650240963
 20
134.1455540628
 10
146.6543035531
 20
134.1467770905
 10
146.6435773431
 20
134.1481921493
 10
146.6328449163
 20
134.1497992797
 10
146.6221068226
 20
134.1515984411
 10
146.611387214
 20
134.1535932357
 10
146.6006694677
 20
134.1557891379
 10
146.5899702064
 20
134.1581806732
  0
LWPOLYLINE
  5
5C9
100
AcDbEntity
  8
ASSI
100
AcDbPolyline
 62
250
  6
CONTINUOUS
 90
23
 70
0
 10
149.1061518566
 20
135.087822074
 10
149.0782684605
 20
135.090037148
 10
149.0498788813
 20
135.0906990775
 10
149.0212400448
 20
135.0898146613
 10
148.9931227282
 20
135.0874042961
 10
148.9655461098
 20
135.0834282458
 10
148.9384910114
 20
135.0779262465
 10
148.9126706752
 20
135.0710379024
 10
148.8881097511
 20
135.0627236011
 10
148.8647835891
 20
135.0530229551
 10
148.8433314816
 20
135.0421944065
 10
148.8238055204
 20
135.0302038599
 10
148.8061536137
 20
135.0170854108
 10
148.7908587774
 20
135.0031997883
 10
148.7779911598
 20
134.9885292237
 10
148.7674806127
 20
134.9730914858
 10
148.7595997077
 20
134.9573006097
 10
148.7544186314
 20
134.9411481579
 10
148.7518671972
 20
134.9246425679
 10
148.7520074174
 20
134.9082231877
 10
148.7548599627
 20
134.8920364665
 10
148.7604041623
 20
134.8759359551
 10
148.7686400163
 20
134.8599216536
  0
LWPOLYLINE
  5
5CA
100
AcDbEntity
  8
ASSI
100
AcDbPolyline
 62
250
  6
CONTINUOUS
 90
3
 70
0
 10
149.2720403502
 20
135.0636070571
 10
149.2346145411
 20
135.0665821626
 10
149.1976580499
 20
135.0716307732
  0
LINE
  5
5CB
100
AcDbEntity
  8
ASSI
100
AcDbLine
 62
250
  6
CONTINUOUS
 10
149.1337859953
 20
135.0840606543
 11
149.1061518566
 21
135.087822074
  0
LWPOLYLINE
  5
5CC
100
AcDbEntity
  8
ASSI
100
AcDbPolyline
 62
250
  6
CONTINUOUS
 90
8
 70
0
 10
149.2053546538
 20
135.1105164447
 10
149.2041036204
 20
135.1107531803
 10
149.1976902864
 20
135.1106256212
 10
149.190876738
 20
135.1083597878
 10
149.1837376257
 20
135.1039805046
 10
149.1763511668
 20
135.0975357517
 10
149.1687982892
 20
135.0890961389
 10
149.1611617436
 20
135.0787541321
  0
LINE
  5
5CD
100
AcDbEntity
  8
ASSI
100
AcDbLine
 62
250
  6
CONTINUOUS
 10
149.1976580499
 20
135.0716307732
 11
149.1337859953
 21
135.0840606543
  0
LWPOLYLINE
  5
5CE
100
AcDbEntity
  8
ASSI
100
AcDbPolyline
 62
250
  6
CONTINUOUS
 90
5
 70
0
 10
150.3203009452
 20
135.57056322
 10
150.3039504208
 20
135.574203835
 10
150.2883684842
 20
135.5750617155
 10
150.2737929869
 20
135.5731237661
 10
150.2604464177
 20
135.568419569
  0
LWPOLYLINE
  5
5CF
100
AcDbEntity
  8
RACCORDO
100
AcDbPolyline
 62
250
  6
CONTINUOUS
 90
16
 70
0
 10
146.5899702064
 20
134.1581806732
 10
146.5793634499
 20
134.1607550197
 10
146.5688355671
 20
134.1635223226
 10
146.558400189
 20
134.1664724367
 10
146.5481722288
 20
134.1695621048
 10
146.5381726797
 20
134.1727920227
 10
146.5283805484
 20
134.1761614945
 10
146.5188477688
 20
134.1796251752
 10
146.5095941041
 20
134.1831792833
 10
146.5005997911
 20
134.1868276002
 10
146.4918574742
 20
134.190536125
 10
146.4833945639
 20
134.1942922723
 10
146.4751836497
 20
134.1981086274
 10
146.4671351441
 20
134.2019889456
 10
146.4592482884
 20
134.2059321915
 10
146.4515238412
 20
134.2099394006
  0
LWPOLYLINE
  5
5D0
100
AcDbEntity
  8
ASSI
100
AcDbPolyline
 62
250
  6
CONTINUOUS
 90
6
 70
0
 10
150.4461374734
 20
135.5939317299
 10
150.4283416962
 20
135.6026021852
 10
150.410259442
 20
135.6084159956
 10
150.3921661516
 20
135.6112846011
 10
150.3743374339
 20
135.6111643053
 10
150.3568572314
 20
135.6080059051
  0
LINE
  5
5D1
100
AcDbEntity
  8
ASSI
100
AcDbLine
 62
250
  6
CONTINUOUS
 10
153.6772396339
 20
133.6352693282
 11
153.6950868631
 21
133.6262701058
  0
LWPOLYLINE
  5
5D2
100
AcDbEntity
  8
ASSI
100
AcDbPolyline
 62
250
  6
CONTINUOUS
 90
3
 70
0
 10
150.3543014998
 20
135.5551977047
 10
150.3371704736
 20
135.5641954427
 10
150.3203009452
 20
135.57056322
  0
LINE
  5
5D3
100
AcDbEntity
  8
ASSI
100
AcDbLine
 62
250
  6
CONTINUOUS
 10
154.0804587458
 20
133.4037612106
 11
153.6950868631
 21
133.6262701058
  0
LINE
  5
5D4
100
AcDbEntity
  8
ASSI
100
AcDbLine
 62
250
  6
CONTINUOUS
 10
150.7396733825
 20
135.3326888095
 11
150.3543014998
 21
135.5551977047
  0
LINE
  5
5D5
100
AcDbEntity
  8
ASSI
100
AcDbLine
 62
250
  6
CONTINUOUS
 10
154.1716354741
 20
133.4428758758
 11
153.7862143989
 21
133.6654131741
  0
LINE
  5
5D6
100
AcDbEntity
  8
ASSI
100
AcDbLine
 62
250
  6
CONTINUOUS
 10
150.8315585486
 20
135.3713944316
 11
150.4461374734
 21
135.5939317299
  0
LWPOLYLINE
  5
5D7
100
AcDbEntity
  8
ASSI
100
AcDbPolyline
 62
250
  6
CONTINUOUS
 90
13
 70
0
 10
154.0804587458
 20
133.4037612106
 10
154.0982008091
 20
133.3926236638
 10
154.1156720475
 20
133.3791635128
 10
154.1326057698
 20
133.363586221
 10
154.14874349
 20
133.3461295691
 10
154.1638388727
 20
133.3270600256
 10
154.1776614934
 20
133.3066686788
 10
154.1900003556
 20
133.2852667939
 10
154.2006671118
 20
133.2631810617
 10
154.2094989386
 20
133.2407486113
 10
154.2163610219
 20
133.2183118645
 10
154.2211486148
 20
133.1962133088
 10
154.2237886369
 20
133.1747902692
  0
LWPOLYLINE
  5
5D8
100
AcDbEntity
  8
ASSI
100
AcDbPolyline
 62
250
  6
CONTINUOUS
 90
13
 70
0
 10
154.1716354741
 20
133.4428758758
 10
154.1886812271
 20
133.4314292682
 10
154.2049097741
 20
133.417432452
 10
154.2200739111
 20
133.4010986358
 10
154.233942648
 20
133.382676627
 10
154.246304727
 20
133.3624470419
 10
154.256971841
 20
133.3407180308
 10
154.2657815013
 20
133.3178205842
 10
154.2725995134
 20
133.2941034911
 10
154.277322021
 20
133.2699280258
 10
154.2798770875
 20
133.2456624451
 10
154.2802257927
 20
133.2216763781
 10
154.2783628248
 20
133.1983351963
  0
LWPOLYLINE
  5
5D9
100
AcDbEntity
  8
ASSI
100
AcDbPolyline
 62
250
  6
CONTINUOUS
 90
6
 70
0
 10
152.0197397913
 20
136.0175147514
 10
152.0072648786
 20
136.0266608787
 10
151.994453226
 20
136.0331830273
 10
151.9814836406
 20
136.0369901701
 10
151.9685371337
 20
136.0380291721
 10
151.9647273322
 20
136.0378018375
  0
LINE
  5
5DA
100
AcDbEntity
  8
RACCORDO
100
AcDbLine
 62
250
  6
CONTINUOUS
 10
158.8875559151
 20
131.4736838884
 11
158.5432748033
 21
131.7425625366
  0
LINE
  5
5DB
100
AcDbEntity
  8
RACCORDO
100
AcDbLine
 62
7
  6
CONTINUOUS
 10
158.9596166497
 20
131.4808751232
 11
158.6153355379
 21
131.7497537714
  0
LWPOLYLINE
  5
5DC
100
AcDbEntity
  8
RACCORDO
100
AcDbPolyline
 62
7
  6
CONTINUOUS
 90
18
 70
0
 10
158.6153086313
 20
131.7497747626
 10
158.6098076903
 20
131.7541668198
 10
158.5931925346
 20
131.7685827437
 10
158.5759675885
 20
131.7854002417
 10
158.5585418831
 20
131.8044811653
 10
158.5414844628
 20
131.825383174
 10
158.5250663964
 20
131.8478858988
 10
158.5095331217
 20
131.8717485354
 10
158.4953023212
 20
131.8963523032
 10
158.4825567156
 20
131.9213112249
 10
158.4713829074
 20
131.9463475795
 10
158.4619264121
 20
131.9709563092
 10
158.4542075207
 20
131.9947990664
 10
158.4481864651
 20
132.0176279302
 10
158.4438203399
 20
132.0390909523
 10
158.4409938715
 20
132.0589929574
 10
158.439571502
 20
132.0770734326
 10
158.4393163289
 20
132.0880729485
  0
LINE
  5
5DD
100
AcDbEntity
  8
RACCORDO
100
AcDbLine
 62
250
  6
CONTINUOUS
 10
158.8985611937
 20
131.4648035162
 11
158.8875559151
 21
131.4736838884
  0
LWPOLYLINE
  5
5DE
100
AcDbEntity
  8
RACCORDO
100
AcDbPolyline
 62
250
  6
CONTINUOUS
 90
16
 70
0
 10
158.5432746791
 20
131.7425624645
 10
158.5269711664
 20
131.7564271121
 10
158.5111941684
 20
131.7716995516
 10
158.4960758912
 20
131.7882112666
 10
158.4817186102
 20
131.8058115116
 10
158.4682515256
 20
131.8243014034
 10
158.4558186727
 20
131.8434231203
 10
158.4445760819
 20
131.8628317651
 10
158.4344759177
 20
131.8824955243
 10
158.4253899023
 20
131.9026498483
 10
158.4174086319
 20
131.9231741047
 10
158.4106392104
 20
131.9438707452
 10
158.4050952234
 20
131.9648705253
 10
158.4009037425
 20
131.9860750167
 10
158.39823465
 20
132.0071594349
 10
158.3972171905
 20
132.0278801849
  0
LWPOLYLINE
  5
5DF
100
AcDbEntity
  8
RACCORDO
100
AcDbPolyline
 62
250
  6
CONTINUOUS
 90
3
 70
0
 10
158.9189666234
 20
131.4460294682
 10
158.9090381467
 20
131.4555521574
 10
158.8985611937
 20
131.4648035162
  0
LWPOLYLINE
  5
5E0
100
AcDbEntity
  8
RACCORDO
100
AcDbPolyline
 62
250
  6
CONTINUOUS
 90
4
 70
0
 10
158.3141804018
 20
132.5450524002
 10
158.2978684825
 20
132.5646688053
 10
158.2802048157
 20
132.5832117153
 10
158.261252166
 20
132.6003907457
  0
LWPOLYLINE
  5
5E1
100
AcDbEntity
  8
RACCORDO
100
AcDbPolyline
 62
250
  6
CONTINUOUS
 90
7
 70
0
 10
158.9680150844
 20
131.3859897981
 10
158.9608058529
 20
131.3964365816
 10
158.9532992123
 20
131.4066323765
 10
158.945370127
 20
131.4167237846
 10
158.9370286052
 20
131.4266571501
 10
158.9282794234
 20
131.436387298
 10
158.9189666234
 20
131.4460294682
  0
LWPOLYLINE
  5
5E2
100
AcDbEntity
  8
RACCORDO
100
AcDbPolyline
 62
250
  6
CONTINUOUS
 90
9
 70
0
 10
156.5413114483
 20
134.1704131664
 10
156.5336150899
 20
134.1817905363
 10
156.5251989874
 20
134.1928831074
 10
156.5159957164
 20
134.2037059625
 10
156.5060314163
 20
134.2141302941
 10
156.4952972719
 20
134.2240763386
 10
156.4836458764
 20
134.2335711622
 10
156.471032115
 20
134.2424926644
 10
156.4575440686
 20
134.2506128722
  0
LWPOLYLINE
  5
5E3
100
AcDbEntity
  8
RACCORDO
100
AcDbPolyline
 62
250
  6
CONTINUOUS
 90
4
 70
0
 10
158.3550412021
 20
132.4813174368
 10
158.3428613444
 20
132.5031064924
 10
158.3292248095
 20
132.524424107
 10
158.3141804018
 20
132.5450524002
  0
LWPOLYLINE
  5
5E4
100
AcDbEntity
  8
ASSI
100
AcDbPolyline
 62
250
  6
CONTINUOUS
 90
3
 70
0
 10
151.9227751795
 20
136.0213804337
 10
151.9046818892
 20
136.0242490392
 10
151.8868531715
 20
136.0241287435
  0
LWPOLYLINE
  5
5E5
100
AcDbEntity
  8
RACCORDO
100
AcDbPolyline
 62
250
  6
CONTINUOUS
 90
6
 70
0
 10
153.1590864728
 20
136.1471735043
 10
153.1675817794
 20
136.1458001118
 10
153.1764945922
 20
136.1432486169
 10
153.1858251701
 20
136.1393793381
 10
153.1954541579
 20
136.1340926852
 10
153.2053039223
 20
136.1272886835
  0
LWPOLYLINE
  5
5E6
100
AcDbEntity
  8
RACCORDO
100
AcDbPolyline
 62
250
  6
CONTINUOUS
 90
4
 70
0
 10
153.2460299386
 20
136.1263237937
 10
153.233534192
 20
136.1295277481
 10
153.2198626202
 20
136.129851658
 10
153.2053039223
 20
136.1272886835
  0
LWPOLYLINE
  5
5E7
100
AcDbEntity
  8
ASSI
100
AcDbPolyline
 62
250
  6
CONTINUOUS
 90
13
 70
0
 10
155.7496460417
 20
133.8639136291
 10
155.7695092719
 20
133.8543881177
 10
155.7885844319
 20
133.8424992197
 10
155.8066052974
 20
133.8284128636
 10
155.8233203584
 20
133.8123256471
 10
155.8384963294
 20
133.794462093
 10
155.8519214054
 20
133.7750715159
 10
155.8634082182
 20
133.7544245422
 10
155.8727964508
 20
133.7328093335
 10
155.8799550753
 20
133.7105275646
 10
155.8847841819
 20
133.6878902132
 10
155.8872163725
 20
133.6652132198
 10
155.887217702
 20
133.6428130781
  0
LINE
  5
5E8
100
AcDbEntity
  8
RACCORDO
100
AcDbLine
 62
250
  6
CONTINUOUS
 10
153.2527678287
 20
136.1230931397
 11
153.2495039429
 21
136.1249341619
  0
LWPOLYLINE
  5
5E9
100
AcDbEntity
  8
RACCORDO
100
AcDbPolyline
 62
250
  6
CONTINUOUS
 90
5
 70
0
 10
153.4298170061
 20
136.0208672822
 10
153.4229913432
 20
136.0241485037
 10
153.4104955932
 20
136.0273524679
 10
153.3968240112
 20
136.0276763825
 10
153.3822652957
 20
136.0251134043
  0
LWPOLYLINE
  5
5EA
100
AcDbEntity
  8
ASSI
100
AcDbPolyline
 62
250
  6
CONTINUOUS
 90
3
 70
0
 10
151.9586532109
 20
136.006896168
 10
151.9408574337
 20
136.0155666233
 10
151.9227751795
 20
136.0213804337
  0
LINE
  5
5EB
100
AcDbEntity
  8
RACCORDO
100
AcDbLine
 62
250
  6
CONTINUOUS
 10
156.4575440686
 20
134.2506128722
 11
156.4432373409
 21
134.2577465084
  0
LWPOLYLINE
  5
5EC
100
AcDbEntity
  8
RACCORDO
100
AcDbPolyline
 62
7
  6
CONTINUOUS
 90
8
 70
0
 10
156.313736103
 20
134.3557284106
 10
156.2944263629
 20
134.3654627906
 10
156.2747394407
 20
134.3727257641
 10
156.2543465044
 20
134.3776675551
 10
156.2333513685
 20
134.3801659227
 10
156.2120745014
 20
134.3800783832
 10
156.1909116209
 20
134.3773276626
 10
156.1777155166
 20
134.3742015379
  0
LWPOLYLINE
  5
5ED
100
AcDbEntity
  8
RACCORDO
100
AcDbPolyline
 62
7
  6
CONTINUOUS
 90
10
 70
0
 10
151.4499921933
 20
136.5867266037
 10
151.4298511658
 20
136.5971048596
 10
151.4068196756
 20
136.6061121834
 10
151.3834335079
 20
136.6123420057
 10
151.3599378354
 20
136.6157443644
 10
151.3365916186
 20
136.6163258133
 10
151.3137804288
 20
136.6141443787
 10
151.2918712908
 20
136.6093371845
 10
151.2711219362
 20
136.6020934221
 10
151.2547428229
 20
136.5942872213
  0
LWPOLYLINE
  5
5EE
100
AcDbEntity
  8
RACCORDO
100
AcDbPolyline
 62
250
  6
CONTINUOUS
 90
8
 70
0
 10
151.3768721308
 20
136.5803268579
 10
151.3580542773
 20
136.5902219903
 10
151.3397773825
 20
136.5975090697
 10
151.3222287422
 20
136.6022453464
 10
151.3056769874
 20
136.6045125409
 10
151.290139836
 20
136.6044646082
 10
151.2754348465
 20
136.6021697236
 10
151.2620046873
 20
136.5977481884
  0
LWPOLYLINE
  5
5EF
100
AcDbEntity
  8
RACCORDO
100
AcDbPolyline
 62
250
  6
CONTINUOUS
 90
13
 70
0
 10
156.2662759675
 20
134.3599217875
 10
156.2590128399
 20
134.3638090227
 10
156.2516261624
 20
134.3672660956
 10
156.244133438
 20
134.3702698838
 10
156.23660316
 20
134.3727823613
 10
156.2290058049
 20
134.3748045069
 10
156.2212133081
 20
134.3763411138
 10
156.2131883453
 20
134.3773445253
 10
156.2050220152
 20
134.3777467541
 10
156.1967837199
 20
134.3774978156
 10
156.1885134377
 20
134.376554082
 10
156.1802471579
 20
134.3748727446
 10
156.1777219646
 20
134.3742037356
  0
LWPOLYLINE
  5
5F0
100
AcDbEntity
  8
RACCORDO
100
AcDbPolyline
 62
7
  6
CONTINUOUS
 90
7
 70
0
 10
153.2527678287
 20
136.1230931397
 10
153.2495039429
 20
136.1249341619
 10
153.2299196599
 20
136.1343422408
 10
153.2095133718
 20
136.141391987
 10
153.1884828409
 20
136.145943011
 10
153.1670477635
 20
136.1478869174
 10
153.1462265842
 20
136.1471970276
  0
LINE
  5
5F1
100
AcDbEntity
  8
RACCORDO
100
AcDbLine
 62
250
  6
CONTINUOUS
 10
158.2204675363
 20
132.6289206411
 11
156.5935536554
 21
133.568280326
  0
LINE
  5
5F2
100
AcDbEntity
  8
RACCORDO
100
AcDbLine
 62
250
  6
CONTINUOUS
 10
152.2678780281
 20
136.0658712197
 11
151.3768721308
 21
136.5803268579
  0
LINE
  5
5F3
100
AcDbEntity
  8
RACCORDO
100
AcDbLine
 62
7
  6
CONTINUOUS
 10
158.2936200531
 20
132.6353016645
 11
156.6345474637
 21
133.5932293846
  0
LINE
  5
5F4
100
AcDbEntity
  8
RACCORDO
100
AcDbLine
 62
7
  6
CONTINUOUS
 10
152.3404449667
 20
136.0725903486
 11
151.4500246434
 21
136.5867078837
  0
LINE
  5
5F5
100
AcDbEntity
  8
RACCORDO
100
AcDbLine
 62
250
  6
CONTINUOUS
 10
153.5033440018
 20
135.6134162006
 11
155.8220755818
 21
134.2746096468
  0
LINE
  5
5F6
100
AcDbEntity
  8
RACCORDO
100
AcDbLine
 62
7
  6
CONTINUOUS
 10
153.5488636371
 20
135.6378710628
 11
155.8812497019
 21
134.2911805806
  0
LINE
  5
5F7
100
AcDbEntity
  8
RACCORDO
100
AcDbLine
 62
250
  6
CONTINUOUS
 10
156.4432373409
 20
134.2577465084
 11
156.2662759675
 21
134.3599217875
  0
LINE
  5
5F8
100
AcDbEntity
  8
RACCORDO
100
AcDbLine
 62
250
  6
CONTINUOUS
 10
153.2053039223
 20
136.1272886835
 11
153.3822652957
 21
136.0251134043
  0
LINE
  5
5F9
100
AcDbEntity
  8
RACCORDO
100
AcDbLine
 62
7
  6
CONTINUOUS
 10
156.4907890597
 20
134.2535003815
 11
156.3138276899
 21
134.3556756585
  0
LINE
  5
5FA
100
AcDbEntity
  8
RACCORDO
100
AcDbLine
 62
7
  6
CONTINUOUS
 10
153.2527678287
 20
136.1230931397
 11
153.4298170061
 21
136.0208672822
  0
LWPOLYLINE
  5
5FB
100
AcDbEntity
  8
RACCORDO
100
AcDbPolyline
 62
250
  6
CONTINUOUS
 90
8
 70
0
 10
153.3822652957
 20
136.0251134043
 10
153.3906579306
 20
136.0198465142
 10
153.3989923193
 20
136.0139031381
 10
153.4072332233
 20
136.007289102
 10
153.4152935278
 20
136.0000603963
 10
153.4231909201
 20
135.9921902107
 10
153.4310305259
 20
135.9835331698
 10
153.438817913
 20
135.9739987293
  0
LINE
  5
5FC
100
AcDbEntity
  8
RACCORDO
100
AcDbLine
 62
250
  6
CONTINUOUS
 10
158.2412639858
 20
132.6157536773
 11
158.2204675363
 21
132.6289206411
  0
LWPOLYLINE
  5
5FD
100
AcDbEntity
  8
ASSI
100
AcDbPolyline
 62
250
  6
CONTINUOUS
 90
13
 70
0
 10
155.7021684221
 20
133.8454374023
 10
155.7192141753
 20
133.8339907947
 10
155.7354427224
 20
133.8199939783
 10
155.7506068594
 20
133.8036601619
 10
155.7644755963
 20
133.7852381531
 10
155.7768376753
 20
133.7650085679
 10
155.7875047892
 20
133.7432795567
 10
155.7963144495
 20
133.7203821101
 10
155.8031324616
 20
133.696665017
 10
155.807854969
 20
133.6724895519
 10
155.8104100355
 20
133.6482239713
 10
155.8107587407
 20
133.6242379044
 10
155.8088957728
 20
133.6008967229
  0
LINE
  5
5FE
100
AcDbEntity
  8
RACCORDO
100
AcDbLine
 62
250
  6
CONTINUOUS
 10
158.261252166
 20
132.6003907457
 11
158.2412639858
 21
132.6157536773
  0
ARC
  5
5FF
100
AcDbEntity
  8
0
100
AcDbCircle
 62
7
  6
CONTINUOUS
 10
148.6898309508
 20
83.7991761814
 40
0.5
100
AcDbArc
 50
239.9984015654
 51
297.4194204711
  0
ARC
  5
600
100
AcDbEntity
  8
0
100
AcDbCircle
 62
7
  6
CONTINUOUS
 10
133.8216167824
 20
92.3838966998
 40
0.5
100
AcDbArc
 50
179.9840060021
 51
239.998401565
  0
ARC
  5
601
100
AcDbEntity
  8
0
100
AcDbCircle
 62
7
  6
CONTINUOUS
 10
133.8216167824
 20
134.535668982
 40
0.5
100
AcDbArc
 50
122.5992954222
 51
180.0013071313
  0
ARC
  5
602
100
AcDbEntity
  8
RACCORDO
100
AcDbCircle
 62
7
  6
CONTINUOUS
 10
151.4905741423
 20
94.2615038834
 40
0.3
100
AcDbArc
 50
269.4223262397
 51
299.1609170493
  0
ARC
  5
603
100
AcDbEntity
  8
RACCORDO
100
AcDbCircle
 62
7
  6
CONTINUOUS
 10
137.0986265138
 20
99.8823025097
 40
0.2
100
AcDbArc
 50
67.2906134946
 51
71.8946233554
  0
ARC
  5
604
100
AcDbEntity
  8
RACCORDO
100
AcDbCircle
 62
7
  6
CONTINUOUS
 10
150.3934251747
 20
112.6749694767
 40
0.2
100
AcDbArc
 50
257.3292402896
 51
287.0230299641
  0
ARC
  5
605
100
AcDbEntity
  8
ASSI
100
AcDbCircle
 62
7
  6
CONTINUOUS
 10
145.9721716459
 20
129.5477956045
 40
0.2
100
AcDbArc
 50
18.5045349448
 51
59.9984015652
  0
ARC
  5
606
100
AcDbEntity
  8
ASSI
100
AcDbCircle
 62
7
  6
CONTINUOUS
 10
144.7563815084
 20
133.3904432873
 40
0.2
100
AcDbArc
 50
119.0851067329
 51
154.7491248362
  0
ARC
  5
607
100
AcDbEntity
  8
ASSI
100
AcDbCircle
 62
7
  6
CONTINUOUS
 10
142.1205188463
 20
131.7716916584
 40
0.2
100
AcDbArc
 50
59.9984015652
 51
119.1557271591
  0
ARC
  5
608
100
AcDbEntity
  8
ASSI
100
AcDbCircle
 62
7
  6
CONTINUOUS
 10
140.5708552984
 20
134.3370193673
 40
0.2
100
AcDbArc
 50
59.9984015652
 51
118.2824903446
  0
ARC
  5
609
100
AcDbEntity
  8
ASSI
100
AcDbCircle
 62
7
  6
CONTINUOUS
 10
151.2744019464
 20
127.7876146901
 40
0.2
100
AcDbArc
 50
315.7312260462
 51
0.024488619
  0
ARC
  5
60A
100
AcDbEntity
  8
ASSI
100
AcDbCircle
 62
7
  6
CONTINUOUS
 10
151.2744019464
 20
128.1569256797
 40
0.2
100
AcDbArc
 50
359.9837886302
 51
59.9984015652
  0
ARC
  5
60B
100
AcDbEntity
  8
ASSI
100
AcDbCircle
 62
7
  6
CONTINUOUS
 10
151.2744019464
 20
89.7563614176
 40
0.2
100
AcDbArc
 50
0.0061341609
 51
34.9794225703
  0
ARC
  5
60C
100
AcDbEntity
  8
ASSI
100
AcDbCircle
 62
7
  6
CONTINUOUS
 10
151.2744019464
 20
89.3870504281
 40
0.2
100
AcDbArc
 50
325.0024933056
 51
0.0011842186
  0
ARC
  5
60D
100
AcDbEntity
  8
ASSI
100
AcDbCircle
 62
7
  6
CONTINUOUS
 10
142.0980591642
 20
133.4552309956
 40
0.2
100
AcDbArc
 50
359.9895357921
 51
59.9984015652
  0
ARC
  5
60E
100
AcDbEntity
  8
ASSI
100
AcDbCircle
 62
7
  6
CONTINUOUS
 10
142.0980591642
 20
133.085920006
 40
0.2
100
AcDbArc
 50
315.7300113551
 51
0.0272094088
  0
ARC
  5
60F
100
AcDbEntity
  8
ASSI
100
AcDbCircle
 62
7
  6
CONTINUOUS
 10
149.7471980807
 20
129.0387140514
 40
0.2
100
AcDbArc
 50
59.9984015652
 51
118.2824903446
  0
ARC
  5
610
100
AcDbEntity
  8
RACCORDO
100
AcDbCircle
 62
7
  6
CONTINUOUS
 10
158.7901368076
 20
103.6917071915
 40
0.15
100
AcDbArc
 50
59.9984015652
 51
118.7019341193
  0
ARC
  5
611
100
AcDbEntity
  8
RACCORDO
100
AcDbCircle
 62
7
  6
CONTINUOUS
 10
157.0507903105
 20
113.612190985
 40
0.15
100
AcDbArc
 50
300.867565563
 51
0.0106995524
  0
ARC
  5
612
100
AcDbEntity
  8
RACCORDO
100
AcDbCircle
 62
7
  6
CONTINUOUS
 10
157.0507903105
 20
116.2888288282
 40
0.15
100
AcDbArc
 50
359.9874260044
 51
60.0725691617
  0
ARC
  5
613
100
AcDbEntity
  8
RACCORDO
100
AcDbCircle
 62
7
  6
CONTINUOUS
 10
156.7854878293
 20
116.4420111558
 40
0.15
100
AcDbArc
 50
59.9593348864
 51
101.2496570083
  0
ARC
  5
614
100
AcDbEntity
  8
RACCORDO
100
AcDbCircle
 62
7
  6
CONTINUOUS
 10
155.3963498322
 20
103.8091723083
 40
0.15
100
AcDbArc
 50
301.7332683128
 51
0.0118325387
  0
ELLIPSE
  5
615
100
AcDbEntity
  8
0
100
AcDbEllipse
 62
7
  6
CONTINUOUS
 10
151.0843869296
 20
85.0406477982
 30
0.0
 11
-0.2501834304
 21
0.4333025529
 31
0.0
 40
0.5769361983
 41
-3.1677535987
 42
-2.3565853618
  0
ELLIPSE
  5
616
100
AcDbEntity
  8
RACCORDO
100
AcDbEllipse
 62
7
  6
CONTINUOUS
 10
151.3673265985
 20
105.9145715744
 30
0.0
 11
-0.0500176659
 21
0.0865945414
 31
0.0
 40
0.5775954524
 41
-2.3562050126
 42
-1.1310304851
  0
ELLIPSE
  5
617
100
AcDbEntity
  8
RACCORDO
100
AcDbEllipse
 62
7
  6
CONTINUOUS
 10
151.3484031167
 20
94.2367555125
 30
0.0
 11
0.2570456323
 21
0.428918115
 31
0.0
 40
0.5894576291
 41
-2.0962802676
 42
-1.8795851262
  0
ELLIPSE
  5
618
100
AcDbEntity
  8
RACCORDO
100
AcDbEllipse
 62
7
  6
CONTINUOUS
 10
135.9437293352
 20
95.5144469535
 30
0.0
 11
0.3254038621
 21
1.7382577199
 31
0.0
 40
0.2183918352
 41
-2.9565436216
 42
-1.6649999751
  0
ELLIPSE
  5
619
100
AcDbEntity
  8
RACCORDO
100
AcDbEllipse
 62
7
  6
CONTINUOUS
 10
146.5677183979
 20
89.3802888185
 30
0.0
 11
0.3254038621
 21
1.7382577199
 31
0.0
 40
0.2183918352
 41
-4.0037411729
 42
-3.4801423972
  0
ELLIPSE
  5
61A
100
AcDbEntity
  8
DRAFT
100
AcDbEllipse
 62
7
  6
CONTINUOUS
 10
133.8216167824
 20
113.6184507779
 30
0.0
 11
0.4998610155
 21
-0.0215739
 31
0.0
 40
0.5464172455
 41
-3.1180137663
 42
-2.3326156034
  0
ELLIPSE
  5
61B
100
AcDbEntity
  8
DRAFT
100
AcDbEllipse
 62
7
  6
CONTINUOUS
 10
148.6898309508
 20
105.0337302595
 30
0.0
 11
0.4998610155
 21
-0.0215739
 31
0.0
 40
0.5464172455
 41
-2.3326156034
 42
-0.7879992153
  0
ELLIPSE
  5
61C
100
AcDbEntity
  8
0
100
AcDbEllipse
 62
7
  6
CONTINUOUS
 10
149.9959523938
 20
126.7050828959
 30
0.0
 11
-0.2500121049
 21
0.4330057129
 31
0.0
 40
0.5777274115
 41
-2.3559002616
 42
-0.7857891675
  0
ELLIPSE
  5
61D
100
AcDbEntity
  8
ASSI
100
AcDbEllipse
 62
7
  6
CONTINUOUS
 10
148.6806940249
 20
104.4720632757
 30
0.0
 11
4.1091514676
 21
6.7488408307
 31
0.0
 40
0.5922410672
 41
-1.2951550528
 42
-0.7715562772
  0
ELLIPSE
  5
61E
100
AcDbEntity
  8
DRAFT
100
AcDbEllipse
 62
7
  6
CONTINUOUS
 10
150.8530921213
 20
105.0516179051
 30
0.0
 11
0.8524930942
 21
1.5284679067
 31
0.0
 40
0.5671693725
 41
5.0776938706
 42
5.8313048814
  0
ELLIPSE
  5
61F
100
AcDbEntity
  8
DRAFT
100
AcDbEllipse
 62
7
  6
CONTINUOUS
 10
148.0834166313
 20
104.8169237571
 30
0.0
 11
2.9715473571
 21
5.3278024176
 31
0.0
 40
0.5671693725
 41
-1.3173759133
 42
-1.2054914366
  0
ELLIPSE
  5
620
100
AcDbEntity
  8
0
100
AcDbEllipse
 62
7
  6
CONTINUOUS
 10
135.0610797517
 20
135.3282911816
 30
0.0
 11
-0.2501834304
 21
0.4333025529
 31
0.0
 40
0.5769361983
 41
-0.7851038024
 42
0.0261609458
  0
ELLIPSE
  5
621
100
AcDbEntity
  8
RACCORDO
100
AcDbEllipse
 62
7
  6
CONTINUOUS
 10
151.1302057392
 20
123.9806639992
 30
0.0
 11
0.2340655899
 21
0.3844276423
 31
0.0
 40
0.5922410672
 41
-3.5998360866
 42
-1.5460578258
  0
ELLIPSE
  5
622
100
AcDbEntity
  8
ASSI
100
AcDbEllipse
 62
7
  6
CONTINUOUS
 10
148.6806940249
 20
104.4720632757
 30
0.0
 11
3.1728891079
 21
5.2111302617
 31
0.0
 40
0.5922410672
 41
-1.2951550528
 42
-1.1832705761
  0
ELLIPSE
  5
623
100
AcDbEntity
  8
ASSI
100
AcDbEllipse
 62
7
  6
CONTINUOUS
 10
151.5733881844
 20
104.6357279857
 30
0.0
 11
0.9102550719
 21
1.4949963866
 31
0.0
 40
0.5922410672
 41
-1.1832705761
 42
0.746880172
  0
ELLIPSE
  5
624
100
AcDbEntity
  8
ASSI
100
AcDbEllipse
 62
7
  6
CONTINUOUS
 10
153.0795498307
 20
104.0246394688
 30
0.0
 11
0.4681311799
 21
0.7688552845
 31
0.0
 40
0.5922410672
 41
-4.4367477064
 42
-1.2951550528
  0
ELLIPSE
  5
625
100
AcDbEntity
  8
RACCORDO
100
AcDbEllipse
 62
7
  6
CONTINUOUS
 10
150.4947515846
 20
112.5347907731
 30
0.0
 11
0.1040291511
 21
0.1708567299
 31
0.0
 40
0.5922410672
 41
2.3700363764
 42
3.6971092904
  0
ELLIPSE
  5
626
100
AcDbEntity
  8
RACCORDO
100
AcDbEllipse
 62
7
  6
CONTINUOUS
 10
150.8050886959
 20
123.5710070276
 30
0.0
 11
-0.1499555689
 21
0.1417376379
 31
0.0
 40
0.2871998027
 41
-2.4500079414
 42
-1.1133093541
  0
ELLIPSE
  5
627
100
AcDbEntity
  8
RACCORDO
100
AcDbEllipse
 62
7
  6
CONTINUOUS
 10
139.805337349
 20
134.090966273
 30
0.0
 11
-0.1000352924
 21
0.1732550566
 31
0.0
 40
0.5771558487
 41
-2.3563950755
 42
-0.7852941622
  0
ELLIPSE
  5
628
100
AcDbEntity
  8
RACCORDO
100
AcDbEllipse
 62
7
  6
CONTINUOUS
 10
135.881733872
 20
136.3564057463
 30
0.0
 11
-0.1000352924
 21
0.1732550566
 31
0.0
 40
0.5771558487
 41
-0.7852941622
 42
-0.0174472724
  0
ELLIPSE
  5
629
100
AcDbEntity
  8
RACCORDO
100
AcDbEllipse
 62
7
  6
CONTINUOUS
 10
151.296618617
 20
126.2427900552
 30
0.0
 11
-0.1000352924
 21
0.1732550566
 31
0.0
 40
0.5771558487
 41
-3.1241453804
 42
-2.3563950755
  0
ELLIPSE
  5
62A
100
AcDbEntity
  8
RACCORDO
100
AcDbEllipse
 62
7
  6
CONTINUOUS
 10
151.296618617
 20
127.4560444885
 30
0.0
 11
-0.1000048364
 21
0.1732022883
 31
0.0
 40
0.5775075436
 41
-2.3560905478
 42
-0.7855988075
  0
ELLIPSE
  5
62B
100
AcDbEntity
  8
RACCORDO
100
AcDbEllipse
 62
7
  6
CONTINUOUS
 10
147.37301514
 20
129.7214839618
 30
0.0
 11
-0.1000048364
 21
0.1732022883
 31
0.0
 40
0.5775075436
 41
-0.7855988075
 42
0.0000008443
  0
ELLIPSE
  5
62C
100
AcDbEntity
  8
RACCORDO
100
AcDbEllipse
 62
7
  6
CONTINUOUS
 10
137.1335059678
 20
105.3419310708
 30
0.0
 11
-0.0747980753
 21
0.1304963185
 31
0.0
 40
0.5764466743
 41
-3.1939951889
 42
-2.3533542958
  0
ELLIPSE
  5
62D
100
AcDbEntity
  8
RACCORDO
100
AcDbEllipse
 62
7
  6
CONTINUOUS
 10
137.1335059678
 20
106.6494205243
 30
0.0
 11
-0.0746819116
 21
0.1302994005
 31
0.0
 40
0.57820294
 41
-2.3518112446
 42
-0.7825359958
  0
ELLIPSE
  5
62E
100
AcDbEntity
  8
DRAFT
100
AcDbEllipse
 62
7
  6
CONTINUOUS
 10
147.7876481318
 20
104.9876967819
 30
0.0
 11
3.2478032004
 21
5.0501468509
 31
0.0
 40
0.6067084637
 41
5.0033060965
 42
5.2387059167
  0
ELLIPSE
  5
62F
100
AcDbEntity
  8
RACCORDO
100
AcDbEllipse
 62
7
  6
CONTINUOUS
 10
152.3387648966
 20
100.8090885714
 30
0.0
 11
-0.1000048364
 21
0.1732022883
 31
0.0
 40
0.5775075436
 41
-3.1415918093
 42
-2.3560905478
  0
ELLIPSE
  5
630
100
AcDbEntity
  8
RACCORDO
100
AcDbEllipse
 62
7
  6
CONTINUOUS
 10
151.6855488891
 20
94.3687204962
 30
0.0
 11
0.2706129798
 21
-0.206110056
 31
0.0
 40
0.3991634155
 41
5.7745324398
 42
6.5783255269
  0
ELLIPSE
  5
631
100
AcDbEntity
  8
RACCORDO
100
AcDbEllipse
 62
7
  6
CONTINUOUS
 10
151.6855488891
 20
98.5326691593
 30
0.0
 11
0.2708035788
 21
-0.2011315484
 31
0.0
 40
0.4059136155
 41
6.5759999252
 42
7.4417664316
  0
ELLIPSE
  5
632
100
AcDbEntity
  8
ASSI
100
AcDbEllipse
 62
7
  6
CONTINUOUS
 10
149.9852541587
 20
133.4185812622
 30
0.0
 11
0.3652263551
 21
0.1644105368
 31
0.0
 40
0.3407407308
 41
1.8589059539
 42
3.382251992
  0
ELLIPSE
  5
633
100
AcDbEntity
  8
ASSI
100
AcDbEllipse
 62
7
  6
CONTINUOUS
 10
151.494239243
 20
129.5848458543
 30
0.0
 11
0.999867518
 21
-0.0292282715
 31
0.0
 40
0.5568983954
 41
5.6013315027
 42
7.0848613669
  0
ELLIPSE
  5
634
100
AcDbEntity
  8
ASSI
100
AcDbEllipse
 62
7
  6
CONTINUOUS
 10
155.5021855868
 20
133.0540857314
 30
0.0
 11
0.5013109713
 21
-0.0090323087
 31
0.0
 40
0.5663187271
 41
-0.7565983455
 42
-0.4971873728
  0
ELLIPSE
  5
635
100
AcDbEntity
  8
ASSI
100
AcDbEllipse
 62
7
  6
CONTINUOUS
 10
151.5296101505
 20
129.101661952
 30
0.0
 11
-0.100004872
 21
0.1732022678
 31
0.0
 40
0.5789151826
 41
-2.3548735497
 42
-0.7868162787
  0
ELLIPSE
  5
636
100
AcDbEntity
  8
DRAFT
100
AcDbEllipse
 62
7
  6
CONTINUOUS
 10
137.0956982666
 20
105.854195653
 30
0.0
 11
0.3079969422
 21
0.51496962
 31
0.0
 40
0.5873179545
 41
4.2759126724
 42
6.7378315071
  0
ELLIPSE
  5
637
100
AcDbEntity
  8
RACCORDO
100
AcDbEllipse
 62
7
  6
CONTINUOUS
 10
156.6015087332
 20
133.4390976628
 30
0.0
 11
0.0396625333
 21
0.1491105824
 31
0.0
 40
0.4377348049
 41
0.3909671288
 42
0.6503781016
  0
ELLIPSE
  5
638
100
AcDbEntity
  8
RACCORDO
100
AcDbEllipse
 62
7
  6
CONTINUOUS
 10
151.7562595672
 20
94.4095525017
 30
0.0
 11
-0.149984401
 21
0.2598430098
 31
0.0
 40
0.5773316645
 41
-3.150319777
 42
-2.3560905026
  0
ELLIPSE
  5
639
100
AcDbEntity
  8
RACCORDO
100
AcDbEllipse
 62
7
  6
CONTINUOUS
 10
151.7562595672
 20
98.4101822352
 30
0.0
 11
-0.149984401
 21
0.2598430098
 31
0.0
 40
0.5773316645
 41
-2.3560905026
 42
-0.7852941758
  0
ENDSEC
  0
SECTION
  2
OBJECTS
  0
DICTIONARY
  5
C
100
AcDbDictionary
280
0
281
1
  3
ACAD_GROUP
350
D
  3
ACAD_MLINESTYLE
350
17
  3
ACAD_LAYOUT
350
1A
  3
ACAD_PLOTSETTINGS
350
19
  3
ACAD_PLOTSTYLENAME
350
E
  0
DICTIONARY
  5
D
102
{ACAD_REACTORS
330
C
102
}
100
AcDbDictionary
280
0
281
1
  0
ACDBDICTIONARYWDFLT
  5
E
102
{ACAD_REACTORS
330
C
102
}
100
AcDbDictionary
281
1
  3
Normal
350
F
100
AcDbDictionaryWithDefault
340
F
  0
DICTIONARY
  5
17
102
{ACAD_REACTORS
330
C
102
}
100
AcDbDictionary
280
0
281
1
  3
Standard
350
18
  0
DICTIONARY
  5
19
102
{ACAD_REACTORS
330
C
102
}
100
AcDbDictionary
281
1
  0
DICTIONARY
  5
1A
102
{ACAD_REACTORS
330
C
102
}
100
AcDbDictionary
281
1
  3
Model
350
63A
  3
Layout1
350
63B
  0
ACDBPLACEHOLDER
  5
F
102
{ACAD_REACTORS
330
E
102
}
  0
MLINESTYLE
  5
18
102
{ACAD_REACTORS
330
17
102
}
100
AcDbMlineStyle
  2
STANDARD
 70
0
  3

 62
256
 51
90.0
 52
90.0
 71
2
 49
0.5
 62
256
  6
BYLAYER
 49
-0.5
 62
256
  6
BYLAYER
  0
LAYOUT
  5
63A
102
{ACAD_REACTORS
330
1A
102
}
100
AcDbPlotSettings
  1

  2
none_device
  4
ISO_A4_(297.00_x_210.00_MM)
  6

 40
0.0
 41
0.0
 42
0.0
 43
0.0
 44
297.0
 45
210.0
 46
0.0
 47
0.0
 48
0.0
 49
0.0
140
0.0
141
0.0
142
1.0
143
1.0
 70
1024
 72
1
 73
0
 74
0
  7

 75
0
147
1.0
148
0.0
149
0.0
100
AcDbLayout
  1
Model
 70
0
 71
0
 10
0.0
 20
0.0
 11
297.0
 21
210.0
 12
0.0
 22
0.0
 32
0.0
 14
0.0
 24
0.0
 34
0.0
 15
0.0
 25
0.0
 35
0.0
146
0.0
 13
0.0
 23
0.0
 33
0.0
 16
1.0
 26
0.0
 36
0.0
 17
0.0
 27
1.0
 37
0.0
 76
0
330
210
345
0
346
0
  0
LAYOUT
  5
63B
102
{ACAD_REACTORS
330
1A
102
}
100
AcDbPlotSettings
  1

  2
none_device
  4
ISO_A4_(297.00_x_210.00_MM)
  6

 40
0.0
 41
0.0
 42
0.0
 43
0.0
 44
297.0
 45
210.0
 46
0.0
 47
0.0
 48
0.0
 49
0.0
140
0.0
141
0.0
142
1.0
143
1.0
 70
0
 72
1
 73
0
 74
0
  7

 75
0
147
1.0
148
0.0
149
0.0
100
AcDbLayout
  1
Layout1
 70
0
 71
1
 10
0.0
 20
0.0
 11
297.0
 21
210.0
 12
0.0
 22
0.0
 32
0.0
 14
0.0
 24
0.0
 34
0.0
 15
0.0
 25
0.0
 35
0.0
146
0.0
 13
0.0
 23
0.0
 33
0.0
 16
1.0
 26
0.0
 36
0.0
 17
0.0
 27
1.0
 37
0.0
 76
0
330
211
345
0
346
0
  0
ENDSEC
  0
EOF
