  0
SECTION
  2
HEADER
  9
$ACADVER
  1
AC1024
  9
$DWGCODEPAGE
  3
ANSI_1252
  9
$EXTMAX
 10
420.0
 20
297.0
 30
0.0
  9
$EXTMIN
 10
0.0
 20
0.0
 30
0.0
  9
$LIMMIN
 10
0.0
 20
0.0
  9
$LIMMAX
 10
420.0
 20
297.0
  9
$VIEWCTR
 10
210.0
 20
148.5
  9
$VIEWSIZE
 40
297.0
  9
$CLAYER
  8
0
  9
$LTSCALE
 40
23.1
  9
$CELTYPE
  6
BYLAYER
  9
$DIMSCALE
 40
1.0
  9
$DIMASZ
 40
3.0
  9
$DIMEXO
 40
0.5
  9
$DIMDLI
 40
15.96
  9
$DIMEXE
 40
1.5
  9
$DIMCEN
 40
3.78
  9
$DIMLFAC
 40
1.0
  9
$DIMBLK
  1
_FILLED
  9
$DIMALT
 70
0
  9
$DIMALTF
 40
0.0393700787
  9
$DIMTXT
 40
3.0
  9
$DIMTOL
 70
1
  9
$DIMLIM
 70
0
  9
$DIMTFAC
 40
1.0
  9
$DIMTP
 40
0.01
  9
$DIMTM
 40
0.01
  9
$DIMGAP
 40
0.625
  9
$DIMDSEP
 70
44
  9
$AUNITS
 70
0
  9
$PDMODE
 70
3
  9
$PDSIZE
 40
3.0
  9
$HANDSEED
  5
50F
  9
$TILEMODE
 70
1
  9
$MEASUREMENT
 70
1
  9
$INSUNITS
 70
4
  0
ENDSEC
  0
SECTION
  2
CLASSES
  0
CLASS
  1
ACDBDICTIONARYWDFLT
  2
AcDbDictionaryWithDefault
  3
AutoCAD 2000
 90
0
 91
1
280
0
281
0
  0
CLASS
  1
ACDBPLACEHOLDER
  2
AcDbPlaceHolder
  3
AutoCAD 2000
 90
0
 91
1
280
0
281
0
  0
CLASS
  1
LAYOUT
  2
AcDbLayout
  3
AutoCAD 2000
 90
0
 91
0
280
0
281
0
  0
ENDSEC
  0
SECTION
  2
TABLES
  0
TABLE
  2
VPORT
  5
8
100
AcDbSymbolTable
 70
2
  0
VPORT
  5
1F4
100
AcDbSymbolTableRecord
100
AcDbViewportTableRecord
  2
*ACTIVE
 70
0
 10
0.0
 20
0.0
 11
1.0
 21
1.0
 12
210.0
 22
148.5
 13
0.0
 23
0.0
 14
1.0
 24
1.0
 15
0.0
 25
0.0
 16
0.0
 26
0.0
 36
1.0
 17
0.0
 27
0.0
 37
0.0
 40
297.0
 41
1.4141414141
 42
50.0
 43
0.0
 44
0.0
 50
0.0
 51
0.0
 71
0
 72
100
 73
1
 74
1
 75
0
 76
0
 77
0
 78
0
  0
ENDTAB
  0
TABLE
  2
LTYPE
  5
5
100
AcDbSymbolTable
 70
6
  0
LTYPE
  5
14
100
AcDbSymbolTableRecord
100
AcDbLinetypeTableRecord
  2
BYBLOCK
 70
0
  3

 72
65
 73
0
 40
0.0
  0
LTYPE
  5
15
100
AcDbSymbolTableRecord
100
AcDbLinetypeTableRecord
  2
BYLAYER
 70
0
  3

 72
65
 73
0
 40
0.0
  0
LTYPE
  5
16
100
AcDbSymbolTableRecord
100
AcDbLinetypeTableRecord
  2
CONTINUOUS
 70
64
  3
Solid line
 72
65
 73
0
 40
0.0
  0
LTYPE
  5
1F5
100
AcDbSymbolTableRecord
100
AcDbLinetypeTableRecord
  2
CENTER
 70
64
  3
____ _ ____ _ ____ _ ____ _ ____ _ ____ _ ____
 72
65
 73
4
 40
0.6
 49
0.375
 74
0
 49
-0.075
 74
0
 49
0.075
 74
0
 49
-0.075
 74
0
  0
LTYPE
  5
1F6
100
AcDbSymbolTableRecord
100
AcDbLinetypeTableRecord
  2
HIDDEN
 70
64
  3
- - - - - - - - - - - - - - - - - - - -
 72
65
 73
2
 40
0.2
 49
0.1
 74
0
 49
-0.1
 74
0
  0
LTYPE
  5
1F7
100
AcDbSymbolTableRecord
100
AcDbLinetypeTableRecord
  2
PHANTOM
 70
64
  3
_____ _ _ _____ _ _ _____ _ _ _____
 72
65
 73
6
 40
0.8
 49
0.45
 74
0
 49
-0.05
 74
0
 49
0.1
 74
0
 49
-0.05
 74
0
 49
0.1
 74
0
 49
-0.05
 74
0
  0
LTYPE
  5
1F8
100
AcDbSymbolTableRecord
100
AcDbLinetypeTableRecord
  2
DOT
 70
64
  3
. . . . . . . . . . . . . . . . . . . .
 72
65
 73
2
 40
0.2
 49
0.1
 74
0
 49
-0.1
 74
0
  0
LTYPE
  5
1F9
100
AcDbSymbolTableRecord
100
AcDbLinetypeTableRecord
  2
DASHED
 70
64
  3
- - - - - - - - - - - - - - - - - - - -
 72
65
 73
2
 40
0.2
 49
0.1
 74
0
 49
-0.1
 74
0
  0
ENDTAB
  0
TABLE
  2
LAYER
  5
2
100
AcDbSymbolTable
 70
36
  0
LAYER
  5
10
100
AcDbSymbolTableRecord
100
AcDbLayerTableRecord
  2
0
 70
0
 62
7
  6
CONTINUOUS
370
-3
390
F
  0
LAYER
  5
1FA
100
AcDbSymbolTableRecord
100
AcDbLayerTableRecord
  2
DEFAULT_1
 70
0
 62
7
  6
CENTER
370
-3
390
F
  0
LAYER
  5
1FB
100
AcDbSymbolTableRecord
100
AcDbLayerTableRecord
  2
DEFAULT_2
 70
0
 62
7
  6
HIDDEN
370
-3
390
F
  0
LAYER
  5
1FC
100
AcDbSymbolTableRecord
100
AcDbLayerTableRecord
  2
DEFAULT_3
 70
0
 62
7
  6
PHANTOM
370
-3
390
F
  0
LAYER
  5
1FD
100
AcDbSymbolTableRecord
100
AcDbLayerTableRecord
  2
ASSI
 70
0
 62
7
  6
CONTINUOUS
370
-3
390
F
  0
LAYER
  5
1FE
100
AcDbSymbolTableRecord
100
AcDbLayerTableRecord
  2
COORDINATE
 70
0
 62
7
  6
CONTINUOUS
370
-3
390
F
  0
LAYER
  5
1FF
100
AcDbSymbolTableRecord
100
AcDbLayerTableRecord
  2
COPY_PUBLISH
 70
0
 62
7
  6
CONTINUOUS
370
-3
390
F
  0
LAYER
  5
200
100
AcDbSymbolTableRecord
100
AcDbLayerTableRecord
  2
COSMETICI
 70
0
 62
7
  6
CONTINUOUS
370
-3
390
F
  0
LAYER
  5
201
100
AcDbSymbolTableRecord
100
AcDbLayerTableRecord
  2
CURVE
 70
0
 62
7
  6
CONTINUOUS
370
-3
390
F
  0
LAYER
  5
202
100
AcDbSymbolTableRecord
100
AcDbLayerTableRecord
  2
DRAFT
 70
0
 62
7
  6
CONTINUOUS
370
-3
390
F
  0
LAYER
  5
203
100
AcDbSymbolTableRecord
100
AcDbLayerTableRecord
  2
IMPORT_IGES
 70
0
 62
7
  6
CONTINUOUS
370
-3
390
F
  0
LAYER
  5
204
100
AcDbSymbolTableRecord
100
AcDbLayerTableRecord
  2
INTF_1
 70
0
 62
7
  6
CONTINUOUS
370
-3
390
F
  0
LAYER
  5
205
100
AcDbSymbolTableRecord
100
AcDbLayerTableRecord
  2
INTF_11
 70
0
 62
7
  6
CONTINUOUS
370
-3
390
F
  0
LAYER
  5
206
100
AcDbSymbolTableRecord
100
AcDbLayerTableRecord
  2
INTF_2
 70
0
 62
7
  6
CONTINUOUS
370
-3
390
F
  0
LAYER
  5
207
100
AcDbSymbolTableRecord
100
AcDbLayerTableRecord
  2
INTF_8
 70
0
 62
7
  6
CONTINUOUS
370
-3
390
F
  0
LAYER
  5
208
100
AcDbSymbolTableRecord
100
AcDbLayerTableRecord
  2
INTF_9
 70
0
 62
7
  6
CONTINUOUS
370
-3
390
F
  0
LAYER
  5
209
100
AcDbSymbolTableRecord
100
AcDbLayerTableRecord
  2
LAY0001
 70
0
 62
7
  6
CONTINUOUS
370
-3
390
F
  0
LAYER
  5
20A
100
AcDbSymbolTableRecord
100
AcDbLayerTableRecord
  2
NOTE
 70
0
 62
7
  6
CONTINUOUS
370
-3
390
F
  0
LAYER
  5
20B
100
AcDbSymbolTableRecord
100
AcDbLayerTableRecord
  2
PIANI
 70
0
 62
7
  6
CONTINUOUS
370
-3
390
F
  0
LAYER
  5
20C
100
AcDbSymbolTableRecord
100
AcDbLayerTableRecord
  2
PUNTI
 70
0
 62
7
  6
CONTINUOUS
370
-3
390
F
  0
LAYER
  5
20D
100
AcDbSymbolTableRecord
100
AcDbLayerTableRecord
  2
RACCORDO
 70
0
 62
7
  6
CONTINUOUS
370
-3
390
F
  0
LAYER
  5
20E
100
AcDbSymbolTableRecord
100
AcDbLayerTableRecord
  2
SIMBOLI
 70
0
 62
7
  6
CONTINUOUS
370
-3
390
F
  0
LAYER
  5
20F
100
AcDbSymbolTableRecord
100
AcDbLayerTableRecord
  2
SMUSSO
 70
0
 62
7
  6
CONTINUOUS
370
-3
390
F
  0
LAYER
  5
210
100
AcDbSymbolTableRecord
100
AcDbLayerTableRecord
  2
SUPERFICI
 70
0
 62
7
  6
CONTINUOUS
370
-3
390
F
  0
LAYER
  5
211
100
AcDbSymbolTableRecord
100
AcDbLayerTableRecord
  2
TRASH
 70
0
 62
7
  6
CONTINUOUS
370
-3
390
F
  0
ENDTAB
  0
TABLE
  2
STYLE
  5
3
100
AcDbSymbolTable
 70
1
  0
STYLE
  5
11
100
AcDbSymbolTableRecord
100
AcDbTextStyleTableRecord
  2
STANDARD
 70
0
 40
0.0
 41
0.8
 50
0.0
 71
0
 42
0.2
  3
txt
  4

  0
STYLE
  5
212
100
AcDbSymbolTableRecord
100
AcDbTextStyleTableRecord
  2
TEXTSTYLE_1
 70
0
 40
0.0
 41
0.8
 50
0.0
 71
0
 42
0.2
  3
gdt
  4

  0
ENDTAB
  0
TABLE
  2
VIEW
  5
6
100
AcDbSymbolTable
 70
0
  0
ENDTAB
  0
TABLE
  2
UCS
  5
7
100
AcDbSymbolTable
 70
0
  0
ENDTAB
  0
TABLE
  2
APPID
  5
9
100
AcDbSymbolTable
 70
1
  0
APPID
  5
213
100
AcDbSymbolTableRecord
100
AcDbRegAppTableRecord
  2
ACAD
 70
0
  0
ENDTAB
  0
TABLE
  2
BLOCK_RECORD
  5
1
100
AcDbSymbolTable
 70
0
  0
BLOCK_RECORD
  5
214
100
AcDbSymbolTableRecord
100
AcDbBlockTableRecord
  2
*Model_Space
  0
BLOCK_RECORD
  5
215
100
AcDbSymbolTableRecord
100
AcDbBlockTableRecord
  2
*Paper_Space
  0
BLOCK_RECORD
  5
216
100
AcDbSymbolTableRecord
100
AcDbBlockTableRecord
  2
_FILLED
  0
ENDTAB
  0
TABLE
  2
DIMSTYLE
  5
A
100
AcDbSymbolTable
 70
1
100
AcDbDimStyleTable
 71
0
  0
DIMSTYLE
105
217
100
AcDbSymbolTableRecord
100
AcDbDimStyleTableRecord
  2
STANDARD
 70
0
  3

  4

 40
1.0
 41
3.0
 42
0.5
 43
0.38
 44
1.5
 45
0.0
 46
0.0
 47
0.01
 48
0.01
140
3.0
141
0.09
142
0.0
143
25.4
144
1.0
145
0.0
146
1.0
147
0.625
 71
1
 72
0
 73
0
 74
0
 75
0
 76
0
 77
1
 78
8
 79
2
170
0
171
1
172
0
173
0
174
0
175
0
176
0
177
0
178
0
270
2
179
2
271
2
272
2
273
2
274
2
275
0
280
0
281
0
282
0
283
1
284
8
285
0
286
0
287
3
288
0
340
11
278
44
341
216
342
216
343
216
344
216
  0
ENDTAB
  0
ENDSEC
  0
SECTION
  2
BLOCKS
  0
BLOCK
  5
20
100
AcDbEntity
  8
0
100
AcDbBlockBegin
  2
*Model_Space
 70
0
 10
0.0
 20
0.0
 30
0.0
  3
*Model_Space
  1

  0
ENDBLK
  5
21
100
AcDbEntity
  8
0
100
AcDbBlockEnd
  0
BLOCK
  5
1C
100
AcDbEntity
  8
0
100
AcDbBlockBegin
  2
*Paper_Space
 70
0
 10
0.0
 20
0.0
 30
0.0
  3
*Paper_Space
  1

  0
ENDBLK
  5
1D
100
AcDbEntity
  8
0
100
AcDbBlockEnd
  0
BLOCK
  5
218
100
AcDbEntity
  8
0
100
AcDbBlockBegin
  2
_FILLED
 70
64
 10
0.0
 20
0.0
  3
_FILLED
  1

  0
SOLID
  5
219
100
AcDbEntity
  8
0
  6
BYBLOCK
 62
0
100
AcDbTrace
 10
0.0
 20
0.0
 11
-1.0
 21
0.3166666667
 12
-1.0
 22
-0.3166666667
 13
-1.0
 23
-0.3166666667
  0
ENDBLK
  5
21A
100
AcDbEntity
  8
0
  6
BYBLOCK
 62
0
100
AcDbBlockEnd
  0
ENDSEC
  0
SECTION
  2
ENTITIES
  0
LWPOLYLINE
  5
21B
100
AcDbEntity
  8
LAY0001
100
AcDbPolyline
 62
250
  6
CONTINUOUS
 90
9
 70
0
 10
-9.329826631
 20
25.871134835
 10
-9.3093246837
 20
25.882307818
 10
-9.2803272583
 20
25.8925862755
 10
-9.2488679782
 20
25.8980057804
 10
-9.2153327426
 20
25.8984885188
 10
-9.1802309399
 20
25.8940559786
 10
-9.1440119325
 20
25.8848288127
 10
-9.1070357837
 20
25.8709601009
 10
-9.0697076297
 20
25.8526528739
  0
LINE
  5
21C
100
AcDbEntity
  8
LAY0001
100
AcDbLine
 62
7
  6
CONTINUOUS
 10
-9.329826631
 20
25.871134835
 11
-7.0447408541
 21
27.332420698
  0
LINE
  5
21D
100
AcDbEntity
  8
LAY0001
100
AcDbLine
 62
250
  6
CONTINUOUS
 10
-9.0697076297
 20
25.8526528739
 11
-6.7883462533
 21
27.311557026
  0
LINE
  5
21E
100
AcDbEntity
  8
ASSI
100
AcDbLine
 62
250
  6
CONTINUOUS
 10
-2.4020866399
 20
25.4293111855
 11
-2.4059393617
 21
25.4273969201
  0
LINE
  5
21F
100
AcDbEntity
  8
ASSI
100
AcDbLine
 62
250
  6
CONTINUOUS
 10
-1.7747251048
 20
23.9607042362
 11
-0.7815421561
 21
24.5341575922
  0
LINE
  5
220
100
AcDbEntity
  8
ASSI
100
AcDbLine
 62
250
  6
CONTINUOUS
 10
-1.6902886269
 20
23.682902538
 11
-0.6401423391
 21
24.2892459251
  0
LINE
  5
221
100
AcDbEntity
  8
ASSI
100
AcDbLine
 62
250
  6
CONTINUOUS
 10
1.2395208012
 20
25.2516136761
 11
-0.5840102991
 21
24.2441570025
  0
LINE
  5
222
100
AcDbEntity
  8
ASSI
100
AcDbLine
 62
250
  6
CONTINUOUS
 10
1.8998636547
 20
25.1627170392
 11
-0.854614369
 21
23.6412481301
  0
LINE
  5
223
100
AcDbEntity
  8
RACCORDO
100
AcDbLine
 62
250
  6
CONTINUOUS
 10
2.068372544
 20
25.70737525
 11
1.2395208012
 21
25.2516136761
  0
LINE
  5
224
100
AcDbEntity
  8
RACCORDO
100
AcDbLine
 62
250
  6
CONTINUOUS
 10
2.7201726801
 20
25.6138234842
 11
1.8998044503
 21
25.162751223
  0
LINE
  5
225
100
AcDbEntity
  8
RACCORDO
100
AcDbLine
 62
7
  6
CONTINUOUS
 10
1.9729541577
 20
25.6652066114
 11
-0.5593082146
 21
24.2778128202
  0
LINE
  5
226
100
AcDbEntity
  8
RACCORDO
100
AcDbLine
 62
250
  6
CONTINUOUS
 10
1.9777947766
 20
25.6675999421
 11
1.9730961774
 21
25.6650258264
  0
LINE
  5
227
100
AcDbEntity
  8
ASSI
100
AcDbLine
 62
7
  6
CONTINUOUS
 10
-2.4059393617
 20
25.4273969201
 11
-2.9853984034
 21
25.1157825996
  0
LINE
  5
228
100
AcDbEntity
  8
ASSI
100
AcDbLine
 62
250
  6
CONTINUOUS
 10
-2.3087460219
 20
25.415945964
 11
-2.9282598145
 21
25.0827914945
  0
LWPOLYLINE
  5
229
100
AcDbEntity
  8
ASSI
100
AcDbPolyline
 62
250
  6
CONTINUOUS
 90
8
 70
0
 10
1.9181841905
 20
24.558115554
 10
1.921715905
 20
24.5599438388
 10
1.9350623947
 20
24.5646483876
 10
1.9496379552
 20
24.566586664
 10
1.9652200865
 20
24.5657290261
 10
1.9815709294
 20
24.5620885249
 10
1.9984409028
 20
24.5557206907
 10
2.0155724851
 20
24.5467226891
  0
LWPOLYLINE
  5
22A
100
AcDbEntity
  8
ASSI
100
AcDbPolyline
 62
250
  6
CONTINUOUS
 90
8
 70
0
 10
1.7770904832
 20
24.4794551744
 10
1.7805582839
 20
24.4812399806
 10
1.7939451261
 20
24.4859292671
 10
1.8085660284
 20
24.4878401708
 10
1.824164112
 20
24.4869469761
 10
1.8404845181
 20
24.4832829269
 10
1.8572860092
 20
24.4769199228
 10
1.8743120451
 20
24.4679696796
  0
LWPOLYLINE
  5
22B
100
AcDbEntity
  8
ASSI
100
AcDbPolyline
 62
250
  6
CONTINUOUS
 90
9
 70
0
 10
-0.7815421561
 20
24.5341575922
 10
-0.7669387737
 20
24.5414201585
 10
-0.7525183027
 20
24.5468403421
 10
-0.7384352467
 20
24.5503600716
 10
-0.7248405046
 20
24.5519416368
 10
-0.7118797212
 20
24.5515680974
 10
-0.6996917324
 20
24.5492434493
 10
-0.6884071167
 20
24.5449925815
 10
-0.6840054671
 20
24.5426656234
  0
LINE
  5
22C
100
AcDbEntity
  8
RACCORDO
100
AcDbLine
 62
7
  6
CONTINUOUS
 10
1.985288481
 20
25.6713160597
 11
1.9729878561
 21
25.6652235482
  0
LINE
  5
22D
100
AcDbEntity
  8
RACCORDO
100
AcDbLine
 62
250
  6
CONTINUOUS
 10
2.0767571325
 20
25.7114822907
 11
2.068372544
 21
25.70737525
  0
LINE
  5
22E
100
AcDbEntity
  8
RACCORDO
100
AcDbLine
 62
250
  6
CONTINUOUS
 10
-0.5840102991
 20
24.265908711
 11
-0.5602848548
 21
24.2770431307
  0
LINE
  5
22F
100
AcDbEntity
  8
RACCORDO
100
AcDbLine
 62
7
  6
CONTINUOUS
 10
-0.5590575734
 20
24.2779377535
 11
-0.5840102991
 21
24.2665654552
  0
LINE
  5
230
100
AcDbEntity
  8
DRAFT
100
AcDbLine
 62
7
  6
CONTINUOUS
 10
1.3518088875
 20
23.7454746771
 11
1.3996583848
 21
23.766882914
  0
LINE
  5
231
100
AcDbEntity
  8
RACCORDO
100
AcDbLine
 62
250
  6
CONTINUOUS
 10
1.9777947766
 20
25.6675999421
 11
1.9852383941
 21
25.6712937719
  0
LINE
  5
232
100
AcDbEntity
  8
RACCORDO
100
AcDbLine
 62
250
  6
CONTINUOUS
 10
2.0055337455
 20
25.6803035831
 11
2.0179923188
 21
25.6853897483
  0
LINE
  5
233
100
AcDbEntity
  8
RACCORDO
100
AcDbLine
 62
7
  6
CONTINUOUS
 10
2.025853209
 20
25.6892682485
 11
1.9852383941
 21
25.6712937719
  0
LINE
  5
234
100
AcDbEntity
  8
RACCORDO
100
AcDbLine
 62
250
  6
CONTINUOUS
 10
2.0179923188
 20
25.6853897483
 11
2.025853209
 21
25.6892682485
  0
LWPOLYLINE
  5
235
100
AcDbEntity
  8
RACCORDO
100
AcDbPolyline
 62
7
  6
CONTINUOUS
 90
3
 70
0
 10
2.0767571325
 20
25.7114822907
 10
2.0665643345
 20
25.7070620757
 10
2.025853209
 20
25.6892682485
  0
LINE
  5
236
100
AcDbEntity
  8
RACCORDO
100
AcDbLine
 62
250
  6
CONTINUOUS
 10
2.0582846742
 20
25.7030005385
 11
2.0665643345
 21
25.7070620757
  0
LWPOLYLINE
  5
237
100
AcDbEntity
  8
RACCORDO
100
AcDbPolyline
 62
250
  6
CONTINUOUS
 90
8
 70
0
 10
8.3727908923
 20
27.5085931969
 10
8.3869686445
 20
27.5146126063
 10
8.4020658271
 20
27.5180461622
 10
8.4184915749
 20
27.5189761865
 10
8.4361518124
 20
27.5172308252
 10
8.4548992962
 20
27.5126522249
 10
8.4745265833
 20
27.5051208497
 10
8.4948026674
 20
27.4945591949
  0
LWPOLYLINE
  5
238
100
AcDbEntity
  8
ASSI
100
AcDbPolyline
 62
250
  6
CONTINUOUS
 90
4
 70
0
 10
4.3920254854
 20
24.7656443712
 10
4.4451920964
 20
24.7880169962
 10
4.4999738652
 20
24.8140126516
 10
4.5562417302
 20
24.8437589594
  0
LINE
  5
239
100
AcDbEntity
  8
RACCORDO
100
AcDbLine
 62
250
  6
CONTINUOUS
 10
2.0683725439
 20
25.70737525
 11
2.109344354
 21
25.7229278965
  0
LWPOLYLINE
  5
23A
100
AcDbEntity
  8
ASSI
100
AcDbPolyline
 62
250
  6
CONTINUOUS
 90
13
 70
0
 10
1.2395208011
 20
25.2516136761
 10
1.2864367657
 20
25.2693141609
 10
1.3354519223
 20
25.2824804112
 10
1.3863933552
 20
25.2910669302
 10
1.4390839117
 20
25.2950461158
 10
1.4933347813
 20
25.2944038827
 10
1.5489461726
 20
25.2891396776
 10
1.6057223196
 20
25.2792736273
 10
1.6634614963
 20
25.2648428031
 10
1.721948518
 20
25.2458974044
 10
1.7809725451
 20
25.2225065827
 10
1.8403279853
 20
25.1947573654
 10
1.8998044503
 20
25.162751223
  0
LWPOLYLINE
  5
23B
100
AcDbEntity
  8
RACCORDO
100
AcDbPolyline
 62
250
  6
CONTINUOUS
 90
12
 70
0
 10
4.0047862601
 20
25.0820041029
 10
3.9956038143
 20
25.0786021571
 10
3.9861244587
 20
25.075460381
 10
3.9764506315
 20
25.0725750933
 10
3.9665995738
 20
25.0699517448
 10
3.9565540444
 20
25.0675848847
 10
3.9463647593
 20
25.0654544782
 10
3.9360400351
 20
25.0635589396
 10
3.925571555
 20
25.0618998546
 10
3.9149850844
 20
25.060461946
 10
3.9042869837
 20
25.0592424564
 10
3.8934708925
 20
25.0582441432
  0
LWPOLYLINE
  5
23C
100
AcDbEntity
  8
ASSI
100
AcDbPolyline
 62
7
  6
CONTINUOUS
 90
5
 70
0
 10
7.4747877681
 20
26.5222382421
 10
7.45050821
 20
26.514778529
 10
7.4238013923
 20
26.5046541584
 10
7.3970862383
 20
26.492503511
 10
7.3748251483
 20
26.4808125365
  0
LINE
  5
23D
100
AcDbEntity
  8
LAY0001
100
AcDbLine
 62
7
  6
CONTINUOUS
 10
-1.7747251048
 20
24.4167550103
 11
-2.2766980421
 21
23.8940167233
  0
LINE
  5
23E
100
AcDbEntity
  8
RACCORDO
100
AcDbLine
 62
7
  6
CONTINUOUS
 10
-0.5593990791
 20
24.277770837
 11
-0.5602848547
 21
24.2770431305
  0
LINE
  5
23F
100
AcDbEntity
  8
ASSI
100
AcDbLine
 62
250
  6
CONTINUOUS
 10
7.8576039192
 20
26.2469211465
 11
4.991827012
 21
24.5922574769
  0
LINE
  5
240
100
AcDbEntity
  8
ASSI
100
AcDbLine
 62
250
  6
CONTINUOUS
 10
7.9988314624
 20
26.0106302282
 11
5.1330545552
 21
24.3559665586
  0
LINE
  5
241
100
AcDbEntity
  8
ASSI
100
AcDbLine
 62
250
  6
CONTINUOUS
 10
5.4541159389
 20
24.308539269
 11
4.0276610752
 21
23.4849221083
  0
LINE
  5
242
100
AcDbEntity
  8
ASSI
100
AcDbLine
 62
250
  6
CONTINUOUS
 10
5.5953434821
 20
24.0722483507
 11
4.3028956012
 21
23.3260051424
  0
LWPOLYLINE
  5
243
100
AcDbEntity
  8
ASSI
100
AcDbPolyline
 62
250
  6
CONTINUOUS
 90
13
 70
0
 10
1.2308857535
 20
23.3629968298
 10
1.2435554864
 20
23.3702987089
 10
1.2562056793
 20
23.3785949532
 10
1.2687520882
 20
23.3877989894
 10
1.2810061753
 20
23.3977199735
 10
1.2930098436
 20
23.4083467888
 10
1.3050016758
 20
23.4199275727
 10
1.3170175372
 20
23.4325795372
 10
1.3287916039
 20
23.446104909
 10
1.3400880841
 20
23.4603079961
 10
1.35077031
 20
23.4750415359
 10
1.3607816956
 20
23.4902267556
 10
1.3700273021
 20
23.505735739
  0
LWPOLYLINE
  5
244
100
AcDbEntity
  8
ASSI
100
AcDbPolyline
 62
250
  6
CONTINUOUS
 90
16
 70
0
 10
4.991827012
 20
24.5922574769
 10
4.9594512967
 20
24.5741754232
 10
4.9278480715
 20
24.5576769462
 10
4.8970420537
 20
24.5426934343
 10
4.8672970424
 20
24.5292630271
 10
4.8383850765
 20
24.5171915676
 10
4.8095954624
 20
24.5061348846
 10
4.7809197666
 20
24.4960820442
 10
4.752407315
 20
24.4870509043
 10
4.7234523714
 20
24.478877919
 10
4.694024022
 20
24.4716126279
 10
4.6642237531
 20
24.4653457787
 10
4.6336703085
 20
24.4600893384
 10
4.6022805756
 20
24.4559498747
 10
4.5702578543
 20
24.4530758809
 10
4.5376701922
 20
24.4515943964
  0
LINE
  5
245
100
AcDbEntity
  8
ASSI
100
AcDbLine
 62
7
  6
CONTINUOUS
 10
1.7769237109
 20
24.4793625223
 11
1.9181841905
 21
24.558115554
  0
LINE
  5
246
100
AcDbEntity
  8
ASSI
100
AcDbLine
 62
250
  6
CONTINUOUS
 10
1.8743120451
 20
24.4679696796
 11
2.0155724851
 21
24.5467226891
  0
LINE
  5
247
100
AcDbEntity
  8
ASSI
100
AcDbLine
 62
7
  6
CONTINUOUS
 10
-0.0312901553
 20
22.7250176127
 11
1.1334977673
 21
23.3743894705
  0
LINE
  5
248
100
AcDbEntity
  8
ASSI
100
AcDbLine
 62
250
  6
CONTINUOUS
 10
0.0265895278
 20
22.6915986091
 11
1.2308861024
 21
23.3629966283
  0
LINE
  5
249
100
AcDbEntity
  8
ASSI
100
AcDbLine
 62
7
  6
CONTINUOUS
 10
7.3748437023
 20
26.4808228844
 11
6.6077201953
 21
26.0531498228
  0
LINE
  5
24A
100
AcDbEntity
  8
ASSI
100
AcDbLine
 62
7
  6
CONTINUOUS
 10
4.4587931238
 20
24.8551278325
 11
5.6898417531
 21
25.5414305495
  0
LINE
  5
24B
100
AcDbEntity
  8
ASSI
100
AcDbLine
 62
250
  6
CONTINUOUS
 10
4.5562417302
 20
24.8437589594
 11
5.78723012
 21
25.530037725
  0
LINE
  5
24C
100
AcDbEntity
  8
ASSI
100
AcDbLine
 62
250
  6
CONTINUOUS
 10
1.7769237109
 20
24.4793625223
 11
1.7770904832
 21
24.4794551744
  0
LWPOLYLINE
  5
24D
100
AcDbEntity
  8
ASSI
100
AcDbPolyline
 62
250
  6
CONTINUOUS
 90
16
 70
0
 10
5.1330545552
 20
24.3559665586
 10
5.0963276498
 20
24.335601844
 10
5.0605311423
 20
24.3168712162
 10
5.0256650327
 20
24.2997746754
 10
4.9919826886
 20
24.2844676639
 10
4.9592307424
 20
24.2707947393
 10
4.9266490907
 20
24.2582895744
 10
4.8941913436
 20
24.2468319799
 10
4.8619038911
 20
24.2365421451
 10
4.8291657998
 20
24.2273143103
 10
4.7958775544
 20
24.2190370661
 10
4.7621386702
 20
24.211821822
 10
4.7276267601
 20
24.2058970464
 10
4.6922343618
 20
24.2013388956
 10
4.6560689376
 20
24.1980712134
 10
4.6191304876
 20
24.1960939998
  0
LINE
  5
24E
100
AcDbEntity
  8
ASSI
100
AcDbLine
 62
250
  6
CONTINUOUS
 10
7.4809292427
 20
26.4742337593
 11
6.7051085296
 21
26.0417569801
  0
LWPOLYLINE
  5
24F
100
AcDbEntity
  8
ASSI
100
AcDbPolyline
 62
7
  6
CONTINUOUS
 90
10
 70
0
 10
4.4587931238
 20
24.8551278325
 10
4.4465163663
 20
24.8483585248
 10
4.3836908398
 20
24.8159979893
 10
4.3222925188
 20
24.7881624168
 10
4.2628048984
 20
24.7649586912
 10
4.2054011293
 20
24.746318418
 10
4.1500321918
 20
24.7321040058
 10
4.0969326152
 20
24.7222882864
 10
4.0465127945
 20
24.7168406108
 10
4.0385957926
 20
24.7163605102
  0
LWPOLYLINE
  5
250
100
AcDbEntity
  8
ASSI
100
AcDbPolyline
 62
250
  6
CONTINUOUS
 90
13
 70
0
 10
2.0155724851
 20
24.5467226891
 10
2.0283098196
 20
24.5536807864
 10
2.0406660353
 20
24.5599530832
 10
2.0526282241
 20
24.5655742585
 10
2.0641794289
 20
24.5705785796
 10
2.0753177926
 20
24.575003035
 10
2.0860561624
 20
24.5788852572
 10
2.0963923452
 20
24.5822599434
 10
2.1063208462
 20
24.5851602486
 10
2.1158517058
 20
24.5876188118
 10
2.1249865954
 20
24.5896683652
 10
2.1337245024
 20
24.5913404398
 10
2.1420730952
 20
24.59266416
  0
LINE
  5
251
100
AcDbEntity
  8
RACCORDO
100
AcDbLine
 62
7
  6
CONTINUOUS
 10
8.3726732234
 20
27.5085297967
 11
8.3727908923
 21
27.5085931969
  0
LINE
  5
252
100
AcDbEntity
  8
ASSI
100
AcDbLine
 62
7
  6
CONTINUOUS
 10
8.3727916725
 20
27.5085936165
 11
3.9089555986
 21
25.1080870314
  0
LINE
  5
253
100
AcDbEntity
  8
RACCORDO
100
AcDbLine
 62
250
  6
CONTINUOUS
 10
8.4948026674
 20
27.4945591949
 11
4.0304496996
 21
25.0937746409
  0
LWPOLYLINE
  5
254
100
AcDbEntity
  8
RACCORDO
100
AcDbPolyline
 62
7
  6
CONTINUOUS
 90
25
 70
0
 10
3.9089917568
 20
25.1081057949
 10
3.9089257075
 20
25.1080713456
 10
3.9075871898
 20
25.1074417367
 10
3.9042870255
 20
25.1061322036
 10
3.8986976131
 20
25.1042747064
 10
3.8907392875
 20
25.1021085109
 10
3.8806641949
 20
25.0999144446
 10
3.8689654545
 20
25.0979423197
 10
3.8560266713
 20
25.0963429167
 10
3.8419989964
 20
25.0951958195
 10
3.8270517723
 20
25.0945688999
 10
3.8113675892
 20
25.0945178518
 10
3.7951055448
 20
25.0950841629
 10
3.778333157
 20
25.0963058775
 10
3.7610715814
 20
25.0982310299
 10
3.7435865286
 20
25.100876513
 10
3.7262957982
 20
25.1041983679
 10
3.709334709
 20
25.108168641
 10
3.6928151266
 20
25.1127528098
 10
3.6770687853
 20
25.1178293463
 10
3.6622212016
 20
25.1233002706
 10
3.6482713921
 20
25.129096441
 10
3.6352602099
 20
25.1351227614
 10
3.6232919727
 20
25.1412309405
 10
3.6123140069
 20
25.1473295098
  0
LINE
  5
255
100
AcDbEntity
  8
ASSI
100
AcDbLine
 62
250
  6
CONTINUOUS
 10
7.3783769544
 20
26.4826519059
 11
7.3748437023
 21
26.4808228844
  0
LWPOLYLINE
  5
256
100
AcDbEntity
  8
ASSI
100
AcDbPolyline
 62
250
  6
CONTINUOUS
 90
8
 70
0
 10
1.1335057506
 20
23.3743939205
 10
1.1370312867
 20
23.3762186201
 10
1.1503778688
 20
23.3809227559
 10
1.1649533539
 20
23.3828606482
 10
1.1805352555
 20
23.3820027254
 10
1.1968857235
 20
23.3783620902
 10
1.2137551737
 20
23.371994322
 10
1.2308861024
 20
23.3629966283
  0
LWPOLYLINE
  5
257
100
AcDbEntity
  8
ASSI
100
AcDbPolyline
 62
250
  6
CONTINUOUS
 90
8
 70
0
 10
6.6077488789
 20
26.0531658044
 10
6.6112534472
 20
26.0549788443
 10
6.6246000163
 20
26.0596830415
 10
6.6391755137
 20
26.0616209909
 10
6.6547574504
 20
26.0607631104
 10
6.6711079749
 20
26.0571224954
 10
6.6879775033
 20
26.0507547182
 10
6.7051085296
 20
26.0417569801
  0
LWPOLYLINE
  5
258
100
AcDbEntity
  8
ASSI
100
AcDbPolyline
 62
250
  6
CONTINUOUS
 90
8
 70
0
 10
5.6899669925
 20
25.541500188
 10
5.6933749957
 20
25.5432595665
 10
5.7067215661
 20
25.5479637662
 10
5.7212970651
 20
25.5499017171
 10
5.7368790036
 20
25.5490438374
 10
5.7532295296
 20
25.5454032225
 10
5.7700990593
 20
25.5390354449
 10
5.7872300864
 20
25.5300377063
  0
LWPOLYLINE
  5
259
100
AcDbEntity
  8
ASSI
100
AcDbPolyline
 62
250
  6
CONTINUOUS
 90
8
 70
0
 10
4.4588492841
 20
24.855159188
 10
4.4623866485
 20
24.8569808239
 10
4.475733218
 20
24.8616850214
 10
4.4903087157
 20
24.863622971
 10
4.5058906525
 20
24.8627650907
 10
4.5222411767
 20
24.8591244755
 10
4.5391107047
 20
24.852756698
 10
4.5562417302
 20
24.8437589594
  0
LWPOLYLINE
  5
25A
100
AcDbEntity
  8
RACCORDO
100
AcDbPolyline
 62
250
  6
CONTINUOUS
 90
4
 70
0
 10
4.0304496996
 20
25.0937746409
 10
4.0221921296
 20
25.0895909584
 10
4.0136376498
 20
25.0856674457
 10
4.0047862601
 20
25.0820041029
  0
LWPOLYLINE
  5
25B
100
AcDbEntity
  8
ASSI
100
AcDbPolyline
 62
250
  6
CONTINUOUS
 90
6
 70
0
 10
6.7051085296
 20
26.0417569801
 10
6.6764145532
 20
26.0272169864
 10
6.6458618802
 20
26.0144661986
 10
6.6134505105
 20
26.003504617
 10
6.5788092877
 20
25.9942385029
 10
6.5423093683
 20
25.9867615948
  0
LWPOLYLINE
  5
25C
100
AcDbEntity
  8
ASSI
100
AcDbPolyline
 62
7
  6
CONTINUOUS
 90
15
 70
0
 10
6.6065440383
 20
26.0524997712
 10
6.5942628927
 20
26.0462908113
 10
6.5796569602
 20
26.0400178439
 10
6.5628757806
 20
26.0339642794
 10
6.5439711744
 20
26.0283361395
 10
6.5232115921
 20
26.0233756779
 10
6.5007800072
 20
26.0192658328
 10
6.4769636971
 20
26.0161777589
 10
6.4522560327
 20
26.0142582645
 10
6.4269271507
 20
26.01358891
 10
6.401386524
 20
26.0142223821
 10
6.3763810722
 20
26.016129835
 10
6.3522434109
 20
26.0192372654
 10
6.3293372982
 20
26.0234253921
 10
6.323285192
 20
26.0247487883
  0
LINE
  5
25D
100
AcDbEntity
  8
DRAFT
100
AcDbLine
 62
7
  6
CONTINUOUS
 10
1.3518088875
 20
23.7454746771
 11
-0.3374172101
 21
22.9017715374
  0
LWPOLYLINE
  5
25E
100
AcDbEntity
  8
RACCORDO
100
AcDbPolyline
 62
250
  6
CONTINUOUS
 90
9
 70
0
 10
3.9089914805
 20
25.1081063162
 10
3.9134679469
 20
25.1103403143
 10
3.9277968105
 20
25.1154559741
 10
3.9432162471
 20
25.1180795533
 10
3.9595573816
 20
25.118182301
 10
3.9766412266
 20
25.1157630825
 10
3.9942806741
 20
25.1108483929
 10
4.0122825485
 20
25.1034920565
 10
4.0304496972
 20
25.0937746396
  0
LWPOLYLINE
  5
25F
100
AcDbEntity
  8
ASSI
100
AcDbPolyline
 62
250
  6
CONTINUOUS
 90
5
 70
0
 10
7.7834306391
 20
22.8052143548
 10
7.8217315631
 20
22.8215226888
 10
7.8619716117
 20
22.8403380654
 10
7.9038265945
 20
22.8617214851
 10
7.9472404926
 20
22.8858387732
  0
LWPOLYLINE
  5
260
100
AcDbEntity
  8
ASSI
100
AcDbPolyline
 62
250
  6
CONTINUOUS
 90
6
 70
0
 10
10.8566570348
 20
24.562663972
 10
10.8641699895
 20
24.5658578059
 10
10.8717922482
 20
24.5689068498
 10
10.8795999737
 20
24.5718285448
 10
10.8876134191
 20
24.5746118229
 10
10.8957978492
 20
24.5772247201
  0
LWPOLYLINE
  5
261
100
AcDbEntity
  8
ASSI
100
AcDbPolyline
 62
250
  6
CONTINUOUS
 90
13
 70
0
 10
12.9268263095
 20
24.5151290598
 10
12.9338184477
 20
24.5179513602
 10
12.9407114308
 20
24.5208706409
 10
12.9474992745
 20
24.523886532
 10
12.954147128
 20
24.5269836457
 10
12.9606790764
 20
24.5301758162
 10
12.9671709736
 20
24.5335087672
 10
12.9736143746
 20
24.5369856707
 10
12.9799908875
 20
24.5406063755
 10
12.9863483511
 20
24.5444156107
 10
12.9926857906
 20
24.5484308422
 10
12.9989600277
 20
24.5526401173
 10
13.0051482387
 20
24.5570454151
  0
LWPOLYLINE
  5
262
100
AcDbEntity
  8
ASSI
100
AcDbPolyline
 62
250
  6
CONTINUOUS
 90
6
 70
0
 10
10.7156693625
 20
24.5518652472
 10
10.7293935877
 20
24.5571793386
 10
10.7444549661
 20
24.5596156764
 10
10.7606126647
 20
24.5591353034
 10
10.7776083203
 20
24.5557459006
 10
10.7951701706
 20
24.5495016651
  0
LINE
  5
263
100
AcDbEntity
  8
LAY0001
100
AcDbLine
 62
7
  6
CONTINUOUS
 10
3.1889386671
 20
21.5507977577
 11
2.3194960356
 21
21.2402318667
  0
LWPOLYLINE
  5
264
100
AcDbEntity
  8
ASSI
100
AcDbPolyline
 62
250
  6
CONTINUOUS
 90
3
 70
0
 10
7.7811593117
 20
22.2629197703
 10
7.7134842179
 20
22.239788739
 10
7.6983447583
 20
22.2346836815
  0
LWPOLYLINE
  5
265
100
AcDbEntity
  8
ASSI
100
AcDbPolyline
 62
7
  6
CONTINUOUS
 90
5
 70
0
 10
10.8136044714
 20
24.5933711783
 10
10.7850367989
 20
24.5841901796
 10
10.7568351725
 20
24.5727981376
 10
10.7292069933
 20
24.5593589064
 10
10.712975748
 20
24.5503894034
  0
LINE
  5
266
100
AcDbEntity
  8
ASSI
100
AcDbLine
 62
250
  6
CONTINUOUS
 10
10.8957978492
 20
24.5772247201
 11
10.9041449356
 21
24.5796455111
  0
LWPOLYLINE
  5
267
100
AcDbEntity
  8
LAY0001
100
AcDbPolyline
 62
7
  6
CONTINUOUS
 90
5
 70
0
 10
8.6601326907
 20
-18.2230868817
 10
8.6417245824
 20
-18.2229185283
 10
8.6229196323
 20
-18.2256018825
 10
8.6039620924
 20
-18.2312407747
 10
8.5851127491
 20
-18.2399134629
  0
LINE
  5
268
100
AcDbEntity
  8
LAY0001
100
AcDbLine
 62
7
  6
CONTINUOUS
 10
-9.310464761
 20
-17.1348766905
 11
5.5577494074
 21
-25.7195972088
  0
LINE
  5
269
100
AcDbEntity
  8
LAY0001
100
AcDbLine
 62
250
  6
CONTINUOUS
 10
-9.4140060715
 20
-16.9060082599
 11
5.4542080969
 21
-25.4907287783
  0
LWPOLYLINE
  5
26A
100
AcDbEntity
  8
LAY0001
100
AcDbPolyline
 62
250
  6
CONTINUOUS
 90
9
 70
0
 10
-9.310464761
 20
-17.1348766905
 10
-9.3260646633
 20
-17.1246678643
 10
-9.3486438775
 20
-17.1047518769
 10
-9.3681698888
 20
-17.0805676216
 10
-9.3844358315
 20
-17.0523713153
 10
-9.3972693781
 20
-17.0204616802
 10
-9.4065345654
 20
-16.9851767788
 10
-9.4121332346
 20
-16.9468904322
 10
-9.4140060715
 20
-16.9060082599
  0
LWPOLYLINE
  5
26B
100
AcDbEntity
  8
ASSI
100
AcDbPolyline
 62
250
  6
CONTINUOUS
 90
3
 70
0
 10
-0.9900240806
 20
23.5548010823
 10
-1.0105525262
 20
23.5271423818
 10
-1.0293060123
 20
23.4987085791
  0
LWPOLYLINE
  5
26C
100
AcDbEntity
  8
ASSI
100
AcDbPolyline
 62
250
  6
CONTINUOUS
 90
3
 70
0
 10
-0.9436209336
 20
23.6086777748
 10
-0.9677135497
 20
23.5819795466
 10
-0.9900240806
 20
23.5548010823
  0
LWPOLYLINE
  5
26D
100
AcDbEntity
  8
ASSI
100
AcDbPolyline
 62
250
  6
CONTINUOUS
 90
8
 70
0
 10
-0.640798612
 20
23.8605442827
 10
-0.6396190512
 20
23.8618435159
 10
-0.6356209134
 20
23.8682512492
 10
-0.6332399698
 20
23.8760974589
 10
-0.632502648
 20
23.8852960438
 10
-0.6334169241
 20
23.8957463573
 10
-0.635972776
 20
23.9073347628
 10
-0.6401423391
 20
23.9199349356
  0
LINE
  5
26E
100
AcDbEntity
  8
ASSI
100
AcDbLine
 62
250
  6
CONTINUOUS
 10
-0.6401423391
 20
23.9199349356
 11
-0.9436209336
 21
23.6086777748
  0
LINE
  5
26F
100
AcDbEntity
  8
ASSI
100
AcDbLine
 62
7
  6
CONTINUOUS
 10
-0.6408109295
 20
23.8605316405
 11
-0.9442895243
 21
23.5492744796
  0
LWPOLYLINE
  5
270
100
AcDbEntity
  8
ASSI
100
AcDbPolyline
 62
250
  6
CONTINUOUS
 90
3
 70
0
 10
2.8818604074
 20
24.1623322543
 10
2.8763751594
 20
24.1571817118
 10
2.8734890523
 20
24.1509667426
  0
LWPOLYLINE
  5
271
100
AcDbEntity
  8
ASSI
100
AcDbPolyline
 62
250
  6
CONTINUOUS
 90
10
 70
0
 10
5.6108662389
 20
22.3105301181
 10
5.5944482256
 20
22.2999464276
 10
5.5782522365
 20
22.2872975914
 10
5.5624972947
 20
22.2727546629
 10
5.5473964586
 20
22.2565143098
 10
5.5331539413
 20
22.2387961546
 10
5.5199623491
 20
22.2198398054
 10
5.5080000759
 20
22.1999016143
 10
5.497428891
 20
22.1792512109
 10
5.4883917518
 20
22.1581678566
  0
LWPOLYLINE
  5
272
100
AcDbEntity
  8
ASSI
100
AcDbPolyline
 62
250
  6
CONTINUOUS
 90
35
 70
0
 10
7.6493809802
 20
22.2049332493
 10
7.6394584074
 20
22.1987471496
 10
7.6294515773
 20
22.1924346069
 10
7.6193829311
 20
22.1860042103
 10
7.609294506
 20
22.1794282969
 10
7.5992335303
 20
22.1727448404
 10
7.5891527757
 20
22.165915867
 10
7.5789525947
 20
22.1587997914
 10
7.5686726475
 20
22.1514469318
 10
7.5582732739
 20
22.14380697
 10
7.5475358453
 20
22.135587366
 10
7.5364176779
 20
22.1267953848
 10
7.5249614556
 20
22.1174237613
 10
7.5130766006
 20
22.1071581602
 10
7.5007016467
 20
22.0959900578
 10
7.4878980603
 20
22.0839279777
 10
7.4747596621
 20
22.0706831546
 10
7.4612560323
 20
22.0562790222
 10
7.4474175908
 20
22.0406921467
 10
7.4334294188
 20
22.0235634619
 10
7.4192173589
 20
22.00487665
 10
7.4048555684
 20
21.9846480287
 10
7.3907516001
 20
21.9625674858
 10
7.3767302423
 20
21.9382837576
 10
7.3629667065
 20
21.9121481077
 10
7.3503941804
 20
21.8849042145
 10
7.3391066704
 20
21.8562477248
 10
7.32901017
 20
21.8264829917
 10
7.3207558466
 20
21.7972667529
 10
7.3146345762
 20
21.7687857655
 10
7.3103554828
 20
21.7408532724
 10
7.307697106
 20
21.7145657404
 10
7.3065856256
 20
21.6902886584
 10
7.3070948619
 20
21.6676565375
 10
7.3092248147
 20
21.6466693777
  0
LINE
  5
273
100
AcDbEntity
  8
ASSI
100
AcDbLine
 62
250
  6
CONTINUOUS
 10
7.6690659645
 20
22.2170053183
 11
7.6493809802
 21
22.2049332493
  0
LWPOLYLINE
  5
274
100
AcDbEntity
  8
ASSI
100
AcDbPolyline
 62
250
  6
CONTINUOUS
 90
3
 70
0
 10
7.6983447583
 20
22.2346836815
 10
7.6886216896
 20
22.2288553166
 10
7.6690659645
 20
22.2170053183
  0
LWPOLYLINE
  5
275
100
AcDbEntity
  8
ASSI
100
AcDbPolyline
 62
250
  6
CONTINUOUS
 90
10
 70
0
 10
7.3092248164
 20
21.6466693758
 10
7.326195214
 20
21.6568387658
 10
7.3448683038
 20
21.6659861293
 10
7.3649924665
 20
21.6739882056
 10
7.3862965295
 20
21.6807371669
 10
7.4084934213
 20
21.6861420706
 10
7.4312840389
 20
21.6901300858
 10
7.4543612793
 20
21.6926474737
 10
7.4774141769
 20
21.6936603124
 10
7.5001320945
 20
21.6931549539
  0
LINE
  5
276
100
AcDbEntity
  8
ASSI
100
AcDbLine
 62
250
  6
CONTINUOUS
 10
5.7472616649
 20
22.3920921258
 11
5.6108662389
 21
22.3105301181
  0
LINE
  5
277
100
AcDbEntity
  8
ASSI
100
AcDbLine
 62
250
  6
CONTINUOUS
 10
5.890591556
 20
22.1631211844
 11
5.75419613
 21
22.0815591768
  0
LINE
  5
278
100
AcDbEntity
  8
ASSI
100
AcDbLine
 62
250
  6
CONTINUOUS
 10
5.1111969683
 20
21.122553766
 11
4.5312568836
 21
20.7757600427
  0
LINE
  5
279
100
AcDbEntity
  8
ASSI
100
AcDbLine
 62
250
  6
CONTINUOUS
 10
5.2545268594
 20
20.8935828247
 11
4.7989851571
 21
20.621177093
  0
LINE
  5
27A
100
AcDbEntity
  8
ASSI
100
AcDbLine
 62
250
  6
CONTINUOUS
 10
9.5714188801
 20
23.3450945559
 11
8.3828257744
 21
22.6343372906
  0
LINE
  5
27B
100
AcDbEntity
  8
ASSI
100
AcDbLine
 62
250
  6
CONTINUOUS
 10
10.4576855282
 20
23.8750660459
 11
11.1983892825
 21
24.3179935476
  0
LINE
  5
27C
100
AcDbEntity
  8
ASSI
100
AcDbLine
 62
250
  6
CONTINUOUS
 10
9.7147487713
 20
23.1161236146
 11
8.5261556655
 21
22.4053663492
  0
LINE
  5
27D
100
AcDbEntity
  8
ASSI
100
AcDbLine
 62
250
  6
CONTINUOUS
 10
10.6010154515
 20
23.6460951238
 11
11.3417191736
 21
24.0890226062
  0
LWPOLYLINE
  5
27E
100
AcDbEntity
  8
ASSI
100
AcDbPolyline
 62
250
  6
CONTINUOUS
 90
7
 70
0
 10
8.1493996393
 20
22.1490787875
 10
8.1342130296
 20
22.1400188415
 10
8.1211625219
 20
22.130196002
 10
8.1104239522
 20
22.1197426406
 10
8.1021420019
 20
22.1087996256
 10
8.0964282415
 20
22.097514416
 10
8.0949175544
 20
22.091865059
  0
LWPOLYLINE
  5
27F
100
AcDbEntity
  8
ASSI
100
AcDbPolyline
 62
250
  6
CONTINUOUS
 90
13
 70
0
 10
11.3417191736
 20
24.0890226062
 10
11.3459529773
 20
24.0915032369
 10
11.3502194343
 20
24.0938875767
 10
11.3545185445
 20
24.0961756256
 10
11.3588344952
 20
24.0983643688
 10
11.3631830992
 20
24.100456821
 10
11.3676117946
 20
24.102462027
 10
11.3721240759
 20
24.1043871369
 10
11.3767164486
 20
24.1062250006
 10
11.381425868
 20
24.1079632126
 10
11.3862646524
 20
24.1095976378
 10
11.3912204836
 20
24.1111324114
 10
11.3962933615
 20
24.1125675333
  0
LWPOLYLINE
  5
280
100
AcDbEntity
  8
ASSI
100
AcDbPolyline
 62
250
  6
CONTINUOUS
 90
10
 70
0
 10
9.7179052229
 20
23.0870168912
 10
9.7364776238
 20
23.0978050926
 10
9.757039135
 20
23.1073741423
 10
9.7792619271
 20
23.1155714728
 10
9.8027916832
 20
23.1222663867
 10
9.8272532483
 20
23.1273521411
 10
9.8522566106
 20
23.1307476492
 10
9.8774031198
 20
23.1323987733
 10
9.9022918437
 20
23.132279188
 10
9.9265259597
 20
23.1303907998
  0
LINE
  5
281
100
AcDbEntity
  8
ASSI
100
AcDbLine
 62
7
  6
CONTINUOUS
 10
7.8471672157
 20
22.8957074354
 11
10.7130125678
 21
24.5504106783
  0
LINE
  5
282
100
AcDbEntity
  8
ASSI
100
AcDbLine
 62
250
  6
CONTINUOUS
 10
7.9472404926
 20
22.8858387732
 11
10.8130173998
 21
24.5405024428
  0
LWPOLYLINE
  5
283
100
AcDbEntity
  8
ASSI
100
AcDbPolyline
 62
250
  6
CONTINUOUS
 90
13
 70
0
 10
11.1983892825
 20
24.3179935476
 10
11.2054881537
 20
24.3220913872
 10
11.2126427965
 20
24.3260423171
 10
11.2198501028
 20
24.3298410319
 10
11.2270766721
 20
24.3334678338
 10
11.2343494219
 20
24.3369332593
 10
11.2417550087
 20
24.3402705469
 10
11.2492930722
 20
24.3434693605
 10
11.2569548392
 20
24.3465147498
 10
11.2648124372
 20
24.349419574
 10
11.2728848553
 20
24.3521718636
 10
11.2811387851
 20
24.3547417831
 10
11.2895660108
 20
24.3571082127
  0
LWPOLYLINE
  5
284
100
AcDbEntity
  8
ASSI
100
AcDbPolyline
 62
250
  6
CONTINUOUS
 90
13
 70
0
 10
8.5261556655
 20
22.4053663492
 10
8.491446932
 20
22.385333732
 10
8.4570615809
 20
22.3666880326
 10
8.422999612
 20
22.3494292511
 10
8.389287244
 20
22.333593413
 10
8.3558982584
 20
22.3191444927
 10
8.3227539991
 20
22.3059744144
 10
8.289862232
 20
22.2940673013
 10
8.2572151913
 20
22.28343903
 10
8.2247109236
 20
22.2740291542
 10
8.1923154443
 20
22.2658175251
 10
8.1600627379
 20
22.2588242915
 10
8.1279528046
 20
22.2530494533
  0
LWPOLYLINE
  5
285
100
AcDbEntity
  8
RACCORDO
100
AcDbPolyline
 62
7
  6
CONTINUOUS
 90
9
 70
0
 10
6.9456968596
 20
24.4054160515
 10
10.6312714769
 20
26.5333964485
 10
10.6402668975
 20
26.5384917577
 10
10.6481360011
 20
26.5428790315
 10
10.6547789903
 20
26.5464647067
 10
10.6600623718
 20
26.5492079641
 10
10.6638608611
 20
26.5511148517
 10
10.666125291
 20
26.5520439439
 10
10.666794907
 20
26.5520792049
  0
LWPOLYLINE
  5
286
100
AcDbEntity
  8
ASSI
100
AcDbPolyline
 62
250
  6
CONTINUOUS
 90
10
 70
0
 10
7.8354967328
 20
22.0095022991
 10
7.8257685675
 20
22.0039398447
 10
7.8159108704
 20
21.9985232521
 10
7.8059219487
 20
21.993239051
 10
7.7957717523
 20
21.9880622658
 10
7.785479567
 20
21.9829915749
 10
7.7751236959
 20
21.9780433393
 10
7.7646951531
 20
21.9731897264
 10
7.7542005718
 20
21.9684198166
 10
7.7437617399
 20
21.9637631811
  0
LWPOLYLINE
  5
287
100
AcDbEntity
  8
ASSI
100
AcDbPolyline
 62
7
  6
CONTINUOUS
 90
10
 70
0
 10
7.8471672158
 20
22.8957074355
 10
7.8356224809
 20
22.8891115721
 10
7.774452257
 20
22.8564855933
 10
7.7144802903
 20
22.8283814279
 10
7.6561293881
 20
22.8048939571
 10
7.5995870808
 20
22.7859751202
 10
7.5449125727
 20
22.7715442122
 10
7.4923690976
 20
22.7615853161
 10
7.4423454772
 20
22.7560588836
 10
7.4343979118
 20
22.7555684252
  0
LWPOLYLINE
  5
288
100
AcDbEntity
  8
ASSI
100
AcDbPolyline
 62
250
  6
CONTINUOUS
 90
10
 70
0
 10
8.3828257744
 20
22.6343372906
 10
8.3308334805
 20
22.6047955527
 10
8.2793378419
 20
22.5788068099
 10
8.2284587938
 20
22.556323528
 10
8.1786293314
 20
22.5374014781
 10
8.129621344
 20
22.5218209244
 10
8.0805797963
 20
22.5092834202
 10
8.0313187055
 20
22.4998304229
 10
7.9822868641
 20
22.4936468176
 10
7.9336170334
 20
22.4908172515
  0
LINE
  5
289
100
AcDbEntity
  8
RACCORDO
100
AcDbLine
 62
250
  6
CONTINUOUS
 10
12.8675765784
 20
24.7781459661
 11
13.5611678776
 21
25.1719788453
  0
LINE
  5
28A
100
AcDbEntity
  8
RACCORDO
100
AcDbLine
 62
250
  6
CONTINUOUS
 10
13.0051482387
 20
24.5570454151
 11
13.698360536
 21
24.9506630906
  0
LWPOLYLINE
  5
28B
100
AcDbEntity
  8
ASSI
100
AcDbPolyline
 62
250
  6
CONTINUOUS
 90
7
 70
0
 10
10.8130173998
 20
24.5405024428
 10
10.8202294355
 20
24.5445841322
 10
10.8274702134
 20
24.5485162873
 10
10.8347366158
 20
24.5522946185
 10
10.8419911284
 20
24.5558980208
 10
10.8492648915
 20
24.5593407927
 10
10.8566570348
 20
24.562663972
  0
LWPOLYLINE
  5
28C
100
AcDbEntity
  8
ASSI
100
AcDbPolyline
 62
250
  6
CONTINUOUS
 90
8
 70
0
 10
7.8472356606
 20
22.8957470087
 10
7.8498924549
 20
22.8972015774
 10
7.8636166802
 20
22.9025156689
 10
7.8786780586
 20
22.9049520068
 10
7.8948357572
 20
22.9044716338
 10
7.9118314128
 20
22.9010822311
 10
7.9293932632
 20
22.8948379956
 10
7.9472404926
 20
22.8858387732
  0
LWPOLYLINE
  5
28D
100
AcDbEntity
  8
ASSI
100
AcDbPolyline
 62
250
  6
CONTINUOUS
 90
13
 70
0
 10
9.5714188801
 20
23.3450945559
 10
9.5992130354
 20
23.3602060307
 10
9.6289733058
 20
23.3735669944
 10
9.6606996912
 20
23.3851774471
 10
9.6947574327
 20
23.3951385771
 10
9.7307812892
 20
23.4033491961
 10
9.7676755375
 20
23.4095057385
 10
9.805479474
 20
23.413516232
 10
9.8441538021
 20
23.4154726489
 10
9.8824849095
 20
23.4153473402
 10
9.9200682586
 20
23.4131310899
 10
9.9573083869
 20
23.4088331141
 10
10.0218954141
 20
23.3977028319
  0
LWPOLYLINE
  5
28E
100
AcDbEntity
  8
RACCORDO
100
AcDbPolyline
 62
7
  6
CONTINUOUS
 90
6
 70
0
 10
13.7312352951
 20
24.4978050705
 10
13.7381972456
 20
24.5015451769
 10
13.7439317721
 20
24.5044138707
 10
13.7483215117
 20
24.5063631016
 10
13.7511942548
 20
24.507391479
 10
13.7524377956
 20
24.5074849328
  0
LINE
  5
28F
100
AcDbEntity
  8
ASSI
100
AcDbLine
 62
250
  6
CONTINUOUS
 10
6.7742561423
 20
20.1310058697
 11
6.7704034205
 21
20.1290916043
  0
LWPOLYLINE
  5
290
100
AcDbEntity
  8
ASSI
100
AcDbPolyline
 62
250
  6
CONTINUOUS
 90
13
 70
0
 10
9.7147487712
 20
23.1161236137
 10
9.728411337
 20
23.1228435311
 10
9.7433306792
 20
23.1287197307
 10
9.7593780869
 20
23.1336764624
 10
9.7764456707
 20
23.1376477355
 10
9.7943641375
 20
23.1405789148
 10
9.8128956218
 20
23.1424238866
 10
9.8318317244
 20
23.1431686525
 10
9.8510483253
 20
23.1428061775
 10
9.8704241184
 20
23.1413075713
 10
9.8897999745
 20
23.1386598704
 10
9.9089669742
 20
23.1348955201
 10
9.9277246701
 20
23.1300465683
  0
LWPOLYLINE
  5
291
100
AcDbEntity
  8
ASSI
100
AcDbPolyline
 62
250
  6
CONTINUOUS
 90
27
 70
0
 10
7.7028575493
 20
21.9457856747
 10
7.69274351
 20
21.9412775985
 10
7.6825339402
 20
21.936602384
 10
7.6721472761
 20
21.9317338988
 10
7.6616259782
 20
21.9266565318
 10
7.6509953347
 20
21.9212517091
 10
7.6401891704
 20
21.915476479
 10
7.6292276352
 20
21.9093165088
 10
7.6182630056
 20
21.9026754439
 10
7.6073016816
 20
21.895521868
 10
7.5963285882
 20
21.8878129479
 10
7.5854761009
 20
21.8794136277
 10
7.5747575263
 20
21.8702854519
 10
7.5642004304
 20
21.8603959167
 10
7.5539777586
 20
21.8496056724
 10
7.5440909515
 20
21.8377545786
 10
7.5346576624
 20
21.8249742727
 10
7.5260653788
 20
21.8115749474
 10
7.518494354
 20
21.7974644547
 10
7.5119746191
 20
21.7828148435
 10
7.5066672964
 20
21.7683461326
 10
7.5027482421
 20
21.7541763635
 10
7.5001609839
 20
21.7402984158
 10
7.4986479285
 20
21.7272060863
 10
7.4981030714
 20
21.7150584654
 10
7.4986058238
 20
21.7037099252
 10
7.5001327241
 20
21.6931548677
  0
LINE
  5
292
100
AcDbEntity
  8
ASSI
100
AcDbLine
 62
250
  6
CONTINUOUS
 10
7.7437617399
 20
21.9637631811
 11
7.7028575493
 21
21.9457856747
  0
LWPOLYLINE
  5
293
100
AcDbEntity
  8
ASSI
100
AcDbPolyline
 62
250
  6
CONTINUOUS
 90
6
 70
0
 10
-1.0293060123
 20
23.4987085791
 10
-1.0462774131
 20
23.4697945403
 10
-1.0614453514
 20
23.4412848632
 10
-1.0746793187
 20
23.4135570051
 10
-1.0861098235
 20
23.3862335088
 10
-1.0961070139
 20
23.3590666005
  0
LWPOLYLINE
  5
294
100
AcDbEntity
  8
ASSI
100
AcDbPolyline
 62
250
  6
CONTINUOUS
 90
6
 70
0
 10
-0.9442877951
 20
23.5492762533
 10
-0.9390791297
 20
23.5570397251
 10
-0.9363740636
 20
23.5670591094
 10
-0.9362350346
 20
23.579147363
 10
-0.9386644075
 20
23.5930992215
 10
-0.9436209336
 20
23.6086777748
  0
LWPOLYLINE
  5
295
100
AcDbEntity
  8
ASSI
100
AcDbPolyline
 62
7
  6
CONTINUOUS
 90
7
 70
0
 10
8.1613221851
 20
21.0021866478
 10
8.1503573665
 20
20.994040812
 10
8.140909997
 20
20.9853951511
 10
8.1329181498
 20
20.9761771772
 10
8.1264437516
 20
20.9664593783
 10
8.1216725833
 20
20.9564592185
 10
8.1190755673
 20
20.9476383552
  0
LINE
  5
296
100
AcDbEntity
  8
ASSI
100
AcDbLine
 62
7
  6
CONTINUOUS
 10
6.9655208805
 20
20.1255992203
 11
7.6922012985
 21
20.637991651
  0
LINE
  5
297
100
AcDbEntity
  8
RACCORDO
100
AcDbLine
 62
250
  6
CONTINUOUS
 10
7.028701482
 20
20.0894452939
 11
7.8276594224
 21
20.6528016069
  0
LINE
  5
298
100
AcDbEntity
  8
DRAFT
100
AcDbLine
 62
7
  6
CONTINUOUS
 10
8.5476860492
 20
19.5906653895
 11
9.3782142228
 21
20.1254557169
  0
LWPOLYLINE
  5
299
100
AcDbEntity
  8
ASSI
100
AcDbPolyline
 62
7
  6
CONTINUOUS
 90
6
 70
0
 10
10.6399036029
 20
22.4190692421
 10
10.6260261402
 20
22.4101458306
 10
10.6140718687
 20
22.4006200935
 10
10.6040407884
 20
22.3904920307
 10
10.5958495885
 20
22.3796278319
 10
10.5939493014
 20
22.3761514986
  0
LINE
  5
29A
100
AcDbEntity
  8
ASSI
100
AcDbLine
 62
250
  6
CONTINUOUS
 10
10.5858340778
 20
23.6057050509
 11
10.6022463204
 21
23.6158369144
  0
LINE
  5
29B
100
AcDbEntity
  8
ASSI
100
AcDbLine
 62
7
  6
CONTINUOUS
 10
8.1738044529
 20
21.0098326587
 11
8.1613221851
 21
21.0021866478
  0
LINE
  5
29C
100
AcDbEntity
  8
RACCORDO
100
AcDbLine
 62
250
  6
CONTINUOUS
 10
15.5151478444
 20
22.9421125899
 11
11.4849086589
 21
20.6017931477
  0
LINE
  5
29D
100
AcDbEntity
  8
RACCORDO
100
AcDbLine
 62
250
  6
CONTINUOUS
 10
15.66120534
 20
22.6567948736
 11
11.8045175456
 21
20.4172549822
  0
LINE
  5
29E
100
AcDbEntity
  8
RACCORDO
100
AcDbLine
 62
250
  6
CONTINUOUS
 10
7.7605958918
 20
19.6668586345
 11
8.6479285792
 21
20.1791884762
  0
LINE
  5
29F
100
AcDbEntity
  8
RACCORDO
100
AcDbLine
 62
250
  6
CONTINUOUS
 10
8.0430380098
 20
19.5037800954
 11
8.7891561224
 21
19.9345751962
  0
LINE
  5
2A0
100
AcDbEntity
  8
RACCORDO
100
AcDbLine
 62
250
  6
CONTINUOUS
 10
11.0272225252
 20
21.0539257015
 11
15.338398073
 21
23.5431529781
  0
LINE
  5
2A1
100
AcDbEntity
  8
DRAFT
100
AcDbLine
 62
7
  6
CONTINUOUS
 10
8.2201231506
 20
19.4015333545
 11
8.5476860492
 21
19.5906653895
  0
LINE
  5
2A2
100
AcDbEntity
  8
ASSI
100
AcDbLine
 62
250
  6
CONTINUOUS
 10
8.3948006261
 20
19.2358522764
 11
7.7965431107
 21
18.8904246988
  0
LINE
  5
2A3
100
AcDbEntity
  8
RACCORDO
100
AcDbLine
 62
250
  6
CONTINUOUS
 10
11.2180149783
 20
20.7558942139
 11
15.5151478444
 21
23.2370133942
  0
LINE
  5
2A4
100
AcDbEntity
  8
ASSI
100
AcDbLine
 62
250
  6
CONTINUOUS
 10
8.5362004432
 20
18.9909406093
 11
8.0793288375
 21
18.7271477643
  0
LINE
  5
2A5
100
AcDbEntity
  8
LAY0001
100
AcDbLine
 62
250
  6
CONTINUOUS
 10
8.2025598157
 20
18.655995742
 11
5.7985065386
 21
17.2679323556
  0
LINE
  5
2A6
100
AcDbEntity
  8
ASSI
100
AcDbLine
 62
7
  6
CONTINUOUS
 10
12.9811457574
 20
23.7668650949
 11
10.6399036029
 21
22.4190692421
  0
LINE
  5
2A7
100
AcDbEntity
  8
ASSI
100
AcDbLine
 62
7
  6
CONTINUOUS
 10
9.8507121079
 20
21.9647509873
 11
8.6428386627
 21
21.2694077789
  0
LINE
  5
2A8
100
AcDbEntity
  8
RACCORDO
100
AcDbLine
 62
250
  6
CONTINUOUS
 10
11.1109603235
 20
19.8443452648
 11
11.9206399049
 21
20.3015890175
  0
LINE
  5
2A9
100
AcDbEntity
  8
ASSI
100
AcDbLine
 62
7
  6
CONTINUOUS
 10
8.6428386627
 20
21.2694077789
 11
8.1738051919
 21
21.0098330677
  0
LINE
  5
2AA
100
AcDbEntity
  8
ASSI
100
AcDbLine
 62
7
  6
CONTINUOUS
 10
7.4438621642
 20
20.6058645619
 11
6.1069413748
 21
19.8659795655
  0
LINE
  5
2AB
100
AcDbEntity
  8
ASSI
100
AcDbLine
 62
7
  6
CONTINUOUS
 10
6.7704034205
 20
20.1290916043
 11
6.1909443789
 21
19.8174772837
  0
LINE
  5
2AC
100
AcDbEntity
  8
ASSI
100
AcDbLine
 62
250
  6
CONTINUOUS
 10
6.8675967603
 20
20.1176406481
 11
6.2480829677
 21
19.7844861786
  0
LINE
  5
2AD
100
AcDbEntity
  8
ASSI
100
AcDbLine
 62
250
  6
CONTINUOUS
 10
8.4220682146
 20
18.4403093015
 11
11.1109011192
 21
19.8443794486
  0
LWPOLYLINE
  5
2AE
100
AcDbEntity
  8
RACCORDO
100
AcDbPolyline
 62
250
  6
CONTINUOUS
 90
8
 70
0
 10
15.66120534
 20
22.6567948736
 10
15.6746836706
 20
22.6635222944
 10
15.6875973525
 20
22.6682793462
 10
15.699730305
 20
22.6709864325
 10
15.7108795121
 20
22.6715982585
 10
15.7208584172
 20
22.6701045887
 10
15.7295000457
 20
22.6665304193
 10
15.7332396202
 20
22.6640067472
  0
LWPOLYLINE
  5
2AF
100
AcDbEntity
  8
RACCORDO
100
AcDbPolyline
 62
250
  6
CONTINUOUS
 90
8
 70
0
 10
16.0054864518
 20
22.3879162254
 10
16.018964749
 20
22.3946436316
 10
16.0318784055
 20
22.3994006804
 10
16.044011341
 20
22.4021077734
 10
16.055160539
 20
22.4027196138
 10
16.0651394432
 20
22.4012259637
 10
16.0737810799
 20
22.397651816
 10
16.0774360723
 20
22.3951938565
  0
LWPOLYLINE
  5
2B0
100
AcDbEntity
  8
LAY0001
100
AcDbPolyline
 62
250
  6
CONTINUOUS
 90
16
 70
0
 10
6.1519387753
 20
16.6557697652
 10
6.112714529
 20
16.6363986086
 10
6.070240552
 20
16.6194654653
 10
6.0249694672
 20
16.6051507836
 10
5.9773780445
 20
16.5936059297
 10
5.9279786805
 20
16.5849557842
 10
5.8773157981
 20
16.5792939991
 10
5.8259422082
 20
16.5766779791
 10
5.7743932004
 20
16.5771306723
 10
5.7231986867
 20
16.5806458428
 10
5.6728334945
 20
16.5871974042
 10
5.6239066022
 20
16.596712776
 10
5.5771154442
 20
16.6090377657
 10
5.5329850155
 20
16.6239890536
 10
5.4918854224
 20
16.6413939456
 10
5.4542080969
 20
16.661043504
  0
LWPOLYLINE
  5
2B1
100
AcDbEntity
  8
RACCORDO
100
AcDbPolyline
 62
250
  6
CONTINUOUS
 90
7
 70
0
 10
15.338398073
 20
23.5431529781
 10
15.3520719325
 20
23.5497477135
 10
15.3654860176
 20
23.5541652678
 10
15.3784158744
 20
23.5563317235
 10
15.3906451519
 20
23.5562108299
 10
15.4019692212
 20
23.5538046099
 10
15.4115492362
 20
23.549534783
  0
LWPOLYLINE
  5
2B2
100
AcDbEntity
  8
RACCORDO
100
AcDbPolyline
 62
250
  6
CONTINUOUS
 90
7
 70
0
 10
11.9206399049
 20
20.3015890175
 10
11.9343137642
 20
20.3081837531
 10
11.9477278492
 20
20.3126013075
 10
11.960657706
 20
20.3147677632
 10
11.9728869835
 20
20.3146468695
 10
11.9842110528
 20
20.3122406495
 10
11.9937403794
 20
20.3080000478
  0
LWPOLYLINE
  5
2B3
100
AcDbEntity
  8
RACCORDO
100
AcDbPolyline
 62
250
  6
CONTINUOUS
 90
5
 70
0
 10
13.9523883562
 20
-11.2964893004
 10
13.9678732401
 20
-11.2926663212
 10
13.9825084569
 20
-11.2919822368
 10
13.9959565162
 20
-11.2944528223
 10
14.005966137
 20
-11.2988447595
  0
LWPOLYLINE
  5
2B4
100
AcDbEntity
  8
RACCORDO
100
AcDbPolyline
 62
250
  6
CONTINUOUS
 90
5
 70
0
 10
13.6457529087
 20
-11.119441836
 10
13.6612377948
 20
-11.1156188554
 10
13.6758730128
 20
-11.1149347713
 10
13.6893210724
 20
-11.1174053583
 10
13.6993632112
 20
-11.121816024
  0
LWPOLYLINE
  5
2B5
100
AcDbEntity
  8
RACCORDO
100
AcDbPolyline
 62
250
  6
CONTINUOUS
 90
10
 70
0
 10
12.7758899639
 20
-11.1149974355
 10
12.794235514
 20
-11.1126955742
 10
12.8122423341
 20
-11.1125039592
 10
12.8296084207
 20
-11.1144258042
 10
12.8460425166
 20
-11.118428877
 10
12.8612689958
 20
-11.1244460397
 10
12.8750324855
 20
-11.1323763747
 10
12.8871021499
 20
-11.1420868777
 10
12.8972755613
 20
-11.153414688
 10
12.9030764621
 20
-11.1620374381
  0
LWPOLYLINE
  5
2B6
100
AcDbEntity
  8
LAY0001
100
AcDbPolyline
 62
7
  6
CONTINUOUS
 90
3
 70
0
 10
8.6948750185
 20
-18.231460156
 10
8.6779181571
 20
-18.2259816649
 10
8.6601326907
 20
-18.2230868817
  0
LINE
  5
2B7
100
AcDbEntity
  8
LAY0001
100
AcDbLine
 62
7
  6
CONTINUOUS
 10
9.1863819503
 20
-18.4879161112
 11
8.7041825596
 21
-18.2357734892
  0
LINE
  5
2B8
100
AcDbEntity
  8
RACCORDO
100
AcDbLine
 62
7
  6
CONTINUOUS
 10
9.4439328866
 20
-18.6438425855
 11
9.0836277459
 21
-18.4548603841
  0
LWPOLYLINE
  5
2B9
100
AcDbEntity
  8
LAY0001
100
AcDbPolyline
 62
250
  6
CONTINUOUS
 90
9
 70
0
 10
-9.5604526809
 20
-16.7018709633
 10
-9.5593379958
 20
-16.7211373941
 10
-9.5532499341
 20
-16.7506964646
 10
-9.541903028
 20
-16.7797766954
 10
-9.5254229823
 20
-16.8080264698
 10
-9.5040768492
 20
-16.835043098
 10
-9.4781821274
 20
-16.8605234544
 10
-9.4480379123
 20
-16.8842538444
 10
-9.4140060715
 20
-16.9060082599
  0
LINE
  5
2BA
100
AcDbEntity
  8
LAY0001
100
AcDbLine
 62
7
  6
CONTINUOUS
 10
-9.5604526809
 20
-16.7018709633
 11
-9.5604526809
 21
25.4499013189
  0
LINE
  5
2BB
100
AcDbEntity
  8
LAY0001
100
AcDbLine
 62
250
  6
CONTINUOUS
 10
-9.4140060715
 20
-16.9060082599
 11
-9.4140060715
 21
25.2457640223
  0
LWPOLYLINE
  5
2BC
100
AcDbEntity
  8
LAY0001
100
AcDbPolyline
 62
250
  6
CONTINUOUS
 90
16
 70
0
 10
-9.4140060715
 20
25.2457640223
 10
-9.4121332346
 20
25.2888088996
 10
-9.4065345654
 20
25.3335604491
 10
-9.3972693781
 20
25.3795445566
 10
-9.3844358315
 20
25.4262740496
 10
-9.3681698888
 20
25.4732538587
 10
-9.3486438775
 20
25.5199862625
 10
-9.3260646633
 20
25.5659761604
 10
-9.3006714587
 20
25.610736319
 10
-9.2727332884
 20
25.6537925329
 10
-9.2425461396
 20
25.694688649
 10
-9.2104298259
 20
25.7329913987
 10
-9.1767245995
 20
25.7682949884
 10
-9.1417875458
 20
25.800225399
 10
-9.1059888009
 20
25.8284443481
 10
-9.0697076297
 20
25.8526528739
  0
LINE
  5
2BD
100
AcDbEntity
  8
ASSI
100
AcDbLine
 62
7
  6
CONTINUOUS
 10
1.3115960391
 20
23.5800919101
 11
1.6934083097
 21
24.3899624258
  0
LINE
  5
2BE
100
AcDbEntity
  8
ASSI
100
AcDbLine
 62
250
  6
CONTINUOUS
 10
1.3700252873
 20
23.5057369023
 11
1.751837558
 21
24.315607418
  0
LWPOLYLINE
  5
2BF
100
AcDbEntity
  8
ASSI
100
AcDbPolyline
 62
7
  6
CONTINUOUS
 90
13
 70
0
 10
1.311596974
 20
23.5800938926
 10
1.3014302129
 20
23.5597615794
 10
1.2891031927
 20
23.5377581948
 10
1.2755122343
 20
23.5160018665
 10
1.260843202
 20
23.4947994793
 10
1.2453067752
 20
23.4744493706
 10
1.2290752424
 20
23.4551560774
 10
1.2123792062
 20
23.4371543659
 10
1.1954939284
 20
23.4206865754
 10
1.178734746
 20
23.4059760901
 10
1.1624636649
 20
23.3932192348
 10
1.1470278242
 20
23.3825388375
 10
1.1335057505
 20
23.3743939205
  0
LWPOLYLINE
  5
2C0
100
AcDbEntity
  8
ASSI
100
AcDbPolyline
 62
7
  6
CONTINUOUS
 90
7
 70
0
 10
5.7159716046
 20
25.5604220433
 10
5.7163269824
 20
25.5609768326
 10
5.715789108
 20
25.5603530723
 10
5.7130450043
 20
25.5575707562
 10
5.707871863
 20
25.5531845107
 10
5.700419093
 20
25.5478433829
 10
5.6899669962
 20
25.5415001816
  0
LWPOLYLINE
  5
2C1
100
AcDbEntity
  8
ASSI
100
AcDbPolyline
 62
250
  6
CONTINUOUS
 90
11
 70
0
 10
7.9521306716
 20
22.1026143209
 10
7.9382614389
 20
22.0888667512
 10
7.9304519682
 20
22.081313699
 10
7.9219269252
 20
22.0733811719
 10
7.9126718738
 20
22.065045735
 10
7.9025300146
 20
22.0563572234
 10
7.8913887464
 20
22.0473917278
 10
7.8792638749
 20
22.0381601633
 10
7.8660449385
 20
22.02870707
 10
7.8515122943
 20
22.0191260531
 10
7.8354967328
 20
22.0095022991
  0
LWPOLYLINE
  5
2C2
100
AcDbEntity
  8
ASSI
100
AcDbPolyline
 62
250
  6
CONTINUOUS
 90
3
 70
0
 10
10.5777177101
 20
23.6276688265
 10
10.5887217292
 20
23.6372938647
 10
10.6010154456
 20
23.6460950908
  0
LWPOLYLINE
  5
2C3
100
AcDbEntity
  8
RACCORDO
100
AcDbPolyline
 62
250
  6
CONTINUOUS
 90
7
 70
0
 10
15.5151478444
 20
23.2370133942
 10
15.5276955072
 20
23.2455587631
 10
15.5382277398
 20
23.2549678347
 10
15.5465683096
 20
23.2650831699
 10
15.5525776566
 20
23.275735512
 10
15.5561552284
 20
23.2867466183
 10
15.557246858
 20
23.2971360864
  0
LWPOLYLINE
  5
2C4
100
AcDbEntity
  8
RACCORDO
100
AcDbPolyline
 62
250
  6
CONTINUOUS
 90
7
 70
0
 10
15.5151478444
 20
22.9421125899
 10
15.5276955057
 20
22.9506579577
 10
15.5382277375
 20
22.9600670282
 10
15.5465683073
 20
22.9701823625
 10
15.5525776547
 20
22.9808347036
 10
15.5561552274
 20
22.9918458094
 10
15.5572468743
 20
23.0022756455
  0
LWPOLYLINE
  5
2C5
100
AcDbEntity
  8
RACCORDO
100
AcDbPolyline
 62
250
  6
CONTINUOUS
 90
7
 70
0
 10
16.1515439474
 20
22.102598509
 10
16.1640916508
 20
22.1111439069
 10
16.1746239038
 20
22.120553008
 10
16.1829644762
 20
22.1306683705
 10
16.1889738112
 20
22.1413207357
 10
16.1925513596
 20
22.1523318589
 10
16.1936429239
 20
22.1626884412
  0
LWPOLYLINE
  5
2C6
100
AcDbEntity
  8
RACCORDO
100
AcDbPolyline
 62
250
  6
CONTINUOUS
 90
7
 70
0
 10
16.1515439474
 20
21.7226496761
 10
16.1640916088
 20
21.7311950439
 10
16.1746238406
 20
21.7406041144
 10
16.1829644103
 20
21.7507194486
 10
16.1889737578
 20
21.7613717898
 10
16.1925513304
 20
21.7723828955
 10
16.1936429687
 20
21.7827832956
  0
LWPOLYLINE
  5
2C7
100
AcDbEntity
  8
RACCORDO
100
AcDbPolyline
 62
7
  6
CONTINUOUS
 90
16
 70
0
 10
12.6704644152
 20
19.2575361731
 10
12.6850030399
 20
19.2674342876
 10
12.6998343221
 20
19.2801524676
 10
12.7132260329
 20
19.2946792378
 10
12.7248909288
 20
19.3107645548
 10
12.7346745867
 20
19.3282252758
 10
12.7425054401
 20
19.3470371157
 10
12.7482384814
 20
19.3671021641
 10
12.7516817276
 20
19.3880285102
 10
12.7527620468
 20
19.4095106577
 10
12.7513972659
 20
19.4318890253
 10
12.7474914382
 20
19.4545756329
 10
12.741398297
 20
19.4761829457
 10
12.733229003
 20
19.4970185398
 10
12.7230172037
 20
19.5171280612
 10
12.7180520229
 20
19.5254493397
  0
LWPOLYLINE
  5
2C8
100
AcDbEntity
  8
LAY0001
100
AcDbPolyline
 62
250
  6
CONTINUOUS
 90
16
 70
0
 10
5.7985065386
 20
17.2679323556
 10
5.7622253674
 20
17.2437238298
 10
5.7264266225
 20
17.2155048807
 10
5.6914895689
 20
17.1835744701
 10
5.6577843425
 20
17.1482708803
 10
5.6256680288
 20
17.1099681307
 10
5.5954808799
 20
17.0690720146
 10
5.5675427097
 20
17.0260158007
 10
5.542149505
 20
16.9812556421
 10
5.5195702909
 20
16.9352657442
 10
5.5000442796
 20
16.8885333404
 10
5.4837783369
 20
16.8415535313
 10
5.4709447903
 20
16.7948240383
 10
5.461679603
 20
16.7488399308
 10
5.4560809338
 20
16.7040883813
 10
5.4542080969
 20
16.661043504
  0
LWPOLYLINE
  5
2C9
100
AcDbEntity
  8
ASSI
100
AcDbPolyline
 62
250
  6
CONTINUOUS
 90
9
 70
0
 10
8.5362004432
 20
18.9909406093
 10
8.5498553563
 20
19.0000044237
 10
8.561802654
 20
19.0098356045
 10
8.5719144945
 20
19.0203272521
 10
8.5800787578
 20
19.0313587344
 10
8.5862154852
 20
19.0428166925
 10
8.5902654456
 20
19.0545985448
 10
8.5921768942
 20
19.0666039212
 10
8.5923324787
 20
19.0711339252
  0
LWPOLYLINE
  5
2CA
100
AcDbEntity
  8
ASSI
100
AcDbPolyline
 62
250
  6
CONTINUOUS
 90
8
 70
0
 10
8.5362004432
 20
18.6216296197
 10
8.5498068077
 20
18.6306576177
 10
8.5617218443
 20
18.6404502265
 10
8.5718175763
 20
18.6509022711
 10
8.5799857726
 20
18.6619018159
 10
8.5861383767
 20
18.6733304243
 10
8.5902090386
 20
18.6850643213
 10
8.5920143606
 20
18.6961184675
  0
LWPOLYLINE
  5
2CB
100
AcDbEntity
  8
RACCORDO
100
AcDbPolyline
 62
250
  6
CONTINUOUS
 90
25
 70
0
 10
12.670468181
 20
19.2575383986
 10
12.6749819612
 20
19.2605175587
 10
12.6803561936
 20
19.2647855377
 10
12.6853535723
 20
19.2696080471
 10
12.6899206134
 20
19.2749239342
 10
12.6940838007
 20
19.2807534951
 10
12.6979154656
 20
19.287239586
 10
12.7013990139
 20
19.2944659382
 10
12.7044472536
 20
19.3023821153
 10
12.7070017922
 20
19.3109527597
 10
12.7090209323
 20
19.3201664101
 10
12.7104654015
 20
19.3300128415
 10
12.7112951866
 20
19.3404388922
 10
12.7114793828
 20
19.3514194798
 10
12.7109889249
 20
19.3629160692
 10
12.7098048815
 20
19.37483827
 10
12.7079263793
 20
19.3870652177
 10
12.7053383428
 20
19.3996124906
 10
12.7019871922
 20
19.4125902832
 10
12.6978552353
 20
19.4259044224
 10
12.6929110048
 20
19.4395208186
 10
12.6870177663
 20
19.4536311472
 10
12.6800787842
 20
19.4682251707
 10
12.6720879295
 20
19.4830911237
 10
12.6630178084
 20
19.4980860808
  0
LINE
  5
2CC
100
AcDbEntity
  8
RACCORDO
100
AcDbLine
 62
250
  6
CONTINUOUS
 10
10.2513499716
 20
18.0345406835
 11
12.6630178084
 21
19.4980860808
  0
LINE
  5
2CD
100
AcDbEntity
  8
RACCORDO
100
AcDbLine
 62
7
  6
CONTINUOUS
 10
10.4134152765
 20
17.8883437277
 11
12.6692496648
 21
19.2568176026
  0
LINE
  5
2CE
100
AcDbEntity
  8
RACCORDO
100
AcDbLine
 62
250
  6
CONTINUOUS
 10
16.0054864518
 20
22.3879162254
 11
12.1892811266
 21
20.1718840975
  0
LINE
  5
2CF
100
AcDbEntity
  8
RACCORDO
100
AcDbLine
 62
250
  6
CONTINUOUS
 10
16.1515439474
 20
22.102598509
 11
12.4271616568
 21
19.9398870957
  0
LINE
  5
2D0
100
AcDbEntity
  8
LAY0001
100
AcDbLine
 62
250
  6
CONTINUOUS
 10
8.5559920524
 20
18.0438331516
 11
6.1519387753
 21
16.6557697652
  0
LINE
  5
2D1
100
AcDbEntity
  8
RACCORDO
100
AcDbLine
 62
250
  6
CONTINUOUS
 10
9.3025330695
 20
15.4371490882
 11
8.5559920524
 21
15.0061041812
  0
LWPOLYLINE
  5
2D2
100
AcDbEntity
  8
RACCORDO
100
AcDbPolyline
 62
250
  6
CONTINUOUS
 90
9
 70
0
 10
12.6630178084
 20
19.4980860808
 10
12.67594496
 20
19.5054388856
 10
12.6874482778
 20
19.5117962803
 10
12.6973352804
 20
19.5170518887
 10
12.7054405316
 20
19.5211177704
 10
12.7116284088
 20
19.523925892
 10
12.7157953721
 20
19.5254292664
 10
12.717871697
 20
19.5256027378
 10
12.7180520229
 20
19.5254493397
  0
LINE
  5
2D3
100
AcDbEntity
  8
RACCORDO
100
AcDbLine
 62
250
  6
CONTINUOUS
 10
11.7539682882
 20
19.1807034748
 11
12.5853725214
 21
19.6498031566
  0
LWPOLYLINE
  5
2D4
100
AcDbEntity
  8
RACCORDO
100
AcDbPolyline
 62
250
  6
CONTINUOUS
 90
8
 70
0
 10
12.5853725214
 20
19.6498031566
 10
12.5968890087
 20
19.6561398837
 10
12.6067968066
 20
19.6613624796
 10
12.614930144
 20
19.6653835651
 10
12.6211529327
 20
19.6681358609
 10
12.6253610563
 20
19.6695733215
 10
12.6274841283
 20
19.6696719122
 10
12.6276772035
 20
19.6694981182
  0
LINE
  5
2D5
100
AcDbEntity
  8
ASSI
100
AcDbLine
 62
250
  6
CONTINUOUS
 10
8.5559920524
 20
17.5194282393
 11
11.7539682882
 21
19.1807034748
  0
LINE
  5
2D6
100
AcDbEntity
  8
DRAFT
100
AcDbLine
 62
250
  6
CONTINUOUS
 10
8.9433064304
 20
-18.4709856444
 11
8.5635501159
 21
-18.2517191078
  0
LINE
  5
2D7
100
AcDbEntity
  8
DRAFT
100
AcDbLine
 62
250
  6
CONTINUOUS
 10
9.0836277459
 20
-18.4548603841
 11
8.7041825596
 21
-18.2357734892
  0
LINE
  5
2D8
100
AcDbEntity
  8
RACCORDO
100
AcDbLine
 62
7
  6
CONTINUOUS
 10
9.1863819503
 20
-18.4879161112
 11
9.4414862827
 21
-18.6352101555
  0
LWPOLYLINE
  5
2D9
100
AcDbEntity
  8
LAY0001
100
AcDbPolyline
 62
250
  6
CONTINUOUS
 90
9
 70
0
 10
-9.5604526805
 20
25.4498899121
 10
-9.5593361447
 20
25.4306189152
 10
-9.5532447207
 20
25.4010582791
 10
-9.5418945574
 20
25.3719781376
 10
-9.5254119331
 20
25.3437296796
 10
-9.5040647216
 20
25.3167157167
 10
-9.4781711669
 20
25.2912392073
 10
-9.4480308487
 20
25.2675134337
 10
-9.4140060715
 20
25.2457640223
  0
LWPOLYLINE
  5
2DA
100
AcDbEntity
  8
RACCORDO
100
AcDbPolyline
 62
250
  6
CONTINUOUS
 90
8
 70
0
 10
-6.7969941589
 20
9.3231190224
 10
-6.7951001191
 20
9.2820128554
 10
-6.7894382931
 20
9.2435343021
 10
-6.7800693434
 20
9.2080956336
 10
-6.7670936518
 20
9.1760765507
 10
-6.7506502438
 20
9.1478201156
 10
-6.7309152993
 20
9.1236290765
 10
-6.7081002643
 20
9.1037626236
  0
LINE
  5
2DB
100
AcDbEntity
  8
RACCORDO
100
AcDbLine
 62
250
  6
CONTINUOUS
 10
-7.2918935187
 20
-3.1482312473
 11
-7.2918935187
 21
9.0374248469
  0
LINE
  5
2DC
100
AcDbEntity
  8
RACCORDO
100
AcDbLine
 62
250
  6
CONTINUOUS
 10
-6.5909766359
 20
-3.1672451273
 11
-6.5910109428
 21
9.0338939671
  0
LINE
  5
2DD
100
AcDbEntity
  8
RACCORDO
100
AcDbLine
 62
7
  6
CONTINUOUS
 10
-6.0811183182
 20
8.7406963085
 11
-6.0811183182
 21
-2.8573591453
  0
LINE
  5
2DE
100
AcDbEntity
  8
RACCORDO
100
AcDbLine
 62
250
  6
CONTINUOUS
 10
-6.0610191477
 20
8.7290912993
 11
-6.0610191477
 21
-2.9524600762
  0
LWPOLYLINE
  5
2DF
100
AcDbEntity
  8
RACCORDO
100
AcDbPolyline
 62
250
  6
CONTINUOUS
 90
19
 70
0
 10
-7.2918935187
 20
9.0374248469
 10
-7.2897810036
 20
9.0867279482
 10
-7.2841932223
 20
9.1326636196
 10
-7.2751301747
 20
9.1752318611
 10
-7.2624769994
 20
9.2145964828
 10
-7.2463485579
 20
9.2505936745
 10
-7.2270894343
 20
9.2827320062
 10
-7.2046449865
 20
9.3110241048
 10
-7.1790698566
 20
9.3354573433
 10
-7.1508725552
 20
9.3555024105
 10
-7.1201456698
 20
9.3711213582
 10
-7.0867966129
 20
9.3823521345
 10
-7.0510561322
 20
9.3887792732
 10
-7.0126256437
 20
9.3903574792
 10
-6.9718037315
 20
9.3871320476
 10
-6.9297168957
 20
9.3788233974
 10
-6.8867406365
 20
9.3653383349
 10
-6.8424994538
 20
9.3467700537
 10
-6.7969933475
 20
9.3231185539
  0
LWPOLYLINE
  5
2E0
100
AcDbEntity
  8
RACCORDO
100
AcDbPolyline
 62
250
  6
CONTINUOUS
 90
16
 70
0
 10
-6.7969941589
 20
-4.005423019
 10
-6.7951001035
 20
-3.9621294742
 10
-6.7894382348
 20
-3.9171126152
 10
-6.7800692237
 20
-3.8708547727
 10
-6.7670934605
 20
-3.8238515727
 10
-6.7506499787
 20
-3.7766066248
 10
-6.7309149658
 20
-3.7296261266
 10
-6.7080998755
 20
-3.6834134425
 10
-6.6824491611
 20
-3.638463707
 10
-6.6542376549
 20
-3.5952585187
 10
-6.6237676274
 20
-3.554260788
 10
-6.5913655462
 20
-3.5159097713
 10
-6.5573785739
 20
-3.4806163623
 10
-6.5221708558
 20
-3.4487586984
 10
-6.486119619
 20
-3.4206781076
 10
-6.4496111258
 20
-3.3966754472
  0
LWPOLYLINE
  5
2E1
100
AcDbEntity
  8
ASSI
100
AcDbPolyline
 62
7
  6
CONTINUOUS
 90
12
 70
0
 10
-1.0650312018
 20
23.3218867371
 10
-1.0614495019
 20
23.3384376658
 10
-1.0556393235
 20
23.3595055408
 10
-1.0482478152
 20
23.3815652941
 10
-1.0392778907
 20
23.4042833404
 10
-1.0287703563
 20
23.4273183557
 10
-1.0169386328
 20
23.4500918554
 10
-1.003926329
 20
23.4722942356
 10
-0.9899346953
 20
23.4935859001
 10
-0.9753849037
 20
23.5134125368
 10
-0.9605303552
 20
23.5315667326
 10
-0.9442877951
 20
23.5492762533
  0
LINE
  5
2E2
100
AcDbEntity
  8
ASSI
100
AcDbLine
 62
250
  6
CONTINUOUS
 10
-1.0961070139
 20
23.3590666005
 11
-1.1013552365
 21
23.3428597795
  0
LWPOLYLINE
  5
2E3
100
AcDbEntity
  8
ASSI
100
AcDbPolyline
 62
250
  6
CONTINUOUS
 90
9
 70
0
 10
1.3115960391
 20
23.5800919101
 10
1.3106446021
 20
23.5773440424
 10
1.3106080696
 20
23.5700518896
 10
1.3135721513
 20
23.5615184127
 10
1.3194879497
 20
23.551884386
 10
1.3282578734
 20
23.5413087391
 10
1.3397372477
 20
23.5299659355
 10
1.3537367006
 20
23.518043094
 10
1.3700252873
 20
23.5057369023
  0
LWPOLYLINE
  5
2E4
100
AcDbEntity
  8
ASSI
100
AcDbPolyline
 62
250
  6
CONTINUOUS
 90
11
 70
0
 10
1.6934083097
 20
24.3899624258
 10
1.692808064
 20
24.3884622458
 10
1.692076553
 20
24.3829222024
 10
1.6932797184
 20
24.3765495028
 10
1.6964018327
 20
24.3694200126
 10
1.7014040279
 20
24.3616123431
 10
1.7082288791
 20
24.3532098064
 10
1.7167923424
 20
24.3443096883
 10
1.726993022
 20
24.3350104279
 10
1.7387180495
 20
24.3254091123
 10
1.751837558
 20
24.315607418
  0
LWPOLYLINE
  5
2E5
100
AcDbEntity
  8
ASSI
100
AcDbPolyline
 62
250
  6
CONTINUOUS
 90
10
 70
0
 10
1.751837558
 20
24.315607418
 10
1.7608746937
 20
24.3366907648
 10
1.7714458749
 20
24.3573411628
 10
1.7834081449
 20
24.3772793507
 10
1.7965997346
 20
24.3962356989
 10
1.8108422506
 20
24.4139538549
 10
1.8259430873
 20
24.4301942108
 10
1.8416980317
 20
24.4447371434
 10
1.8578940253
 20
24.4573859844
 10
1.8743120451
 20
24.4679696796
  0
LWPOLYLINE
  5
2E6
100
AcDbEntity
  8
RACCORDO
100
AcDbPolyline
 62
250
  6
CONTINUOUS
 90
5
 70
0
 10
13.698360536
 20
24.9506630906
 10
13.7074926692
 20
24.9614013571
 10
13.7137408952
 20
24.9725716914
 10
13.7169762863
 20
24.9839436015
 10
13.7173367975
 20
24.9931929257
  0
LWPOLYLINE
  5
2E7
100
AcDbEntity
  8
ASSI
100
AcDbPolyline
 62
250
  6
CONTINUOUS
 90
10
 70
0
 10
8.1279536373
 20
22.2530496645
 10
8.1142088183
 20
22.237031798
 10
8.1025788787
 20
22.2203452584
 10
8.0932204268
 20
22.2032147177
 10
8.0862594867
 20
22.1858708246
 10
8.0817898052
 20
22.1685471121
 10
8.0798715836
 20
22.1514768526
 10
8.0805306633
 20
22.1348898993
 10
8.0837581829
 20
22.1190095921
 10
8.0878688289
 20
22.1076246321
  0
LINE
  5
2E8
100
AcDbEntity
  8
ASSI
100
AcDbLine
 62
250
  6
CONTINUOUS
 10
8.3956784678
 20
18.4775058764
 11
8.5362004432
 21
18.6216296197
  0
LINE
  5
2E9
100
AcDbEntity
  8
ASSI
100
AcDbLine
 62
7
  6
CONTINUOUS
 10
8.4198858621
 20
18.4436161711
 11
8.5355318527
 21
18.5622263247
  0
LINE
  5
2EA
100
AcDbEntity
  8
RACCORDO
100
AcDbLine
 62
7
  6
CONTINUOUS
 10
13.7114841921
 20
24.4825126629
 11
13.0582924339
 21
23.8249708503
  0
LINE
  5
2EB
100
AcDbEntity
  8
RACCORDO
100
AcDbLine
 62
250
  6
CONTINUOUS
 10
10.8086621411
 20
17.2371761989
 11
16.1515439474
 21
21.7226496761
  0
LINE
  5
2EC
100
AcDbEntity
  8
RACCORDO
100
AcDbLine
 62
7
  6
CONTINUOUS
 10
10.8326892841
 20
17.1972095234
 11
16.1319447295
 21
21.6460576565
  0
LWPOLYLINE
  5
2ED
100
AcDbEntity
  8
RACCORDO
100
AcDbPolyline
 62
250
  6
CONTINUOUS
 90
7
 70
0
 10
9.4439328866
 20
15.1922374211
 10
9.4607281048
 20
15.2036818412
 10
9.4748159251
 20
15.2162904632
 10
9.4859560829
 20
15.2298513093
 10
9.4939585822
 20
15.2441378122
 10
9.4986838219
 20
15.2589073157
 10
9.5000649221
 20
15.2724307371
  0
LINE
  5
2EE
100
AcDbEntity
  8
DRAFT
100
AcDbLine
 62
7
  6
CONTINUOUS
 10
8.5559920524
 20
12.5303958269
 11
8.9433064304
 21
12.7699168481
  0
LINE
  5
2EF
100
AcDbEntity
  8
RACCORDO
100
AcDbLine
 62
250
  6
CONTINUOUS
 10
9.4439328866
 20
15.1922374211
 11
8.5559920524
 21
14.6795497516
  0
LINE
  5
2F0
100
AcDbEntity
  8
RACCORDO
100
AcDbLine
 62
7
  6
CONTINUOUS
 10
9.2826748312
 20
12.3326040558
 11
8.5706353856
 21
11.9215608641
  0
LWPOLYLINE
  5
2F1
100
AcDbEntity
  8
RACCORDO
100
AcDbPolyline
 62
250
  6
CONTINUOUS
 90
6
 70
0
 10
8.6266810017
 20
11.2689180113
 10
8.6133685475
 20
11.2622493612
 10
8.5982352094
 20
11.2570336949
 10
8.5817510545
 20
11.2534330198
 10
8.5644281087
 20
11.251559179
 10
8.5559920524
 20
11.2515166715
  0
LWPOLYLINE
  5
2F2
100
AcDbEntity
  8
RACCORDO
100
AcDbPolyline
 62
7
  6
CONTINUOUS
 90
16
 70
0
 10
9.2826748312
 20
12.3326040558
 10
9.2947508707
 20
12.3380556631
 10
9.3076939057
 20
12.3411665174
 10
9.3215039361
 20
12.3419366187
 10
9.3364608376
 20
12.340281306
 10
9.3522847346
 20
12.3362852403
 10
9.3681360004
 20
12.3302024043
 10
9.3838825597
 20
12.3219846761
 10
9.3996564878
 20
12.3116801777
 10
9.4150143845
 20
12.2996872575
 10
9.4299762859
 20
12.2859528264
 10
9.4445221559
 20
12.2705299735
 10
9.4581484854
 20
12.2539763145
 10
9.4706874381
 20
12.2364777211
 10
9.4823068504
 20
12.2178483215
 10
9.4930067222
 20
12.1980881158
  0
LWPOLYLINE
  5
2F3
100
AcDbEntity
  8
RACCORDO
100
AcDbPolyline
 62
250
  6
CONTINUOUS
 90
16
 70
0
 10
-7.2918935187
 20
-3.1482321841
 10
-7.2534522357
 20
-3.1682405095
 10
-7.2116347448
 20
-3.1858472698
 10
-7.1668890916
 20
-3.2008638209
 10
-7.1196946946
 20
-3.2131292709
 10
-7.0705572091
 20
-3.2225122038
 10
-7.0200031092
 20
-3.2289120882
 10
-6.968574047
 20
-3.2322603537
 10
-6.9168210494
 20
-3.2325211258
 10
-6.8652986138
 20
-3.2296916108
 10
-6.8145587674
 20
-3.2238021247
 10
-6.7651451525
 20
-3.2149157695
 10
-6.7175872017
 20
-3.2031277562
 10
-6.6723944655
 20
-3.1885643852
 10
-6.6300511528
 20
-3.171381693
 10
-6.5910109428
 20
-3.1517637801
  0
LINE
  5
2F4
100
AcDbEntity
  8
RACCORDO
100
AcDbLine
 62
250
  6
CONTINUOUS
 10
2.8371953729
 20
-9.5680833099
 11
-6.7969935387
 21
-4.0054233771
  0
LINE
  5
2F5
100
AcDbEntity
  8
RACCORDO
100
AcDbLine
 62
7
  6
CONTINUOUS
 10
-5.9397185011
 20
-3.1022708124
 11
3.1856489346
 21
-8.3711436021
  0
LWPOLYLINE
  5
2F6
100
AcDbEntity
  8
RACCORDO
100
AcDbPolyline
 62
250
  6
CONTINUOUS
 90
18
 70
0
 10
3.1845792174
 20
-8.9593362066
 10
-6.4625002978
 20
-3.3892201386
 10
-6.4751648365
 20
-3.3805952172
 10
-6.4875141932
 20
-3.3708873411
 10
-6.4994425367
 20
-3.3602133107
 10
-6.5108931459
 20
-3.348650989
 10
-6.5218514766
 20
-3.3362210328
 10
-6.5322561623
 20
-3.3229928989
 10
-6.5420149888
 20
-3.3090835701
 10
-6.5510636137
 20
-3.2945754283
 10
-6.5593058932
 20
-3.2796259992
 10
-6.5667112649
 20
-3.264292737
 10
-6.5732910271
 20
-3.2485027709
 10
-6.5789933929
 20
-3.2322648177
 10
-6.5836923377
 20
-3.2158048922
 10
-6.5872873702
 20
-3.1993794538
 10
-6.5897255432
 20
-3.1831621283
 10
-6.5909766359
 20
-3.1672451273
  0
LWPOLYLINE
  5
2F7
100
AcDbEntity
  8
RACCORDO
100
AcDbPolyline
 62
250
  6
CONTINUOUS
 90
4
 70
0
 10
-6.7969935387
 20
-4.0054233771
 10
-6.8407490121
 20
-3.9777202715
 10
-6.8833259128
 20
-3.9466848964
 10
-6.9247242407
 20
-3.9123172519
  0
LWPOLYLINE
  5
2F8
100
AcDbEntity
  8
RACCORDO
100
AcDbPolyline
 62
250
  6
CONTINUOUS
 90
8
 70
0
 10
3.332095544
 20
-9.2823903191
 10
3.297442202
 20
-9.260194706
 10
3.2669482798
 20
-9.2360497135
 10
3.2409404925
 20
-9.2102140439
 10
3.2196974884
 20
-9.1829645134
 10
3.2034468629
 20
-9.1545930854
 10
3.1923627207
 20
-9.1254037423
 10
3.1865638111
 20
-9.0957092302
  0
LWPOLYLINE
  5
2F9
100
AcDbEntity
  8
RACCORDO
100
AcDbPolyline
 62
250
  6
CONTINUOUS
 90
16
 70
0
 10
-6.9247242407
 20
-3.9123172519
 10
-6.9651433005
 20
-3.8743696358
 10
-7.0043837875
 20
-3.8330897502
 10
-7.0418477883
 20
-3.7892207017
 10
-7.0775735623
 20
-3.7426773065
 10
-7.1115228501
 20
-3.6935447484
 10
-7.1429829601
 20
-3.6428216849
 10
-7.1718747288
 20
-3.5906607317
 10
-7.1982773198
 20
-3.5369092732
 10
-7.2217155319
 20
-3.4821081205
 10
-7.2422994438
 20
-3.4258489516
 10
-7.259918977
 20
-3.3685400885
 10
-7.2737686947
 20
-3.3119473088
 10
-7.2835801181
 20
-3.2566592049
 10
-7.2896217261
 20
-3.2020871844
 10
-7.2918935187
 20
-3.1482312473
  0
LWPOLYLINE
  5
2FA
100
AcDbEntity
  8
RACCORDO
100
AcDbPolyline
 62
250
  6
CONTINUOUS
 90
9
 70
0
 10
16.1319533503
 20
21.646064895
 10
16.1377940659
 20
21.6518768453
 10
16.1424897317
 20
21.6583408838
 10
16.1464233017
 20
21.6658703215
 10
16.1495242577
 20
21.6745024823
 10
16.1517362315
 20
21.6844412659
 10
16.1529151924
 20
21.6958002393
 10
16.1528982224
 20
21.7085386688
 10
16.1515439474
 20
21.7226496761
  0
LWPOLYLINE
  5
2FB
100
AcDbEntity
  8
RACCORDO
100
AcDbPolyline
 62
7
  6
CONTINUOUS
 90
9
 70
0
 10
16.1319420402
 20
21.646057359
 10
16.1429640919
 20
21.6561837006
 10
16.1558734003
 20
21.6707402248
 10
16.1671236774
 20
21.6868284882
 10
16.1765159646
 20
21.7042052095
 10
16.1839846497
 20
21.7228154394
 10
16.1894036243
 20
21.7425308379
 10
16.1926411141
 20
21.7630426307
 10
16.1936429687
 20
21.7827832956
  0
LINE
  5
2FC
100
AcDbEntity
  8
RACCORDO
100
AcDbLine
 62
250
  6
CONTINUOUS
 10
8.5732416506
 20
11.583978714
 11
8.5559920524
 21
11.5715504326
  0
LINE
  5
2FD
100
AcDbEntity
  8
RACCORDO
100
AcDbLine
 62
250
  6
CONTINUOUS
 10
9.4930067222
 20
12.1980881158
 11
8.5732416506
 21
11.583978714
  0
LINE
  5
2FE
100
AcDbEntity
  8
RACCORDO
100
AcDbLine
 62
250
  6
CONTINUOUS
 10
9.2826751447
 20
12.3326042367
 11
8.5559920524
 21
11.8478705588
  0
LINE
  5
2FF
100
AcDbEntity
  8
RACCORDO
100
AcDbLine
 62
250
  6
CONTINUOUS
 10
8.5559920524
 20
11.911821036
 11
8.5706353856
 21
11.9215608641
  0
LINE
  5
300
100
AcDbEntity
  8
RACCORDO
100
AcDbLine
 62
250
  6
CONTINUOUS
 10
12.5567920408
 20
13.9377194107
 11
8.5732416506
 21
11.583978714
  0
LINE
  5
301
100
AcDbEntity
  8
RACCORDO
100
AcDbLine
 62
250
  6
CONTINUOUS
 10
12.6221813389
 20
13.6289655688
 11
8.6266810017
 21
11.2689180113
  0
LWPOLYLINE
  5
302
100
AcDbEntity
  8
RACCORDO
100
AcDbPolyline
 62
250
  6
CONTINUOUS
 90
13
 70
0
 10
12.949043172
 20
-10.4345715137
 10
12.9660724218
 20
-10.441190111
 10
12.9827805771
 20
-10.4497968393
 10
12.9988834855
 20
-10.4602453258
 10
13.0141072881
 20
-10.472357875
 10
13.0281930766
 20
-10.4859284912
 10
13.0409012968
 20
-10.5007263816
 10
13.0520158225
 20
-10.5164998814
 10
13.0613476311
 20
-10.5329807338
 10
13.0687380183
 20
-10.5498886522
 10
13.0740612971
 20
-10.566936087
 10
13.0772269357
 20
-10.5838331157
 10
13.0781810966
 20
-10.600292374
  0
LWPOLYLINE
  5
303
100
AcDbEntity
  8
RACCORDO
100
AcDbPolyline
 62
250
  6
CONTINUOUS
 90
4
 70
0
 10
13.6017569697
 20
-9.7775108446
 10
13.6188587712
 20
-9.7841622033
 10
13.6356290965
 20
-9.7928144843
 10
13.6517810514
 20
-9.8033171614
  0
LWPOLYLINE
  5
304
100
AcDbEntity
  8
RACCORDO
100
AcDbPolyline
 62
250
  6
CONTINUOUS
 90
7
 70
0
 10
13.674890928
 20
-9.7711191111
 10
13.6655144344
 20
-9.7669206088
 10
13.6541768223
 20
-9.7644717859
 10
13.6419215463
 20
-9.764320317
 10
13.6289524307
 20
-9.7664717545
 10
13.6154887034
 20
-9.7708926
 10
13.6017569697
 20
-9.7775108446
  0
LWPOLYLINE
  5
305
100
AcDbEntity
  8
RACCORDO
100
AcDbPolyline
 62
7
  6
CONTINUOUS
 90
9
 70
0
 10
13.6993632111
 20
-11.1218160239
 10
13.6815180738
 20
-11.1127157933
 10
13.6616442499
 20
-11.1051863956
 10
13.6412798886
 20
-11.1000710043
 10
13.6207317844
 20
-11.0974212727
 10
13.6002554219
 20
-11.0972298148
 10
13.5801207117
 20
-11.0994525592
 10
13.5606485501
 20
-11.1039984421
 10
13.556288914
 20
-11.1053594971
  0
LWPOLYLINE
  5
306
100
AcDbEntity
  8
RACCORDO
100
AcDbPolyline
 62
250
  6
CONTINUOUS
 90
11
 70
0
 10
13.6457529087
 20
-11.119441836
 10
13.6376937748
 20
-11.1150061028
 10
13.6293312803
 20
-11.1110427011
 10
13.6206894957
 20
-11.1076265528
 10
13.6117871011
 20
-11.1048327553
 10
13.6026714255
 20
-11.10274299
 10
13.5934183403
 20
-11.1014366236
 10
13.5840731135
 20
-11.100983982
 10
13.5746933181
 20
-11.1014550457
 10
13.5653796867
 20
-11.1029068826
 10
13.5567047643
 20
-11.105222526
  0
LINE
  5
307
100
AcDbEntity
  8
RACCORDO
100
AcDbLine
 62
250
  6
CONTINUOUS
 10
13.9523883562
 20
-11.2964893004
 11
13.6457529087
 21
-11.119441836
  0
LINE
  5
308
100
AcDbEntity
  8
RACCORDO
100
AcDbLine
 62
7
  6
CONTINUOUS
 10
14.0060311923
 20
-11.2988822566
 11
13.6993957411
 21
-11.12183479
  0
LWPOLYLINE
  5
309
100
AcDbEntity
  8
RACCORDO
100
AcDbPolyline
 62
250
  6
CONTINUOUS
 90
13
 70
0
 10
-0.0522667149
 20
0.1715591527
 10
-0.0513658507
 20
0.1493703889
 10
-0.0480400876
 20
0.1261765828
 10
-0.0423463192
 20
0.10237451
 10
-0.0343819487
 20
0.0783713515
 10
-0.0242832223
 20
0.0545777287
 10
-0.0122228985
 20
0.0314006782
 10
0.0015927072
 20
0.0092366889
 10
0.0169272516
 20
-0.0115350806
 10
0.0335184073
 20
-0.0305592884
 10
0.05108235
 20
-0.047510488
 10
0.0693186139
 20
-0.0620986958
 10
0.0879152319
 20
-0.074074352
  0
LINE
  5
30A
100
AcDbEntity
  8
LAY0001
100
AcDbLine
 62
7
  6
CONTINUOUS
 10
-1.7747251048
 20
24.4167550103
 11
-1.7747251048
 21
23.7316551021
  0
LINE
  5
30B
100
AcDbEntity
  8
ASSI
100
AcDbLine
 62
250
  6
CONTINUOUS
 10
-0.6401423391
 20
24.2892459251
 11
-0.6401423391
 21
23.9199349356
  0
LINE
  5
30C
100
AcDbEntity
  8
ASSI
100
AcDbLine
 62
7
  6
CONTINUOUS
 10
-0.5840102991
 20
24.3694633325
 11
-0.5840102991
 21
24.000152343
  0
LINE
  5
30D
100
AcDbEntity
  8
RACCORDO
100
AcDbLine
 62
7
  6
CONTINUOUS
 10
-0.3535533906
 20
-1.1423955437
 11
-0.3535533906
 21
5.4336721025
  0
LWPOLYLINE
  5
30E
100
AcDbEntity
  8
ASSI
100
AcDbPolyline
 62
250
  6
CONTINUOUS
 90
9
 70
0
 10
-0.5840102991
 20
24.000152343
 10
-0.5841780547
 20
23.995423611
 10
-0.5861065853
 20
23.9834767365
 10
-0.5901637886
 20
23.9717279247
 10
-0.5963033498
 20
23.9602912703
 10
-0.6044650899
 20
23.9492782557
 10
-0.6145675895
 20
23.9388046375
 10
-0.6265021196
 20
23.9289879068
 10
-0.6401423391
 20
23.9199349356
  0
LWPOLYLINE
  5
30F
100
AcDbEntity
  8
ASSI
100
AcDbPolyline
 62
250
  6
CONTINUOUS
 90
9
 70
0
 10
-0.5840103091
 20
24.3694268055
 10
-0.5841782112
 20
24.3647323961
 10
-0.5861020952
 20
24.3528055007
 10
-0.5901585745
 20
24.3410507713
 10
-0.5963060156
 20
24.3295980752
 10
-0.6044770496
 20
24.3185751765
 10
-0.6145822452
 20
24.3081021343
 10
-0.6265135435
 20
24.2982904679
 10
-0.6401423391
 20
24.2892459251
  0
LWPOLYLINE
  5
310
100
AcDbEntity
  8
ASSI
100
AcDbPolyline
 62
250
  6
CONTINUOUS
 90
13
 70
0
 10
3.0375710068
 20
24.157731605
 10
3.0431608433
 20
24.1818895084
 10
3.0463879099
 20
24.2068334129
 10
3.0472002661
 20
24.2321618902
 10
3.0455848331
 20
24.2574673117
 10
3.0415676029
 20
24.2823424378
 10
3.0352132111
 20
24.3063869696
 10
3.0266239067
 20
24.3292139438
 10
3.0159379089
 20
24.3504559834
 10
3.0033271694
 20
24.369771233
 10
2.9889946209
 20
24.3868488259
 10
2.9731709174
 20
24.4014138926
 10
2.9561107113
 20
24.4132320016
  0
LWPOLYLINE
  5
311
100
AcDbEntity
  8
ASSI
100
AcDbPolyline
 62
250
  6
CONTINUOUS
 90
13
 70
0
 10
4.6191304876
 20
24.1960939998
 10
4.6247203582
 20
24.2202521049
 10
4.6279474182
 20
24.2451961982
 10
4.6287597328
 20
24.2705248409
 10
4.627144229
 20
24.2958304059
 10
4.623126906
 20
24.3207056371
 10
4.6167724167
 20
24.3447502045
 10
4.6081830272
 20
24.3675771459
 10
4.5974969713
 20
24.3888190952
 10
4.5848862251
 20
24.4081341945
 10
4.5705537403
 20
24.4252115957
 10
4.5547301769
 20
24.4397764631
 10
4.5376701922
 20
24.4515943964
  0
LWPOLYLINE
  5
312
100
AcDbEntity
  8
ASSI
100
AcDbPolyline
 62
250
  6
CONTINUOUS
 90
13
 70
0
 10
5.6657317315
 20
24.3743691461
 10
5.6601416842
 20
24.3502100598
 10
5.6569146552
 20
24.3252651449
 10
5.6561025234
 20
24.299935893
 10
5.6577182989
 20
24.2746299771
 10
5.6617359172
 20
24.2497546529
 10
5.6680906727
 20
24.2257102071
 10
5.6766802459
 20
24.2028835862
 10
5.6873663607
 20
24.18164211
 10
5.6999770372
 20
24.1623275397
 10
5.7143093216
 20
24.1452506643
 10
5.7301325367
 20
24.1306862853
 10
5.7471920269
 20
24.1188687495
  0
LWPOLYLINE
  5
313
100
AcDbEntity
  8
ASSI
100
AcDbPolyline
 62
250
  6
CONTINUOUS
 90
16
 70
0
 10
5.2170060344
 20
21.2845384329
 10
5.2130473107
 20
21.2695716781
 10
5.2084567086
 20
21.2551351331
 10
5.2033155104
 20
21.2412913349
 10
5.1977114848
 20
21.2281087159
 10
5.1917110737
 20
21.2156095585
 10
5.1853525642
 20
21.2037753887
 10
5.1787534561
 20
21.1927167253
 10
5.1719200085
 20
21.1823608731
 10
5.1646875184
 20
21.1724437721
 10
5.1571179099
 20
21.1630311123
 10
5.1492127176
 20
21.1541461346
 10
5.1406737193
 20
21.1455570206
 10
5.1314115124
 20
21.1372940515
 10
5.1215701431
 20
21.1295817853
 10
5.1111970959
 20
21.1225536924
  0
LWPOLYLINE
  5
314
100
AcDbEntity
  8
ASSI
100
AcDbPolyline
 62
250
  6
CONTINUOUS
 90
14
 70
0
 10
5.7020680313
 20
25.60725985
 10
5.7071780774
 20
25.6248097974
 10
5.7142535792
 20
25.6422068988
 10
5.7232170131
 20
25.6592605521
 10
5.7339701778
 20
25.6757839255
 10
5.7463952623
 20
25.691595989
 10
5.7603561329
 20
25.7065234988
 10
5.7756998315
 20
25.7204029065
 10
5.7922582483
 20
25.7330821457
 10
5.8098499671
 20
25.744422301
 10
5.8282822525
 20
25.7542991291
 10
5.8473531581
 20
25.7626044171
 10
5.8668537385
 20
25.7692471691
 10
5.8865703414
 20
25.7741546049
  0
LINE
  5
315
100
AcDbEntity
  8
ASSI
100
AcDbLine
 62
250
  6
CONTINUOUS
 10
5.4883917518
 20
22.1581678566
 11
5.2170067577
 21
21.2845380153
  0
LINE
  5
316
100
AcDbEntity
  8
ASSI
100
AcDbLine
 62
250
  6
CONTINUOUS
 10
5.75419613
 20
22.0815591768
 11
5.4828111359
 21
21.2079293355
  0
LWPOLYLINE
  5
317
100
AcDbEntity
  8
ASSI
100
AcDbPolyline
 62
250
  6
CONTINUOUS
 90
16
 70
0
 10
5.4828111359
 20
21.2079293355
 10
5.4728183493
 20
21.1788720233
 10
5.4619835532
 20
21.1510264524
 10
5.4503067475
 20
21.124392623
 10
5.4376726002
 20
21.0989365014
 10
5.4241964435
 20
21.0746921212
 10
5.4102242731
 20
21.0517615831
 10
5.3959263659
 20
21.030303624
 10
5.3811324451
 20
21.0101595069
 10
5.3656776763
 20
20.9909551218
 10
5.3496632157
 20
20.972607696
 10
5.3329879071
 20
20.9552000021
 10
5.3151834475
 20
20.9386062472
 10
5.2960937358
 20
20.9227845006
 10
5.2758748731
 20
20.9077766931
 10
5.2545268594
 20
20.8935828247
  0
LINE
  5
318
100
AcDbEntity
  8
RACCORDO
100
AcDbLine
 62
250
  6
CONTINUOUS
 10
-6.5910109428
 20
-3.1517637801
 11
-6.0811183182
 21
-2.8573591453
  0
LINE
  5
319
100
AcDbEntity
  8
RACCORDO
100
AcDbLine
 62
250
  6
CONTINUOUS
 10
-6.4496111258
 20
-3.3966754472
 11
-5.9397185011
 21
-3.1022708124
  0
LINE
  5
31A
100
AcDbEntity
  8
RACCORDO
100
AcDbLine
 62
250
  6
CONTINUOUS
 10
-0.3535533906
 20
0.0006794257
 11
-0.0523760224
 21
0.171513529
  0
LINE
  5
31B
100
AcDbEntity
  8
RACCORDO
100
AcDbLine
 62
250
  6
CONTINUOUS
 10
-0.2121481884
 20
-0.244276804
 11
0.0879152319
 21
-0.074074352
  0
LWPOLYLINE
  5
31C
100
AcDbEntity
  8
RACCORDO
100
AcDbPolyline
 62
250
  6
CONTINUOUS
 90
10
 70
0
 10
0.0879152319
 20
-0.074074352
 10
0.0996830251
 20
-0.0678647306
 10
0.1113769815
 20
-0.0628783123
 10
0.1229100594
 20
-0.0591584704
 10
0.1342071284
 20
-0.0567369334
 10
0.1451697368
 20
-0.0556450125
 10
0.1556814893
 20
-0.0558976849
 10
0.1656560067
 20
-0.0574851292
 10
0.1750327228
 20
-0.0603884601
 10
0.1837447937
 20
-0.0645806472
  0
LWPOLYLINE
  5
31D
100
AcDbEntity
  8
RACCORDO
100
AcDbPolyline
 62
250
  6
CONTINUOUS
 90
10
 70
0
 10
-0.0523760224
 20
0.171513529
 10
-0.0282915315
 20
0.1839453886
 10
-0.0047178268
 20
0.1937847827
 10
0.0183450915
 20
0.2010317114
 10
0.0410787562
 20
0.2057049832
 10
0.0633016346
 20
0.2077857895
 10
0.0844691284
 20
0.2072177047
 10
0.1043997048
 20
0.2039819203
 10
0.1232748967
 20
0.1980972449
 10
0.1410947039
 20
0.1895636783
  0
LINE
  5
31E
100
AcDbEntity
  8
RACCORDO
100
AcDbLine
 62
250
  6
CONTINUOUS
 10
0.6990738886
 20
-0.1316359028
 11
0.1410947039
 21
0.1895636783
  0
LINE
  5
31F
100
AcDbEntity
  8
RACCORDO
100
AcDbLine
 62
250
  6
CONTINUOUS
 10
12.6642803688
 20
-9.2362236046
 11
13.6017569697
 21
-9.7775108446
  0
LINE
  5
320
100
AcDbEntity
  8
RACCORDO
100
AcDbLine
 62
7
  6
CONTINUOUS
 10
12.6642803688
 20
-9.1876052348
 11
13.6749094865
 21
-9.7711298212
  0
LINE
  5
321
100
AcDbEntity
  8
RACCORDO
100
AcDbLine
 62
7
  6
CONTINUOUS
 10
-0.2121481884
 20
-1.3873351915
 11
3.1856489346
 21
-3.349180666
  0
LINE
  5
322
100
AcDbEntity
  8
RACCORDO
100
AcDbLine
 62
7
  6
CONTINUOUS
 10
-0.2121481884
 20
-0.244276804
 11
3.1856489346
 21
-2.2061222785
  0
LINE
  5
323
100
AcDbEntity
  8
RACCORDO
100
AcDbLine
 62
250
  6
CONTINUOUS
 10
3.1856489346
 20
-1.8626669682
 11
0.0879152319
 21
-0.074074352
  0
LINE
  5
324
100
AcDbEntity
  8
RACCORDO
100
AcDbLine
 62
7
  6
CONTINUOUS
 10
3.1856489346
 20
-1.7978424755
 11
0.1837447937
 21
-0.0645806472
  0
LWPOLYLINE
  5
325
100
AcDbEntity
  8
RACCORDO
100
AcDbPolyline
 62
7
  6
CONTINUOUS
 90
30
 70
0
 10
0.9377280767
 20
-0.4998360629
 10
0.9323944146
 20
-0.4964855092
 10
0.9257394574
 20
-0.4916236595
 10
0.917809802
 20
-0.4850137451
 10
0.908782439
 20
-0.4765284696
 10
0.8990774783
 20
-0.4663405882
 10
0.8889343477
 20
-0.4545462429
 10
0.8785710923
 20
-0.4412820475
 10
0.8683148286
 20
-0.4269105221
 10
0.8583451739
 20
-0.4116907724
 10
0.8487112558
 20
-0.3957263525
 10
0.8394729404
 20
-0.3791493088
 10
0.8306854652
 20
-0.3621015322
 10
0.8223730596
 20
-0.3446803501
 10
0.8145275949
 20
-0.3269147025
 10
0.8071696564
 20
-0.3088940967
 10
0.8003062515
 20
-0.2906810759
 10
0.7939117734
 20
-0.272242158
 10
0.7879908244
 20
-0.2536112803
 10
0.782560552
 20
-0.2348637009
 10
0.7776217192
 20
-0.216021943
 10
0.7731805881
 20
-0.1971256688
 10
0.7692473062
 20
-0.1782301402
 10
0.7658284339
 20
-0.1593830635
 10
0.7629308488
 20
-0.1406348636
 10
0.760559333
 20
-0.1220287211
 10
0.7587182808
 20
-0.1036079058
 10
0.7574132265
 20
-0.085423799
 10
0.7566481744
 20
-0.067534633
 10
0.7564237986
 20
-0.0516083926
  0
LINE
  5
326
100
AcDbEntity
  8
RACCORDO
100
AcDbLine
 62
250
  6
CONTINUOUS
 10
13.9661939843
 20
-11.3051692455
 11
13.9523883562
 21
-11.2964893004
  0
LWPOLYLINE
  5
327
100
AcDbEntity
  8
RACCORDO
100
AcDbPolyline
 62
250
  6
CONTINUOUS
 90
13
 70
0
 10
0.1837447937
 20
-0.0645806472
 10
0.1661266403
 20
-0.0524478692
 10
0.150505208
 20
-0.0375806792
 10
0.1371456912
 20
-0.0202314672
 10
0.1262748848
 20
-0.0006947587
 10
0.1180773351
 20
0.0206977854
 10
0.112692206
 20
0.0435829988
 10
0.1102109172
 20
0.0675723752
 10
0.1106755917
 20
0.0922586636
 10
0.1140783412
 20
0.1172227823
 10
0.1203613995
 20
0.1420409329
 10
0.1294181035
 20
0.1662917949
 10
0.1410947039
 20
0.1895636783
  0
LWPOLYLINE
  5
328
100
AcDbEntity
  8
RACCORDO
100
AcDbPolyline
 62
250
  6
CONTINUOUS
 90
12
 70
0
 10
12.7758899638
 20
-11.1149974355
 10
12.7681149536
 20
-11.1094438298
 10
12.7603473157
 20
-11.1045796362
 10
12.7526234815
 20
-11.1004254071
 10
12.7450457136
 20
-11.0970205239
 10
12.7375822093
 20
-11.0943463951
 10
12.7300790906
 20
-11.0923858177
 10
12.722519376
 20
-11.0911941793
 10
12.7150330304
 20
-11.0908597831
 10
12.707699708
 20
-11.091450467
 10
12.7005885714
 20
-11.0930052955
 10
12.6940511761
 20
-11.0954497984
  0
LINE
  5
329
100
AcDbEntity
  8
RACCORDO
100
AcDbLine
 62
250
  6
CONTINUOUS
 10
3.1865638111
 20
-9.0957092302
 11
3.1856489346
 21
-9.0782530248
  0
LWPOLYLINE
  5
32A
100
AcDbEntity
  8
RACCORDO
100
AcDbPolyline
 62
250
  6
CONTINUOUS
 90
9
 70
0
 10
2.8371961842
 20
3.760458263
 10
2.8390902405
 20
3.7193519264
 10
2.8447521099
 20
3.6808732518
 10
2.8541211217
 20
3.6454345089
 10
2.8670968856
 20
3.6134153954
 10
2.8835403679
 20
3.5851589684
 10
2.9032753813
 20
3.5609679687
 10
2.9260904718
 20
3.5411015792
 10
2.9407095576
 20
3.5316059666
  0
LINE
  5
32B
100
AcDbEntity
  8
RACCORDO
100
AcDbLine
 62
250
  6
CONTINUOUS
 10
0.6990738886
 20
-0.1316359028
 11
0.6990738886
 21
4.825898304
  0
LINE
  5
32C
100
AcDbEntity
  8
RACCORDO
100
AcDbLine
 62
7
  6
CONTINUOUS
 10
0.7564237988
 20
-0.0516044488
 11
0.7564237988
 21
4.7927851846
  0
LINE
  5
32D
100
AcDbEntity
  8
DRAFT
100
AcDbLine
 62
7
  6
CONTINUOUS
 10
1.3518088875
 20
23.7454746771
 11
1.3518088875
 21
23.6653882789
  0
LINE
  5
32E
100
AcDbEntity
  8
RACCORDO
100
AcDbLine
 62
7
  6
CONTINUOUS
 10
3.1856489346
 20
3.1074047248
 11
3.1856489346
 21
-9.0782530248
  0
LINE
  5
32F
100
AcDbEntity
  8
RACCORDO
100
AcDbLine
 62
250
  6
CONTINUOUS
 10
3.332095544
 20
2.9032664913
 11
3.332095544
 21
-9.2823896029
  0
LWPOLYLINE
  5
330
100
AcDbEntity
  8
RACCORDO
100
AcDbPolyline
 62
7
  6
CONTINUOUS
 90
4
 70
0
 10
3.1856489348
 20
-9.0782458489
 10
3.1855159419
 20
-9.0844627517
 10
3.1852040101
 20
-9.0889067258
 10
3.1850712076
 20
-9.0900728679
  0
LWPOLYLINE
  5
331
100
AcDbEntity
  8
RACCORDO
100
AcDbPolyline
 62
250
  6
CONTINUOUS
 90
15
 70
0
 10
2.8371961842
 20
-9.5680837784
 10
2.839090224
 20
-9.5247904217
 10
2.84475205
 20
-9.4797737337
 10
2.8541209997
 20
-9.4335160369
 10
2.8670966913
 20
-9.3865129506
 10
2.8835400993
 20
-9.3392680801
 10
2.9032750439
 20
-9.2922876217
 10
2.9260900788
 20
-9.2460749383
 10
2.9517407569
 20
-9.2011251668
 10
2.9799522487
 20
-9.1579199128
 10
3.0104222879
 20
-9.1169220907
 10
3.0428244089
 20
-9.0785709638
 10
3.0768114456
 20
-9.0432774378
 10
3.1120192504
 20
-9.0114196584
 10
3.148070596
 20
-8.9833389596
  0
LINE
  5
332
100
AcDbEntity
  8
ASSI
100
AcDbLine
 62
250
  6
CONTINUOUS
 10
2.8734890523
 20
24.1509667426
 11
2.8731640067
 21
24.1451086194
  0
LWPOLYLINE
  5
333
100
AcDbEntity
  8
RACCORDO
100
AcDbPolyline
 62
250
  6
CONTINUOUS
 90
7
 70
0
 10
0.7564237986
 20
-0.0516083926
 10
0.7548430911
 20
-0.0660942793
 10
0.7499068427
 20
-0.0808427921
 10
0.7416966755
 20
-0.0950965641
 10
0.7303515137
 20
-0.1086144078
 10
0.7160633281
 20
-0.1211675882
 10
0.6990738886
 20
-0.1325436937
  0
LINE
  5
334
100
AcDbEntity
  8
ASSI
100
AcDbLine
 62
250
  6
CONTINUOUS
 10
5.698979433
 20
25.5897493412
 11
5.7020680313
 21
25.60725985
  0
LWPOLYLINE
  5
335
100
AcDbEntity
  8
ASSI
100
AcDbPolyline
 62
250
  6
CONTINUOUS
 90
13
 70
0
 10
5.9804104359
 20
22.191838396
 10
5.9851841478
 20
22.215643648
 10
5.9876948128
 20
22.2400888095
 10
5.9879040387
 20
22.2648003561
 10
5.9858085993
 20
22.2894006884
 10
5.9814404855
 20
22.3135138915
 10
5.9748664206
 20
22.3367714806
 10
5.9661868361
 20
22.3588180522
 10
5.9555343424
 20
22.3793166945
 10
5.9430717122
 20
22.397954131
 10
5.9289893793
 20
22.4144455386
 10
5.9135025225
 20
22.4285388955
 10
5.8968477908
 20
22.4400188157
  0
LWPOLYLINE
  5
336
100
AcDbEntity
  8
ASSI
100
AcDbPolyline
 62
250
  6
CONTINUOUS
 90
5
 70
0
 10
10.5490814951
 20
23.5826539907
 10
10.5537211674
 20
23.5946638939
 10
10.5601058742
 20
23.6062646132
 10
10.5681395989
 20
23.617302629
 10
10.5777177101
 20
23.6276688265
  0
LWPOLYLINE
  5
337
100
AcDbEntity
  8
ASSI
100
AcDbPolyline
 62
250
  6
CONTINUOUS
 90
5
 70
0
 10
10.5490828767
 20
23.5617176393
 10
10.5527299725
 20
23.5707338578
 10
10.5608706639
 20
23.5829604694
 10
10.5719685132
 20
23.5946876875
 10
10.5858340778
 20
23.6057050509
  0
LINE
  5
338
100
AcDbEntity
  8
RACCORDO
100
AcDbLine
 62
7
  6
CONTINUOUS
 10
9.0836277459
 20
12.9215884413
 11
9.4439328866
 21
13.5414251333
  0
LINE
  5
339
100
AcDbEntity
  8
RACCORDO
100
AcDbLine
 62
250
  6
CONTINUOUS
 10
-0.3535533906
 20
-1.1423955437
 11
-4.8053161072
 21
-3.7572605372
  0
LINE
  5
33A
100
AcDbEntity
  8
RACCORDO
100
AcDbLine
 62
250
  6
CONTINUOUS
 10
-0.2121481884
 20
-1.3873351915
 11
-4.5237160424
 21
-3.9198528854
  0
LINE
  5
33B
100
AcDbEntity
  8
RACCORDO
100
AcDbLine
 62
250
  6
CONTINUOUS
 10
13.6517810514
 20
-9.8033171614
 11
13.6670371304
 21
-9.8154867858
  0
LWPOLYLINE
  5
33C
100
AcDbEntity
  8
RACCORDO
100
AcDbPolyline
 62
250
  6
CONTINUOUS
 90
4
 70
0
 10
13.6670371304
 20
-9.8154867858
 10
13.6811394541
 20
-9.829114473
 10
13.6938526582
 20
-9.8439711749
 10
13.7049741963
 20
-9.859826042
  0
LWPOLYLINE
  5
33D
100
AcDbEntity
  8
RACCORDO
100
AcDbPolyline
 62
250
  6
CONTINUOUS
 90
4
 70
0
 10
12.9232109378
 20
-11.3106302942
 10
12.9136934226
 20
-11.3004117186
 10
12.8842263023
 20
-11.2667837765
 10
12.8556678442
 20
-11.23144969
  0
LWPOLYLINE
  5
33E
100
AcDbEntity
  8
RACCORDO
100
AcDbPolyline
 62
7
  6
CONTINUOUS
 90
4
 70
0
 10
12.9933576175
 20
-11.2878855218
 10
12.9664116105
 20
-11.2553720347
 10
12.9211325416
 20
-11.1911967531
 10
12.9030929688
 20
-11.1620653023
  0
LWPOLYLINE
  5
33F
100
AcDbEntity
  8
RACCORDO
100
AcDbPolyline
 62
250
  6
CONTINUOUS
 90
49
 70
0
 10
0.6990738886
 20
-0.1325436937
 10
0.7041172621
 20
-0.1467534479
 10
0.709307827
 20
-0.1607198739
 10
0.7146274803
 20
-0.1744109549
 10
0.7200567572
 20
-0.1877797003
 10
0.7255737566
 20
-0.2008180107
 10
0.731160001
 20
-0.2135580678
 10
0.7367960628
 20
-0.2259831591
 10
0.7424663435
 20
-0.2380735153
 10
0.7481660453
 20
-0.2498617209
 10
0.7538801391
 20
-0.2613381355
 10
0.7595935843
 20
-0.2724876752
 10
0.7653075942
 20
-0.2833374474
 10
0.7710086807
 20
-0.2938792814
 10
0.7766841603
 20
-0.3041044845
 10
0.782341168
 20
-0.3140407248
 10
0.7879718972
 20
-0.3236884416
 10
0.7935621583
 20
-0.3330355725
 10
0.7991124403
 20
-0.342091798
 10
0.8046135906
 20
-0.350856489
 10
0.8100540944
 20
-0.3593228879
 10
0.8154316402
 20
-0.3674923596
 10
0.8207324887
 20
-0.3753588837
 10
0.8259497278
 20
-0.3829251582
 10
0.831091967
 20
-0.3902062862
 10
0.8361456553
 20
-0.3971956896
 10
0.8411055718
 20
-0.4038994092
 10
0.8459952577
 20
-0.4103509808
 10
0.8508065166
 20
-0.4165476732
 10
0.8555330011
 20
-0.4224921828
 10
0.8602049919
 20
-0.4282242697
 10
0.864819949
 20
-0.4337441761
 10
0.8693707666
 20
-0.4390502334
 10
0.8738851884
 20
-0.4441765036
 10
0.8783681301
 20
-0.4491281834
 10
0.8828094891
 20
-0.4538960279
 10
0.887217388
 20
-0.4584901364
 10
0.8915914875
 20
-0.4629092146
 10
0.8959281091
 20
-0.4671496639
 10
0.9002318379
 20
-0.4712167
 10
0.9045013319
 20
-0.4751070305
 10
0.9087347758
 20
-0.4788179997
 10
0.9129374977
 20
-0.4823540357
 10
0.91710903
 20
-0.485711136
 10
0.9212477674
 20
-0.4888853902
 10
0.9253590912
 20
-0.4918788171
 10
0.9294449872
 20
-0.494687715
 10
0.9335028401
 20
-0.4973043261
 10
0.9375319079
 20
-0.49972302
  0
LINE
  5
340
100
AcDbEntity
  8
ASSI
100
AcDbLine
 62
7
  6
CONTINUOUS
 10
2.8731640067
 20
24.1451086194
 11
2.8731698226
 21
24.145045456
  0
LINE
  5
341
100
AcDbEntity
  8
ASSI
100
AcDbLine
 62
250
  6
CONTINUOUS
 10
3.0472602734
 20
24.0509932439
 11
3.0375710068
 21
24.157731605
  0
LWPOLYLINE
  5
342
100
AcDbEntity
  8
LAY0001
100
AcDbPolyline
 62
250
  6
CONTINUOUS
 90
9
 70
0
 10
5.4542080969
 20
-25.4907287783
 10
5.4560809338
 20
-25.5316109505
 10
5.461679603
 20
-25.5698972971
 10
5.4709447903
 20
-25.6051821985
 10
5.4837783369
 20
-25.6370918336
 10
5.5000442796
 20
-25.6652881399
 10
5.5195702909
 20
-25.6894723952
 10
5.542149505
 20
-25.7093883826
 10
5.5577494074
 20
-25.7195972088
  0
LINE
  5
343
100
AcDbEntity
  8
LAY0001
100
AcDbLine
 62
250
  6
CONTINUOUS
 10
5.4542080969
 20
16.661043504
 11
5.4542080969
 21
-25.4907287783
  0
LINE
  5
344
100
AcDbEntity
  8
ASSI
100
AcDbLine
 62
7
  6
CONTINUOUS
 10
5.6695066659
 20
25.6684461831
 11
5.6695066659
 21
25.5361779766
  0
LINE
  5
345
100
AcDbEntity
  8
LAY0001
100
AcDbLine
 62
250
  6
CONTINUOUS
 10
6.1519387753
 20
16.6557697652
 11
6.1519387753
 21
-25.496002517
  0
LINE
  5
346
100
AcDbEntity
  8
ASSI
100
AcDbLine
 62
250
  6
CONTINUOUS
 10
5.6971827502
 20
25.545879301
 11
5.6979461093
 21
25.5724701409
  0
LWPOLYLINE
  5
347
100
AcDbEntity
  8
RACCORDO
100
AcDbPolyline
 62
250
  6
CONTINUOUS
 90
19
 70
0
 10
3.332095544
 20
-9.2823896029
 10
3.329983029
 20
-9.3316927042
 10
3.3243952476
 20
-9.3776283756
 10
3.3153322
 20
-9.4201966171
 10
3.3026790248
 20
-9.4595612388
 10
3.2865505832
 20
-9.4955584305
 10
3.2672914596
 20
-9.5276967622
 10
3.2448470118
 20
-9.5559888608
 10
3.2192718819
 20
-9.5804220993
 10
3.1910745805
 20
-9.6004671665
 10
3.1603476951
 20
-9.6160861142
 10
3.1269986382
 20
-9.6273168905
 10
3.0912581576
 20
-9.6337440292
 10
3.0528276691
 20
-9.6353222352
 10
3.0120057568
 20
-9.6320968036
 10
2.9699189211
 20
-9.6237881534
 10
2.9269426618
 20
-9.6103030909
 10
2.8827014791
 20
-9.5917348097
 10
2.8371953729
 20
-9.5680833099
  0
LINE
  5
348
100
AcDbEntity
  8
ASSI
100
AcDbLine
 62
250
  6
CONTINUOUS
 10
5.6979461261
 20
25.5724701207
 11
5.698979433
 21
25.5897493412
  0
LWPOLYLINE
  5
349
100
AcDbEntity
  8
ASSI
100
AcDbPolyline
 62
7
  6
CONTINUOUS
 90
19
 70
0
 10
5.66950667
 20
25.6684461831
 10
5.6717587963
 20
25.705140605
 10
5.678709653
 20
25.7423096463
 10
5.6905949937
 20
25.7794000072
 10
5.7075356869
 20
25.8157953097
 10
5.7295758519
 20
25.8509527455
 10
5.7568271782
 20
25.8845143243
 10
5.7898306994
 20
25.9164657538
 10
5.828209208
 20
25.9458419369
 10
5.8704209532
 20
25.9714022836
 10
5.916095634
 20
25.9931330532
 10
5.9650872316
 20
26.0110587587
 10
6.0155662099
 20
26.0247120717
 10
6.0665270453
 20
26.0341993746
 10
6.1181484235
 20
26.0398238904
 10
6.1700110084
 20
26.0416622441
 10
6.221701024
 20
26.0397633614
 10
6.2729115183
 20
26.0341368718
 10
6.3232857943
 20
26.0247486449
  0
LWPOLYLINE
  5
34A
100
AcDbEntity
  8
ASSI
100
AcDbPolyline
 62
250
  6
CONTINUOUS
 90
13
 70
0
 10
8.0541140881
 20
26.0337661122
 10
8.0567096425
 20
26.0574456953
 10
8.0570000466
 20
26.0819157204
 10
8.0549806458
 20
26.1067839898
 10
8.0506838063
 20
26.1316519229
 10
8.0441783962
 20
26.1561209444
 10
8.0355686822
 20
26.1797988725
 10
8.0249926578
 20
26.202306205
 10
8.0126198322
 20
26.2232822014
 10
7.998648513
 20
26.2423906649
 10
7.983302628
 20
26.2593253311
 10
7.9668281361
 20
26.2738147764
 10
7.9494890853
 20
26.2856267685
  0
LWPOLYLINE
  5
34B
100
AcDbEntity
  8
ASSI
100
AcDbPolyline
 62
250
  6
CONTINUOUS
 90
10
 70
0
 10
8.024739163
 20
22.298189947
 10
8.0213135249
 20
22.2800212758
 10
8.0192658674
 20
22.2619244393
 10
8.0186144739
 20
22.2440610075
 10
8.0193651629
 20
22.2265904665
 10
8.0215112325
 20
22.2096687955
 10
8.0250335207
 20
22.1934470738
 10
8.0299005816
 20
22.1780701311
 10
8.036068964
 20
22.1636752542
 10
8.0434835974
 20
22.1503909628
  0
LWPOLYLINE
  5
34C
100
AcDbEntity
  8
RACCORDO
100
AcDbPolyline
 62
250
  6
CONTINUOUS
 90
16
 70
0
 10
-7.2918935187
 20
9.0374255631
 10
-7.2534520649
 20
9.0174171582
 10
-7.2116344047
 20
8.9998103501
 10
-7.1668885946
 20
8.9847937801
 10
-7.1196940632
 20
8.9725283362
 10
-7.0705564738
 20
8.963145429
 10
-7.0200023053
 20
8.9567455844
 10
-6.9685732149
 20
8.9533973668
 10
-6.9168202302
 20
8.9531366442
 10
-6.8652978443
 20
8.9559662044
 10
-6.8145580829
 20
8.9618557256
 10
-6.7651445833
 20
8.970742101
 10
-6.7175867661
 20
8.9825301164
 10
-6.6723941733
 20
8.9970934691
 10
-6.6300510085
 20
9.0142761201
 10
-6.5910109428
 20
9.0338939671
  0
LINE
  5
34D
100
AcDbEntity
  8
RACCORDO
100
AcDbLine
 62
7
  6
CONTINUOUS
 10
-6.6934528484
 20
9.0942505918
 11
2.9407374968
 21
3.5315898313
  0
LINE
  5
34E
100
AcDbEntity
  8
RACCORDO
100
AcDbLine
 62
250
  6
CONTINUOUS
 10
-6.7969933475
 20
9.3231185539
 11
2.837195564
 21
3.7604586211
  0
LWPOLYLINE
  5
34F
100
AcDbEntity
  8
RACCORDO
100
AcDbPolyline
 62
7
  6
CONTINUOUS
 90
22
 70
0
 10
2.9407095577
 20
3.5316059666
 10
2.9465737903
 20
3.5280684954
 10
2.9578878088
 20
3.5204839532
 10
2.9714068205
 20
3.5102890879
 10
2.9867744294
 20
3.4973619777
 10
3.0036194342
 20
3.481660363
 10
3.0215839157
 20
3.463161155
 10
3.0403789388
 20
3.4418041031
 10
3.0595106842
 20
3.4178219015
 10
3.0783365404
 20
3.3917539254
 10
3.0965020141
 20
3.3638924816
 10
3.1136319184
 20
3.3346861088
 10
3.1291631391
 20
3.3050824192
 10
3.1428735376
 20
3.2756243942
 10
3.1546639479
 20
3.2467669561
 10
3.1643568118
 20
3.2193479824
 10
3.1719724418
 20
3.1939189012
 10
3.1776843259
 20
3.1707251487
 10
3.1816700971
 20
3.1501086646
 10
3.1841362696
 20
3.132397017
 10
3.1853526611
 20
3.1178392655
 10
3.1856489349
 20
3.1073947161
  0
LWPOLYLINE
  5
350
100
AcDbEntity
  8
RACCORDO
100
AcDbPolyline
 62
250
  6
CONTINUOUS
 90
19
 70
0
 10
2.837195564
 20
3.7604586211
 10
2.8809510374
 20
3.7327555155
 10
2.9235279381
 20
3.7017201404
 10
2.9649262661
 20
3.6673524959
 10
3.0053453258
 20
3.6294048798
 10
3.0445858128
 20
3.5881249942
 10
3.0820498137
 20
3.5442559457
 10
3.1177755876
 20
3.4977125505
 10
3.1517248754
 20
3.4485799924
 10
3.1831849854
 20
3.3978569289
 10
3.2120767542
 20
3.3456959757
 10
3.2384793451
 20
3.2919445172
 10
3.2619175573
 20
3.2371433646
 10
3.2825014692
 20
3.1808841956
 10
3.3001210023
 20
3.1235753325
 10
3.31397072
 20
3.0669825528
 10
3.3237821434
 20
3.0116944489
 10
3.3298237514
 20
2.9571224284
 10
3.332095544
 20
2.9032664913
  0
LWPOLYLINE
  5
351
100
AcDbEntity
  8
RACCORDO
100
AcDbPolyline
 62
250
  6
CONTINUOUS
 90
9
 70
0
 10
3.332095544
 20
2.9032674282
 10
3.2974423406
 20
2.9254629432
 10
3.2669485018
 20
2.9496078383
 10
3.240940748
 20
2.9754434177
 10
3.2196977342
 20
3.002692871
 10
3.2034470646
 20
3.0310642393
 10
3.1923628538
 20
3.060253543
 10
3.1865638616
 20
3.0899480389
 10
3.1856489349
 20
3.1073947161
  0
LINE
  5
352
100
AcDbEntity
  8
RACCORDO
100
AcDbLine
 62
250
  6
CONTINUOUS
 10
-6.7081002643
 20
9.1037626236
 11
-6.6934528484
 21
9.0942505918
  0
LINE
  5
353
100
AcDbEntity
  8
RACCORDO
100
AcDbLine
 62
250
  6
CONTINUOUS
 10
12.8556678442
 20
-11.23144969
 11
12.8281665552
 21
-11.1943384163
  0
LWPOLYLINE
  5
354
100
AcDbEntity
  8
RACCORDO
100
AcDbPolyline
 62
250
  6
CONTINUOUS
 90
3
 70
0
 10
12.8281665552
 20
-11.1943384163
 10
12.8015739284
 20
-11.1555209982
 10
12.7758899638
 20
-11.1149974355
  0
LWPOLYLINE
  5
355
100
AcDbEntity
  8
RACCORDO
100
AcDbPolyline
 62
7
  6
CONTINUOUS
 90
14
 70
0
 10
12.9030764621
 20
-11.1620374381
 10
12.8937961516
 20
-11.1477781319
 10
12.8829920765
 20
-11.1340774032
 10
12.8705194096
 20
-11.1211780436
 10
12.8563246018
 20
-11.1093922699
 10
12.8402624237
 20
-11.0989511751
 10
12.8226723111
 20
-11.0903691414
 10
12.8038302744
 20
-11.0839683999
 10
12.7839288498
 20
-11.0799816114
 10
12.7634182895
 20
-11.0786432509
 10
12.7427062333
 20
-11.0800807359
 10
12.7221568663
 20
-11.0843613065
 10
12.7022131603
 20
-11.0914796691
 10
12.6909135142
 20
-11.096976011
  0
LWPOLYLINE
  5
356
100
AcDbEntity
  8
RACCORDO
100
AcDbPolyline
 62
250
  6
CONTINUOUS
 90
8
 70
0
 10
14.0377665952
 20
-11.386344465
 10
14.0300674308
 20
-11.3735403269
 10
14.0215669326
 20
-11.3609559653
 10
14.0122834151
 20
-11.3487465765
 10
14.0022123706
 20
-11.3370203809
 10
13.991185518
 20
-11.3257185531
 10
13.9791472606
 20
-11.3149971513
 10
13.9661939843
 20
-11.3051692455
  0
LINE
  5
357
100
AcDbEntity
  8
RACCORDO
100
AcDbLine
 62
250
  6
CONTINUOUS
 10
12.6692501898
 20
-14.9387341039
 11
12.6635773222
 21
-14.928908409
  0
LINE
  5
358
100
AcDbEntity
  8
RACCORDO
100
AcDbLine
 62
7
  6
CONTINUOUS
 10
12.7223137909
 20
-14.9080910969
 11
12.6642803688
 21
-14.8075742614
  0
LWPOLYLINE
  5
359
100
AcDbEntity
  8
ASSI
100
AcDbPolyline
 62
250
  6
CONTINUOUS
 90
13
 70
0
 10
5.1330545552
 20
24.3559665586
 10
5.1309913089
 20
24.3776692908
 10
5.1267027352
 20
24.4001921499
 10
5.1202574425
 20
24.4231749708
 10
5.1117585278
 20
24.4462502347
 10
5.1013419184
 20
24.4690489684
 10
5.0891741917
 20
24.491206643
 10
5.0754499324
 20
24.5123689608
 10
5.0603886051
 20
24.5321975544
 10
5.0442310269
 20
24.550375411
 10
5.0272355514
 20
24.5666118907
 10
5.0096739442
 20
24.5806473815
 10
4.991827012
 20
24.5922574769
  0
LWPOLYLINE
  5
35A
100
AcDbEntity
  8
ASSI
100
AcDbPolyline
 62
250
  6
CONTINUOUS
 90
13
 70
0
 10
5.4541159389
 20
24.308539269
 10
5.4561791121
 20
24.286837046
 10
5.4604675375
 20
24.2643146166
 10
5.4669126428
 20
24.2413321167
 10
5.4754113702
 20
24.2182570387
 10
5.4858278241
 20
24.1954583555
 10
5.4979954445
 20
24.1733006203
 10
5.5117196697
 20
24.1521381375
 10
5.5267810481
 20
24.1323092973
 10
5.5429387467
 20
24.1141311649
 10
5.5599344024
 20
24.0978944105
 10
5.5774962528
 20
24.0838586615
 10
5.5953434821
 20
24.0722483507
  0
LINE
  5
35B
100
AcDbEntity
  8
ASSI
100
AcDbLine
 62
250
  6
CONTINUOUS
 10
7.5289956947
 20
21.3622345776
 11
7.5559368205
 21
21.0686497756
  0
LINE
  5
35C
100
AcDbEntity
  8
ASSI
100
AcDbLine
 62
250
  6
CONTINUOUS
 10
7.5001320944
 20
21.6931549542
 11
7.5289956947
 21
21.3622345776
  0
LWPOLYLINE
  5
35D
100
AcDbEntity
  8
ASSI
100
AcDbPolyline
 62
250
  6
CONTINUOUS
 90
5
 70
0
 10
5.6695066659
 20
25.6684461831
 10
5.6713186303
 20
25.6438907065
 10
5.6766922679
 20
25.6196784054
 10
5.6855892842
 20
25.5958146775
 10
5.6979461093
 20
25.5724701409
  0
LWPOLYLINE
  5
35E
100
AcDbEntity
  8
LAY0001
100
AcDbPolyline
 62
250
  6
CONTINUOUS
 90
16
 70
0
 10
6.1519387753
 20
16.6557697652
 10
6.1490488276
 20
16.6991466873
 10
6.1424001267
 20
16.7443520829
 10
6.132065934
 20
16.7908880685
 10
6.1181582825
 20
16.8382476413
 10
6.1008313993
 20
16.8859037516
 10
6.0802838838
 20
16.9333150072
 10
6.0567507569
 20
16.9799497573
 10
6.0304895771
 20
17.0253068845
 10
6.0017821045
 20
17.0689031955
 10
5.970899198
 20
17.1103163417
 10
5.9382200665
 20
17.1490275588
 10
5.9042402498
 20
17.1844784761
 10
5.8693920689
 20
17.2162812727
 10
5.8340191006
 20
17.2441834487
 10
5.7985065338
 20
17.2679323528
  0
LWPOLYLINE
  5
35F
100
AcDbEntity
  8
ASSI
100
AcDbPolyline
 62
250
  6
CONTINUOUS
 90
10
 70
0
 10
8.1493996408
 20
22.1490787884
 10
8.1487431242
 20
22.1620976607
 10
8.1476525506
 20
22.1747495863
 10
8.1461279199
 20
22.1870345652
 10
8.1441659777
 20
22.1989521939
 10
8.1417699785
 20
22.2105028758
 10
8.1389496852
 20
22.2216878216
 10
8.1357083523
 20
22.2325074349
 10
8.1320427254
 20
22.2429613122
 10
8.1279528046
 20
22.2530494533
  0
LWPOLYLINE
  5
360
100
AcDbEntity
  8
ASSI
100
AcDbPolyline
 62
250
  6
CONTINUOUS
 90
16
 70
0
 10
8.5362004432
 20
18.9909406093
 10
8.5356619946
 20
19.0086487011
 10
8.5335443316
 20
19.0270455518
 10
8.5298707795
 20
19.0459284663
 10
8.5246810747
 20
19.0650917664
 10
8.5180327634
 20
19.0843219514
 10
8.5100023304
 20
19.1034000729
 10
8.5006822129
 20
19.1221116205
 10
8.4901744343
 20
19.1402561534
 10
8.4785910225
 20
19.1576415885
 10
8.466040351
 20
19.1740999396
 10
8.4526768407
 20
19.1894237776
 10
8.4387046338
 20
19.2033911641
 10
8.4243030116
 20
19.2158499702
 10
8.40961472
 20
19.2267027358
 10
8.3948006261
 20
19.2358522764
  0
LINE
  5
361
100
AcDbEntity
  8
ASSI
100
AcDbLine
 62
250
  6
CONTINUOUS
 10
8.1591641005
 20
21.8097373944
 11
8.1493996408
 21
22.1490787884
  0
LINE
  5
362
100
AcDbEntity
  8
ASSI
100
AcDbLine
 62
250
  6
CONTINUOUS
 10
8.1664301379
 20
21.4950822443
 11
8.1591641005
 21
21.8097373944
  0
LINE
  5
363
100
AcDbEntity
  8
ASSI
100
AcDbLine
 62
250
  6
CONTINUOUS
 10
8.1703672877
 20
21.2764635553
 11
8.1664301379
 21
21.4950822443
  0
LWPOLYLINE
  5
364
100
AcDbEntity
  8
ASSI
100
AcDbPolyline
 62
250
  6
CONTINUOUS
 90
3
 70
0
 10
8.1738051919
 20
21.0098330677
 10
8.1731345413
 20
21.0737877543
 10
8.1703672877
 20
21.2764635553
  0
LWPOLYLINE
  5
365
100
AcDbEntity
  8
ASSI
100
AcDbPolyline
 62
250
  6
CONTINUOUS
 90
16
 70
0
 10
8.0247387123
 20
22.2981899961
 10
8.0247009791
 20
22.3141884399
 10
8.0236974191
 20
22.3301490562
 10
8.0217345282
 20
22.3459696868
 10
8.0188249449
 20
22.3615490302
 10
8.0149873646
 20
22.3767874299
 10
8.0102463923
 20
22.3915875009
 10
8.0046323901
 20
22.4058545767
 10
7.9981813503
 20
22.4194972958
 10
7.9909346475
 20
22.4324283227
 10
7.9829386645
 20
22.4445649727
 10
7.9742446571
 20
22.455829517
 10
7.9649085104
 20
22.4661497052
 10
7.9549901182
 20
22.4754595104
 10
7.9445529595
 20
22.4836994957
 10
7.9336638882
 20
22.4908170133
  0
LINE
  5
366
100
AcDbEntity
  8
ASSI
100
AcDbLine
 62
7
  6
CONTINUOUS
 10
8.1190755673
 20
21.9735611135
 11
8.1190755673
 21
20.9047904267
  0
LINE
  5
367
100
AcDbEntity
  8
ASSI
100
AcDbLine
 62
7
  6
CONTINUOUS
 10
8.2731493399
 20
20.9309424337
 11
8.2731493399
 21
21.0648125737
  0
LINE
  5
368
100
AcDbEntity
  8
ASSI
100
AcDbLine
 62
250
  6
CONTINUOUS
 10
8.5362004432
 20
18.6216296197
 11
8.5362004432
 21
18.9909406093
  0
LINE
  5
369
100
AcDbEntity
  8
LAY0001
100
AcDbLine
 62
7
  6
CONTINUOUS
 10
8.5559920524
 20
-24.2496069702
 11
8.5559920524
 21
18.0438331516
  0
LINE
  5
36A
100
AcDbEntity
  8
ASSI
100
AcDbLine
 62
7
  6
CONTINUOUS
 10
8.5923324831
 20
18.7018470271
 11
8.5923324831
 21
19.0711580167
  0
LINE
  5
36B
100
AcDbEntity
  8
RACCORDO
100
AcDbLine
 62
250
  6
CONTINUOUS
 10
8.6266810017
 20
11.2689180113
 11
8.6266810017
 21
-17.3901616697
  0
LINE
  5
36C
100
AcDbEntity
  8
0
100
AcDbLine
 62
7
  6
CONTINUOUS
 10
8.7681240867
 20
-17.4706845528
 11
8.7681240867
 21
-17.597638986
  0
LINE
  5
36D
100
AcDbEntity
  8
DRAFT
100
AcDbLine
 62
7
  6
CONTINUOUS
 10
8.7891561224
 20
19.7461518181
 11
8.7891561224
 21
19.9345751962
  0
LINE
  5
36E
100
AcDbEntity
  8
DRAFT
100
AcDbLine
 62
250
  6
CONTINUOUS
 10
9.3192765608
 20
20.8788410143
 11
9.3192765608
 21
20.0875048171
  0
LINE
  5
36F
100
AcDbEntity
  8
RACCORDO
100
AcDbLine
 62
250
  6
CONTINUOUS
 10
9.4439328866
 20
-18.6438425855
 11
9.4439328866
 21
-20.2946548733
  0
LINE
  5
370
100
AcDbEntity
  8
RACCORDO
100
AcDbLine
 62
250
  6
CONTINUOUS
 10
9.4439328866
 20
13.5414251333
 11
9.4439328866
 21
15.1922374211
  0
LWPOLYLINE
  5
371
100
AcDbEntity
  8
ASSI
100
AcDbPolyline
 62
7
  6
CONTINUOUS
 90
21
 70
0
 10
8.1190211661
 20
20.9047915419
 10
8.1190028126
 20
20.9023703333
 10
8.1170832845
 20
20.8801248934
 10
8.1120056533
 20
20.8582457181
 10
8.1036912819
 20
20.8365945996
 10
8.0922188075
 20
20.8153097459
 10
8.0778241415
 20
20.7948057804
 10
8.0604717147
 20
20.7751114645
 10
8.0401970963
 20
20.756198037
 10
8.0173429057
 20
20.7383938373
 10
7.9918260329
 20
20.7216977304
 10
7.9637295879
 20
20.7061108515
 10
7.9336455198
 20
20.6919649449
 10
7.9015648854
 20
20.6793049831
 10
7.8674966279
 20
20.6680859937
 10
7.8320595254
 20
20.6585048037
 10
7.79522757
 20
20.6505856787
 10
7.7570267696
 20
20.6443043531
 10
7.7181539262
 20
20.639784858
 10
7.6788413074
 20
20.6370685371
 10
7.6388566457
 20
20.6361140466
  0
LWPOLYLINE
  5
372
100
AcDbEntity
  8
ASSI
100
AcDbPolyline
 62
250
  6
CONTINUOUS
 90
16
 70
0
 10
9.9277246227
 20
23.1302490388
 10
9.9280888611
 20
23.1479145322
 10
9.9291775858
 20
23.1665797112
 10
9.9309788686
 20
23.186040076
 10
9.9334729741
 20
23.2060824147
 10
9.9366325763
 20
23.2264871393
 10
9.940423058
 20
23.2470306917
 10
9.94480289
 20
23.2674879926
 10
9.9497240857
 20
23.2876349074
 10
9.9551327278
 20
23.3072507026
 10
9.9609695579
 20
23.3261204634
 10
9.9671706265
 20
23.3440374489
 10
9.9736679937
 20
23.3608053572
 10
9.9803904731
 20
23.3762404757
 10
9.9872644117
 20
23.3901736935
 10
9.9942144971
 20
23.4024523552
  0
LWPOLYLINE
  5
373
100
AcDbEntity
  8
RACCORDO
100
AcDbPolyline
 62
250
  6
CONTINUOUS
 90
5
 70
0
 10
8.6266810017
 20
-17.3901616697
 10
8.6259109476
 20
-17.4170084415
 10
8.6234824663
 20
-17.4434207896
 10
8.6192894886
 20
-17.4691960403
 10
8.6132716665
 20
-17.4939781986
  0
LINE
  5
374
100
AcDbEntity
  8
ASSI
100
AcDbLine
 62
250
  6
CONTINUOUS
 10
8.592154528
 20
18.6969767254
 11
8.5923324831
 21
18.7018470271
  0
LWPOLYLINE
  5
375
100
AcDbEntity
  8
ASSI
100
AcDbPolyline
 62
250
  6
CONTINUOUS
 90
22
 70
0
 10
8.1190755673
 20
21.9735611135
 10
8.1177629916
 20
21.9526563954
 10
8.1127368981
 20
21.9277378951
 10
8.1039830334
 20
21.9031654109
 10
8.0915674819
 20
21.8791244719
 10
8.0755840014
 20
21.8557966449
 10
8.0561532807
 20
21.8333580816
 10
8.0334220313
 20
21.8119782145
 10
8.0075619075
 20
21.7918185017
 10
7.9787682191
 20
21.7730311992
 10
7.9472584257
 20
21.7557581843
 10
7.9132704529
 20
21.7401298734
 10
7.877060924
 20
21.7262642646
 10
7.8389032545
 20
21.7142660589
 10
7.7990855933
 20
21.7042258638
 10
7.7579086111
 20
21.6962194966
 10
7.7156832378
 20
21.6903074165
 10
7.6727283377
 20
21.6865342712
 10
7.6293683003
 20
21.6849285551
 10
7.5859305588
 20
21.6855023914
 10
7.5427431165
 20
21.6882514447
 10
7.5001320944
 20
21.6931549542
  0
LWPOLYLINE
  5
376
100
AcDbEntity
  8
LAY0001
100
AcDbPolyline
 62
250
  6
CONTINUOUS
 90
9
 70
0
 10
6.1519387753
 20
-25.496002517
 10
6.1490491475
 20
-25.5381603179
 10
6.1424012375
 20
-25.5775478291
 10
6.1320682518
 20
-25.6137313121
 10
6.11816209
 20
-25.6463160096
 10
6.1008369503
 20
-25.6749384426
 10
6.0802916591
 20
-25.6992753398
 10
6.0567617959
 20
-25.719059366
 10
6.0380118145
 20
-25.7304211269
  0
LINE
  5
377
100
AcDbEntity
  8
RACCORDO
100
AcDbLine
 62
250
  6
CONTINUOUS
 10
10.6153619502
 20
26.7070538013
 11
10.6140999692
 21
26.6898632281
  0
LWPOLYLINE
  5
378
100
AcDbEntity
  8
ASSI
100
AcDbPolyline
 62
250
  6
CONTINUOUS
 90
3
 70
0
 10
10.5459346406
 20
23.5666874399
 10
10.5462403264
 20
23.5703778228
 10
10.5490814951
 20
23.5826539907
  0
LWPOLYLINE
  5
379
100
AcDbEntity
  8
ASSI
100
AcDbPolyline
 62
7
  6
CONTINUOUS
 90
20
 70
0
 10
10.5939296033
 20
22.2718007738
 10
10.5916661788
 20
22.2447473252
 10
10.5853519767
 20
22.2196927868
 10
10.575057735
 20
22.19487047
 10
10.5610212903
 20
22.1708969501
 10
10.5431501444
 20
22.1478009242
 10
10.5215367955
 20
22.1255536954
 10
10.4966965746
 20
22.1046857483
 10
10.4685519053
 20
22.0852302257
 10
10.437180364
 20
22.0671539849
 10
10.4033300103
 20
22.0508880826
 10
10.3669412679
 20
22.0364760376
 10
10.328073713
 20
22.0238743312
 10
10.2876541342
 20
22.013383464
 10
10.2456307573
 20
22.0050554767
 10
10.2020553565
 20
21.9988383288
 10
10.1580100434
 20
21.9948763987
 10
10.1138555216
 20
21.9932178126
 10
10.0692310875
 20
21.9938144445
 10
10.0241367409
 20
21.9966662943
  0
LINE
  5
37A
100
AcDbEntity
  8
RACCORDO
100
AcDbLine
 62
250
  6
CONTINUOUS
 10
3.148070596
 20
-8.9833389596
 11
3.1845792174
 21
-8.9593362066
  0
LWPOLYLINE
  5
37B
100
AcDbEntity
  8
RACCORDO
100
AcDbPolyline
 62
7
  6
CONTINUOUS
 90
6
 70
0
 10
-6.6997489303
 20
9.098475848
 10
-6.7034545196
 20
9.0995144849
 10
-6.7043986251
 20
9.0998322427
 10
-6.7026643358
 20
9.0990858439
 10
-6.6984111603
 20
9.0969875328
 10
-6.6934424886
 20
9.0942446107
  0
LWPOLYLINE
  5
37C
100
AcDbEntity
  8
RACCORDO
100
AcDbPolyline
 62
250
  6
CONTINUOUS
 90
5
 70
0
 10
13.7049741963
 20
-9.859826042
 10
13.7142943314
 20
-9.8763867695
 10
13.7216285609
 20
-9.893302229
 10
13.726870504
 20
-9.9102590874
 10
13.7299679308
 20
-9.926994192
  0
LINE
  5
37D
100
AcDbEntity
  8
RACCORDO
100
AcDbLine
 62
250
  6
CONTINUOUS
 10
14.0447566214
 20
-11.3994440242
 11
14.0377665952
 21
-11.386344465
  0
LWPOLYLINE
  5
37E
100
AcDbEntity
  8
RACCORDO
100
AcDbPolyline
 62
250
  6
CONTINUOUS
 90
5
 70
0
 10
12.6970542352
 20
-14.9984396193
 10
12.69172869
 20
-14.9841883493
 10
12.685336797
 20
-14.9693616696
 10
12.6778567543
 20
-14.9541636515
 10
12.6692502003
 20
-14.9387340975
  0
LINE
  5
37F
100
AcDbEntity
  8
RACCORDO
100
AcDbLine
 62
250
  6
CONTINUOUS
 10
12.7014153113
 20
-15.012109292
 11
12.6970542352
 21
-14.9984396193
  0
LWPOLYLINE
  5
380
100
AcDbEntity
  8
ASSI
100
AcDbPolyline
 62
250
  6
CONTINUOUS
 90
7
 70
0
 10
2.7592575852
 20
24.2516240783
 10
2.7621934726
 20
24.2373084435
 10
2.7678237466
 20
24.2212450908
 10
2.7763214149
 20
24.2039019744
 10
2.787810092
 20
24.18561168
 10
2.8023845925
 20
24.1667920385
 10
2.8201257778
 20
24.1479855893
  0
LWPOLYLINE
  5
381
100
AcDbEntity
  8
ASSI
100
AcDbPolyline
 62
250
  6
CONTINUOUS
 90
13
 70
0
 10
5.75419613
 20
22.0815591768
 10
5.7515498922
 20
22.1030186205
 10
5.7467497443
 20
22.1251524907
 10
5.7398699741
 20
22.1476216913
 10
5.7310174793
 20
22.1700803181
 10
5.7203279326
 20
22.1921866748
 10
5.7079621852
 20
22.2136080903
 10
5.6940976028
 20
22.2340317708
 10
5.6789551305
 20
22.2531272988
 10
5.6628008555
 20
22.2705670753
 10
5.6458987506
 20
22.2860848638
 10
5.6284986544
 20
22.2994691156
 10
5.6108662389
 20
22.3105301181
  0
LWPOLYLINE
  5
382
100
AcDbEntity
  8
ASSI
100
AcDbPolyline
 62
250
  6
CONTINUOUS
 90
13
 70
0
 10
5.2545268594
 20
20.8935828247
 10
5.2518868374
 20
20.9150058641
 10
5.2470992445
 20
20.9371044197
 10
5.2402371613
 20
20.9595411663
 10
5.2314053345
 20
20.9819736167
 10
5.2207385783
 20
21.0040593489
 10
5.2083997162
 20
21.0254612338
 10
5.1945770955
 20
21.0458525806
 10
5.1794817128
 20
21.0649221242
 10
5.1633439925
 20
21.0823787762
 10
5.1464102701
 20
21.097956068
 10
5.1289390318
 20
21.1114162192
 10
5.1111969683
 20
21.122553766
  0
LWPOLYLINE
  5
383
100
AcDbEntity
  8
ASSI
100
AcDbPolyline
 62
250
  6
CONTINUOUS
 90
13
 70
0
 10
5.890591556
 20
22.1631211844
 10
5.8879515339
 20
22.1845442239
 10
5.883163941
 20
22.2066427794
 10
5.8763018578
 20
22.2290795261
 10
5.8674700311
 20
22.2515119764
 10
5.8568032749
 20
22.2735977087
 10
5.8444644127
 20
22.2949995935
 10
5.8306417921
 20
22.3153909404
 10
5.8155464093
 20
22.334460484
 10
5.799408689
 20
22.3519171359
 10
5.7824749667
 20
22.3674944278
 10
5.7650037283
 20
22.3809545789
 10
5.7472616649
 20
22.3920921258
  0
LINE
  5
384
100
AcDbEntity
  8
ASSI
100
AcDbLine
 62
250
  6
CONTINUOUS
 10
9.7147487713
 20
23.1161236146
 11
9.7278014767
 21
22.996619081
  0
LINE
  5
385
100
AcDbEntity
  8
ASSI
100
AcDbLine
 62
250
  6
CONTINUOUS
 10
7.5747364623
 20
20.8722975793
 11
7.5981997406
 21
20.6369213798
  0
LWPOLYLINE
  5
386
100
AcDbEntity
  8
ASSI
100
AcDbPolyline
 62
250
  6
CONTINUOUS
 90
13
 70
0
 10
7.9988314624
 20
26.0106302282
 10
7.9967682893
 20
26.0323324511
 10
7.9924798638
 20
26.0548548805
 10
7.9860347585
 20
26.0778373805
 10
7.9775360311
 20
26.1009124585
 10
7.9671195772
 20
26.1237111417
 10
7.9549519569
 20
26.1458688769
 10
7.9412277316
 20
26.1670313597
 10
7.9261663532
 20
26.1868601999
 10
7.9100086546
 20
26.2050383322
 10
7.893012999
 20
26.2212750866
 10
7.8754511486
 20
26.2353108357
 10
7.8576039192
 20
26.2469211465
  0
LINE
  5
387
100
AcDbEntity
  8
ASSI
100
AcDbLine
 62
250
  6
CONTINUOUS
 10
7.5559368205
 20
21.0686497756
 11
7.5747364623
 21
20.8722975793
  0
LINE
  5
388
100
AcDbEntity
  8
ASSI
100
AcDbLine
 62
250
  6
CONTINUOUS
 10
9.9949535528
 20
22.3192622691
 11
10.0241368175
 21
21.9966662943
  0
LINE
  5
389
100
AcDbEntity
  8
ASSI
100
AcDbLine
 62
250
  6
CONTINUOUS
 10
9.9627557772
 20
22.6955252024
 11
9.9949535528
 21
22.3192622691
  0
LINE
  5
38A
100
AcDbEntity
  8
ASSI
100
AcDbLine
 62
250
  6
CONTINUOUS
 10
9.9277246296
 20
23.1302490349
 11
9.9627557772
 21
22.6955252024
  0
LINE
  5
38B
100
AcDbEntity
  8
RACCORDO
100
AcDbLine
 62
250
  6
CONTINUOUS
 10
10.6140999692
 20
26.6898632281
 11
10.6212745385
 21
26.5276485375
  0
LINE
  5
38C
100
AcDbEntity
  8
RACCORDO
100
AcDbLine
 62
7
  6
CONTINUOUS
 10
10.6580328124
 20
26.7512387234
 11
10.6668439658
 21
26.5520213948
  0
LWPOLYLINE
  5
38D
100
AcDbEntity
  8
RACCORDO
100
AcDbPolyline
 62
250
  6
CONTINUOUS
 90
13
 70
0
 10
9.4439328866
 20
15.1922374211
 10
9.4430103167
 20
15.2145106071
 10
9.4396219765
 20
15.2377892766
 10
9.4338243209
 20
15.2616725183
 10
9.425714684
 20
15.2857505231
 10
9.4154317048
 20
15.3096053359
 10
9.4031548298
 20
15.3328184159
 10
9.3890650147
 20
15.3550336179
 10
9.3734304073
 20
15.3758159283
 10
9.3566361959
 20
15.3946871751
 10
9.3390316658
 20
15.4113276991
 10
9.3208935575
 20
15.4255442832
 10
9.3025330695
 20
15.4371490882
  0
LINE
  5
38E
100
AcDbEntity
  8
ASSI
100
AcDbLine
 62
250
  6
CONTINUOUS
 10
10.6185101128
 20
23.181009635
 11
10.6010154515
 21
23.6460951238
  0
LINE
  5
38F
100
AcDbEntity
  8
ASSI
100
AcDbLine
 62
250
  6
CONTINUOUS
 10
10.6281936403
 20
22.8772699495
 11
10.6185101128
 21
23.181009635
  0
LINE
  5
390
100
AcDbEntity
  8
ASSI
100
AcDbLine
 62
250
  6
CONTINUOUS
 10
10.635859478
 20
22.594748386
 11
10.6281936403
 21
22.8772699495
  0
LINE
  5
391
100
AcDbEntity
  8
ASSI
100
AcDbLine
 62
250
  6
CONTINUOUS
 10
10.6399026873
 20
22.4190687081
 11
10.635859478
 21
22.594748386
  0
LWPOLYLINE
  5
392
100
AcDbEntity
  8
RACCORDO
100
AcDbPolyline
 62
250
  6
CONTINUOUS
 90
8
 70
0
 10
10.6580365691
 20
26.751151876
 10
10.6580765269
 20
26.7492025028
 10
10.6567807193
 20
26.7384579203
 10
10.6529423005
 20
26.7278186165
 10
10.6466269468
 20
26.717466633
 10
10.6379427156
 20
26.707579095
 10
10.6270381966
 20
26.698325181
 10
10.6140999692
 20
26.6898632281
  0
LINE
  5
393
100
AcDbEntity
  8
RACCORDO
100
AcDbLine
 62
7
  6
CONTINUOUS
 10
9.5000649265
 20
-18.6711849192
 11
9.5000649265
 21
-20.214437466
  0
LINE
  5
394
100
AcDbEntity
  8
RACCORDO
100
AcDbLine
 62
7
  6
CONTINUOUS
 10
9.5000649265
 20
13.7292022817
 11
9.5000649265
 21
15.2724548285
  0
LINE
  5
395
100
AcDbEntity
  8
ASSI
100
AcDbLine
 62
7
  6
CONTINUOUS
 10
10.5939493014
 20
23.4025221902
 11
10.5939493014
 21
22.2718005853
  0
LWPOLYLINE
  5
396
100
AcDbEntity
  8
RACCORDO
100
AcDbPolyline
 62
250
  6
CONTINUOUS
 90
7
 70
0
 10
9.5000649265
 20
-20.214437466
 10
9.498683822
 20
-20.2279849787
 10
9.4939585822
 20
-20.2427544821
 10
9.4859560829
 20
-20.2570409851
 10
9.4748159251
 20
-20.2706018312
 10
9.4607281048
 20
-20.2832104532
 10
9.4439328866
 20
-20.2946548733
  0
LWPOLYLINE
  5
397
100
AcDbEntity
  8
RACCORDO
100
AcDbPolyline
 62
250
  6
CONTINUOUS
 90
7
 70
0
 10
12.6642795857
 20
13.6888487602
 10
12.6631887219
 20
13.6786987882
 10
12.6596111492
 20
13.6676876825
 10
12.6536018018
 20
13.6570353413
 10
12.6452612321
 20
13.6469200071
 10
12.6347290002
 20
13.6375109366
 10
12.6221813389
 20
13.6289655688
  0
LWPOLYLINE
  5
398
100
AcDbEntity
  8
RACCORDO
100
AcDbPolyline
 62
250
  6
CONTINUOUS
 90
6
 70
0
 10
14.0689202166
 20
-11.4665647286
 10
14.0655483926
 20
-11.453266426
 10
14.0614551834
 20
-11.4398202165
 10
14.0566310668
 20
-11.4263178652
 10
14.0510591174
 20
-11.412821851
 10
14.0447566214
 20
-11.3994440242
  0
LWPOLYLINE
  5
399
100
AcDbEntity
  8
ASSI
100
AcDbPolyline
 62
7
  6
CONTINUOUS
 90
4
 70
0
 10
8.2589883073
 20
21.0569755083
 10
8.2658642654
 20
21.0242562526
 10
8.2712404799
 20
20.979124268
 10
8.2731493399
 20
20.9309424337
  0
LWPOLYLINE
  5
39A
100
AcDbEntity
  8
ASSI
100
AcDbPolyline
 62
7
  6
CONTINUOUS
 90
5
 70
0
 10
8.1126357297
 20
22.0354634444
 10
8.1154535868
 20
22.0200701602
 10
8.1174680615
 20
22.0045858096
 10
8.118674492
 20
21.9890699658
 10
8.1190755631
 20
21.9735611135
  0
LINE
  5
39B
100
AcDbEntity
  8
ASSI
100
AcDbLine
 62
250
  6
CONTINUOUS
 10
7.4198744673
 20
20.7775894095
 11
7.4438621642
 21
20.6058645619
  0
LINE
  5
39C
100
AcDbEntity
  8
ASSI
100
AcDbLine
 62
250
  6
CONTINUOUS
 10
7.3945338234
 20
20.9653475833
 11
7.4198744673
 21
20.7775894095
  0
LINE
  5
39D
100
AcDbEntity
  8
ASSI
100
AcDbLine
 62
250
  6
CONTINUOUS
 10
7.3676159178
 20
21.1720371607
 11
7.3945338234
 21
20.9653475833
  0
LINE
  5
39E
100
AcDbEntity
  8
ASSI
100
AcDbLine
 62
250
  6
CONTINUOUS
 10
7.3390931775
 20
21.3993256872
 11
7.3676159178
 21
21.1720371607
  0
LWPOLYLINE
  5
39F
100
AcDbEntity
  8
ASSI
100
AcDbPolyline
 62
250
  6
CONTINUOUS
 90
13
 70
0
 10
8.5261556655
 20
22.4053663492
 10
8.5235155574
 20
22.4267898929
 10
8.5187278085
 20
22.4488888693
 10
8.5118655347
 20
22.4713259275
 10
8.5030335206
 20
22.4937585567
 10
8.4923666106
 20
22.5158443361
 10
8.4800276447
 20
22.5372461602
 10
8.4662049926
 20
22.5576373457
 10
8.4511096632
 20
22.5767066497
 10
8.4349720658
 20
22.594163033
 10
8.4180385269
 20
22.6097400567
 10
8.4005675359
 20
22.6231999552
 10
8.382825775
 20
22.6343372909
  0
LWPOLYLINE
  5
3A0
100
AcDbEntity
  8
ASSI
100
AcDbPolyline
 62
250
  6
CONTINUOUS
 90
13
 70
0
 10
9.7147487712
 20
23.1161236146
 10
9.7121087492
 20
23.1375466537
 10
9.7073211564
 20
23.159645209
 10
9.7004590733
 20
23.1820819555
 10
9.6916272466
 20
23.2045144059
 10
9.6809604904
 20
23.2266001383
 10
9.6686216282
 20
23.2480020233
 10
9.6547990075
 20
23.2683933702
 10
9.6397036247
 20
23.2874629139
 10
9.6235659044
 20
23.3049195659
 10
9.606632182
 20
23.3204968578
 10
9.5891609436
 20
23.333957009
 10
9.5714188801
 20
23.3450945559
  0
LWPOLYLINE
  5
3A1
100
AcDbEntity
  8
ASSI
100
AcDbPolyline
 62
250
  6
CONTINUOUS
 90
13
 70
0
 10
7.6983447583
 20
22.2346836815
 10
7.7008946018
 20
22.2139202088
 10
7.7054677463
 20
22.1925112309
 10
7.7119984684
 20
22.1707644384
 10
7.72039291
 20
22.1489923773
 10
7.7305304272
 20
22.127507958
 10
7.7422653236
 20
22.1066199586
 10
7.7554289454
 20
22.0866285839
 10
7.7698321046
 20
22.0678211534
 10
7.7852677964
 20
22.0504679723
 10
7.8015141773
 20
22.0348184441
 10
7.8183377529
 20
22.0210974862
 10
7.8354967328
 20
22.0095022991
  0
LINE
  5
3A2
100
AcDbEntity
  8
ASSI
100
AcDbLine
 62
250
  6
CONTINUOUS
 10
9.8019124014
 20
22.354634888
 11
9.8350624964
 21
22.0869795415
  0
LINE
  5
3A3
100
AcDbEntity
  8
ASSI
100
AcDbLine
 62
250
  6
CONTINUOUS
 10
7.3092248147
 20
21.6466693777
 11
7.3390931775
 21
21.3993256872
  0
LINE
  5
3A4
100
AcDbEntity
  8
ASSI
100
AcDbLine
 62
250
  6
CONTINUOUS
 10
9.7660760829
 20
22.6573171622
 11
9.8019124014
 21
22.354634888
  0
LINE
  5
3A5
100
AcDbEntity
  8
ASSI
100
AcDbLine
 62
250
  6
CONTINUOUS
 10
9.7278014767
 20
22.996619081
 11
9.7660760829
 21
22.6573171622
  0
LWPOLYLINE
  5
3A6
100
AcDbEntity
  8
RACCORDO
100
AcDbPolyline
 62
7
  6
CONTINUOUS
 90
11
 70
0
 10
10.6580365691
 20
26.751151876
 10
10.6559238219
 20
26.7729536665
 10
10.6506916326
 20
26.7979236616
 10
10.6429671464
 20
26.8214003503
 10
10.6327134059
 20
26.8441273365
 10
10.6199918349
 20
26.8658849164
 10
10.6055511503
 20
26.8855227111
 10
10.5896098731
 20
26.9030244441
 10
10.5719092526
 20
26.9186812847
 10
10.5530670909
 20
26.9319148315
 10
10.5477506945
 20
26.9350977992
  0
LINE
  5
3A7
100
AcDbEntity
  8
ASSI
100
AcDbLine
 62
250
  6
CONTINUOUS
 10
12.9811457574
 20
23.7668650949
 11
12.9268263095
 21
24.5151290598
  0
LINE
  5
3A8
100
AcDbEntity
  8
ASSI
100
AcDbLine
 62
250
  6
CONTINUOUS
 10
13.0582924339
 20
23.8249708503
 11
13.0051482387
 21
24.5570454151
  0
LINE
  5
3A9
100
AcDbEntity
  8
RACCORDO
100
AcDbLine
 62
250
  6
CONTINUOUS
 10
13.698360536
 20
24.9506630906
 11
13.7312352951
 21
24.4978050705
  0
LINE
  5
3AA
100
AcDbEntity
  8
RACCORDO
100
AcDbLine
 62
7
  6
CONTINUOUS
 10
13.7526136673
 20
24.507245242
 11
13.7173361995
 21
24.9932011744
  0
LINE
  5
3AB
100
AcDbEntity
  8
RACCORDO
100
AcDbLine
 62
250
  6
CONTINUOUS
 10
13.7299679308
 20
-9.926994192
 11
13.7308948943
 21
-9.9432317049
  0
LWPOLYLINE
  5
3AC
100
AcDbEntity
  8
RACCORDO
100
AcDbPolyline
 62
7
  6
CONTINUOUS
 90
12
 70
0
 10
14.1162639368
 20
-11.490744627
 10
14.1156056952
 20
-11.4743943093
 10
14.1126150078
 20
-11.4521749458
 10
14.1072345302
 20
-11.4300224132
 10
14.0997827361
 20
-11.4088461499
 10
14.0902892798
 20
-11.3884073751
 10
14.0786859867
 20
-11.3686466032
 10
14.0655828061
 20
-11.3505629403
 10
14.0511032154
 20
-11.3341605241
 10
14.035018677
 20
-11.3192208117
 10
14.0178290985
 20
-11.3062618615
 10
14.0059661371
 20
-11.2988447596
  0
LINE
  5
3AD
100
AcDbEntity
  8
RACCORDO
100
AcDbLine
 62
250
  6
CONTINUOUS
 10
12.6210858727
 20
13.6624444385
 11
12.6221813389
 21
13.6289655688
  0
LWPOLYLINE
  5
3AE
100
AcDbEntity
  8
RACCORDO
100
AcDbPolyline
 62
7
  6
CONTINUOUS
 90
8
 70
0
 10
12.6642795857
 20
13.6888487602
 10
12.6636899428
 20
13.7130888494
 10
12.6592610973
 20
13.7603213683
 10
12.6505567137
 20
13.8085345995
 10
12.6377308295
 20
13.8570500154
 10
12.6213902456
 20
13.9043007991
 10
12.6021591597
 20
13.9494925368
 10
12.5938537166
 20
13.9667480071
  0
LWPOLYLINE
  5
3AF
100
AcDbEntity
  8
RACCORDO
100
AcDbPolyline
 62
250
  6
CONTINUOUS
 90
9
 70
0
 10
13.698360536
 20
24.9506630906
 10
13.6983397621
 20
24.9614955244
 10
13.6977507373
 20
24.9724549333
 10
13.6965936752
 20
24.983503426
 10
13.69488569
 20
24.9945081943
 10
13.6926260091
 20
25.0055258428
 10
13.6897469625
 20
25.016800256
 10
13.6861741894
 20
25.0283961406
 10
13.681901521
 20
25.040148602
  0
LINE
  5
3B0
100
AcDbEntity
  8
RACCORDO
100
AcDbLine
 62
250
  6
CONTINUOUS
 10
12.6221813389
 20
13.6289655688
 11
12.6221813389
 21
-14.9723721445
  0
LINE
  5
3B1
100
AcDbEntity
  8
RACCORDO
100
AcDbLine
 62
7
  6
CONTINUOUS
 10
12.6642803688
 20
13.6891286244
 11
12.6642803688
 21
-14.9122090722
  0
LINE
  5
3B2
100
AcDbEntity
  8
RACCORDO
100
AcDbLine
 62
250
  6
CONTINUOUS
 10
13.0781810966
 20
-10.600292374
 11
13.0781810966
 21
-11.2603818575
  0
LINE
  5
3B3
100
AcDbEntity
  8
RACCORDO
100
AcDbLine
 62
250
  6
CONTINUOUS
 10
13.7308948943
 20
-9.9432317049
 11
13.7308948943
 21
-10.7322028048
  0
LINE
  5
3B4
100
AcDbEntity
  8
RACCORDO
100
AcDbLine
 62
7
  6
CONTINUOUS
 10
13.7499058625
 20
-9.9010315394
 11
13.7499058625
 21
-10.6886394028
  0
LINE
  5
3B5
100
AcDbEntity
  8
RACCORDO
100
AcDbLine
 62
250
  6
CONTINUOUS
 10
14.0741649784
 20
-12.4684667246
 11
14.0741649784
 21
-11.5508230724
  0
LINE
  5
3B6
100
AcDbEntity
  8
RACCORDO
100
AcDbLine
 62
7
  6
CONTINUOUS
 10
14.1162640083
 20
-12.408303669
 11
14.1162640083
 21
-11.4906600147
  0
LINE
  5
3B7
100
AcDbEntity
  8
RACCORDO
100
AcDbLine
 62
250
  6
CONTINUOUS
 10
15.5151478444
 20
22.9421125899
 11
15.5151478444
 21
23.2370133942
  0
LINE
  5
3B8
100
AcDbEntity
  8
RACCORDO
100
AcDbLine
 62
250
  6
CONTINUOUS
 10
12.6642803688
 20
13.6891286244
 11
12.6642795857
 21
13.6888487602
  0
LWPOLYLINE
  5
3B9
100
AcDbEntity
  8
RACCORDO
100
AcDbPolyline
 62
250
  6
CONTINUOUS
 90
5
 70
0
 10
12.6221813389
 20
-14.9723721445
 10
12.6213578254
 20
-15.0003286966
 10
12.6187474257
 20
-15.0276351893
 10
12.6142660908
 20
-15.0540883052
 10
12.6078519959
 20
-15.0794292699
  0
LINE
  5
3BA
100
AcDbEntity
  8
RACCORDO
100
AcDbLine
 62
7
  6
CONTINUOUS
 10
13.7497358467
 20
-10.6929371907
 11
13.7499058625
 21
-10.6886376826
  0
LINE
  5
3BB
100
AcDbEntity
  8
RACCORDO
100
AcDbLine
 62
250
  6
CONTINUOUS
 10
13.7000464413
 20
-11.1218701606
 11
13.7309247648
 21
-10.7321710544
  0
LINE
  5
3BC
100
AcDbEntity
  8
RACCORDO
100
AcDbLine
 62
7
  6
CONTINUOUS
 10
13.7172612116
 20
-11.1027827985
 11
13.7497358472
 21
-10.6929374753
  0
LWPOLYLINE
  5
3BD
100
AcDbEntity
  8
RACCORDO
100
AcDbPolyline
 62
250
  6
CONTINUOUS
 90
8
 70
0
 10
14.0741649784
 20
-11.5508230724
 10
14.0752074597
 20
-11.5395574557
 10
14.0756672573
 20
-11.5279843902
 10
14.0755369209
 20
-11.5161501637
 10
14.0748173011
 20
-11.5041989845
 10
14.0735093982
 20
-11.4920854771
 10
14.0715671101
 20
-11.4795658102
 10
14.0689202166
 20
-11.4665647286
  0
LWPOLYLINE
  5
3BE
100
AcDbEntity
  8
RACCORDO
100
AcDbPolyline
 62
250
  6
CONTINUOUS
 90
7
 70
0
 10
12.6642803669
 20
-14.9122228701
 10
12.6631889479
 20
-14.9226378332
 10
12.6596115559
 20
-14.9336490973
 10
12.6536022962
 20
-14.9443016445
 10
12.645261702
 20
-14.9544172112
 10
12.6347293099
 20
-14.963826531
 10
12.6221813389
 20
-14.9723721445
  0
LWPOLYLINE
  5
3BF
100
AcDbEntity
  8
RACCORDO
100
AcDbPolyline
 62
250
  6
CONTINUOUS
 90
10
 70
0
 10
12.6642803688
 20
-10.9474776326
 10
12.665687108
 20
-10.9372549694
 10
12.6834679315
 20
-10.8642487589
 10
12.7070563529
 20
-10.7939043604
 10
12.7365629414
 20
-10.7263324208
 10
12.7718771279
 20
-10.6614222932
 10
12.8109837594
 20
-10.5997350331
 10
12.8532111185
 20
-10.5414576591
 10
12.8992309227
 20
-10.4864031526
 10
12.949043172
 20
-10.4345715137
  0
LINE
  5
3C0
100
AcDbEntity
  8
RACCORDO
100
AcDbLine
 62
250
  6
CONTINUOUS
 10
12.810793581
 20
-11.0863338727
 11
12.8130779466
 21
-11.0698813278
  0
LWPOLYLINE
  5
3C1
100
AcDbEntity
  8
RACCORDO
100
AcDbPolyline
 62
7
  6
CONTINUOUS
 90
3
 70
0
 10
13.7130781048
 20
-11.1297348154
 10
13.716822562
 20
-11.1075512028
 10
13.7172443602
 20
-11.1029907751
  0
LWPOLYLINE
  5
3C2
100
AcDbEntity
  8
RACCORDO
100
AcDbPolyline
 62
250
  6
CONTINUOUS
 90
9
 70
0
 10
12.8130779466
 20
-11.0698813278
 10
12.8293890354
 20
-11.001766582
 10
12.8517059286
 20
-10.9360232956
 10
12.8794740566
 20
-10.8727947119
 10
12.9121458646
 20
-10.8121936943
 10
12.9489714615
 20
-10.7545898775
 10
12.9892687356
 20
-10.7001159142
 10
13.0325221514
 20
-10.6486872653
 10
13.0781810966
 20
-10.600292374
  0
LWPOLYLINE
  5
3C3
100
AcDbEntity
  8
RACCORDO
100
AcDbPolyline
 62
250
  6
CONTINUOUS
 90
6
 70
0
 10
8.6132716665
 20
-17.4939781986
 10
8.6053233837
 20
-17.5176985688
 10
8.5951904819
 20
-17.5404799119
 10
8.5826454061
 20
-17.5620788154
 10
8.5675977339
 20
-17.5819851858
 10
8.559770533
 20
-17.5898777826
  0
LINE
  5
3C4
100
AcDbEntity
  8
RACCORDO
100
AcDbLine
 62
250
  6
CONTINUOUS
 10
13.9523883562
 20
-11.2964893004
 11
12.6642803688
 21
-11.7554179648
  0
LINE
  5
3C5
100
AcDbEntity
  8
RACCORDO
100
AcDbLine
 62
7
  6
CONTINUOUS
 10
12.6642803688
 20
-11.3945874664
 11
13.5567032138
 21
-11.1052230287
  0
LINE
  5
3C6
100
AcDbEntity
  8
RACCORDO
100
AcDbLine
 62
250
  6
CONTINUOUS
 10
12.6642803688
 20
-11.437680271
 11
13.6457529087
 21
-11.119441836
  0
LINE
  5
3C7
100
AcDbEntity
  8
RACCORDO
100
AcDbLine
 62
7
  6
CONTINUOUS
 10
9.1055079058
 20
12.9592291086
 11
9.2566180036
 21
12.6663471034
  0
LWPOLYLINE
  5
3C8
100
AcDbEntity
  8
RACCORDO
100
AcDbPolyline
 62
7
  6
CONTINUOUS
 90
3
 70
0
 10
9.2566180036
 20
12.6663471034
 10
9.4147956529
 20
12.3544024638
 10
9.4930067222
 20
12.1980881158
  0
LWPOLYLINE
  5
3C9
100
AcDbEntity
  8
RACCORDO
100
AcDbPolyline
 62
250
  6
CONTINUOUS
 90
10
 70
0
 10
8.5559920524
 20
11.5542762425
 10
8.5640855516
 20
11.5370321336
 10
8.5772023954
 20
11.5058940543
 10
8.5891260072
 20
11.4739011554
 10
8.5996312809
 20
11.4414097057
 10
8.6086428247
 20
11.4083832456
 10
8.6161246615
 20
11.3744075894
 10
8.6218360203
 20
11.3395315439
 10
8.625447099
 20
11.3042543358
 10
8.6266810017
 20
11.2689180113
  0
LWPOLYLINE
  5
3CA
100
AcDbEntity
  8
ASSI
100
AcDbPolyline
 62
250
  6
CONTINUOUS
 90
3
 70
0
 10
5.6979461093
 20
25.5724701409
 10
5.7049015686
 20
25.5561671718
 10
5.7058812497
 20
25.5517579109
  0
LWPOLYLINE
  5
3CB
100
AcDbEntity
  8
ASSI
100
AcDbPolyline
 62
250
  6
CONTINUOUS
 90
8
 70
0
 10
8.5362004432
 20
18.6216296197
 10
8.5403791236
 20
18.608996638
 10
8.5429344197
 20
18.5973865541
 10
8.5438406902
 20
18.5869249463
 10
8.5430909293
 20
18.5777274856
 10
8.5406962859
 20
18.5698889323
 10
8.5366802362
 20
18.5634869448
 10
8.53554713
 20
18.5622420072
  0
LWPOLYLINE
  5
3CC
100
AcDbEntity
  8
RACCORDO
100
AcDbPolyline
 62
250
  6
CONTINUOUS
 90
4
 70
0
 10
12.6048960253
 20
13.7655369407
 10
12.6123298138
 20
13.7309386647
 10
12.6177629646
 20
13.6965204747
 10
12.6210858727
 20
13.6624444385
  0
LINE
  5
3CD
100
AcDbEntity
  8
ASSI
100
AcDbLine
 62
250
  6
CONTINUOUS
 10
9.8350624964
 20
22.0869795415
 11
9.8507095102
 21
21.9647494915
  0
LWPOLYLINE
  5
3CE
100
AcDbEntity
  8
ASSI
100
AcDbPolyline
 62
250
  6
CONTINUOUS
 90
13
 70
0
 10
10.6010154505
 20
23.6460951232
 10
10.5983754307
 20
23.6675181496
 10
10.5935878415
 20
23.6896166957
 10
10.5867257621
 20
23.7120534373
 10
10.5778939375
 20
23.7344858886
 10
10.5672271809
 20
23.7565716264
 10
10.5548883174
 20
23.7779735169
 10
10.5410656955
 20
23.798364868
 10
10.5259703109
 20
23.8174344157
 10
10.5098325888
 20
23.8348910708
 10
10.4928988648
 20
23.8504683649
 10
10.4754276251
 20
23.8639285175
 10
10.4576855606
 20
23.8750660653
  0
LWPOLYLINE
  5
3CF
100
AcDbEntity
  8
RACCORDO
100
AcDbPolyline
 62
250
  6
CONTINUOUS
 90
3
 70
0
 10
11.2033033024
 20
20.7698520371
 10
11.2006723431
 20
20.7927745053
 10
11.1961082373
 20
20.8163024983
  0
LWPOLYLINE
  5
3D0
100
AcDbEntity
  8
RACCORDO
100
AcDbPolyline
 62
7
  6
CONTINUOUS
 90
12
 70
0
 10
13.7173367975
 20
24.9931929257
 10
13.7169363406
 20
24.9979434628
 10
13.7137692856
 20
25.0192840528
 10
13.7082984102
 20
25.0407664725
 10
13.7007540932
 20
25.0614984092
 10
13.6910955879
 20
25.0816732163
 10
13.6792442034
 20
25.1012395626
 10
13.6658001357
 20
25.1191769126
 10
13.6508220708
 20
25.1355118237
 10
13.6341376493
 20
25.1503488028
 10
13.6164546536
 20
25.1630282346
 10
13.6086980711
 20
25.1677451397
  0
LWPOLYLINE
  5
3D1
100
AcDbEntity
  8
RACCORDO
100
AcDbPolyline
 62
250
  6
CONTINUOUS
 90
3
 70
0
 10
16.1515440317
 20
22.102598558
 10
16.1506025437
 20
22.1260436747
 10
16.1474568618
 20
22.1504428627
  0
LWPOLYLINE
  5
3D2
100
AcDbEntity
  8
RACCORDO
100
AcDbPolyline
 62
7
  6
CONTINUOUS
 90
12
 70
0
 10
16.1936429239
 20
22.1626884411
 10
16.1929298582
 20
22.1814961479
 10
16.1898767863
 20
22.2063115623
 10
16.1843852126
 20
22.2315309533
 10
16.1763904058
 20
22.2569746525
 10
16.1661577557
 20
22.2817831552
 10
16.1536696593
 20
22.3059934835
 10
16.1388896863
 20
22.3294946362
 10
16.1223323185
 20
22.3513614115
 10
16.104235905
 20
22.3713298192
 10
16.084409239
 20
22.3895625646
 10
16.0774360723
 20
22.3951938565
  0
LWPOLYLINE
  5
3D3
100
AcDbEntity
  8
RACCORDO
100
AcDbPolyline
 62
7
  6
CONTINUOUS
 90
13
 70
0
 10
15.557246858
 20
23.2971360864
 10
15.5571574119
 20
23.3038033037
 10
15.5549475845
 20
23.3311397574
 10
15.5498836881
 20
23.3584102481
 10
15.5420035148
 20
23.3856883078
 10
15.5312956517
 20
23.4128371283
 10
15.518248433
 20
23.4386920204
 10
15.5029664531
 20
23.4632242131
 10
15.4854298657
 20
23.486393344
 10
15.4663717738
 20
23.5072352758
 10
15.4459457952
 20
23.5256900625
 10
15.424067375
 20
23.5418011442
 10
15.4115492362
 20
23.549534783
  0
LWPOLYLINE
  5
3D4
100
AcDbEntity
  8
RACCORDO
100
AcDbPolyline
 62
250
  6
CONTINUOUS
 90
9
 70
0
 10
15.5151478444
 20
23.2370133942
 10
15.5150844217
 20
23.245029394
 10
15.5147587567
 20
23.253091664
 10
15.5141802891
 20
23.2611839293
 10
15.5133656409
 20
23.2692300731
 10
15.5123213535
 20
23.2772744148
 10
15.5110257007
 20
23.2854882417
 10
15.509464836
 20
23.2939012607
 10
15.5076387046
 20
23.3024657224
  0
LINE
  5
3D5
100
AcDbEntity
  8
RACCORDO
100
AcDbLine
 62
7
  6
CONTINUOUS
 10
15.5572468743
 20
23.0022756455
 11
15.5572468743
 21
23.2971764496
  0
LINE
  5
3D6
100
AcDbEntity
  8
RACCORDO
100
AcDbLine
 62
250
  6
CONTINUOUS
 10
16.1515439474
 20
21.7226496761
 11
16.1515439474
 21
22.102598509
  0
LINE
  5
3D7
100
AcDbEntity
  8
RACCORDO
100
AcDbLine
 62
7
  6
CONTINUOUS
 10
16.1936429774
 20
21.7828127317
 11
16.1936429774
 21
22.1627615556
  0
LWPOLYLINE
  5
3D8
100
AcDbEntity
  8
RACCORDO
100
AcDbPolyline
 62
250
  6
CONTINUOUS
 90
5
 70
0
 10
12.6078519959
 20
-15.0794292699
 10
12.5994366211
 20
-15.103490948
 10
12.5889103114
 20
-15.1261656138
 10
12.5761824276
 20
-15.1472226154
 10
12.5612201395
 20
-15.1663446449
  0
LWPOLYLINE
  5
3D9
100
AcDbEntity
  8
RACCORDO
100
AcDbPolyline
 62
250
  6
CONTINUOUS
 90
4
 70
0
 10
13.7093604563
 20
-11.1275882917
 10
13.7137408952
 20
-11.1187405509
 10
13.7169762863
 20
-11.1055464392
 10
13.7172443602
 20
-11.1029907751
  0
LWPOLYLINE
  5
3DA
100
AcDbEntity
  8
RACCORDO
100
AcDbPolyline
 62
7
  6
CONTINUOUS
 90
6
 70
0
 10
13.7308948943
 20
-10.7322028048
 10
13.7379983544
 20
-10.7236276577
 10
13.743499647
 20
-10.7146067744
 10
13.747333698
 20
-10.7052418648
 10
13.7494549924
 20
-10.6956316336
 10
13.7497358467
 20
-10.6929371907
  0
LWPOLYLINE
  5
3DB
100
AcDbEntity
  8
RACCORDO
100
AcDbPolyline
 62
250
  6
CONTINUOUS
 90
6
 70
0
 10
13.7308948943
 20
-9.9432317049
 10
13.7380017937
 20
-9.9348445336
 10
13.7435036208
 20
-9.926064358
 10
13.7473364288
 20
-9.916993229
 10
13.7494556693
 20
-9.9077365792
 10
13.7499058625
 20
-9.9010315394
  0
LINE
  5
3DC
100
AcDbEntity
  8
RACCORDO
100
AcDbLine
 62
7
  6
CONTINUOUS
 10
13.7309247648
 20
-10.7321710544
 11
13.3023804898
 21
-11.1876861262
  0
LINE
  5
3DD
100
AcDbEntity
  8
RACCORDO
100
AcDbLine
 62
250
  6
CONTINUOUS
 10
12.949043172
 20
-10.4345715137
 11
13.6017569697
 21
-9.7775108446
  0
LINE
  5
3DE
100
AcDbEntity
  8
RACCORDO
100
AcDbLine
 62
250
  6
CONTINUOUS
 10
13.0781810966
 20
-10.600292374
 11
13.7308948943
 21
-9.9432317049
  0
LWPOLYLINE
  5
3DF
100
AcDbEntity
  8
RACCORDO
100
AcDbPolyline
 62
250
  6
CONTINUOUS
 90
7
 70
0
 10
13.3922696911
 20
-12.9853389966
 10
13.3982048671
 20
-12.9808828034
 10
13.4038687759
 20
-12.97578297
 10
13.409223921
 20
-12.970027511
 10
13.4142000991
 20
-12.9636531334
 10
13.418744223
 20
-12.9567081534
 10
13.4207681655
 20
-12.9529992923
  0
LWPOLYLINE
  5
3E0
100
AcDbEntity
  8
RACCORDO
100
AcDbPolyline
 62
7
  6
CONTINUOUS
 90
10
 70
0
 10
14.0249893182
 20
-12.5813328928
 10
14.043823515
 20
-12.5680406984
 10
14.060067484
 20
-12.5532998612
 10
14.0745936823
 20
-12.5365840195
 10
14.0871779121
 20
-12.5181002004
 10
14.0976254437
 20
-12.498096164
 10
14.1058456963
 20
-12.476678083
 10
14.1117476843
 20
-12.4539985777
 10
14.1152369689
 20
-12.4303368702
 10
14.1162639987
 20
-12.4083347375
  0
LWPOLYLINE
  5
3E1
100
AcDbEntity
  8
RACCORDO
100
AcDbPolyline
 62
7
  6
CONTINUOUS
 90
5
 70
0
 10
13.38899594
 20
-12.9874633869
 10
13.4030203523
 20
-12.9778769026
 10
13.4195790324
 20
-12.9637771139
 10
13.4346881458
 20
-12.9474392582
 10
13.4386016124
 20
-12.9420296808
  0
LWPOLYLINE
  5
3E2
100
AcDbEntity
  8
RACCORDO
100
AcDbPolyline
 62
250
  6
CONTINUOUS
 90
7
 70
0
 10
14.0741649784
 20
-11.5508230724
 10
14.0867126405
 20
-11.5422777034
 10
14.0972448727
 20
-11.5328686317
 10
14.1055854425
 20
-11.5227532966
 10
14.1115947897
 20
-11.5121009547
 10
14.1151723619
 20
-11.5010898484
 10
14.1162639368
 20
-11.490744627
  0
LWPOLYLINE
  5
3E3
100
AcDbEntity
  8
RACCORDO
100
AcDbPolyline
 62
250
  6
CONTINUOUS
 90
7
 70
0
 10
14.0741649784
 20
-12.4684667246
 10
14.0867126397
 20
-12.4599213568
 10
14.0972448716
 20
-12.4505122863
 10
14.1055854413
 20
-12.4403969521
 10
14.1115947887
 20
-12.4297446109
 10
14.1151723614
 20
-12.4187335052
 10
14.1162639987
 20
-12.4083347375
  0
LWPOLYLINE
  5
3E4
100
AcDbEntity
  8
RACCORDO
100
AcDbPolyline
 62
250
  6
CONTINUOUS
 90
8
 70
0
 10
14.0249677117
 20
-12.5813473938
 10
14.0299548325
 20
-12.5780258981
 10
14.042607702
 20
-12.5668873728
 10
14.0534775971
 20
-12.5528242291
 10
14.0623271414
 20
-12.5358347753
 10
14.0688924614
 20
-12.5159882798
 10
14.0729124575
 20
-12.4934568431
 10
14.0741650641
 20
-12.4684666719
  0
LINE
  5
3E5
100
AcDbEntity
  8
RACCORDO
100
AcDbLine
 62
250
  6
CONTINUOUS
 10
13.3891242118
 20
-12.9873846727
 11
13.3922696911
 21
-12.9853389966
  0
LINE
  5
3E6
100
AcDbEntity
  8
ASSI
100
AcDbLine
 62
7
  6
CONTINUOUS
 10
13.3891239325
 20
-12.9873848454
 11
12.6642803688
 21
-13.435638978
  0
LINE
  5
3E7
100
AcDbEntity
  8
RACCORDO
100
AcDbLine
 62
7
  6
CONTINUOUS
 10
13.3889967029
 20
-12.9874633657
 11
13.3891242118
 21
-12.9873846727
  0
LINE
  5
3E8
100
AcDbEntity
  8
RACCORDO
100
AcDbLine
 62
250
  6
CONTINUOUS
 10
14.0741649784
 20
-12.4684667246
 11
12.6642803688
 21
-13.3357071732
  0
LINE
  5
3E9
100
AcDbEntity
  8
ASSI
100
AcDbLine
 62
7
  6
CONTINUOUS
 10
14.0249465144
 20
-12.5813604371
 11
12.6642803688
 21
-13.4183258955
  0
LINE
  5
3EA
100
AcDbEntity
  8
RACCORDO
100
AcDbLine
 62
7
  6
CONTINUOUS
 10
12.6909365422
 20
-11.0969642474
 11
12.6642803688
 21
-11.1112990748
  0
LINE
  5
3EB
100
AcDbEntity
  8
RACCORDO
100
AcDbLine
 62
250
  6
CONTINUOUS
 10
12.7758899638
 20
-11.1149974355
 11
12.6642803688
 21
-11.1750174639
  0
LINE
  5
3EC
100
AcDbEntity
  8
RACCORDO
100
AcDbLine
 62
250
  6
CONTINUOUS
 10
14.0741649784
 20
-11.5508230724
 11
12.6642803688
 21
-12.0531384584
  0
LWPOLYLINE
  5
3ED
100
AcDbEntity
  8
RACCORDO
100
AcDbPolyline
 62
250
  6
CONTINUOUS
 90
7
 70
0
 10
9.4000697585
 20
15.4456571194
 10
9.3872947687
 20
15.4513512088
 10
9.3721959952
 20
15.4545595407
 10
9.3558902652
 20
15.454720759
 10
9.338650423
 20
15.4518321647
 10
9.3207649333
 20
15.4459420895
 10
9.3025330695
 20
15.4371490882
  0
LINE
  5
3EE
100
AcDbEntity
  8
LAY0001
100
AcDbLine
 62
250
  6
CONTINUOUS
 10
5.4542080969
 20
16.661043504
 11
-9.4140060715
 21
25.2457640223
  0
LINE
  5
3EF
100
AcDbEntity
  8
LAY0001
100
AcDbLine
 62
250
  6
CONTINUOUS
 10
5.7985065386
 20
17.2679323556
 11
-9.0697076297
 21
25.8526528739
  0
LINE
  5
3F0
100
AcDbEntity
  8
RACCORDO
100
AcDbLine
 62
250
  6
CONTINUOUS
 10
8.5559920524
 20
15.8681925151
 11
9.3025330695
 21
15.4371490882
  0
LINE
  5
3F1
100
AcDbEntity
  8
RACCORDO
100
AcDbLine
 62
7
  6
CONTINUOUS
 10
8.5559920524
 20
15.9330170081
 11
9.4000697585
 21
15.4456571194
  0
LWPOLYLINE
  5
3F2
100
AcDbEntity
  8
ASSI
100
AcDbPolyline
 62
250
  6
CONTINUOUS
 90
7
 70
0
 10
2.8601965736
 20
24.1881730705
 10
2.8548450685
 20
24.1949996444
 10
2.8394871174
 20
24.2111086756
 10
2.8219642033
 20
24.2250218455
 10
2.8025473446
 20
24.2365240185
 10
2.781536828
 20
24.2454373633
 10
2.759257585
 20
24.2516240799
  0
LINE
  5
3F3
100
AcDbEntity
  8
ASSI
100
AcDbLine
 62
7
  6
CONTINUOUS
 10
2.8604164094
 20
24.1878756648
 11
2.8601965736
 21
24.1881730705
  0
LWPOLYLINE
  5
3F4
100
AcDbEntity
  8
RACCORDO
100
AcDbPolyline
 62
250
  6
CONTINUOUS
 90
9
 70
0
 10
10.2513499716
 20
18.0345406835
 10
10.5037704237
 20
17.6249907669
 10
10.7563651209
 20
17.2059523622
 10
11.0088601207
 20
16.777419353
 10
11.2593737605
 20
16.342206743
 10
11.509270962
 20
15.8975527622
 10
11.7628663492
 20
15.4349616554
 10
12.0210666118
 20
14.9514861187
 10
12.2816664432
 20
14.4498881323
  0
LINE
  5
3F5
100
AcDbEntity
  8
RACCORDO
100
AcDbLine
 62
7
  6
CONTINUOUS
 10
10.579735717
 20
17.6179717072
 11
10.3812180822
 21
17.9414186063
  0
LWPOLYLINE
  5
3F6
100
AcDbEntity
  8
ASSI
100
AcDbPolyline
 62
250
  6
CONTINUOUS
 90
4
 70
0
 10
5.6979462183
 20
25.5722655628
 10
5.7035626591
 20
25.5630402865
 10
5.7073697409
 20
25.5535386077
 10
5.7074965447
 20
25.5529155337
  0
LWPOLYLINE
  5
3F7
100
AcDbEntity
  8
ASSI
100
AcDbPolyline
 62
250
  6
CONTINUOUS
 90
16
 70
0
 10
5.886570553
 20
25.7741539905
 10
5.8956746874
 20
25.7571744165
 10
5.9024847421
 20
25.7400178269
 10
5.9070007172
 20
25.722684222
 10
5.9092334422
 20
25.7050681711
 10
5.9091720875
 20
25.6872751047
 10
5.9067841645
 20
25.6696213144
 10
5.9020077851
 20
25.6520931134
 10
5.8949048373
 20
25.6347041884
 10
5.8856284969
 20
25.6178118915
 10
5.8741337274
 20
25.6014451278
 10
5.8604655652
 20
25.5855749921
 10
5.8449122949
 20
25.5704721204
 10
5.8275700114
 20
25.5562267247
 10
5.8083426197
 20
25.5427485929
 10
5.78723012
 20
25.530037725
  0
LWPOLYLINE
  5
3F8
100
AcDbEntity
  8
ASSI
100
AcDbPolyline
 62
250
  6
CONTINUOUS
 90
4
 70
0
 10
8.0876635152
 20
22.1080634015
 10
8.0853974455
 20
22.1124406462
 10
8.0807985476
 20
22.1199750621
 10
8.0758216243
 20
22.1266763098
  0
LINE
  5
3F9
100
AcDbEntity
  8
RACCORDO
100
AcDbLine
 62
250
  6
CONTINUOUS
 10
12.2816664432
 20
14.4498881323
 11
12.5439951968
 21
13.9301334601
  0
LWPOLYLINE
  5
3FA
100
AcDbEntity
  8
RACCORDO
100
AcDbPolyline
 62
7
  6
CONTINUOUS
 90
9
 70
0
 10
12.593861861
 20
13.9667319448
 10
12.3597414929
 20
14.4313165891
 10
12.1204141339
 20
14.8938733182
 10
11.8759604708
 20
15.3542464975
 10
11.6264630954
 20
15.812280855
 10
11.3720058659
 20
16.2678226589
 10
11.112673841
 20
16.7207197427
 10
10.8485540929
 20
17.1708200493
 10
10.579735717
 20
17.6179717072
  0
LWPOLYLINE
  5
3FB
100
AcDbEntity
  8
RACCORDO
100
AcDbPolyline
 62
250
  6
CONTINUOUS
 90
3
 70
0
 10
12.5439951968
 20
13.9301334601
 10
12.5587060951
 20
13.8990867976
 10
12.5723254982
 20
13.8669653947
  0
LWPOLYLINE
  5
3FC
100
AcDbEntity
  8
ASSI
100
AcDbPolyline
 62
7
  6
CONTINUOUS
 90
6
 70
0
 10
8.0877004359
 20
22.1079876077
 10
8.0932320695
 20
22.0960070598
 10
8.0993148799
 20
22.0810588361
 10
8.104578235
 20
22.0659532698
 10
8.1090153666
 20
22.0507491727
 10
8.1126357297
 20
22.0354634444
  0
LINE
  5
3FD
100
AcDbEntity
  8
ASSI
100
AcDbLine
 62
7
  6
CONTINUOUS
 10
8.0878688289
 20
22.1076246321
 11
8.0879008969
 21
22.1075509165
  0
LWPOLYLINE
  5
3FE
100
AcDbEntity
  8
RACCORDO
100
AcDbPolyline
 62
250
  6
CONTINUOUS
 90
4
 70
0
 10
12.5723254982
 20
13.8669653947
 10
12.5846776878
 20
13.8339114644
 10
12.5956052376
 20
13.8000114667
 10
12.6048960253
 20
13.7655369407
  0
LWPOLYLINE
  5
3FF
100
AcDbEntity
  8
RACCORDO
100
AcDbPolyline
 62
250
  6
CONTINUOUS
 90
12
 70
0
 10
11.1896609867
 20
20.8401782841
 10
11.1814011698
 20
20.8641404538
 10
11.1714191175
 20
20.887926784
 10
11.1598240619
 20
20.9112768488
 10
11.1467429716
 20
20.9339348248
 10
11.1323190546
 20
20.9556524926
 10
11.1167102347
 20
20.976192003
 10
11.1000874593
 20
20.9953283359
 10
11.0826328286
 20
21.0128517465
 10
11.0645375356
 20
21.0285702616
 10
11.045999756
 20
21.042311754
 10
11.0272225322
 20
21.0539257056
  0
LWPOLYLINE
  5
400
100
AcDbEntity
  8
RACCORDO
100
AcDbPolyline
 62
250
  6
CONTINUOUS
 90
8
 70
0
 10
12.593861861
 20
13.9667319448
 10
12.5939750092
 20
13.966362377
 10
12.5931014911
 20
13.9640390902
 10
12.5899932912
 20
13.9606433485
 10
12.5847024067
 20
13.9562319667
 10
12.577317363
 20
13.9508787582
 10
12.567961728
 20
13.9446732957
 10
12.5567920408
 20
13.9377194107
  0
LINE
  5
401
100
AcDbEntity
  8
RACCORDO
100
AcDbLine
 62
250
  6
CONTINUOUS
 10
11.1961082373
 20
20.8163024983
 11
11.1896609867
 21
20.8401782841
  0
LINE
  5
402
100
AcDbEntity
  8
RACCORDO
100
AcDbLine
 62
250
  6
CONTINUOUS
 10
12.5612201395
 20
-15.1663446449
 11
12.5439951968
 21
-15.1832526387
  0
LWPOLYLINE
  5
403
100
AcDbEntity
  8
RACCORDO
100
AcDbPolyline
 62
7
  6
CONTINUOUS
 90
9
 70
0
 10
12.5574470532
 20
-15.1734743711
 10
12.5770184132
 20
-15.1548913102
 10
12.5989785582
 20
-15.1288878411
 10
12.6183726378
 20
-15.0993566111
 10
12.6347430013
 20
-15.0665257356
 10
12.6477069214
 20
-15.0307730266
 10
12.6570610112
 20
-14.9922932744
 10
12.6626394018
 20
-14.9511683094
 10
12.6642803669
 20
-14.9122228701
  0
LINE
  5
404
100
AcDbEntity
  8
RACCORDO
100
AcDbLine
 62
7
  6
CONTINUOUS
 10
12.5574470529
 20
-15.1734743711
 11
12.5571139708
 21
-15.1737608775
  0
LINE
  5
405
100
AcDbEntity
  8
RACCORDO
100
AcDbLine
 62
7
  6
CONTINUOUS
 10
9.4930067222
 20
-17.036255428
 11
9.4147956529
 21
-17.1022535937
  0
LWPOLYLINE
  5
406
100
AcDbEntity
  8
RACCORDO
100
AcDbPolyline
 62
250
  6
CONTINUOUS
 90
4
 70
0
 10
12.5439951968
 20
-15.1832526387
 10
12.299439195
 20
-15.3858687601
 10
12.0531188467
 20
-15.5768170983
 10
12.0053199879
 20
-15.6129378491
  0
LWPOLYLINE
  5
407
100
AcDbEntity
  8
RACCORDO
100
AcDbPolyline
 62
7
  6
CONTINUOUS
 90
9
 70
0
 10
9.4147956529
 20
-17.1022535937
 10
9.3359994134
 20
-17.1673480006
 10
9.2566180036
 20
-17.2315386487
 10
9.1766483451
 20
-17.2948279314
 10
9.0960935164
 20
-17.3572134554
 10
9.0149627526
 20
-17.4186880408
 10
8.9332591323
 20
-17.4792492944
 10
8.850979577
 20
-17.5388996095
 10
8.7681240867
 20
-17.597638986
  0
LWPOLYLINE
  5
408
100
AcDbEntity
  8
RACCORDO
100
AcDbPolyline
 62
250
  6
CONTINUOUS
 90
5
 70
0
 10
11.863101784
 20
-15.7159819079
 10
11.8053776961
 20
-15.7564293511
 10
11.5584397219
 20
-15.9238016312
 10
11.3108088413
 20
-16.0806294222
 10
11.2775940268
 20
-16.1008592127
  0
LINE
  5
409
100
AcDbEntity
  8
RACCORDO
100
AcDbLine
 62
250
  6
CONTINUOUS
 10
12.5571139708
 20
-15.1737608775
 11
12.5439951967
 21
-15.1832526386
  0
LINE
  5
40A
100
AcDbEntity
  8
RACCORDO
100
AcDbLine
 62
7
  6
CONTINUOUS
 10
9.4930067222
 20
-17.036255428
 11
9.4838211917
 21
-17.0428405343
  0
LINE
  5
40B
100
AcDbEntity
  8
RACCORDO
100
AcDbLine
 62
250
  6
CONTINUOUS
 10
8.5732416506
 20
-17.585996933
 11
8.5631392656
 21
-17.5931991268
  0
LWPOLYLINE
  5
40C
100
AcDbEntity
  8
RACCORDO
100
AcDbPolyline
 62
250
  6
CONTINUOUS
 90
19
 70
0
 10
12.6707115018
 20
-15.1687621946
 10
12.6746066531
 20
-15.1662086642
 10
12.6799520823
 20
-15.1620397345
 10
12.6849352874
 20
-15.1573205767
 10
12.6895635017
 20
-15.1520317833
 10
12.6938819932
 20
-15.1460736233
 10
12.6978707418
 20
-15.1393774095
 10
12.7014462091
 20
-15.1319730109
 10
12.7045439468
 20
-15.1238964937
 10
12.7071215026
 20
-15.1151580364
 10
12.7091398885
 20
-15.1057644275
 10
12.710556175
 20
-15.0957687257
 10
12.7113392934
 20
-15.0852022091
 10
12.7114611552
 20
-15.0740932255
 10
12.7108981978
 20
-15.0625064464
 10
12.7096414042
 20
-15.050556509
 10
12.7076747791
 20
-15.0382268061
 10
12.7049430936
 20
-15.0253849048
 10
12.7014153113
 20
-15.012109292
  0
LWPOLYLINE
  5
40D
100
AcDbEntity
  8
RACCORDO
100
AcDbPolyline
 62
7
  6
CONTINUOUS
 90
16
 70
0
 10
12.6704349113
 20
-15.1689287191
 10
12.6754488969
 20
-15.1657677062
 10
12.6913308144
 20
-15.153954047
 10
12.705824228
 20
-15.1402193221
 10
12.7186169459
 20
-15.1248242327
 10
12.7295573213
 20
-15.1079451193
 10
12.7385921421
 20
-15.0895790598
 10
12.7455531063
 20
-15.0698465534
 10
12.7502256841
 20
-15.0491338421
 10
12.7525214488
 20
-15.0276859285
 10
12.7523566907
 20
-15.0052009441
 10
12.7496021715
 20
-14.9823102114
 10
12.7445389672
 20
-14.9603633729
 10
12.7372941889
 20
-14.9390587745
 10
12.727921378
 20
-14.9183880188
 10
12.7223137802
 20
-14.908091106
  0
LWPOLYLINE
  5
40E
100
AcDbEntity
  8
RACCORDO
100
AcDbPolyline
 62
7
  6
CONTINUOUS
 90
10
 70
0
 10
11.2775940267
 20
-16.1008592126
 10
11.4264316577
 20
-16.0087567889
 10
11.573640619
 20
-15.9139024654
 10
11.7192035924
 20
-15.8163068105
 10
11.863101784
 20
-15.7159819079
 10
12.0053199879
 20
-15.6129378491
 10
12.1458464042
 20
-15.5071824036
 10
12.2846659782
 20
-15.398725844
 10
12.4217605864
 20
-15.2875812712
 10
12.5571139708
 20
-15.1737608775
  0
LINE
  5
40F
100
AcDbEntity
  8
RACCORDO
100
AcDbLine
 62
250
  6
CONTINUOUS
 10
12.6692501898
 20
-14.9387341039
 11
12.6630031594
 21
-14.9425351587
  0
LINE
  5
410
100
AcDbEntity
  8
RACCORDO
100
AcDbLine
 62
7
  6
CONTINUOUS
 10
12.2561471669
 20
-15.4210069394
 11
12.6707118852
 21
-15.1687619613
  0
LINE
  5
411
100
AcDbEntity
  8
ASSI
100
AcDbLine
 62
7
  6
CONTINUOUS
 10
11.2775940268
 20
-16.1008592127
 11
8.5559920524
 21
-17.7508314623
  0
LINE
  5
412
100
AcDbEntity
  8
RACCORDO
100
AcDbLine
 62
250
  6
CONTINUOUS
 10
8.6266810017
 20
-17.3901616697
 11
12.6221813389
 21
-14.9723721445
  0
LINE
  5
413
100
AcDbEntity
  8
RACCORDO
100
AcDbLine
 62
250
  6
CONTINUOUS
 10
8.5732416506
 20
-17.585996933
 11
12.5439951968
 21
-15.1832526387
  0
LINE
  5
414
100
AcDbEntity
  8
RACCORDO
100
AcDbLine
 62
250
  6
CONTINUOUS
 10
9.4838267512
 20
-17.0428500335
 11
9.4930067222
 21
-17.036255428
  0
LINE
  5
415
100
AcDbEntity
  8
RACCORDO
100
AcDbLine
 62
7
  6
CONTINUOUS
 10
8.5559920524
 20
-17.5974701845
 11
9.4838267512
 21
-17.0428500335
  0
LINE
  5
416
100
AcDbEntity
  8
RACCORDO
100
AcDbLine
 62
250
  6
CONTINUOUS
 10
12.6692496648
 20
-14.9387331946
 11
12.7223137802
 21
-14.908091106
  0
LINE
  5
417
100
AcDbEntity
  8
DRAFT
100
AcDbLine
 62
7
  6
CONTINUOUS
 10
8.9433064304
 20
-18.4709856444
 11
8.5559920524
 21
-18.6946168799
  0
LINE
  5
418
100
AcDbEntity
  8
LAY0001
100
AcDbLine
 62
7
  6
CONTINUOUS
 10
8.5559920524
 20
-18.2558691512
 11
8.5635501159
 21
-18.2517191078
  0
LWPOLYLINE
  5
419
100
AcDbEntity
  8
RACCORDO
100
AcDbPolyline
 62
250
  6
CONTINUOUS
 90
6
 70
0
 10
8.6266810017
 20
-17.3901616697
 10
8.6133680041
 20
-17.3968305435
 10
8.5982341325
 20
-17.4020462805
 10
8.5817495378
 20
-17.4056468992
 10
8.5644262788
 20
-17.4075205961
 10
8.5559920524
 20
-17.4075630019
  0
LINE
  5
41A
100
AcDbEntity
  8
RACCORDO
100
AcDbLine
 62
250
  6
CONTINUOUS
 10
10.9041449356
 20
24.5796455111
 11
13.3842065042
 21
25.2741541245
  0
LINE
  5
41B
100
AcDbEntity
  8
ASSI
100
AcDbLine
 62
7
  6
CONTINUOUS
 10
10.8136098303
 20
24.5933726791
 11
13.2956346398
 21
25.2884310723
  0
LWPOLYLINE
  5
41C
100
AcDbEntity
  8
ASSI
100
AcDbPolyline
 62
250
  6
CONTINUOUS
 90
13
 70
0
 10
12.8200989588
 20
24.7596697393
 10
12.82433986
 20
24.7608186854
 10
12.8285139541
 20
24.7620260493
 10
12.8326212412
 20
24.7632918311
 10
12.8366503174
 20
24.7646086089
 10
12.8406125864
 20
24.7659838045
 10
12.8445422602
 20
24.7674396836
 10
12.848448063
 20
24.7689750706
 10
12.8523212706
 20
24.7705911411
 10
12.8561699221
 20
24.7723136867
 10
12.859996697
 20
24.7741513047
 10
12.8637989158
 20
24.7760953978
 10
12.8675765784
 20
24.7781459661
  0
LINE
  5
41D
100
AcDbEntity
  8
ASSI
100
AcDbLine
 62
250
  6
CONTINUOUS
 10
11.3962933615
 20
24.1125675333
 11
12.9268263095
 21
24.5151290598
  0
LINE
  5
41E
100
AcDbEntity
  8
ASSI
100
AcDbLine
 62
250
  6
CONTINUOUS
 10
11.2895660108
 20
24.3571082127
 11
12.8200989588
 21
24.7596697393
  0
LWPOLYLINE
  5
41F
100
AcDbEntity
  8
ASSI
100
AcDbPolyline
 62
7
  6
CONTINUOUS
 90
10
 70
0
 10
7.5981999411
 20
20.6369213866
 10
7.578676207
 20
20.6372085612
 10
7.5596442118
 20
20.6365350438
 10
7.5411039555
 20
20.6349008345
 10
7.5229192967
 20
20.6322709354
 10
7.5052263769
 20
20.6286803443
 10
7.4884336199
 20
20.6242340551
 10
7.4726771673
 20
20.6189670658
 10
7.4578208776
 20
20.6128443784
 10
7.4438647508
 20
20.6058659929
  0
LINE
  5
420
100
AcDbEntity
  8
ASSI
100
AcDbLine
 62
7
  6
CONTINUOUS
 10
7.6388566457
 20
20.6361140466
 11
7.5981999411
 21
20.6369213866
  0
LWPOLYLINE
  5
421
100
AcDbEntity
  8
ASSI
100
AcDbPolyline
 62
250
  6
CONTINUOUS
 90
8
 70
0
 10
6.9607325022
 20
20.1284752988
 10
6.9494479204
 20
20.1327262989
 10
6.9372598838
 20
20.1350510794
 10
6.9242989814
 20
20.1354247186
 10
6.9107041
 20
20.1338432068
 10
6.8966209083
 20
20.1303234903
 10
6.8822002922
 20
20.1249032796
 10
6.8675967603
 20
20.1176406481
  0
LWPOLYLINE
  5
422
100
AcDbEntity
  8
RACCORDO
100
AcDbPolyline
 62
7
  6
CONTINUOUS
 90
10
 70
0
 10
10.2513499715
 20
18.0345406835
 10
10.2728723363
 20
18.0245304045
 10
10.2927022116
 20
18.0143976953
 10
10.3107808077
 20
18.0041216913
 10
10.3270668757
 20
17.993648996
 10
10.3415688223
 20
17.9830408923
 10
10.3542909817
 20
17.9724383942
 10
10.3652186484
 20
17.9618393923
 10
10.3743415875
 20
17.9512496169
 10
10.3812202193
 20
17.9414151542
  0
LWPOLYLINE
  5
423
100
AcDbEntity
  8
ASSI
100
AcDbPolyline
 62
250
  6
CONTINUOUS
 90
9
 70
0
 10
8.4923373151
 20
19.2443603075
 10
8.4879362214
 20
19.2466869977
 10
8.4766516159
 20
19.2509379749
 10
8.4644635841
 20
19.2532627254
 10
8.4515027083
 20
19.2536363405
 10
8.4379078596
 20
19.2520548155
 10
8.4238246998
 20
19.2485350953
 10
8.4094041195
 20
19.2431148911
 10
8.3948006261
 20
19.2358522764
  0
LINE
  5
424
100
AcDbEntity
  8
ASSI
100
AcDbLine
 62
250
  6
CONTINUOUS
 10
6.9651334494
 20
20.1261486793
 11
6.9607325022
 21
20.1284752988
  0
LINE
  5
425
100
AcDbEntity
  8
ASSI
100
AcDbLine
 62
250
  6
CONTINUOUS
 10
-2.2112093329
 20
25.4244539951
 11
-2.21561028
 21
25.4267806147
  0
LWPOLYLINE
  5
426
100
AcDbEntity
  8
ASSI
100
AcDbPolyline
 62
250
  6
CONTINUOUS
 90
8
 70
0
 10
6.8675967603
 20
20.1176406481
 10
6.8532649687
 20
20.1253195765
 10
6.8390028557
 20
20.1311824118
 10
6.8249659873
 20
20.1351436337
 10
6.8112927338
 20
20.1371383895
 10
6.7981577493
 20
20.1371144503
 10
6.7857613297
 20
20.135060237
 10
6.7746729345
 20
20.131152745
  0
LWPOLYLINE
  5
427
100
AcDbEntity
  8
ASSI
100
AcDbPolyline
 62
250
  6
CONTINUOUS
 90
8
 70
0
 10
-2.3087460219
 20
25.415945964
 10
-2.3230778135
 20
25.4236248924
 10
-2.3373399266
 20
25.4294877277
 10
-2.3513767949
 20
25.4334489496
 10
-2.3650500484
 20
25.4354437054
 10
-2.3781850329
 20
25.4354197662
 10
-2.3905814525
 20
25.4333655528
 10
-2.4016698477
 20
25.4294580609
  0
LINE
  5
428
100
AcDbEntity
  8
LAY0001
100
AcDbLine
 62
7
  6
CONTINUOUS
 10
-2.2766980421
 20
23.8940167233
 11
2.3194960356
 21
21.2402318667
  0
LINE
  5
429
100
AcDbEntity
  8
LAY0001
100
AcDbLine
 62
7
  6
CONTINUOUS
 10
-1.7747251048
 20
23.7316551021
 11
2.455888949
 21
21.2889515695
  0
LINE
  5
42A
100
AcDbEntity
  8
LAY0001
100
AcDbLine
 62
7
  6
CONTINUOUS
 10
8.2025598157
 20
18.655995742
 11
3.1889386671
 21
21.5507977577
  0
LINE
  5
42B
100
AcDbEntity
  8
LAY0001
100
AcDbLine
 62
7
  6
CONTINUOUS
 10
-1.7747251048
 20
24.4167550103
 11
-6.7883462533
 21
27.311557026
  0
LINE
  5
42C
100
AcDbEntity
  8
ASSI
100
AcDbLine
 62
250
  6
CONTINUOUS
 10
1.2308861024
 20
23.3629966283
 11
5.1111969683
 21
21.122553766
  0
LINE
  5
42D
100
AcDbEntity
  8
ASSI
100
AcDbLine
 62
250
  6
CONTINUOUS
 10
8.3948006261
 20
19.2358522764
 11
6.8675967603
 21
20.1176406481
  0
LINE
  5
42E
100
AcDbEntity
  8
ASSI
100
AcDbLine
 62
250
  6
CONTINUOUS
 10
-0.7815421561
 20
24.5341575922
 11
-2.3087460219
 21
25.415945964
  0
LINE
  5
42F
100
AcDbEntity
  8
ASSI
100
AcDbLine
 62
7
  6
CONTINUOUS
 10
8.4923373151
 20
19.2443603075
 11
6.9651334494
 21
20.1261486793
  0
LINE
  5
430
100
AcDbEntity
  8
ASSI
100
AcDbLine
 62
7
  6
CONTINUOUS
 10
-0.6840054671
 20
24.5426656234
 11
-2.2112093329
 21
25.4244539951
  0
LINE
  5
431
100
AcDbEntity
  8
ASSI
100
AcDbLine
 62
250
  6
CONTINUOUS
 10
1.3700252873
 20
23.5057369023
 11
5.2170067577
 21
21.2845380153
  0
LINE
  5
432
100
AcDbEntity
  8
DRAFT
100
AcDbLine
 62
7
  6
CONTINUOUS
 10
7.4271633495
 20
20.4511097211
 11
7.2984830014
 21
20.5254081413
  0
LWPOLYLINE
  5
433
100
AcDbEntity
  8
ASSI
100
AcDbPolyline
 62
250
  6
CONTINUOUS
 90
16
 70
0
 10
-0.7815421561
 20
24.5341575922
 10
-0.7668402159
 20
24.5250840118
 10
-0.7522433015
 20
24.5143181577
 10
-0.7379101596
 20
24.5019493731
 10
-0.7239918759
 20
24.4880776806
 10
-0.7106575977
 20
24.4728400493
 10
-0.6980879123
 20
24.4564174641
 10
-0.6864193698
 20
24.4389645567
 10
-0.6758030808
 20
24.4206815439
 10
-0.6664093034
 20
24.4018552407
 10
-0.6583528824
 20
24.382739064
 10
-0.6516951807
 20
24.3635055693
 10
-0.6464950392
 20
24.3443325863
 10
-0.6428092798
 20
24.3254205121
 10
-0.6406834532
 20
24.3069902097
 10
-0.6401423391
 20
24.2892459251
  0
LWPOLYLINE
  5
434
100
AcDbEntity
  8
ASSI
100
AcDbPolyline
 62
250
  6
CONTINUOUS
 90
3
 70
0
 10
2.8201257778
 20
24.1479855893
 10
2.8410851166
 20
24.1295323864
 10
2.8652848398
 20
24.1115327644
  0
LWPOLYLINE
  5
435
100
AcDbEntity
  8
ASSI
100
AcDbPolyline
 62
250
  6
CONTINUOUS
 90
7
 70
0
 10
8.0758216243
 20
22.1266763098
 10
8.0705504711
 20
22.1326138353
 10
8.0650969219
 20
22.1377837256
 10
8.0595927057
 20
22.1421108983
 10
8.0541230304
 20
22.1456034134
 10
8.0487347882
 20
22.1483474849
 10
8.0434835974
 20
22.1503909628
  0
LWPOLYLINE
  5
436
100
AcDbEntity
  8
RACCORDO
100
AcDbPolyline
 62
7
  6
CONTINUOUS
 90
12
 70
0
 10
12.6209041316
 20
19.6801857822
 10
12.5699072066
 20
19.7567326612
 10
12.516033236
 20
19.8309196356
 10
12.459521353
 20
19.902359773
 10
12.4006047436
 20
19.9706849698
 10
12.3394946338
 20
20.0356094161
 10
12.2763912865
 20
20.0968560019
 10
12.2115267665
 20
20.1541240331
 10
12.1451409501
 20
20.207123919
 10
12.0774607402
 20
20.2555753422
 10
12.0087432
 20
20.2992070434
 10
11.9937403795
 20
20.3080000477
  0
LWPOLYLINE
  5
437
100
AcDbEntity
  8
RACCORDO
100
AcDbPolyline
 62
250
  6
CONTINUOUS
 90
11
 70
0
 10
12.5724400456
 20
19.6424583266
 10
12.517025074
 20
19.7266028615
 10
12.4604289463
 20
19.8051784197
 10
12.4032156551
 20
19.8781041587
 10
12.3459625541
 20
19.9453144664
 10
12.2890682939
 20
20.0069425917
 10
12.2327363834
 20
20.0632773113
 10
12.1773176187
 20
20.1144548694
 10
12.1231132661
 20
20.1606601148
 10
12.0701635861
 20
20.2022501132
 10
12.0186126013
 20
20.2394739041
  0
LWPOLYLINE
  5
438
100
AcDbEntity
  8
ASSI
100
AcDbPolyline
 62
7
  6
CONTINUOUS
 90
10
 70
0
 10
10.5386327415
 20
23.5782142063
 10
10.5503342675
 20
23.5597421956
 10
10.5606402136
 20
23.5408537211
 10
10.56954226
 20
23.521628623
 10
10.5770235608
 20
23.5021949693
 10
10.5831138594
 20
23.4825886978
 10
10.5878558345
 20
23.4627503427
 10
10.5912476357
 20
23.4427140475
 10
10.5932761737
 20
23.4226100601
 10
10.5939492973
 20
23.4025221902
  0
LWPOLYLINE
  5
439
100
AcDbEntity
  8
ASSI
100
AcDbPolyline
 62
250
  6
CONTINUOUS
 90
13
 70
0
 10
11.7539682876
 20
19.1807034744
 10
11.7093373884
 20
19.2512515575
 10
11.6624752786
 20
19.319778244
 10
11.613547144
 20
19.3860365164
 10
11.5627228907
 20
19.449786046
 10
11.5101846465
 20
19.5107984613
 10
11.4561261066
 20
19.5688581531
 10
11.4007395509
 20
19.6237548392
 10
11.3442197005
 20
19.6752914976
 10
11.2867709298
 20
19.7232888201
 10
11.2285979644
 20
19.767575102
 10
11.1699053523
 20
19.8079875261
 10
11.1109011192
 20
19.8443794486
  0
LINE
  5
43A
100
AcDbEntity
  8
RACCORDO
100
AcDbLine
 62
7
  6
CONTINUOUS
 10
12.6679036644
 20
19.605518612
 11
12.6209041316
 21
19.6801857822
  0
LINE
  5
43B
100
AcDbEntity
  8
RACCORDO
100
AcDbLine
 62
250
  6
CONTINUOUS
 10
12.6630178084
 20
19.4980860808
 11
12.5724400411
 21
19.642458324
  0
LINE
  5
43C
100
AcDbEntity
  8
RACCORDO
100
AcDbLine
 62
7
  6
CONTINUOUS
 10
12.7180536907
 20
19.5254466964
 11
12.6679036644
 21
19.605518612
  0
LWPOLYLINE
  5
43D
100
AcDbEntity
  8
ASSI
100
AcDbPolyline
 62
250
  6
CONTINUOUS
 90
16
 70
0
 10
10.3732177187
 20
23.6290902231
 10
10.3630889447
 20
23.6458752209
 10
10.3552421018
 20
23.6628835289
 10
10.3496771901
 20
23.6801151472
 10
10.3463769897
 20
23.6976752224
 10
10.3453587204
 20
23.7154586079
 10
10.3466740417
 20
23.7331498633
 10
10.3503839735
 20
23.7507639189
 10
10.3564274959
 20
23.7682858445
 10
10.3646732096
 20
23.7853554091
 10
10.375167877
 20
23.8019446361
 10
10.3878647356
 20
23.8180815021
 10
10.4024920987
 20
23.8334897062
 10
10.4189594041
 20
23.848077148
 10
10.4373572139
 20
23.8619359279
 10
10.4576855282
 20
23.8750660459
  0
LWPOLYLINE
  5
43E
100
AcDbEntity
  8
RACCORDO
100
AcDbPolyline
 62
250
  6
CONTINUOUS
 90
10
 70
0
 10
10.5852090929
 20
26.8425471684
 10
10.5912634826
 20
26.829521904
 10
10.5967497243
 20
26.8160216764
 10
10.6016431187
 20
26.8020407448
 10
10.6059306742
 20
26.7874677249
 10
10.6095234688
 20
26.7724061063
 10
10.6123513567
 20
26.7569070153
 10
10.6143548935
 20
26.7407911387
 10
10.6154054909
 20
26.7240910114
 10
10.6153619502
 20
26.7070538013
  0
LWPOLYLINE
  5
43F
100
AcDbEntity
  8
RACCORDO
100
AcDbPolyline
 62
250
  6
CONTINUOUS
 90
10
 70
0
 10
15.5076387046
 20
23.3024657224
 10
15.5055242739
 20
23.3112427796
 10
15.5031087731
 20
23.3202276281
 10
15.5003831127
 20
23.3294021737
 10
15.4973195481
 20
23.338807125
 10
15.4939037664
 20
23.3484275033
 10
15.4901228754
 20
23.3582448309
 10
15.4859430959
 20
23.3682910587
 10
15.4813427291
 20
23.3785551861
 10
15.4763126737
 20
23.3889972567
  0
LWPOLYLINE
  5
440
100
AcDbEntity
  8
RACCORDO
100
AcDbPolyline
 62
250
  6
CONTINUOUS
 90
5
 70
0
 10
16.1474568618
 20
22.1504428627
 10
16.1421476913
 20
22.1754915572
 10
16.1347954295
 20
22.2007149053
 10
16.1254661387
 20
22.2259623572
 10
16.1140449859
 20
22.2514030617
  0
LWPOLYLINE
  5
441
100
AcDbEntity
  8
RACCORDO
100
AcDbPolyline
 62
250
  6
CONTINUOUS
 90
7
 70
0
 10
9.405265438
 20
-20.3845340627
 10
9.4154317048
 20
-20.3768162267
 10
9.425714684
 20
-20.3650398451
 10
9.4338243209
 20
-20.3506650725
 10
9.4396219765
 20
-20.333943768
 10
9.4430103167
 20
-20.3151652043
 10
9.4439328866
 20
-20.2946548733
  0
LINE
  5
442
100
AcDbEntity
  8
RACCORDO
100
AcDbLine
 62
250
  6
CONTINUOUS
 10
9.4439328866
 20
-20.2946548733
 11
8.5559920524
 21
-20.8437708046
  0
LINE
  5
443
100
AcDbEntity
  8
RACCORDO
100
AcDbLine
 62
7
  6
CONTINUOUS
 10
9.4052580422
 20
-20.384538637
 11
8.5559920524
 21
-20.9097374644
  0
LWPOLYLINE
  5
444
100
AcDbEntity
  8
ASSI
100
AcDbPolyline
 62
250
  6
CONTINUOUS
 90
12
 70
0
 10
7.5640680101
 20
26.5081640669
 10
7.5570331766
 20
26.5061711851
 10
7.5499326015
 20
26.5039870746
 10
7.5427690078
 20
26.5016109307
 10
7.5355813057
 20
26.4990550539
 10
7.528336492
 20
26.4963076889
 10
7.520928378
 20
26.4933236756
 10
7.5133497798
 20
26.4900896114
 10
7.5056123266
 20
26.4866006774
 10
7.4976368773
 20
26.4828099047
 10
7.4893989234
 20
26.4786886595
 10
7.4809292427
 20
26.4742337593
  0
LINE
  5
445
100
AcDbEntity
  8
RACCORDO
100
AcDbLine
 62
250
  6
CONTINUOUS
 10
2.109344354
 20
25.7229278965
 11
2.1524082282
 21
25.7349436637
  0
LWPOLYLINE
  5
446
100
AcDbEntity
  8
ASSI
100
AcDbPolyline
 62
250
  6
CONTINUOUS
 90
13
 70
0
 10
7.9494890853
 20
26.2856267685
 10
7.9423485432
 20
26.2836711463
 10
7.9351647703
 20
26.28151864
 10
7.9279406568
 20
26.279169248
 10
7.9207185967
 20
26.2766375534
 10
7.9134623875
 20
26.2739112951
 10
7.9060558353
 20
26.2709410977
 10
7.898488914
 20
26.267713026
 10
7.8907760365
 20
26.2642225956
 10
7.8828363522
 20
26.260418728
 10
7.8746447477
 20
26.2562709618
 10
7.866232538
 20
26.2517769766
 10
7.8576039192
 20
26.2469211465
  0
LINE
  5
447
100
AcDbEntity
  8
ASSI
100
AcDbLine
 62
250
  6
CONTINUOUS
 10
9.0765837476
 20
26.921128505
 11
7.5640680101
 21
26.5081640669
  0
LINE
  5
448
100
AcDbEntity
  8
ASSI
100
AcDbLine
 62
7
  6
CONTINUOUS
 10
8.9873030951
 20
26.9352025681
 11
7.4747873576
 21
26.52223813
  0
LWPOLYLINE
  5
449
100
AcDbEntity
  8
ASSI
100
AcDbPolyline
 62
250
  6
CONTINUOUS
 90
13
 70
0
 10
8.0541140881
 20
26.0337661122
 10
8.0498039125
 20
26.0326058815
 10
8.0454731605
 20
26.0313265409
 10
8.0411218319
 20
26.0299280903
 10
8.0367721311
 20
26.0284221531
 10
8.0324018538
 20
26.026797106
 10
8.0279443869
 20
26.0250180786
 10
8.023392486
 20
26.0230886461
 10
8.0187533955
 20
26.0210052334
 10
8.0139822358
 20
26.0187222448
 10
8.0090640471
 20
26.0162244818
 10
8.0040137893
 20
26.0135271429
 10
7.9988314624
 20
26.0106302282
  0
LINE
  5
44A
100
AcDbEntity
  8
ASSI
100
AcDbLine
 62
250
  6
CONTINUOUS
 10
9.0817439954
 20
26.9224723957
 11
9.0765837476
 21
26.921128505
  0
LINE
  5
44B
100
AcDbEntity
  8
RACCORDO
100
AcDbLine
 62
250
  6
CONTINUOUS
 10
10.6140999692
 20
26.6898632281
 11
8.0541140881
 21
26.0337661122
  0
LINE
  5
44C
100
AcDbEntity
  8
RACCORDO
100
AcDbLine
 62
250
  6
CONTINUOUS
 10
10.5001958324
 20
26.9393457412
 11
7.9494890853
 21
26.2856267685
  0
LWPOLYLINE
  5
44D
100
AcDbEntity
  8
ASSI
100
AcDbPolyline
 62
250
  6
CONTINUOUS
 90
6
 70
0
 10
10.8136098303
 20
24.5933726791
 10
10.8300162155
 20
24.5965528431
 10
10.8483872741
 20
24.5969872219
 10
10.8670653448
 20
24.5942768814
 10
10.8857510616
 20
24.5884652622
 10
10.9041449356
 20
24.5796455111
  0
LWPOLYLINE
  5
44E
100
AcDbEntity
  8
RACCORDO
100
AcDbPolyline
 62
250
  6
CONTINUOUS
 90
5
 70
0
 10
13.5611678776
 20
25.1719788453
 10
13.5757265756
 20
25.1745418199
 10
13.5893981473
 20
25.17421791
 10
13.601893894
 20
25.1710139555
 10
13.6086980711
 20
25.1677451397
  0
LWPOLYLINE
  5
44F
100
AcDbEntity
  8
RACCORDO
100
AcDbPolyline
 62
250
  6
CONTINUOUS
 90
5
 70
0
 10
13.3842065042
 20
25.2741541245
 10
13.3987652027
 20
25.2767171
 10
13.4124367746
 20
25.2763931901
 10
13.4249325211
 20
25.273189235
 10
13.4316694623
 20
25.2699591257
  0
LWPOLYLINE
  5
450
100
AcDbEntity
  8
ASSI
100
AcDbPolyline
 62
250
  6
CONTINUOUS
 90
3
 70
0
 10
2.1420730952
 20
24.59266416
 10
2.1500372281
 20
24.5936692329
 10
2.1576188675
 20
24.5943860411
  0
LWPOLYLINE
  5
451
100
AcDbEntity
  8
ASSI
100
AcDbPolyline
 62
250
  6
CONTINUOUS
 90
7
 70
0
 10
4.108902268
 20
24.6991596222
 10
4.1519681637
 20
24.702876408
 10
4.1967740859
 20
24.709390837
 10
4.243258989
 20
24.718818573
 10
4.2912247549
 20
24.7312460151
 10
4.3407146302
 20
24.7467854812
 10
4.3920254854
 20
24.7656443712
  0
LWPOLYLINE
  5
452
100
AcDbEntity
  8
ASSI
100
AcDbPolyline
 62
250
  6
CONTINUOUS
 90
9
 70
0
 10
7.5048885962
 20
22.7383596779
 10
7.5394878536
 20
22.7411900279
 10
7.5740867789
 20
22.7457178871
 10
7.6086118033
 20
22.7518427187
 10
7.6425995159
 20
22.7593690139
 10
7.676372641
 20
22.7682560792
 10
7.7110787411
 20
22.7787983709
 10
7.7468165389
 20
22.791111876
 10
7.7834306391
 20
22.8052143548
  0
LWPOLYLINE
  5
453
100
AcDbEntity
  8
ASSI
100
AcDbPolyline
 62
7
  6
CONTINUOUS
 90
7
 70
0
 10
2.0941214475
 20
24.6120406795
 10
2.0776307108
 20
24.6107435265
 10
2.040803967
 20
24.6049949146
 10
2.0025846334
 20
24.5949462752
 10
1.9647493918
 20
24.5809414951
 10
1.9278680141
 20
24.5633771999
 10
1.9180961688
 20
24.5580663912
  0
LINE
  5
454
100
AcDbEntity
  8
ASSI
100
AcDbLine
 62
250
  6
CONTINUOUS
 10
2.1576188675
 20
24.5943860411
 11
2.1648225961
 21
24.594843391
  0
LWPOLYLINE
  5
455
100
AcDbEntity
  8
ASSI
100
AcDbPolyline
 62
250
  6
CONTINUOUS
 90
16
 70
0
 10
5.9804104359
 20
22.191838396
 10
5.9732597927
 20
22.1914270657
 10
5.9662567546
 20
22.1907337236
 10
5.9594013218
 20
22.1897583698
 10
5.9526852424
 20
22.1884733661
 10
5.9461167682
 20
22.1869063506
 10
5.9397206546
 20
22.1851402376
 10
5.9334991133
 20
22.1831780626
 10
5.9274499326
 20
22.1810167901
 10
5.9215912333
 20
22.1787302277
 10
5.9159247532
 20
22.1763209851
 10
5.9104487545
 20
22.1737864525
 10
5.9051761446
 20
22.1711926083
 10
5.9001112262
 20
22.1685614453
 10
5.8952496966
 20
22.1658709707
 10
5.890591556
 20
22.1631211844
  0
LWPOLYLINE
  5
456
100
AcDbEntity
  8
ASSI
100
AcDbPolyline
 62
250
  6
CONTINUOUS
 90
16
 70
0
 10
5.8968477926
 20
22.4400188158
 10
5.8850700156
 20
22.4393580973
 10
5.8734706331
 20
22.4381387616
 10
5.8620777078
 20
22.4364105846
 10
5.8509224218
 20
22.434222141
 10
5.8400221457
 20
22.4316213936
 10
5.8293801879
 20
22.4286538848
 10
5.8190120679
 20
22.4253621393
 10
5.8089364997
 20
22.4217885325
 10
5.7991581253
 20
22.4179742075
 10
5.7896872721
 20
22.4139566885
 10
5.7805366737
 20
22.4097732981
 10
5.7717120331
 20
22.405462094
 10
5.7632199606
 20
22.4010576345
 10
5.7550680806
 20
22.396590878
 10
5.7472616649
 20
22.3920921258
  0
LINE
  5
457
100
AcDbEntity
  8
ASSI
100
AcDbLine
 62
250
  6
CONTINUOUS
 10
5.998785864
 20
22.6564295021
 11
7.5048885962
 21
22.7383596779
  0
LINE
  5
458
100
AcDbEntity
  8
ASSI
100
AcDbLine
 62
7
  6
CONTINUOUS
 10
5.9274972238
 20
22.6735931362
 11
7.4342576511
 21
22.7555608764
  0
LINE
  5
459
100
AcDbEntity
  8
ASSI
100
AcDbLine
 62
250
  6
CONTINUOUS
 10
2.1648225961
 20
24.594843391
 11
4.1089394195
 21
24.6991381714
  0
LINE
  5
45A
100
AcDbEntity
  8
ASSI
100
AcDbLine
 62
7
  6
CONTINUOUS
 10
2.0941214473
 20
24.6120406795
 11
4.0384533239
 21
24.7163471969
  0
LWPOLYLINE
  5
45B
100
AcDbEntity
  8
ASSI
100
AcDbPolyline
 62
250
  6
CONTINUOUS
 90
16
 70
0
 10
2.9561107113
 20
24.4132320016
 10
2.9189283517
 20
24.4113572494
 10
2.8852223114
 20
24.4081701261
 10
2.8549925905
 20
24.4036706318
 10
2.8283204471
 20
24.3978188632
 10
2.8051246231
 20
24.3906547236
 10
2.7851613438
 20
24.382297922
 10
2.768298994
 20
24.3728327959
 10
2.7546691889
 20
24.3621750077
 10
2.7444229995
 20
24.350191254
 10
2.7374273143
 20
24.3367834992
 10
2.7338152448
 20
24.3220497789
 10
2.7341371965
 20
24.3061508963
 10
2.7385766381
 20
24.2891404526
 10
2.746950101
 20
24.2709648466
 10
2.7592575852
 20
24.2516240783
  0
LWPOLYLINE
  5
45C
100
AcDbEntity
  8
ASSI
100
AcDbPolyline
 62
250
  6
CONTINUOUS
 90
10
 70
0
 10
5.7471920269
 20
24.1188687495
 10
5.7325079771
 20
24.1181488918
 10
5.717291958
 20
24.1164735687
 10
5.7015574024
 20
24.1137883483
 10
5.6854011027
 20
24.1100654723
 10
5.668767538
 20
24.105238516
 10
5.651439715
 20
24.0991513555
 10
5.6333615487
 20
24.0916690843
 10
5.6146480283
 20
24.0827306448
 10
5.5953434821
 20
24.0722483507
  0
LWPOLYLINE
  5
45D
100
AcDbEntity
  8
ASSI
100
AcDbPolyline
 62
250
  6
CONTINUOUS
 90
10
 70
0
 10
5.6657317315
 20
24.3743691461
 10
5.6453191768
 20
24.3733773483
 10
5.6241909097
 20
24.3709095588
 10
5.60234693
 20
24.3669657777
 10
5.5798663917
 20
24.3616855604
 10
5.5566701408
 20
24.3549293514
 10
5.5325207162
 20
24.3462784845
 10
5.5073389642
 20
24.335593404
 10
5.4812040384
 20
24.3230136655
 10
5.4541159389
 20
24.308539269
  0
LWPOLYLINE
  5
45E
100
AcDbEntity
  8
ASSI
100
AcDbPolyline
 62
7
  6
CONTINUOUS
 90
13
 70
0
 10
5.9274972237
 20
22.6735931362
 10
5.8985365224
 20
22.6727016018
 10
5.8595080183
 20
22.6732074031
 10
5.8163023177
 20
22.6755706731
 10
5.7696003533
 20
22.6798705041
 10
5.7202173654
 20
22.6860868901
 10
5.6685958059
 20
22.694203412
 10
5.6151362114
 20
22.7041928162
 10
5.5603787608
 20
22.7159806915
 10
5.504805997
 20
22.7294888975
 10
5.4488990228
 20
22.7446173665
 10
5.393072192
 20
22.7612735643
 10
5.3378988689
 20
22.7793096334
  0
LINE
  5
45F
100
AcDbEntity
  8
ASSI
100
AcDbLine
 62
250
  6
CONTINUOUS
 10
5.9565094938
 20
22.6553626694
 11
5.998785864
 21
22.6564295021
  0
LINE
  5
460
100
AcDbEntity
  8
ASSI
100
AcDbLine
 62
250
  6
CONTINUOUS
 10
7.6983447583
 20
22.2346836815
 11
5.9804104359
 21
22.191838396
  0
LINE
  5
461
100
AcDbEntity
  8
ASSI
100
AcDbLine
 62
250
  6
CONTINUOUS
 10
7.933619369
 20
22.490815903
 11
5.8968477926
 21
22.4400188158
  0
LINE
  5
462
100
AcDbEntity
  8
ASSI
100
AcDbLine
 62
250
  6
CONTINUOUS
 10
6.7618360864
 20
24.1434800123
 11
5.7471920269
 21
24.1188687495
  0
LINE
  5
463
100
AcDbEntity
  8
ASSI
100
AcDbLine
 62
250
  6
CONTINUOUS
 10
4.6191304876
 20
24.1960939998
 11
3.0375710068
 21
24.157731605
  0
LINE
  5
464
100
AcDbEntity
  8
ASSI
100
AcDbLine
 62
250
  6
CONTINUOUS
 10
6.9456968596
 20
24.4054160515
 11
5.6657317315
 21
24.3743691461
  0
LINE
  5
465
100
AcDbEntity
  8
ASSI
100
AcDbLine
 62
250
  6
CONTINUOUS
 10
4.5376701922
 20
24.4515943964
 11
2.9561107113
 21
24.4132320016
  0
LWPOLYLINE
  5
466
100
AcDbEntity
  8
ASSI
100
AcDbPolyline
 62
250
  6
CONTINUOUS
 90
5
 70
0
 10
5.9281549192
 20
22.6736307006
 10
5.9408958364
 20
22.6736562223
 10
5.9606446267
 20
22.6710555224
 10
5.9800453781
 20
22.6652823119
 10
5.998785864
 20
22.6564295021
  0
LWPOLYLINE
  5
467
100
AcDbEntity
  8
ASSI
100
AcDbPolyline
 62
250
  6
CONTINUOUS
 90
5
 70
0
 10
7.4343979117
 20
22.7555684252
 10
7.4469998143
 20
22.7555863355
 10
7.4667482465
 20
22.7529855082
 10
7.4861485744
 20
22.7472123096
 10
7.5048885962
 20
22.7383596779
  0
LWPOLYLINE
  5
468
100
AcDbEntity
  8
ASSI
100
AcDbPolyline
 62
250
  6
CONTINUOUS
 90
5
 70
0
 10
2.0943414819
 20
24.6120526838
 10
2.1085027238
 20
24.6119866622
 10
2.1277184392
 20
24.6092519672
 10
2.1465878435
 20
24.6035082874
 10
2.1648225961
 20
24.594843391
  0
LWPOLYLINE
  5
469
100
AcDbEntity
  8
ASSI
100
AcDbPolyline
 62
250
  6
CONTINUOUS
 90
6
 70
0
 10
2.9441188994
 20
24.1710046797
 10
2.9270617227
 20
24.1714618766
 10
2.9122760908
 20
24.1707538552
 10
2.8998266959
 20
24.1690171108
 10
2.8897169784
 20
24.1663046849
 10
2.8822986417
 20
24.1625538338
  0
LWPOLYLINE
  5
46A
100
AcDbEntity
  8
ASSI
100
AcDbPolyline
 62
250
  6
CONTINUOUS
 90
3
 70
0
 10
5.8678549197
 20
22.6581518234
 10
5.9128658457
 20
22.6559367765
 10
5.9565094938
 20
22.6553626694
  0
LWPOLYLINE
  5
46B
100
AcDbEntity
  8
ASSI
100
AcDbPolyline
 62
7
  6
CONTINUOUS
 90
10
 70
0
 10
10.0241367409
 20
21.9966662943
 10
10.0026230079
 20
21.9979123661
 10
9.9814924064
 20
21.997923265
 10
9.9607449365
 20
21.996698991
 10
9.9401433304
 20
21.9941900524
 10
9.9199248559
 20
21.9904459408
 10
9.9008013161
 20
21.9856151311
 10
9.8830099786
 20
21.9797471147
 10
9.8663135759
 20
21.9727924001
 10
9.8507121079
 20
21.9647509873
  0
LWPOLYLINE
  5
46C
100
AcDbEntity
  8
ASSI
100
AcDbPolyline
 62
250
  6
CONTINUOUS
 90
24
 70
0
 10
10.0218954141
 20
23.3977028319
 10
10.0497408139
 20
23.3945026894
 10
10.0777414938
 20
23.3928529853
 10
10.1061538098
 20
23.3927657115
 10
10.1347214058
 20
23.3942288761
 10
10.1626752141
 20
23.3972065035
 10
10.189993655
 20
23.4017379167
 10
10.2166983081
 20
23.4077837927
 10
10.2420848446
 20
23.4151901874
 10
10.2661262292
 20
23.4239961916
 10
10.2888494971
 20
23.4341627146
 10
10.3096314245
 20
23.4454185402
 10
10.3284178809
 20
23.4577966894
 10
10.3452629968
 20
23.4712641412
 10
10.3597059401
 20
23.4854506165
 10
10.3716755273
 20
23.5003724533
 10
10.381242942
 20
23.5160133137
 10
10.3881609029
 20
23.5319539051
 10
10.3923587555
 20
23.5482012409
 10
10.3939071544
 20
23.5647483077
 10
10.3927707819
 20
23.5811547727
 10
10.3889378655
 20
23.597273858
 10
10.3824201778
 20
23.6132523415
 10
10.3732177187
 20
23.6290902231
  0
LWPOLYLINE
  5
46D
100
AcDbEntity
  8
ASSI
100
AcDbPolyline
 62
250
  6
CONTINUOUS
 90
16
 70
0
 10
5.75419613
 20
22.0815591768
 10
5.7404330575
 20
22.0832220262
 10
5.7252992268
 20
22.0855621134
 10
5.7089547455
 20
22.0885546821
 10
5.6915722009
 20
22.0921681449
 10
5.6733357882
 20
22.096364223
 10
5.6544395038
 20
22.1010982476
 10
5.6350840678
 20
22.106319851
 10
5.6154735638
 20
22.1119738965
 10
5.5958142976
 20
22.1180008739
 10
5.5763064938
 20
22.1243396153
 10
5.5571644394
 20
22.130920708
 10
5.5386114127
 20
22.1376667656
 10
5.5208476466
 20
22.1445034818
 10
5.5040501164
 20
22.1513611827
 10
5.4883917518
 20
22.1581678566
  0
LWPOLYLINE
  5
46E
100
AcDbEntity
  8
ASSI
100
AcDbPolyline
 62
250
  6
CONTINUOUS
 90
13
 70
0
 10
5.4828111359
 20
21.2079293355
 10
5.4654014728
 20
21.2101124522
 10
5.4459145407
 20
21.2133430052
 10
5.4246718073
 20
21.217567702
 10
5.4020237055
 20
21.2227168499
 10
5.3783438534
 20
21.2287055058
 10
5.3540228907
 20
21.235434877
 10
5.3294620326
 20
21.2427939516
 10
5.3050664528
 20
21.2506613293
 10
5.2812386006
 20
21.2589072239
 10
5.2583715584
 20
21.2673956051
 10
5.2368425578
 20
21.2759864424
 10
5.2170067577
 20
21.2845380153
  0
LWPOLYLINE
  5
46F
100
AcDbEntity
  8
ASSI
100
AcDbPolyline
 62
250
  6
CONTINUOUS
 90
4
 70
0
 10
5.3098579453
 20
22.7891022139
 10
5.3092446336
 20
22.7891885944
 10
5.306321093
 20
22.7876587592
 10
5.3024128037
 20
22.7832381284
  0
LWPOLYLINE
  5
470
100
AcDbEntity
  8
ASSI
100
AcDbPolyline
 62
250
  6
CONTINUOUS
 90
24
 70
0
 10
9.9277246296
 20
23.1302490349
 10
9.9681553917
 20
23.1231144424
 10
10.0094855038
 20
23.1179774292
 10
10.0514194835
 20
23.1148747226
 10
10.093657531
 20
23.1138285058
 10
10.1358976718
 20
23.1148462598
 10
10.1778379144
 20
23.1179207091
 10
10.2191784187
 20
23.123029875
 10
10.2596236212
 20
23.1301372309
 10
10.2988843475
 20
23.1391919601
 10
10.3366798995
 20
23.1501293219
 10
10.372740077
 20
23.1628711222
 10
10.4068070903
 20
23.1773262708
 10
10.4386373832
 20
23.1933914243
 10
10.4680033874
 20
23.2109517277
 10
10.4946951622
 20
23.2298816429
 10
10.5185218854
 20
23.250045845
 10
10.5393131939
 20
23.2713001657
 10
10.5569204209
 20
23.2934926263
 10
10.5712176868
 20
23.3164645526
 10
10.5821027907
 20
23.3400517189
 10
10.5894979195
 20
23.364085497
 10
10.5933502049
 20
23.388394029
 10
10.5939493014
 20
23.4025221902
  0
LWPOLYLINE
  5
471
100
AcDbEntity
  8
ASSI
100
AcDbPolyline
 62
250
  6
CONTINUOUS
 90
27
 70
0
 10
8.0247387123
 20
22.2981899961
 10
8.017234124
 20
22.299622635
 10
8.0097685346
 20
22.3008460292
 10
8.0023453191
 20
22.3018599317
 10
7.9950169793
 20
22.3026569254
 10
7.9877362999
 20
22.303244147
 10
7.9803561003
 20
22.3036432775
 10
7.9728427092
 20
22.3038649401
 10
7.9652318434
 20
22.3038984544
 10
7.9574796168
 20
22.3037335796
 10
7.9495867521
 20
22.3033729355
 10
7.9415522291
 20
22.3028139085
 10
7.9333288552
 20
22.3020384251
 10
7.9249095072
 20
22.3010465596
 10
7.9162980631
 20
22.2998383446
 10
7.9074628033
 20
22.2983956991
 10
7.8983943499
 20
22.2967152991
 10
7.8890950903
 20
22.2948009259
 10
7.8795497232
 20
22.2926453113
 10
7.869751756
 20
22.2902439967
 10
7.8596966752
 20
22.2876027684
 10
7.8493712743
 20
22.2847300164
 10
7.8387725893
 20
22.2816228466
 10
7.8278893546
 20
22.2782870369
 10
7.8166959741
 20
22.2747443562
 10
7.8051943963
 20
22.2709963401
 10
7.7811593117
 20
22.2629197703
  0
LWPOLYLINE
  5
472
100
AcDbEntity
  8
ASSI
100
AcDbPolyline
 62
250
  6
CONTINUOUS
 90
5
 70
0
 10
3.0375710068
 20
24.157731605
 10
3.0104319223
 20
24.1630417471
 10
2.9857861352
 20
24.1669225626
 10
2.9636552893
 20
24.1695085707
 10
2.9441188994
 20
24.1710046797
  0
LWPOLYLINE
  5
473
100
AcDbEntity
  8
ASSI
100
AcDbPolyline
 62
250
  6
CONTINUOUS
 90
21
 70
0
 10
8.0399682814
 20
22.1513969672
 10
8.0364728833
 20
22.1521242529
 10
8.0330016957
 20
22.1525823922
 10
8.0295787506
 20
22.1527892951
 10
8.0261884915
 20
22.1527467818
 10
8.0227659442
 20
22.1524371069
 10
8.0192791833
 20
22.1518761763
 10
8.0157443132
 20
22.1510603949
 10
8.0121537897
 20
22.1499409378
 10
8.0084886476
 20
22.1485345658
 10
8.0047395356
 20
22.1468410334
 10
8.0009001359
 20
22.1447896699
 10
7.9969380264
 20
22.1423995833
 10
7.9928371357
 20
22.1396754529
 10
7.9885976281
 20
22.1365317875
 10
7.9841731921
 20
22.1329907316
 10
7.9795343076
 20
22.1290664514
 10
7.9746830791
 20
22.1246713785
 10
7.9695567195
 20
22.1198334526
 10
7.9641065908
 20
22.1145784334
 10
7.9521306716
 20
22.1026143209
  0
LINE
  5
474
100
AcDbEntity
  8
ASSI
100
AcDbLine
 62
250
  6
CONTINUOUS
 10
5.259541587
 20
22.7949160032
 11
5.3024128035
 21
22.7832381285
  0
LWPOLYLINE
  5
475
100
AcDbEntity
  8
ASSI
100
AcDbPolyline
 62
250
  6
CONTINUOUS
 90
3
 70
0
 10
5.1368614796
 20
22.8279357162
 10
5.1767805023
 20
22.8167021749
 10
5.259541587
 20
22.7949160032
  0
LINE
  5
476
100
AcDbEntity
  8
ASSI
100
AcDbLine
 62
250
  6
CONTINUOUS
 10
8.0434835974
 20
22.1503909628
 11
8.0399682814
 21
22.1513969672
  0
LWPOLYLINE
  5
477
100
AcDbEntity
  8
ASSI
100
AcDbPolyline
 62
250
  6
CONTINUOUS
 90
11
 70
0
 10
5.3918901391
 20
22.7532568787
 10
5.4376782638
 20
22.7394390813
 10
5.4842579129
 20
22.7263405495
 10
5.5315371999
 20
22.7140239026
 10
5.5792404654
 20
22.7026769988
 10
5.6274964664
 20
22.6922581635
 10
5.6761764459
 20
22.6828090712
 10
5.724618474
 20
22.6746426029
 10
5.7729783495
 20
22.6677436138
 10
5.8211002735
 20
22.6621272487
 10
5.8678549197
 20
22.6581518234
  0
LINE
  5
478
100
AcDbEntity
  8
LAY0001
100
AcDbLine
 62
7
  6
CONTINUOUS
 10
-1.7747251048
 20
23.7316551021
 11
-2.2766980421
 21
23.8940167233
  0
LINE
  5
479
100
AcDbEntity
  8
ASSI
100
AcDbLine
 62
250
  6
CONTINUOUS
 10
5.3468016523
 20
22.7678565611
 11
5.3918901391
 21
22.7532568787
  0
LWPOLYLINE
  5
47A
100
AcDbEntity
  8
ASSI
100
AcDbPolyline
 62
250
  6
CONTINUOUS
 90
3
 70
0
 10
5.0622380588
 20
22.8522370051
 10
5.0982990295
 20
22.8398224603
 10
5.1368614796
 20
22.8279357162
  0
LINE
  5
47B
100
AcDbEntity
  8
ASSI
100
AcDbLine
 62
250
  6
CONTINUOUS
 10
5.3024128035
 20
22.7832381285
 11
5.3468016523
 21
22.7678565611
  0
LINE
  5
47C
100
AcDbEntity
  8
ASSI
100
AcDbLine
 62
7
  6
CONTINUOUS
 10
5.3378988689
 20
22.7793096334
 11
5.2434410472
 21
22.8123964828
  0
LWPOLYLINE
  5
47D
100
AcDbEntity
  8
ASSI
100
AcDbPolyline
 62
7
  6
CONTINUOUS
 90
8
 70
0
 10
5.2434410472
 20
22.8123964828
 10
5.2087117597
 20
22.8246995461
 10
5.1760063998
 20
22.8367951179
 10
5.1454413625
 20
22.848809255
 10
5.1169390436
 20
22.8609054801
 10
5.0908654101
 20
22.8730112531
 10
5.0672922803
 20
22.8850253034
 10
5.0505134949
 20
22.8943398607
  0
LWPOLYLINE
  5
47E
100
AcDbEntity
  8
ASSI
100
AcDbPolyline
 62
250
  6
CONTINUOUS
 90
8
 70
0
 10
-2.21561028
 20
25.4267806147
 10
-2.2268948619
 20
25.4310316148
 10
-2.2390828984
 20
25.4333563953
 10
-2.2520438008
 20
25.4337300344
 10
-2.2656386822
 20
25.4321485226
 10
-2.2797218739
 20
25.4286288062
 10
-2.29414249
 20
25.4232085955
 10
-2.3087460219
 20
25.415945964
  0
LWPOLYLINE
  5
47F
100
AcDbEntity
  8
RACCORDO
100
AcDbPolyline
 62
250
  6
CONTINUOUS
 90
7
 70
0
 10
11.1745637808
 20
20.7809818628
 10
11.1651677202
 20
20.7851460113
 10
11.1538432598
 20
20.7875524587
 10
11.1416133608
 20
20.787673709
 10
11.1286826592
 20
20.7855077377
 10
11.1152675007
 20
20.7810908006
 10
11.1015923393
 20
20.7744968168
  0
LWPOLYLINE
  5
480
100
AcDbEntity
  8
RACCORDO
100
AcDbPolyline
 62
250
  6
CONTINUOUS
 90
7
 70
0
 10
3.6123144732
 20
25.1473303171
 10
3.6027880947
 20
25.1515691807
 10
3.591464312
 20
25.1539752003
 10
3.5792355081
 20
25.1540958008
 10
3.5663063109
 20
25.1519289683
 10
3.5528930727
 20
25.1475109558
 10
3.5392202456
 20
25.140915685
  0
LWPOLYLINE
  5
481
100
AcDbEntity
  8
RACCORDO
100
AcDbPolyline
 62
250
  6
CONTINUOUS
 90
7
 70
0
 10
2.7933251969
 20
25.6202045076
 10
2.7837438283
 20
25.6244751159
 10
2.7724197591
 20
25.6268813359
 10
2.7601904816
 20
25.6270022295
 10
2.7472606247
 20
25.6248357739
 10
2.7338465396
 20
25.6204182196
 10
2.7201726801
 20
25.6138234842
  0
LWPOLYLINE
  5
482
100
AcDbEntity
  8
ASSI
100
AcDbPolyline
 62
250
  6
CONTINUOUS
 90
7
 70
0
 10
5.0504304315
 20
22.8943879003
 10
5.0432294398
 20
22.8979857969
 10
5.0304110134
 20
22.9020354558
 10
5.0165421333
 20
22.9037099995
 10
5.0018049352
 20
22.9029874289
 10
4.9863929651
 20
22.8998772257
 10
4.9705086292
 20
22.8944202293
  0
LWPOLYLINE
  5
483
100
AcDbEntity
  8
ASSI
100
AcDbPolyline
 62
250
  6
CONTINUOUS
 90
7
 70
0
 10
2.9726616137
 20
24.0940655751
 10
2.9654605081
 20
24.0976635211
 10
2.9526420495
 20
24.1017131707
 10
2.9387731404
 20
24.1033877098
 10
2.9240359219
 20
24.1026651466
 10
2.9086239386
 20
24.0995549707
 10
2.8927395969
 20
24.094098028
  0
LWPOLYLINE
  5
484
100
AcDbEntity
  8
ASSI
100
AcDbPolyline
 62
250
  6
CONTINUOUS
 90
4
 70
0
 10
4.9705082552
 20
22.8944204453
 10
4.9985022315
 20
22.8793196864
 10
5.0290833221
 20
22.8652933322
 10
5.0622380588
 20
22.8522370051
  0
LWPOLYLINE
  5
485
100
AcDbEntity
  8
RACCORDO
100
AcDbPolyline
 62
250
  6
CONTINUOUS
 90
3
 70
0
 10
3.5625643916
 20
25.1278396089
 10
3.5547009637
 20
25.1321223759
 10
3.5469195817
 20
25.1364810679
  0
LWPOLYLINE
  5
486
100
AcDbEntity
  8
RACCORDO
100
AcDbPolyline
 62
7
  6
CONTINUOUS
 90
13
 70
0
 10
2.7933392667
 20
25.6201963808
 10
2.7385519054
 20
25.6500873583
 10
2.6701881889
 20
25.6825347912
 10
2.602057511
 20
25.7094993602
 10
2.5343036401
 20
25.730890414
 10
2.4672604812
 20
25.7465842886
 10
2.4014680945
 20
25.7564891375
 10
2.3370791614
 20
25.7606295911
 10
2.2743665485
 20
25.7590365189
 10
2.2140565999
 20
25.7518391756
 10
2.1565392789
 20
25.7392954835
 10
2.1018747753
 20
25.7216574563
 10
2.0769015107
 20
25.711544668
  0
LINE
  5
487
100
AcDbEntity
  8
ASSI
100
AcDbLine
 62
7
  6
CONTINUOUS
 10
8.6479285792
 20
20.1791884762
 11
7.8276594224
 21
20.6528016069
  0
LINE
  5
488
100
AcDbEntity
  8
ASSI
100
AcDbLine
 62
250
  6
CONTINUOUS
 10
1.751837558
 20
24.315607418
 11
5.4883917518
 21
22.1581678566
  0
LINE
  5
489
100
AcDbEntity
  8
ASSI
100
AcDbLine
 62
250
  6
CONTINUOUS
 10
1.8743120451
 20
24.4679696796
 11
5.6108662389
 21
22.3105301181
  0
LINE
  5
48A
100
AcDbEntity
  8
ASSI
100
AcDbLine
 62
250
  6
CONTINUOUS
 10
8.1555872687
 20
20.9988213002
 11
8.2731493399
 21
20.9309424337
  0
LINE
  5
48B
100
AcDbEntity
  8
ASSI
100
AcDbLine
 62
250
  6
CONTINUOUS
 10
5.7472616649
 20
22.3920921258
 11
2.0155724851
 21
24.5467226891
  0
LINE
  5
48C
100
AcDbEntity
  8
ASSI
100
AcDbLine
 62
250
  6
CONTINUOUS
 10
2.8927395969
 20
24.094098028
 11
4.9705082552
 21
22.8944204453
  0
LINE
  5
48D
100
AcDbEntity
  8
ASSI
100
AcDbLine
 62
7
  6
CONTINUOUS
 10
2.9726616137
 20
24.0940655751
 11
5.0504304315
 21
22.8943879003
  0
LINE
  5
48E
100
AcDbEntity
  8
ASSI
100
AcDbLine
 62
250
  6
CONTINUOUS
 10
5.8968477926
 20
22.4400188158
 11
5.3024128035
 21
22.7832381285
  0
LINE
  5
48F
100
AcDbEntity
  8
ASSI
100
AcDbLine
 62
250
  6
CONTINUOUS
 10
2.7592575852
 20
24.2516240783
 11
2.1648225961
 21
24.594843391
  0
LINE
  5
490
100
AcDbEntity
  8
ASSI
100
AcDbLine
 62
7
  6
CONTINUOUS
 10
1.8998636547
 20
25.1627170392
 11
2.7890353008
 21
24.6493204747
  0
LINE
  5
491
100
AcDbEntity
  8
ASSI
100
AcDbLine
 62
7
  6
CONTINUOUS
 10
8.6428386627
 20
21.2694077789
 11
11.1109011192
 21
19.8443794486
  0
LINE
  5
492
100
AcDbEntity
  8
ASSI
100
AcDbLine
 62
250
  6
CONTINUOUS
 10
7.933619369
 20
22.490815903
 11
7.5048885962
 21
22.7383596779
  0
LINE
  5
493
100
AcDbEntity
  8
ASSI
100
AcDbLine
 62
250
  6
CONTINUOUS
 10
4.5376701922
 20
24.4515943964
 11
4.1089394195
 21
24.6991381714
  0
LINE
  5
494
100
AcDbEntity
  8
RACCORDO
100
AcDbLine
 62
250
  6
CONTINUOUS
 10
2.7201726801
 20
25.6138234842
 11
3.5469195817
 21
25.1364810679
  0
LINE
  5
495
100
AcDbEntity
  8
RACCORDO
100
AcDbLine
 62
7
  6
CONTINUOUS
 10
2.7933251969
 20
25.6202045076
 11
3.6123695296
 21
25.1472985749
  0
LINE
  5
496
100
AcDbEntity
  8
RACCORDO
100
AcDbLine
 62
7
  6
CONTINUOUS
 10
11.9937924214
 20
20.3079700411
 11
11.1747491932
 21
20.780875336
  0
LINE
  5
497
100
AcDbEntity
  8
ASSI
100
AcDbLine
 62
250
  6
CONTINUOUS
 10
7.7338911036
 20
22.8374777564
 11
5.5953434821
 21
24.0722483507
  0
LINE
  5
498
100
AcDbEntity
  8
ASSI
100
AcDbLine
 62
250
  6
CONTINUOUS
 10
7.8517841281
 20
22.903703647
 11
5.7471920269
 21
24.1188687495
  0
LINE
  5
499
100
AcDbEntity
  8
ASSI
100
AcDbLine
 62
250
  6
CONTINUOUS
 10
8.3828257744
 20
22.6343372906
 11
7.9472404926
 21
22.8858387732
  0
LINE
  5
49A
100
AcDbEntity
  8
ASSI
100
AcDbLine
 62
250
  6
CONTINUOUS
 10
4.991827012
 20
24.5922574769
 11
4.5562417302
 21
24.8437589594
  0
LINE
  5
49B
100
AcDbEntity
  8
ASSI
100
AcDbLine
 62
7
  6
CONTINUOUS
 10
8.3850347367
 20
23.2062654551
 11
6.7618360864
 21
24.1434800123
  0
LINE
  5
49C
100
AcDbEntity
  8
RACCORDO
100
AcDbLine
 62
250
  6
CONTINUOUS
 10
11.9206399049
 20
20.3015890175
 11
11.0939029365
 21
20.7789478637
  0
LWPOLYLINE
  5
49D
100
AcDbEntity
  8
RACCORDO
100
AcDbPolyline
 62
7
  6
CONTINUOUS
 90
6
 70
0
 10
11.1745640297
 20
20.7809822951
 10
11.1701273628
 20
20.7835878343
 10
11.1600490974
 20
20.7898981383
 10
11.1524585022
 20
20.7951643503
 10
11.1470891401
 20
20.7993352822
 10
11.143862766
 20
20.8021731999
  0
LWPOLYLINE
  5
49E
100
AcDbEntity
  8
ASSI
100
AcDbPolyline
 62
7
  6
CONTINUOUS
 90
10
 70
0
 10
2.9727000247
 20
24.09404338
 10
2.9612587987
 20
24.1008384695
 10
2.9372753344
 20
24.1164423036
 10
2.9174853222
 20
24.131008754
 10
2.9013668466
 20
24.1443622407
 10
2.8880572884
 20
24.1566509796
 10
2.8772384113
 20
24.1677407821
 10
2.8688494457
 20
24.1772449718
 10
2.8626385752
 20
24.1849426541
 10
2.8604164094
 20
24.1878756648
  0
LWPOLYLINE
  5
49F
100
AcDbEntity
  8
RACCORDO
100
AcDbPolyline
 62
250
  6
CONTINUOUS
 90
48
 70
0
 10
11.0939029365
 20
20.7789478637
 10
11.0863556338
 20
20.7834396629
 10
11.0789504314
 20
20.7879722143
 10
11.0717028527
 20
20.7925189042
 10
11.0645973742
 20
20.7971063464
 10
11.057587426
 20
20.8018143817
 10
11.0506618133
 20
20.8066446895
 10
11.0438317309
 20
20.8115955904
 10
11.0370841934
 20
20.8167418877
 10
11.0303877935
 20
20.8221034391
 10
11.0237739386
 20
20.8276603869
 10
11.0173238651
 20
20.8334279614
 10
11.011018109
 20
20.8394332541
 10
11.0048761343
 20
20.8456491734
 10
10.9990375701
 20
20.8520096758
 10
10.9935131093
 20
20.8585302072
 10
10.9882920589
 20
20.8651953216
 10
10.9834819688
 20
20.8718926376
 10
10.9791174264
 20
20.878595483
 10
10.9751638443
 20
20.8853305299
 10
10.9716250103
 20
20.8920654135
 10
10.9685051705
 20
20.8987974642
 10
10.9658000788
 20
20.9055293515
 10
10.9635007849
 20
20.9122367189
 10
10.961608575
 20
20.9189194114
 10
10.960122163
 20
20.9255775841
 10
10.9590287404
 20
20.9321873457
 10
10.9583284919
 20
20.9387454767
 10
10.9580212328
 20
20.9452551967
 10
10.9580936002
 20
20.9517022728
 10
10.9585423665
 20
20.9580831192
 10
10.9593707593
 20
20.9644013219
 10
10.9605750988
 20
20.9706534055
 10
10.9621494087
 20
20.9768387208
 10
10.9640996653
 20
20.9829579172
 10
10.9664401177
 20
20.989009468
 10
10.9691672234
 20
20.9949993655
 10
10.9722845249
 20
21.0009216174
 10
10.9758168993
 20
21.0067567201
 10
10.9797628171
 20
21.0125091784
 10
10.9841238078
 20
21.0181744875
 10
10.9889293373
 20
21.023719629
 10
10.9941867916
 20
21.0291511976
 10
10.9998887846
 20
21.0344625986
 10
11.0060426237
 20
21.0396010297
 10
11.0126507448
 20
21.0445488902
 10
11.0197107119
 20
21.0493237808
 10
11.0272225252
 20
21.0539257015
  0
LINE
  5
4A0
100
AcDbEntity
  8
RACCORDO
100
AcDbLine
 62
250
  6
CONTINUOUS
 10
11.9687197407
 20
20.2725060023
 11
11.9206399049
 21
20.3015890175
  0
LINE
  5
4A1
100
AcDbEntity
  8
ASSI
100
AcDbLine
 62
250
  6
CONTINUOUS
 10
2.8652848398
 20
24.1115327644
 11
2.8927395969
 21
24.094098028
  0
LINE
  5
4A2
100
AcDbEntity
  8
RACCORDO
100
AcDbLine
 62
250
  6
CONTINUOUS
 10
12.0186126013
 20
20.2394739041
 11
11.9687197407
 21
20.2725060023
  0
LWPOLYLINE
  5
4A3
100
AcDbEntity
  8
ASSI
100
AcDbPolyline
 62
250
  6
CONTINUOUS
 90
10
 70
0
 10
8.1279535707
 20
22.2530496935
 10
8.1177329641
 20
22.2606859393
 10
8.106981544
 20
22.2677074052
 10
8.0957759014
 20
22.2740680803
 10
8.0840832601
 20
22.2796917513
 10
8.0720654163
 20
22.2846038942
 10
8.0600661478
 20
22.2889153296
 10
8.0482135932
 20
22.2926471014
 10
8.036432384
 20
22.2957432302
 10
8.0247393297
 20
22.2981937958
  0
LWPOLYLINE
  5
4A4
100
AcDbEntity
  8
RACCORDO
100
AcDbPolyline
 62
250
  6
CONTINUOUS
 90
5
 70
0
 10
10.5567874905
 20
26.8881806987
 10
10.5643978221
 20
26.8778243798
 10
10.5717133536
 20
26.8667425419
 10
10.5786672322
 20
26.854977883
 10
10.5852090929
 20
26.8425471684
  0
LWPOLYLINE
  5
4A5
100
AcDbEntity
  8
ASSI
100
AcDbPolyline
 62
250
  6
CONTINUOUS
 90
12
 70
0
 10
10.5386327415
 20
23.5782142063
 10
10.5344537723
 20
23.5839735301
 10
10.5238399992
 20
23.5959035844
 10
10.511575979
 20
23.6064081521
 10
10.4977960809
 20
23.6153721404
 10
10.4826512804
 20
23.6226973379
 10
10.4663075076
 20
23.628303488
 10
10.4489438275
 20
23.6321291691
 10
10.4307504769
 20
23.6341324664
 10
10.4119267845
 20
23.6342914302
 10
10.3926789871
 20
23.6326043181
 10
10.3732179674
 20
23.6290896133
  0
LWPOLYLINE
  5
4A6
100
AcDbEntity
  8
RACCORDO
100
AcDbPolyline
 62
250
  6
CONTINUOUS
 90
7
 70
0
 10
15.4763126737
 20
23.3889972567
 10
15.4708343254
 20
23.3996001173
 10
15.4648826253
 20
23.4103522414
 10
15.4584594824
 20
23.421191717
 10
15.4515938193
 20
23.4320228969
 10
15.4442758875
 20
23.4428181307
 10
15.436517551
 20
23.4535173138
  0
LWPOLYLINE
  5
4A7
100
AcDbEntity
  8
RACCORDO
100
AcDbPolyline
 62
250
  6
CONTINUOUS
 90
4
 70
0
 10
13.681901521
 20
25.040148602
 10
13.6769330067
 20
25.0519483593
 10
13.6712537297
 20
25.0637338268
 10
13.6648508411
 20
25.0754386745
  0
LINE
  5
4A8
100
AcDbEntity
  8
LAY0001
100
AcDbLine
 62
250
  6
CONTINUOUS
 10
6.1519387753
 20
-25.496002517
 11
8.5559920524
 21
-24.2496069702
  0
LINE
  5
4A9
100
AcDbEntity
  8
LAY0001
100
AcDbLine
 62
7
  6
CONTINUOUS
 10
6.0378981549
 20
-25.7304801099
 11
8.445876165
 21
-24.4820497622
  0
LWPOLYLINE
  5
4AA
100
AcDbEntity
  8
LAY0001
100
AcDbPolyline
 62
250
  6
CONTINUOUS
 90
16
 70
0
 10
6.1519387753
 20
-25.496002517
 10
6.1127118024
 20
-25.5153748852
 10
6.0702348339
 20
-25.5323088532
 10
6.0249606104
 20
-25.546623965
 10
5.9773662167
 20
-25.5581688152
 10
5.9279639743
 20
-25.5668186012
 10
5.8772977746
 20
-25.5724797448
 10
5.8259194961
 20
-25.57509478
 10
5.7743655361
 20
-25.5746405411
 10
5.7231683111
 20
-25.5711234293
 10
5.6728032734
 20
-25.5645699872
 10
5.6238786611
 20
-25.5550531265
 10
5.5770921193
 20
-25.5427275141
 10
5.5329683534
 20
-25.5277769002
 10
5.4918767555
 20
-25.5103742582
 10
5.4542080969
 20
-25.4907287783
  0
LWPOLYLINE
  5
4AB
100
AcDbEntity
  8
RACCORDO
100
AcDbPolyline
 62
250
  6
CONTINUOUS
 90
11
 70
0
 10
2.1524082282
 20
25.7349436637
 10
2.1974752386
 20
25.7433028181
 10
2.2440134145
 20
25.7478685387
 10
2.2923219667
 20
25.7486364611
 10
2.3436492811
 20
25.7453849698
 10
2.3981630265
 20
25.7376696495
 10
2.4555840294
 20
25.7250968462
 10
2.5165835519
 20
25.7070285331
 10
2.5812918237
 20
25.6827925979
 10
2.6492465598
 20
25.6518983545
 10
2.7201726843
 20
25.6138234865
  0
LINE
  5
4AC
100
AcDbEntity
  8
ASSI
100
AcDbLine
 62
250
  6
CONTINUOUS
 10
9.0047837082
 20
26.9383610804
 11
8.9873030951
 21
26.9352025681
  0
LWPOLYLINE
  5
4AD
100
AcDbEntity
  8
ASSI
100
AcDbPolyline
 62
250
  6
CONTINUOUS
 90
5
 70
0
 10
6.5423093683
 20
25.9867615948
 10
6.5050642215
 20
25.9813551084
 10
6.4670401555
 20
25.9781117542
 10
6.4282708622
 20
25.9769388215
 10
6.3899708869
 20
25.977839394
  0
LWPOLYLINE
  5
4AE
100
AcDbEntity
  8
ASSI
100
AcDbPolyline
 62
7
  6
CONTINUOUS
 90
6
 70
0
 10
9.0826578689
 20
26.9520341744
 10
9.0722362513
 20
26.9509844195
 10
9.0466991952
 20
26.9476592715
 10
9.0216337274
 20
26.9432691169
 10
8.9970287079
 20
26.9377485863
 10
8.9872417804
 20
26.9351858065
  0
LWPOLYLINE
  5
4AF
100
AcDbEntity
  8
ASSI
100
AcDbPolyline
 62
250
  6
CONTINUOUS
 90
12
 70
0
 10
9.137670328
 20
26.9317470884
 10
9.132416584
 20
26.9312298862
 10
9.1272232382
 20
26.9306551233
 10
9.1220902906
 20
26.9300227997
 10
9.117039769
 20
26.9293381812
 10
9.1120496457
 20
26.9285960019
 10
9.1070538366
 20
26.927780464
 10
9.1020393386
 20
26.9268932126
 10
9.0970191549
 20
26.9259326026
 10
9.0919662114
 20
26.9248779001
 10
9.0868714833
 20
26.9237221941
 10
9.0817439954
 20
26.9224723957
  0
LINE
  5
4B0
100
AcDbEntity
  8
RACCORDO
100
AcDbLine
 62
250
  6
CONTINUOUS
 10
10.3232344589
 20
27.0415210204
 11
9.137670328
 21
26.9317470884
  0
LINE
  5
4B1
100
AcDbEntity
  8
ASSI
100
AcDbLine
 62
7
  6
CONTINUOUS
 10
10.2645133866
 20
27.0614647255
 11
9.0826282344
 21
26.952031438
  0
LWPOLYLINE
  5
4B2
100
AcDbEntity
  8
RACCORDO
100
AcDbPolyline
 62
250
  6
CONTINUOUS
 90
8
 70
0
 10
3.8934708925
 20
25.0582441432
 10
3.8825434941
 20
25.0574600009
 10
3.8715036088
 20
25.0568870141
 10
3.8603524163
 20
25.0565281982
 10
3.8491001388
 20
25.0563855942
 10
3.8377440854
 20
25.0564573342
 10
3.8262869471
 20
25.0567452861
 10
3.8147470186
 20
25.0572570938
  0
LINE
  5
4B3
100
AcDbEntity
  8
RACCORDO
100
AcDbLine
 62
250
  6
CONTINUOUS
 10
10.2645094317
 20
27.0614643593
 11
10.2688744532
 21
27.061717683
  0
LWPOLYLINE
  5
4B4
100
AcDbEntity
  8
ASSI
100
AcDbPolyline
 62
250
  6
CONTINUOUS
 90
6
 70
0
 10
4.0385937313
 20
24.7163546477
 10
4.0480554849
 20
24.7164822517
 10
4.0636376692
 20
24.7150871606
 10
4.0790800532
 20
24.7117064713
 10
4.0942268163
 20
24.7063725803
 10
4.108926049
 20
24.6991374541
  0
LINE
  5
4B5
100
AcDbEntity
  8
RACCORDO
100
AcDbLine
 62
250
  6
CONTINUOUS
 10
10.2688744532
 20
27.061717683
 11
10.2770748593
 21
27.0614001472
  0
LWPOLYLINE
  5
4B6
100
AcDbEntity
  8
RACCORDO
100
AcDbPolyline
 62
250
  6
CONTINUOUS
 90
10
 70
0
 10
3.8147470186
 20
25.0572570938
 10
3.8031147741
 20
25.0579930303
 10
3.7913997396
 20
25.0589528226
 10
3.7796487874
 20
25.0601432966
 10
3.7678642523
 20
25.0615649385
 10
3.7560437995
 20
25.0632172619
 10
3.7442272969
 20
25.0651056342
 10
3.7324077291
 20
25.0672329337
 10
3.7205921116
 20
25.069596282
 10
3.7088413586
 20
25.072192411
  0
LWPOLYLINE
  5
4B7
100
AcDbEntity
  8
ASSI
100
AcDbPolyline
 62
250
  6
CONTINUOUS
 90
23
 70
0
 10
6.2240823933
 20
26.002054411
 10
6.1961989972
 20
26.004269485
 10
6.167809418
 20
26.0049314145
 10
6.1391705815
 20
26.0040469983
 10
6.1110532649
 20
26.0016366331
 10
6.0834766465
 20
25.9976605828
 10
6.0564215481
 20
25.9921585834
 10
6.0306012118
 20
25.9852702394
 10
6.0060402877
 20
25.9769559381
 10
5.9827141258
 20
25.967255292
 10
5.9612620182
 20
25.9564267435
 10
5.9417360571
 20
25.9444361969
 10
5.9240841504
 20
25.9313177477
 10
5.9087893141
 20
25.9174321252
 10
5.8959216965
 20
25.9027615607
 10
5.8854111494
 20
25.8873238228
 10
5.8775302444
 20
25.8715329467
 10
5.8723491681
 20
25.8553804948
 10
5.8697977339
 20
25.8388749048
 10
5.8699379541
 20
25.8224555246
 10
5.8727904993
 20
25.8062688035
 10
5.878334699
 20
25.7901682921
 10
5.886570553
 20
25.7741539905
  0
LWPOLYLINE
  5
4B8
100
AcDbEntity
  8
ASSI
100
AcDbPolyline
 62
250
  6
CONTINUOUS
 90
3
 70
0
 10
6.3899708869
 20
25.977839394
 10
6.3525450778
 20
25.9808144995
 10
6.3155885866
 20
25.9858631102
  0
LINE
  5
4B9
100
AcDbEntity
  8
ASSI
100
AcDbLine
 62
250
  6
CONTINUOUS
 10
6.251716532
 20
25.9982929913
 11
6.2240823933
 21
26.002054411
  0
LWPOLYLINE
  5
4BA
100
AcDbEntity
  8
ASSI
100
AcDbPolyline
 62
250
  6
CONTINUOUS
 90
8
 70
0
 10
6.3232851905
 20
26.0247487817
 10
6.322034157
 20
26.0249855172
 10
6.3156208231
 20
26.0248579582
 10
6.3088072747
 20
26.0225921247
 10
6.3016681624
 20
26.0182128416
 10
6.2942817035
 20
26.0117680887
 10
6.2867288259
 20
26.0033284759
 10
6.2790922803
 20
25.9929864691
  0
LINE
  5
4BB
100
AcDbEntity
  8
ASSI
100
AcDbLine
 62
250
  6
CONTINUOUS
 10
6.3155885866
 20
25.9858631102
 11
6.251716532
 21
25.9982929913
  0
LWPOLYLINE
  5
4BC
100
AcDbEntity
  8
ASSI
100
AcDbPolyline
 62
250
  6
CONTINUOUS
 90
5
 70
0
 10
7.4382314819
 20
26.4847955569
 10
7.4218809575
 20
26.488436172
 10
7.4062990208
 20
26.4892940524
 10
7.3917235235
 20
26.4873561031
 10
7.3783769544
 20
26.4826519059
  0
LWPOLYLINE
  5
4BD
100
AcDbEntity
  8
RACCORDO
100
AcDbPolyline
 62
250
  6
CONTINUOUS
 90
16
 70
0
 10
3.7088413586
 20
25.072192411
 10
3.6971068845
 20
25.0750425402
 10
3.6854372749
 20
25.07812545
 10
3.6740392007
 20
25.0813742138
 10
3.6629496716
 20
25.0847914288
 10
3.6521316779
 20
25.0883744976
 10
3.6416808606
 20
25.0920487019
 10
3.6316376553
 20
25.0958043755
 10
3.6219616264
 20
25.0996511845
 10
3.612627108
 20
25.1035434093
 10
3.6036691005
 20
25.1074628264
 10
3.5950526035
 20
25.1114276593
 10
3.5866469507
 20
25.1154468589
 10
3.5784515195
 20
25.1195162227
 10
3.5704669326
 20
25.1236399533
 10
3.5625643916
 20
25.1278396089
  0
LWPOLYLINE
  5
4BE
100
AcDbEntity
  8
ASSI
100
AcDbPolyline
 62
250
  6
CONTINUOUS
 90
6
 70
0
 10
7.5640680101
 20
26.5081640669
 10
7.5462722329
 20
26.5168345222
 10
7.5281899787
 20
26.5226483325
 10
7.5100966883
 20
26.525516938
 10
7.4922679706
 20
26.5253966423
 10
7.4747877681
 20
26.5222382421
  0
LINE
  5
4BF
100
AcDbEntity
  8
ASSI
100
AcDbLine
 62
250
  6
CONTINUOUS
 10
10.7951701706
 20
24.5495016651
 11
10.8130173998
 21
24.5405024428
  0
LWPOLYLINE
  5
4C0
100
AcDbEntity
  8
ASSI
100
AcDbPolyline
 62
250
  6
CONTINUOUS
 90
3
 70
0
 10
7.4722320365
 20
26.4694300417
 10
7.4551010103
 20
26.4784277797
 10
7.4382314819
 20
26.4847955569
  0
LINE
  5
4C1
100
AcDbEntity
  8
ASSI
100
AcDbLine
 62
250
  6
CONTINUOUS
 10
11.1983892825
 20
24.3179935476
 11
10.8130173998
 21
24.5405024428
  0
LINE
  5
4C2
100
AcDbEntity
  8
ASSI
100
AcDbLine
 62
250
  6
CONTINUOUS
 10
7.8576039192
 20
26.2469211465
 11
7.4722320365
 21
26.4694300417
  0
LINE
  5
4C3
100
AcDbEntity
  8
ASSI
100
AcDbLine
 62
250
  6
CONTINUOUS
 10
11.2895660108
 20
24.3571082127
 11
10.9041449356
 21
24.5796455111
  0
LINE
  5
4C4
100
AcDbEntity
  8
ASSI
100
AcDbLine
 62
250
  6
CONTINUOUS
 10
7.9494890853
 20
26.2856267685
 11
7.5640680101
 21
26.5081640669
  0
LWPOLYLINE
  5
4C5
100
AcDbEntity
  8
ASSI
100
AcDbPolyline
 62
250
  6
CONTINUOUS
 90
13
 70
0
 10
11.1983892825
 20
24.3179935476
 10
11.2161313458
 20
24.3068560007
 10
11.2336025841
 20
24.2933958497
 10
11.2505363064
 20
24.2778185579
 10
11.2666740267
 20
24.2603619061
 10
11.2817694094
 20
24.2412923625
 10
11.2955920301
 20
24.2209010157
 10
11.3079308923
 20
24.1994991309
 10
11.3185976485
 20
24.1774133986
 10
11.3274294753
 20
24.1549809482
 10
11.3342915586
 20
24.1325442015
 10
11.3390791515
 20
24.1104456458
 10
11.3417191736
 20
24.0890226062
  0
LWPOLYLINE
  5
4C6
100
AcDbEntity
  8
ASSI
100
AcDbPolyline
 62
250
  6
CONTINUOUS
 90
13
 70
0
 10
11.2895660108
 20
24.3571082127
 10
11.3066117638
 20
24.3456616052
 10
11.3228403108
 20
24.3316647889
 10
11.3380044478
 20
24.3153309727
 10
11.3518731846
 20
24.296908964
 10
11.3642352637
 20
24.2766793789
 10
11.3749023777
 20
24.2549503677
 10
11.383712038
 20
24.2320529211
 10
11.3905300501
 20
24.208335828
 10
11.3952525576
 20
24.1841603628
 10
11.3978076242
 20
24.159894782
 10
11.3981563294
 20
24.135908715
 10
11.3962933615
 20
24.1125675333
  0
LWPOLYLINE
  5
4C7
100
AcDbEntity
  8
ASSI
100
AcDbPolyline
 62
250
  6
CONTINUOUS
 90
6
 70
0
 10
9.137670328
 20
26.9317470884
 10
9.1251954153
 20
26.9408932157
 10
9.1123837627
 20
26.9474153643
 10
9.0994141773
 20
26.9512225071
 10
9.0864676703
 20
26.9522615091
 10
9.0826578689
 20
26.9520341744
  0
LINE
  5
4C8
100
AcDbEntity
  8
RACCORDO
100
AcDbLine
 62
250
  6
CONTINUOUS
 10
16.0054864518
 20
22.3879162254
 11
15.66120534
 21
22.6567948736
  0
LINE
  5
4C9
100
AcDbEntity
  8
RACCORDO
100
AcDbLine
 62
7
  6
CONTINUOUS
 10
16.0775471864
 20
22.3951074601
 11
15.7332660746
 21
22.6639861084
  0
LWPOLYLINE
  5
4CA
100
AcDbEntity
  8
RACCORDO
100
AcDbPolyline
 62
7
  6
CONTINUOUS
 90
18
 70
0
 10
15.7332396202
 20
22.6640067472
 10
15.7277467545
 20
22.6683922341
 10
15.7111140102
 20
22.6828235381
 10
15.6938540607
 20
22.6996782264
 10
15.6763835222
 20
22.718816531
 10
15.6592865111
 20
22.7397820999
 10
15.642834732
 20
22.7623536477
 10
15.6272747361
 20
22.7862888318
 10
15.6130346516
 20
22.8109493339
 10
15.6002983898
 20
22.8359390152
 10
15.5891463069
 20
22.8609832742
 10
15.5797197035
 20
22.8855772685
 10
15.5720356709
 20
22.9093807515
 10
15.566048882
 20
22.9321527762
 10
15.5617106844
 20
22.9535574114
 10
15.5589051293
 20
22.9734019381
 10
15.5574966806
 20
22.9914250541
 10
15.5572468649
 20
23.002306326
  0
LINE
  5
4CB
100
AcDbEntity
  8
RACCORDO
100
AcDbLine
 62
250
  6
CONTINUOUS
 10
16.0275303288
 20
22.3692656404
 11
16.0054865375
 21
22.3879162751
  0
LWPOLYLINE
  5
4CC
100
AcDbEntity
  8
RACCORDO
100
AcDbPolyline
 62
250
  6
CONTINUOUS
 90
16
 70
0
 10
15.6612052198
 20
22.6567948038
 10
15.6444726482
 20
22.6710464179
 10
15.6284459287
 20
22.6866293055
 10
15.6132486249
 20
22.7033236925
 10
15.5990150077
 20
22.7208715948
 10
15.5857945603
 20
22.7390997076
 10
15.5735726198
 20
22.7579433652
 10
15.562459687
 20
22.7771497169
 10
15.5524597028
 20
22.7966170686
 10
15.5434563313
 20
22.8165588646
 10
15.5355648648
 20
22.8367807377
 10
15.528849131
 20
22.8571689437
 10
15.5232673291
 20
22.8780667041
 10
15.518974859
 20
22.8994397702
 10
15.5162089018
 20
22.9208788369
 10
15.5151477362
 20
22.9421125272
  0
LWPOLYLINE
  5
4CD
100
AcDbEntity
  8
RACCORDO
100
AcDbPolyline
 62
250
  6
CONTINUOUS
 90
9
 70
0
 10
15.436517551
 20
23.4535173138
 10
15.4283970171
 20
23.4639833086
 10
15.4199810694
 20
23.47411656
 10
15.4112392867
 20
23.4839403887
 10
15.4021085046
 20
23.4934976752
 10
15.3926385266
 20
23.5027020135
 10
15.3828170734
 20
23.5115319749
 10
15.3724767469
 20
23.5200810565
 10
15.3615741471
 20
23.5282986195
  0
LWPOLYLINE
  5
4CE
100
AcDbEntity
  8
RACCORDO
100
AcDbPolyline
 62
250
  6
CONTINUOUS
 90
4
 70
0
 10
16.0849631819
 20
22.3016863207
 10
16.0675148617
 20
22.3256750481
 10
16.0482947181
 20
22.348362865
 10
16.0275303288
 20
22.3692656404
  0
LWPOLYLINE
  5
4CF
100
AcDbEntity
  8
RACCORDO
100
AcDbPolyline
 62
250
  6
CONTINUOUS
 90
9
 70
0
 10
13.6577560864
 20
25.0869465099
 10
13.6500156354
 20
25.0981354512
 10
13.6416082879
 20
25.1089920909
 10
13.6324633743
 20
25.1195476082
 10
13.6226121618
 20
25.1296825707
 10
13.6120497606
 20
25.1393276433
 10
13.6006205085
 20
25.1485268883
 10
13.5882763927
 20
25.1571718037
 10
13.5751080452
 20
25.1650460378
  0
LINE
  5
4D0
100
AcDbEntity
  8
RACCORDO
100
AcDbLine
 62
250
  6
CONTINUOUS
 10
13.6648508411
 20
25.0754386745
 11
13.6577560864
 21
25.0869465099
  0
LWPOLYLINE
  5
4D1
100
AcDbEntity
  8
RACCORDO
100
AcDbPolyline
 62
250
  6
CONTINUOUS
 90
3
 70
0
 10
16.1140449859
 20
22.2514030617
 10
16.1004981149
 20
22.276816799
 10
16.0849631819
 20
22.3016863207
  0
LWPOLYLINE
  5
4D2
100
AcDbEntity
  8
ASSI
100
AcDbPolyline
 62
250
  6
CONTINUOUS
 90
3
 70
0
 10
9.0407057162
 20
26.9356127706
 10
9.0226124259
 20
26.9384813762
 10
9.0047837082
 20
26.9383610804
  0
LWPOLYLINE
  5
4D3
100
AcDbEntity
  8
RACCORDO
100
AcDbPolyline
 62
250
  6
CONTINUOUS
 90
6
 70
0
 10
10.2770748593
 20
27.0614001472
 10
10.2855845135
 20
27.0600164582
 10
10.2945004955
 20
27.0574546045
 10
10.3038161145
 20
27.0535824152
 10
10.3134196418
 20
27.0483030987
 10
10.3232344589
 20
27.0415210204
  0
LWPOLYLINE
  5
4D4
100
AcDbEntity
  8
RACCORDO
100
AcDbPolyline
 62
250
  6
CONTINUOUS
 90
4
 70
0
 10
10.3639604753
 20
27.0405561306
 10
10.3514647286
 20
27.0437600851
 10
10.3377931569
 20
27.044083995
 10
10.3232344589
 20
27.0415210204
  0
LWPOLYLINE
  5
4D5
100
AcDbEntity
  8
RACCORDO
100
AcDbPolyline
 62
250
  6
CONTINUOUS
 90
7
 70
0
 10
8.5679255829
 20
27.5009572962
 10
8.5583738151
 20
27.5052108269
 10
8.5470497457
 20
27.507617047
 10
8.5348204682
 20
27.5077379406
 10
8.5218906115
 20
27.5055714849
 10
8.5084765266
 20
27.5011539304
 10
8.4948026674
 20
27.4945591949
  0
LWPOLYLINE
  5
4D6
100
AcDbEntity
  8
ASSI
100
AcDbPolyline
 62
250
  6
CONTINUOUS
 90
13
 70
0
 10
12.8675765784
 20
24.7781459661
 10
12.8874398086
 20
24.7686204547
 10
12.9065149686
 20
24.7567315566
 10
12.9245358341
 20
24.7426452005
 10
12.9412508951
 20
24.7265579841
 10
12.9564268661
 20
24.70869443
 10
12.9698519421
 20
24.6893038529
 10
12.9813387549
 20
24.6686568792
 10
12.9907269874
 20
24.6470416704
 10
12.997885612
 20
24.6247599015
 10
13.0027147186
 20
24.6021225501
 10
13.0051469092
 20
24.5794455568
 10
13.0051482387
 20
24.5570454151
  0
LINE
  5
4D7
100
AcDbEntity
  8
RACCORDO
100
AcDbLine
 62
250
  6
CONTINUOUS
 10
10.3706970355
 20
27.0373262409
 11
10.3674191356
 21
27.0391749593
  0
LWPOLYLINE
  5
4D8
100
AcDbEntity
  8
RACCORDO
100
AcDbPolyline
 62
250
  6
CONTINUOUS
 90
5
 70
0
 10
10.5477475427
 20
26.9350996192
 10
10.5409218798
 20
26.9383808407
 10
10.5284261299
 20
26.9415848048
 10
10.5147545479
 20
26.9419087195
 10
10.5001958324
 20
26.9393457412
  0
LWPOLYLINE
  5
4D9
100
AcDbEntity
  8
ASSI
100
AcDbPolyline
 62
250
  6
CONTINUOUS
 90
3
 70
0
 10
9.0765837476
 20
26.921128505
 10
9.0587879704
 20
26.9297989603
 10
9.0407057162
 20
26.9356127706
  0
LINE
  5
4DA
100
AcDbEntity
  8
RACCORDO
100
AcDbLine
 62
250
  6
CONTINUOUS
 10
13.5751080452
 20
25.1650460378
 11
13.5611678776
 21
25.1719788453
  0
LWPOLYLINE
  5
4DB
100
AcDbEntity
  8
RACCORDO
100
AcDbPolyline
 62
7
  6
CONTINUOUS
 90
8
 70
0
 10
13.4316694622
 20
25.2699591257
 10
13.4119751297
 20
25.2798602981
 10
13.3922367987
 20
25.2870895453
 10
13.3718235767
 20
25.2919811061
 10
13.3508382327
 20
25.2944232627
 10
13.3295872573
 20
25.2942814096
 10
13.3084606191
 20
25.2914858869
 10
13.2956550304
 20
25.2884362646
  0
LWPOLYLINE
  5
4DC
100
AcDbEntity
  8
RACCORDO
100
AcDbPolyline
 62
7
  6
CONTINUOUS
 90
10
 70
0
 10
8.5679255829
 20
27.5009572962
 10
8.5474716848
 20
27.5114763038
 10
8.5242979287
 20
27.5204882845
 10
8.5007577935
 20
27.5266952914
 10
8.4771049129
 20
27.5300403096
 10
8.4536075099
 20
27.5305232733
 10
8.430656367
 20
27.5282069734
 10
8.4086248931
 20
27.5232340112
 10
8.3877786622
 20
27.5157922493
 10
8.3727033755
 20
27.5085370135
  0
LWPOLYLINE
  5
4DD
100
AcDbEntity
  8
RACCORDO
100
AcDbPolyline
 62
250
  6
CONTINUOUS
 90
10
 70
0
 10
13.3842065042
 20
25.2741541245
 10
13.3762124844
 20
25.2784029505
 10
13.367897734
 20
25.2822049587
 10
13.3592823383
 20
25.2854893447
 10
13.3503803682
 20
25.2881852636
 10
13.3412348621
 20
25.2902151413
 10
13.3319180876
 20
25.2915033177
 10
13.3224721678
 20
25.2919831849
 10
13.312948275
 20
25.2915883832
 10
13.3034394744
 20
25.2902632744
  0
LWPOLYLINE
  5
4DE
100
AcDbEntity
  8
RACCORDO
100
AcDbPolyline
 62
7
  6
CONTINUOUS
 90
7
 70
0
 10
10.3706970355
 20
27.0373262409
 10
10.3674191356
 20
27.0391749593
 10
10.347829764
 20
27.048583051
 10
10.3274205313
 20
27.0556308906
 10
10.3063893326
 20
27.0601789922
 10
10.2849562603
 20
27.0621198575
 10
10.2641564778
 20
27.0614293094
  0
LINE
  5
4DF
100
AcDbEntity
  8
RACCORDO
100
AcDbLine
 62
250
  6
CONTINUOUS
 10
8.4948026674
 20
27.4945591949
 11
9.3858085648
 21
26.9801035567
  0
LINE
  5
4E0
100
AcDbEntity
  8
RACCORDO
100
AcDbLine
 62
250
  6
CONTINUOUS
 10
15.338398073
 20
23.5431529781
 11
13.7114841921
 21
24.4825126629
  0
LINE
  5
4E1
100
AcDbEntity
  8
RACCORDO
100
AcDbLine
 62
7
  6
CONTINUOUS
 10
8.5679551839
 20
27.5009402184
 11
9.4583755034
 21
26.9868226856
  0
LINE
  5
4E2
100
AcDbEntity
  8
RACCORDO
100
AcDbLine
 62
7
  6
CONTINUOUS
 10
15.4115505898
 20
23.5495340015
 11
13.7524780004
 21
24.5074617215
  0
LINE
  5
4E3
100
AcDbEntity
  8
RACCORDO
100
AcDbLine
 62
250
  6
CONTINUOUS
 10
10.6212745385
 20
26.5276485375
 11
12.9400061185
 21
25.1888419838
  0
LINE
  5
4E4
100
AcDbEntity
  8
RACCORDO
100
AcDbLine
 62
7
  6
CONTINUOUS
 10
10.6667941738
 20
26.5521033998
 11
12.9991802386
 21
25.2054129176
  0
LINE
  5
4E5
100
AcDbEntity
  8
RACCORDO
100
AcDbLine
 62
250
  6
CONTINUOUS
 10
10.3232344589
 20
27.0415210204
 11
10.5001958324
 21
26.9393457412
  0
LINE
  5
4E6
100
AcDbEntity
  8
RACCORDO
100
AcDbLine
 62
250
  6
CONTINUOUS
 10
13.5611678776
 20
25.1719788453
 11
13.3842065042
 21
25.2741541245
  0
LINE
  5
4E7
100
AcDbEntity
  8
RACCORDO
100
AcDbLine
 62
7
  6
CONTINUOUS
 10
10.3706970355
 20
27.0373262409
 11
10.5477475427
 21
26.9350996192
  0
LINE
  5
4E8
100
AcDbEntity
  8
RACCORDO
100
AcDbLine
 62
7
  6
CONTINUOUS
 10
13.6087195963
 20
25.1677327184
 11
13.4317582197
 21
25.2699079994
  0
LINE
  5
4E9
100
AcDbEntity
  8
RACCORDO
100
AcDbLine
 62
250
  6
CONTINUOUS
 10
15.3502016963
 20
23.5360259407
 11
15.338398073
 21
23.5431529781
  0
LWPOLYLINE
  5
4EA
100
AcDbEntity
  8
RACCORDO
100
AcDbPolyline
 62
250
  6
CONTINUOUS
 90
8
 70
0
 10
10.5001958324
 20
26.9393457412
 10
10.5085899175
 20
26.9340778446
 10
10.5169276176
 20
26.9281318384
 10
10.5251735316
 20
26.9215131412
 10
10.533240885
 20
26.9142768485
 10
10.5411465355
 20
26.9063962566
 10
10.5489937825
 20
26.8977274689
 10
10.5567874905
 20
26.8881806987
  0
LWPOLYLINE
  5
4EB
100
AcDbEntity
  8
ASSI
100
AcDbPolyline
 62
250
  6
CONTINUOUS
 90
13
 70
0
 10
12.8200989588
 20
24.7596697393
 10
12.837144712
 20
24.7482231316
 10
12.853373259
 20
24.7342263152
 10
12.8685373961
 20
24.7178924989
 10
12.882406133
 20
24.69947049
 10
12.894768212
 20
24.6792409048
 10
12.9054353259
 20
24.6575118936
 10
12.9142449862
 20
24.634614447
 10
12.9210629982
 20
24.610897354
 10
12.9257855057
 20
24.5867218889
 10
12.9283405722
 20
24.5624563082
 10
12.9286892774
 20
24.5384702414
 10
12.9268263095
 20
24.5151290598
  0
LINE
  5
4EC
100
AcDbEntity
  8
RACCORDO
100
AcDbLine
 62
250
  6
CONTINUOUS
 10
15.3615741471
 20
23.5282986195
 11
15.3502016963
 21
23.5360259407
  0
ARC
  5
4ED
100
AcDbEntity
  8
LAY0001
100
AcDbCircle
 62
7
  6
CONTINUOUS
 10
5.8077614874
 20
-25.2865914816
 40
0.5
100
AcDbArc
 50
239.9984015654
 51
297.4194204711
  0
ARC
  5
4EE
100
AcDbEntity
  8
LAY0001
100
AcDbCircle
 62
7
  6
CONTINUOUS
 10
-9.0604526809
 20
-16.7018709633
 40
0.5
100
AcDbArc
 50
179.9840060021
 51
239.998401565
  0
ARC
  5
4EF
100
AcDbEntity
  8
LAY0001
100
AcDbCircle
 62
7
  6
CONTINUOUS
 10
-9.0604526809
 20
25.4499013189
 40
0.5
100
AcDbArc
 50
122.5992954234
 51
180.0013071251
  0
ARC
  5
4F0
100
AcDbEntity
  8
RACCORDO
100
AcDbCircle
 62
7
  6
CONTINUOUS
 10
9.3000649265
 20
15.2724548285
 40
0.2
100
AcDbArc
 50
359.9930983179
 51
59.9984015652
  0
ARC
  5
4F1
100
AcDbEntity
  8
RACCORDO
100
AcDbCircle
 62
7
  6
CONTINUOUS
 10
9.3000649265
 20
-20.214437466
 40
0.2
100
AcDbArc
 50
301.7357595527
 51
0.0034115378
  0
ARC
  5
4F2
100
AcDbEntity
  8
ASSI
100
AcDbCircle
 62
7
  6
CONTINUOUS
 10
1.8743120451
 20
24.3046756243
 40
0.2
100
AcDbArc
 50
119.0851091898
 51
154.7491244468
  0
ARC
  5
4F3
100
AcDbEntity
  8
ASSI
100
AcDbCircle
 62
7
  6
CONTINUOUS
 10
-2.3112141649
 20
25.2512517042
 40
0.2
100
AcDbArc
 50
59.9984015652
 51
118.2824903446
  0
ARC
  5
4F4
100
AcDbEntity
  8
ASSI
100
AcDbCircle
 62
7
  6
CONTINUOUS
 10
8.3923324831
 20
18.7018470271
 40
0.2
100
AcDbArc
 50
315.7312262421
 51
0.024486907
  0
ARC
  5
4F5
100
AcDbEntity
  8
ASSI
100
AcDbCircle
 62
7
  6
CONTINUOUS
 10
8.3923324831
 20
19.0711580167
 40
0.2
100
AcDbArc
 50
359.9930983179
 51
59.9984015652
  0
ARC
  5
4F6
100
AcDbEntity
  8
ASSI
100
AcDbCircle
 62
7
  6
CONTINUOUS
 10
-0.7840102991
 20
24.3694633325
 40
0.2
100
AcDbArc
 50
359.9895357921
 51
59.9984015652
  0
ARC
  5
4F7
100
AcDbEntity
  8
ASSI
100
AcDbCircle
 62
7
  6
CONTINUOUS
 10
-0.7840102991
 20
24.000152343
 40
0.2
100
AcDbArc
 50
315.7300106886
 51
0.0272097881
  0
ARC
  5
4F8
100
AcDbEntity
  8
ASSI
100
AcDbCircle
 62
7
  6
CONTINUOUS
 10
6.8651286173
 20
19.9529463884
 40
0.2
100
AcDbArc
 50
59.9984015652
 51
118.2824903446
  0
ARC
  5
4F9
100
AcDbEntity
  8
RACCORDO
100
AcDbCircle
 62
7
  6
CONTINUOUS
 10
13.5999058625
 20
-9.9010315394
 40
0.15
100
AcDbArc
 50
0.0
 51
60.0065861469
  0
ELLIPSE
  5
4FA
100
AcDbEntity
  8
LAY0001
100
AcDbEllipse
 62
7
  6
CONTINUOUS
 10
8.2023174663
 20
-24.0451198649
 30
0.0
 11
-0.2501834304
 21
0.4333025529
 31
0.0
 40
0.5769361983
 41
-3.1677535987
 42
-2.3565853618
  0
ELLIPSE
  5
4FB
100
AcDbEntity
  8
LAY0001
100
AcDbEllipse
 62
7
  6
CONTINUOUS
 10
8.2023174663
 20
18.2477605931
 30
0.0
 11
-0.2500121049
 21
0.4330057129
 31
0.0
 40
0.5777274115
 41
-2.3559002616
 42
-0.7857891675
  0
ELLIPSE
  5
4FC
100
AcDbEntity
  8
RACCORDO
100
AcDbEllipse
 62
7
  6
CONTINUOUS
 10
9.3000649265
 20
13.6189206319
 30
0.0
 11
0.143107575
 21
0.2366201515
 31
0.0
 40
0.5904602253
 41
-1.5413474331
 42
-0.7734026838
  0
ELLIPSE
  5
4FD
100
AcDbEntity
  8
LAY0001
100
AcDbEllipse
 62
7
  6
CONTINUOUS
 10
-6.7881039039
 20
26.9030420182
 30
0.0
 11
-0.2501834304
 21
0.4333025529
 31
0.0
 40
0.5769361983
 41
-0.7851038024
 42
0.0261609458
  0
ELLIPSE
  5
4FE
100
AcDbEntity
  8
LAY0001
100
AcDbEllipse
 62
7
  6
CONTINUOUS
 10
8.3476567859
 20
-18.3762440067
 30
0.0
 11
0.3037200246
 21
0.1710449014
 31
0.0
 40
0.0105151745
 41
0.6673087948
 42
0.7742146559
  0
ELLIPSE
  5
4FF
100
AcDbEntity
  8
LAY0001
100
AcDbEllipse
 62
7
  6
CONTINUOUS
 10
8.2711217478
 20
-18.3320536349
 30
0.0
 11
0.4568380168
 21
0.0702030008
 31
0.0
 40
0.2209951355
 41
0.2918164413
 42
0.3503969549
  0
ELLIPSE
  5
500
100
AcDbEntity
  8
DRAFT
100
AcDbEllipse
 62
7
  6
CONTINUOUS
 10
8.9396688383
 20
13.012645701
 30
0.0
 11
0.1461416733
 21
0.2620230697
 31
0.0
 40
0.5671693725
 41
-2.347120172
 42
-1.6021379547
  0
ELLIPSE
  5
501
100
AcDbEntity
  8
RACCORDO
100
AcDbEllipse
 62
7
  6
CONTINUOUS
 10
-5.9396754195
 20
-2.9389767576
 30
0.0
 11
-0.1000048364
 21
0.1732022883
 31
0.0
 40
0.5775075436
 41
0.7855021057
 42
2.355993846
  0
ELLIPSE
  5
502
100
AcDbEntity
  8
RACCORDO
100
AcDbEllipse
 62
7
  6
CONTINUOUS
 10
9.3000649265
 20
-18.5609032693
 30
0.0
 11
0.1999879242
 21
-0.1103320873
 31
0.0
 40
0.0199195284
 41
-0.756955834
 42
0.7963872003
  0
ELLIPSE
  5
503
100
AcDbEntity
  8
DRAFT
100
AcDbEllipse
 62
7
  6
CONTINUOUS
 10
8.9396688383
 20
-18.7180643461
 30
0.0
 11
0.1461416733
 21
0.2620230697
 31
0.0
 40
0.5671693725
 41
0.0145836793
 42
0.7595658966
  0
ELLIPSE
  5
504
100
AcDbEntity
  8
ASSI
100
AcDbEllipse
 62
7
  6
CONTINUOUS
 10
7.1031846954
 20
24.3328135992
 30
0.0
 11
0.3652263551
 21
0.1644105368
 31
0.0
 40
0.3407407308
 41
1.8589059539
 42
3.382251992
  0
ELLIPSE
  5
505
100
AcDbEntity
  8
ASSI
100
AcDbEllipse
 62
7
  6
CONTINUOUS
 10
8.6121697797
 20
20.4990781913
 30
0.0
 11
0.999867518
 21
-0.0292282715
 31
0.0
 40
0.5568983954
 41
5.6013315027
 42
7.0848613669
  0
ELLIPSE
  5
506
100
AcDbEntity
  8
ASSI
100
AcDbEllipse
 62
7
  6
CONTINUOUS
 10
8.6475406871
 20
20.0158942889
 30
0.0
 11
-0.100004872
 21
0.1732022678
 31
0.0
 40
0.5789151826
 41
-2.3548735497
 42
-0.7868162787
  0
ELLIPSE
  5
507
100
AcDbEntity
  8
0
100
AcDbEllipse
 62
7
  6
CONTINUOUS
 10
-980.0327448467
 20
-534.3932046735
 30
0.0
 11
1091.3872670356
 21
588.1465940607
 31
0.0
 40
0.0261556157
 41
5.8313683858
 42
5.8318271149
  0
ELLIPSE
  5
508
100
AcDbEntity
  8
RACCORDO
100
AcDbEllipse
 62
7
  6
CONTINUOUS
 10
8.4705895037
 20
12.0950563777
 30
0.0
 11
-0.1000051894
 21
0.1735189852
 31
0.0
 40
0.5766278503
 41
-3.2779512934
 42
-3.141185874
  0
ELLIPSE
  5
509
100
AcDbEntity
  8
ASSI
100
AcDbEllipse
 62
7
  6
CONTINUOUS
 10
12.6201161235
 20
23.9683180684
 30
0.0
 11
0.5013109713
 21
-0.0090323087
 31
0.0
 40
0.5663187271
 41
-0.7565983455
 42
-0.4971873728
  0
ELLIPSE
  5
50A
100
AcDbEntity
  8
RACCORDO
100
AcDbEllipse
 62
7
  6
CONTINUOUS
 10
-0.2121266493
 20
-1.2240286984
 30
0.0
 11
-0.0999895981
 21
0.1732154835
 31
0.0
 40
0.577419602
 41
0.7855402448
 42
2.3561842726
  0
ELLIPSE
  5
50B
100
AcDbEntity
  8
RACCORDO
100
AcDbEllipse
 62
7
  6
CONTINUOUS
 10
13.7194392699
 20
24.3533299998
 30
0.0
 11
0.0396625333
 21
0.1491105824
 31
0.0
 40
0.4377348049
 41
0.3909671288
 42
0.6503781016
  0
ELLIPSE
  5
50C
100
AcDbEntity
  8
RACCORDO
100
AcDbEllipse
 62
7
  6
CONTINUOUS
 10
-0.2121266493
 20
-0.0809703108
 30
0.0
 11
-0.0999895981
 21
0.1732154835
 31
0.0
 40
0.577419602
 41
0.7855402448
 42
2.3561842726
  0
ENDSEC
  0
SECTION
  2
OBJECTS
  0
DICTIONARY
  5
C
100
AcDbDictionary
280
0
281
1
  3
ACAD_GROUP
350
D
  3
ACAD_MLINESTYLE
350
17
  3
ACAD_LAYOUT
350
1A
  3
ACAD_PLOTSETTINGS
350
19
  3
ACAD_PLOTSTYLENAME
350
E
  0
DICTIONARY
  5
D
102
{ACAD_REACTORS
330
C
102
}
100
AcDbDictionary
280
0
281
1
  0
ACDBDICTIONARYWDFLT
  5
E
102
{ACAD_REACTORS
330
C
102
}
100
AcDbDictionary
281
1
  3
Normal
350
F
100
AcDbDictionaryWithDefault
340
F
  0
DICTIONARY
  5
17
102
{ACAD_REACTORS
330
C
102
}
100
AcDbDictionary
280
0
281
1
  3
Standard
350
18
  0
DICTIONARY
  5
19
102
{ACAD_REACTORS
330
C
102
}
100
AcDbDictionary
281
1
  0
DICTIONARY
  5
1A
102
{ACAD_REACTORS
330
C
102
}
100
AcDbDictionary
281
1
  3
Model
350
50D
  3
Layout1
350
50E
  0
ACDBPLACEHOLDER
  5
F
102
{ACAD_REACTORS
330
E
102
}
  0
MLINESTYLE
  5
18
102
{ACAD_REACTORS
330
17
102
}
100
AcDbMlineStyle
  2
STANDARD
 70
0
  3

 62
256
 51
90.0
 52
90.0
 71
2
 49
0.5
 62
256
  6
BYLAYER
 49
-0.5
 62
256
  6
BYLAYER
  0
LAYOUT
  5
50D
102
{ACAD_REACTORS
330
1A
102
}
100
AcDbPlotSettings
  1

  2
none_device
  4
ISO_A3_(420.00_x_297.00_MM)
  6

 40
0.0
 41
0.0
 42
0.0
 43
0.0
 44
420.0
 45
297.0
 46
0.0
 47
0.0
 48
0.0
 49
0.0
140
0.0
141
0.0
142
1.0
143
1.0
 70
1024
 72
1
 73
0
 74
0
  7

 75
0
147
1.0
148
0.0
149
0.0
100
AcDbLayout
  1
Model
 70
0
 71
0
 10
0.0
 20
0.0
 11
420.0
 21
297.0
 12
0.0
 22
0.0
 32
0.0
 14
0.0
 24
0.0
 34
0.0
 15
0.0
 25
0.0
 35
0.0
146
0.0
 13
0.0
 23
0.0
 33
0.0
 16
1.0
 26
0.0
 36
0.0
 17
0.0
 27
1.0
 37
0.0
 76
0
330
214
345
0
346
0
  0
LAYOUT
  5
50E
102
{ACAD_REACTORS
330
1A
102
}
100
AcDbPlotSettings
  1

  2
none_device
  4
ISO_A3_(420.00_x_297.00_MM)
  6

 40
0.0
 41
0.0
 42
0.0
 43
0.0
 44
420.0
 45
297.0
 46
0.0
 47
0.0
 48
0.0
 49
0.0
140
0.0
141
0.0
142
1.0
143
1.0
 70
0
 72
1
 73
0
 74
0
  7

 75
0
147
1.0
148
0.0
149
0.0
100
AcDbLayout
  1
Layout1
 70
0
 71
1
 10
0.0
 20
0.0
 11
420.0
 21
297.0
 12
0.0
 22
0.0
 32
0.0
 14
0.0
 24
0.0
 34
0.0
 15
0.0
 25
0.0
 35
0.0
146
0.0
 13
0.0
 23
0.0
 33
0.0
 16
1.0
 26
0.0
 36
0.0
 17
0.0
 27
1.0
 37
0.0
 76
0
330
215
345
0
346
0
  0
ENDSEC
  0
EOF
