  0
SECTION
  2
HEADER
  9
$ACADVER
  1
AC1024
  9
$DWGCODEPAGE
  3
ANSI_1252
  9
$EXTMAX
 10
297.0
 20
210.0
 30
0.0
  9
$EXTMIN
 10
0.0
 20
0.0
 30
0.0
  9
$LIMMIN
 10
0.0
 20
0.0
  9
$LIMMAX
 10
297.0
 20
210.0
  9
$VIEWCTR
 10
148.5
 20
105.0
  9
$VIEWSIZE
 40
210.0
  9
$CLAYER
  8
0
  9
$LTSCALE
 40
16.335
  9
$CELTYPE
  6
BYLAYER
  9
$DIMSCALE
 40
1.0
  9
$DIMASZ
 40
3.0
  9
$DIMEXO
 40
0.5
  9
$DIMDLI
 40
11.286
  9
$DIMEXE
 40
1.5
  9
$DIMCEN
 40
2.673
  9
$DIMLFAC
 40
1.0
  9
$DIMBLK
  1
_FILLED
  9
$DIMALT
 70
0
  9
$DIMALTF
 40
0.0393700787
  9
$DIMTXT
 40
3.0
  9
$DIMTOL
 70
1
  9
$DIMLIM
 70
0
  9
$DIMTFAC
 40
1.0
  9
$DIMTP
 40
0.01
  9
$DIMTM
 40
0.01
  9
$DIMGAP
 40
0.625
  9
$DIMDSEP
 70
44
  9
$AUNITS
 70
0
  9
$PDMODE
 70
3
  9
$PDSIZE
 40
3.0
  9
$HANDSEED
  5
587
  9
$TILEMODE
 70
1
  9
$MEASUREMENT
 70
1
  9
$INSUNITS
 70
4
  0
ENDSEC
  0
SECTION
  2
CLASSES
  0
CLASS
  1
ACDBDICTIONARYWDFLT
  2
AcDbDictionaryWithDefault
  3
AutoCAD 2000
 90
0
 91
1
280
0
281
0
  0
CLASS
  1
ACDBPLACEHOLDER
  2
AcDbPlaceHolder
  3
AutoCAD 2000
 90
0
 91
1
280
0
281
0
  0
CLASS
  1
LAYOUT
  2
AcDbLayout
  3
AutoCAD 2000
 90
0
 91
0
280
0
281
0
  0
ENDSEC
  0
SECTION
  2
TABLES
  0
TABLE
  2
VPORT
  5
8
100
AcDbSymbolTable
 70
2
  0
VPORT
  5
1F4
100
AcDbSymbolTableRecord
100
AcDbViewportTableRecord
  2
*ACTIVE
 70
0
 10
0.0
 20
0.0
 11
1.0
 21
1.0
 12
148.5
 22
105.0
 13
0.0
 23
0.0
 14
1.0
 24
1.0
 15
0.0
 25
0.0
 16
0.0
 26
0.0
 36
1.0
 17
0.0
 27
0.0
 37
0.0
 40
210.0
 41
1.4142857143
 42
50.0
 43
0.0
 44
0.0
 50
0.0
 51
0.0
 71
0
 72
100
 73
1
 74
1
 75
0
 76
0
 77
0
 78
0
  0
ENDTAB
  0
TABLE
  2
LTYPE
  5
5
100
AcDbSymbolTable
 70
6
  0
LTYPE
  5
14
100
AcDbSymbolTableRecord
100
AcDbLinetypeTableRecord
  2
BYBLOCK
 70
0
  3

 72
65
 73
0
 40
0.0
  0
LTYPE
  5
15
100
AcDbSymbolTableRecord
100
AcDbLinetypeTableRecord
  2
BYLAYER
 70
0
  3

 72
65
 73
0
 40
0.0
  0
LTYPE
  5
16
100
AcDbSymbolTableRecord
100
AcDbLinetypeTableRecord
  2
CONTINUOUS
 70
64
  3
Solid line
 72
65
 73
0
 40
0.0
  0
LTYPE
  5
1F5
100
AcDbSymbolTableRecord
100
AcDbLinetypeTableRecord
  2
CENTER
 70
64
  3
____ _ ____ _ ____ _ ____ _ ____ _ ____ _ ____
 72
65
 73
4
 40
0.6
 49
0.375
 74
0
 49
-0.075
 74
0
 49
0.075
 74
0
 49
-0.075
 74
0
  0
LTYPE
  5
1F6
100
AcDbSymbolTableRecord
100
AcDbLinetypeTableRecord
  2
HIDDEN
 70
64
  3
- - - - - - - - - - - - - - - - - - - -
 72
65
 73
2
 40
0.2
 49
0.1
 74
0
 49
-0.1
 74
0
  0
LTYPE
  5
1F7
100
AcDbSymbolTableRecord
100
AcDbLinetypeTableRecord
  2
PHANTOM
 70
64
  3
_____ _ _ _____ _ _ _____ _ _ _____
 72
65
 73
6
 40
0.8
 49
0.45
 74
0
 49
-0.05
 74
0
 49
0.1
 74
0
 49
-0.05
 74
0
 49
0.1
 74
0
 49
-0.05
 74
0
  0
LTYPE
  5
1F8
100
AcDbSymbolTableRecord
100
AcDbLinetypeTableRecord
  2
DOT
 70
64
  3
. . . . . . . . . . . . . . . . . . . .
 72
65
 73
2
 40
0.2
 49
0.1
 74
0
 49
-0.1
 74
0
  0
LTYPE
  5
1F9
100
AcDbSymbolTableRecord
100
AcDbLinetypeTableRecord
  2
DASHED
 70
64
  3
- - - - - - - - - - - - - - - - - - - -
 72
65
 73
2
 40
0.2
 49
0.1
 74
0
 49
-0.1
 74
0
  0
ENDTAB
  0
TABLE
  2
LAYER
  5
2
100
AcDbSymbolTable
 70
36
  0
LAYER
  5
10
100
AcDbSymbolTableRecord
100
AcDbLayerTableRecord
  2
0
 70
0
 62
7
  6
CONTINUOUS
370
-3
390
F
  0
LAYER
  5
1FA
100
AcDbSymbolTableRecord
100
AcDbLayerTableRecord
  2
DEFAULT_1
 70
0
 62
7
  6
CENTER
370
-3
390
F
  0
LAYER
  5
1FB
100
AcDbSymbolTableRecord
100
AcDbLayerTableRecord
  2
DEFAULT_2
 70
0
 62
7
  6
HIDDEN
370
-3
390
F
  0
LAYER
  5
1FC
100
AcDbSymbolTableRecord
100
AcDbLayerTableRecord
  2
DEFAULT_3
 70
0
 62
7
  6
PHANTOM
370
-3
390
F
  0
LAYER
  5
1FD
100
AcDbSymbolTableRecord
100
AcDbLayerTableRecord
  2
ASSI
 70
0
 62
7
  6
CONTINUOUS
370
-3
390
F
  0
LAYER
  5
1FE
100
AcDbSymbolTableRecord
100
AcDbLayerTableRecord
  2
COORDINATE
 70
0
 62
7
  6
CONTINUOUS
370
-3
390
F
  0
LAYER
  5
1FF
100
AcDbSymbolTableRecord
100
AcDbLayerTableRecord
  2
COORD_ORIGINE
 70
0
 62
7
  6
CONTINUOUS
370
-3
390
F
  0
LAYER
  5
200
100
AcDbSymbolTableRecord
100
AcDbLayerTableRecord
  2
COPY_PUBLISH
 70
0
 62
7
  6
CONTINUOUS
370
-3
390
F
  0
LAYER
  5
201
100
AcDbSymbolTableRecord
100
AcDbLayerTableRecord
  2
COSMETICI
 70
0
 62
7
  6
CONTINUOUS
370
-3
390
F
  0
LAYER
  5
202
100
AcDbSymbolTableRecord
100
AcDbLayerTableRecord
  2
CURVE
 70
0
 62
7
  6
CONTINUOUS
370
-3
390
F
  0
LAYER
  5
203
100
AcDbSymbolTableRecord
100
AcDbLayerTableRecord
  2
DRAFT
 70
0
 62
7
  6
CONTINUOUS
370
-3
390
F
  0
LAYER
  5
204
100
AcDbSymbolTableRecord
100
AcDbLayerTableRecord
  2
IMPORT_IGES
 70
0
 62
7
  6
CONTINUOUS
370
-3
390
F
  0
LAYER
  5
205
100
AcDbSymbolTableRecord
100
AcDbLayerTableRecord
  2
INTF_1
 70
0
 62
7
  6
CONTINUOUS
370
-3
390
F
  0
LAYER
  5
206
100
AcDbSymbolTableRecord
100
AcDbLayerTableRecord
  2
INTF_11
 70
0
 62
7
  6
CONTINUOUS
370
-3
390
F
  0
LAYER
  5
207
100
AcDbSymbolTableRecord
100
AcDbLayerTableRecord
  2
INTF_2
 70
0
 62
7
  6
CONTINUOUS
370
-3
390
F
  0
LAYER
  5
208
100
AcDbSymbolTableRecord
100
AcDbLayerTableRecord
  2
INTF_8
 70
0
 62
7
  6
CONTINUOUS
370
-3
390
F
  0
LAYER
  5
209
100
AcDbSymbolTableRecord
100
AcDbLayerTableRecord
  2
INTF_9
 70
0
 62
7
  6
CONTINUOUS
370
-3
390
F
  0
LAYER
  5
20A
100
AcDbSymbolTableRecord
100
AcDbLayerTableRecord
  2
NOTE
 70
0
 62
7
  6
CONTINUOUS
370
-3
390
F
  0
LAYER
  5
20B
100
AcDbSymbolTableRecord
100
AcDbLayerTableRecord
  2
PIANI
 70
0
 62
7
  6
CONTINUOUS
370
-3
390
F
  0
LAYER
  5
20C
100
AcDbSymbolTableRecord
100
AcDbLayerTableRecord
  2
PIANI_ORIGINE
 70
0
 62
7
  6
CONTINUOUS
370
-3
390
F
  0
LAYER
  5
20D
100
AcDbSymbolTableRecord
100
AcDbLayerTableRecord
  2
PUNTI
 70
0
 62
7
  6
CONTINUOUS
370
-3
390
F
  0
LAYER
  5
20E
100
AcDbSymbolTableRecord
100
AcDbLayerTableRecord
  2
RACCORDO
 70
0
 62
7
  6
CONTINUOUS
370
-3
390
F
  0
LAYER
  5
20F
100
AcDbSymbolTableRecord
100
AcDbLayerTableRecord
  2
SIMBOLI
 70
0
 62
7
  6
CONTINUOUS
370
-3
390
F
  0
LAYER
  5
210
100
AcDbSymbolTableRecord
100
AcDbLayerTableRecord
  2
SMUSSO
 70
0
 62
7
  6
CONTINUOUS
370
-3
390
F
  0
LAYER
  5
211
100
AcDbSymbolTableRecord
100
AcDbLayerTableRecord
  2
SUPERFICI
 70
0
 62
7
  6
CONTINUOUS
370
-3
390
F
  0
LAYER
  5
212
100
AcDbSymbolTableRecord
100
AcDbLayerTableRecord
  2
TRASH
 70
0
 62
7
  6
CONTINUOUS
370
-3
390
F
  0
ENDTAB
  0
TABLE
  2
STYLE
  5
3
100
AcDbSymbolTable
 70
1
  0
STYLE
  5
11
100
AcDbSymbolTableRecord
100
AcDbTextStyleTableRecord
  2
STANDARD
 70
0
 40
0.0
 41
0.8
 50
0.0
 71
0
 42
0.2
  3
txt
  4

  0
STYLE
  5
213
100
AcDbSymbolTableRecord
100
AcDbTextStyleTableRecord
  2
TEXTSTYLE_1
 70
0
 40
0.0
 41
0.8
 50
0.0
 71
0
 42
0.2
  3
gdt
  4

  0
ENDTAB
  0
TABLE
  2
VIEW
  5
6
100
AcDbSymbolTable
 70
0
  0
ENDTAB
  0
TABLE
  2
UCS
  5
7
100
AcDbSymbolTable
 70
0
  0
ENDTAB
  0
TABLE
  2
APPID
  5
9
100
AcDbSymbolTable
 70
1
  0
APPID
  5
214
100
AcDbSymbolTableRecord
100
AcDbRegAppTableRecord
  2
ACAD
 70
0
  0
ENDTAB
  0
TABLE
  2
BLOCK_RECORD
  5
1
100
AcDbSymbolTable
 70
0
  0
BLOCK_RECORD
  5
215
100
AcDbSymbolTableRecord
100
AcDbBlockTableRecord
  2
*Model_Space
  0
BLOCK_RECORD
  5
216
100
AcDbSymbolTableRecord
100
AcDbBlockTableRecord
  2
*Paper_Space
  0
BLOCK_RECORD
  5
217
100
AcDbSymbolTableRecord
100
AcDbBlockTableRecord
  2
_FILLED
  0
ENDTAB
  0
TABLE
  2
DIMSTYLE
  5
A
100
AcDbSymbolTable
 70
1
100
AcDbDimStyleTable
 71
0
  0
DIMSTYLE
105
218
100
AcDbSymbolTableRecord
100
AcDbDimStyleTableRecord
  2
STANDARD
 70
0
  3

  4

 40
1.0
 41
3.0
 42
0.5
 43
0.38
 44
1.5
 45
0.0
 46
0.0
 47
0.01
 48
0.01
140
3.0
141
0.09
142
0.0
143
25.4
144
1.0
145
0.0
146
1.0
147
0.625
 71
1
 72
0
 73
0
 74
0
 75
0
 76
0
 77
1
 78
8
 79
2
170
0
171
1
172
0
173
0
174
0
175
0
176
0
177
0
178
0
270
2
179
2
271
2
272
2
273
2
274
2
275
0
280
0
281
0
282
0
283
1
284
8
285
0
286
0
287
3
288
0
340
11
278
44
341
217
342
217
343
217
344
217
  0
ENDTAB
  0
ENDSEC
  0
SECTION
  2
BLOCKS
  0
BLOCK
  5
20
100
AcDbEntity
  8
0
100
AcDbBlockBegin
  2
*Model_Space
 70
0
 10
0.0
 20
0.0
 30
0.0
  3
*Model_Space
  1

  0
ENDBLK
  5
21
100
AcDbEntity
  8
0
100
AcDbBlockEnd
  0
BLOCK
  5
1C
100
AcDbEntity
  8
0
100
AcDbBlockBegin
  2
*Paper_Space
 70
0
 10
0.0
 20
0.0
 30
0.0
  3
*Paper_Space
  1

  0
ENDBLK
  5
1D
100
AcDbEntity
  8
0
100
AcDbBlockEnd
  0
BLOCK
  5
219
100
AcDbEntity
  8
0
100
AcDbBlockBegin
  2
_FILLED
 70
64
 10
0.0
 20
0.0
  3
_FILLED
  1

  0
SOLID
  5
21A
100
AcDbEntity
  8
0
  6
BYBLOCK
 62
0
100
AcDbTrace
 10
0.0
 20
0.0
 11
-1.0
 21
0.3166666667
 12
-1.0
 22
-0.3166666667
 13
-1.0
 23
-0.3166666667
  0
ENDBLK
  5
21B
100
AcDbEntity
  8
0
  6
BYBLOCK
 62
0
100
AcDbBlockEnd
  0
ENDSEC
  0
SECTION
  2
ENTITIES
  0
LWPOLYLINE
  5
21C
100
AcDbEntity
  8
SUPERFICI
100
AcDbPolyline
 62
250
  6
CONTINUOUS
 90
9
 70
0
 10
127.9458051759
 20
125.5473274576
 10
127.9663071233
 20
125.5585004406
 10
127.9953045486
 20
125.5687788982
 10
128.0267638288
 20
125.5741984031
 10
128.0602990643
 20
125.5746811414
 10
128.095400867
 20
125.5702486013
 10
128.1316198745
 20
125.5610214353
 10
128.1685960233
 20
125.5471527235
 10
128.2059241772
 20
125.5288454965
  0
LINE
  5
21D
100
AcDbEntity
  8
SUPERFICI
100
AcDbLine
 62
7
  6
CONTINUOUS
 10
127.9458051759
 20
125.5473274576
 11
130.2308909528
 21
127.0086133206
  0
LINE
  5
21E
100
AcDbEntity
  8
SUPERFICI
100
AcDbLine
 62
250
  6
CONTINUOUS
 10
128.2059241772
 20
125.5288454965
 11
130.4872855536
 21
126.9877496486
  0
LINE
  5
21F
100
AcDbEntity
  8
ASSI
100
AcDbLine
 62
250
  6
CONTINUOUS
 10
134.873545167
 20
125.1055038082
 11
134.8696924452
 21
125.1035895428
  0
LINE
  5
220
100
AcDbEntity
  8
ASSI
100
AcDbLine
 62
250
  6
CONTINUOUS
 10
135.5009067022
 20
123.6368968588
 11
136.4940896508
 21
124.2103502149
  0
LINE
  5
221
100
AcDbEntity
  8
ASSI
100
AcDbLine
 62
250
  6
CONTINUOUS
 10
135.5853431801
 20
123.3590951607
 11
136.6354894679
 21
123.9654385477
  0
LINE
  5
222
100
AcDbEntity
  8
ASSI
100
AcDbLine
 62
250
  6
CONTINUOUS
 10
138.5151526081
 20
124.9278062987
 11
136.6970142668
 21
123.9233294943
  0
LINE
  5
223
100
AcDbEntity
  8
ASSI
100
AcDbLine
 62
250
  6
CONTINUOUS
 10
139.1754954616
 20
124.8389096618
 11
136.4210174379
 21
123.3174407528
  0
LINE
  5
224
100
AcDbEntity
  8
RACCORDO
100
AcDbLine
 62
250
  6
CONTINUOUS
 10
139.3440043509
 20
125.3835678726
 11
138.5151526081
 21
124.9278062987
  0
LINE
  5
225
100
AcDbEntity
  8
RACCORDO
100
AcDbLine
 62
250
  6
CONTINUOUS
 10
139.995804487
 20
125.2900161068
 11
139.1754362573
 21
124.8389438457
  0
LINE
  5
226
100
AcDbEntity
  8
RACCORDO
100
AcDbLine
 62
250
  6
CONTINUOUS
 10
139.2233296081
 20
125.3303277674
 11
139.2198754839
 21
125.3286133878
  0
LINE
  5
227
100
AcDbEntity
  8
RACCORDO
100
AcDbLine
 62
7
  6
CONTINUOUS
 10
139.2198754839
 20
125.3286133878
 11
136.6916215078
 21
123.9432683421
  0
LINE
  5
228
100
AcDbEntity
  8
ASSI
100
AcDbLine
 62
7
  6
CONTINUOUS
 10
134.8696924452
 20
125.1035895428
 11
134.2902334036
 21
124.7919752222
  0
LINE
  5
229
100
AcDbEntity
  8
ASSI
100
AcDbLine
 62
250
  6
CONTINUOUS
 10
134.966885785
 20
125.0921385866
 11
134.3473719924
 21
124.7589841171
  0
LWPOLYLINE
  5
22A
100
AcDbEntity
  8
ASSI
100
AcDbPolyline
 62
250
  6
CONTINUOUS
 90
8
 70
0
 10
139.1938159975
 20
124.2343081766
 10
139.1973477119
 20
124.2361364614
 10
139.2106942016
 20
124.2408410103
 10
139.2252697621
 20
124.2427792867
 10
139.2408518934
 20
124.2419216487
 10
139.2572027364
 20
124.2382811475
 10
139.2740727097
 20
124.2319133133
 10
139.291204292
 20
124.2229153118
  0
LWPOLYLINE
  5
22B
100
AcDbEntity
  8
ASSI
100
AcDbPolyline
 62
250
  6
CONTINUOUS
 90
8
 70
0
 10
139.0527222969
 20
124.1556478007
 10
139.0561900908
 20
124.1574326032
 10
139.0695769331
 20
124.1621218897
 10
139.0841978353
 20
124.1640327935
 10
139.099795919
 20
124.1631395988
 10
139.1161163251
 20
124.1594755496
 10
139.1329178161
 20
124.1531125454
 10
139.1499438521
 20
124.1441623022
  0
LWPOLYLINE
  5
22C
100
AcDbEntity
  8
ASSI
100
AcDbPolyline
 62
250
  6
CONTINUOUS
 90
9
 70
0
 10
136.4940896508
 20
124.2103502149
 10
136.5086930332
 20
124.2176127811
 10
136.5231135043
 20
124.2230329647
 10
136.5371965603
 20
124.2265526942
 10
136.5507913024
 20
124.2281342594
 10
136.5637520857
 20
124.22776072
 10
136.5759400745
 20
124.225436072
 10
136.5872246902
 20
124.2211852041
 10
136.5916263398
 20
124.218858246
  0
LINE
  5
22D
100
AcDbEntity
  8
RACCORDO
100
AcDbLine
 62
250
  6
CONTINUOUS
 10
139.2198754839
 20
125.3286133878
 11
139.2304598647
 21
125.3338814057
  0
LINE
  5
22E
100
AcDbEntity
  8
RACCORDO
100
AcDbLine
 62
250
  6
CONTINUOUS
 10
139.3523889394
 20
125.3876749133
 11
139.3440043509
 21
125.3835678726
  0
LWPOLYLINE
  5
22F
100
AcDbEntity
  8
RACCORDO
100
AcDbPolyline
 62
250
  6
CONTINUOUS
 90
7
 70
0
 10
145.7704344744
 20
127.1707518175
 10
145.7841083128
 20
127.1773465455
 10
145.7975223811
 20
127.1817640996
 10
145.8104522261
 20
127.1839305608
 10
145.8226814966
 20
127.183809677
 10
145.8340055639
 20
127.1814034695
 10
145.843554594
 20
127.1771515304
  0
LINE
  5
230
100
AcDbEntity
  8
ASSI
100
AcDbLine
 62
7
  6
CONTINUOUS
 10
138.6274406944
 20
123.4216672998
 11
138.6752901917
 21
123.4430755366
  0
LINE
  5
231
100
AcDbEntity
  8
RACCORDO
100
AcDbLine
 62
250
  6
CONTINUOUS
 10
139.2233296081
 20
125.3303277674
 11
139.2304598647
 21
125.3338814057
  0
LINE
  5
232
100
AcDbEntity
  8
RACCORDO
100
AcDbLine
 62
250
  6
CONTINUOUS
 10
139.2574801807
 20
125.345975999
 11
139.2634595714
 21
125.3482534656
  0
LINE
  5
233
100
AcDbEntity
  8
RACCORDO
100
AcDbLine
 62
7
  6
CONTINUOUS
 10
139.2710064487
 20
125.351993208
 11
139.2304598647
 21
125.3338814057
  0
LINE
  5
234
100
AcDbEntity
  8
RACCORDO
100
AcDbLine
 62
250
  6
CONTINUOUS
 10
139.2634595714
 20
125.3482534656
 11
139.2710064487
 21
125.351993208
  0
LINE
  5
235
100
AcDbEntity
  8
RACCORDO
100
AcDbLine
 62
7
  6
CONTINUOUS
 10
139.3116495615
 20
125.3699244198
 11
139.2710064487
 21
125.351993208
  0
LINE
  5
236
100
AcDbEntity
  8
RACCORDO
100
AcDbLine
 62
7
  6
CONTINUOUS
 10
139.3523889394
 20
125.3876749133
 11
139.3116495615
 21
125.3699244198
  0
LINE
  5
237
100
AcDbEntity
  8
RACCORDO
100
AcDbLine
 62
7
  6
CONTINUOUS
 10
139.3525324311
 20
125.3877369084
 11
139.3523889394
 21
125.3876749133
  0
LWPOLYLINE
  5
238
100
AcDbEntity
  8
ASSI
100
AcDbPolyline
 62
250
  6
CONTINUOUS
 90
4
 70
0
 10
141.6676572923
 20
124.4418369938
 10
141.7208239033
 20
124.4642096189
 10
141.7756056721
 20
124.4902052742
 10
141.8318735371
 20
124.519951582
  0
LINE
  5
239
100
AcDbEntity
  8
RACCORDO
100
AcDbLine
 62
250
  6
CONTINUOUS
 10
139.3440043509
 20
125.3835678726
 11
139.3852474009
 21
125.3992094368
  0
LWPOLYLINE
  5
23A
100
AcDbEntity
  8
ASSI
100
AcDbPolyline
 62
250
  6
CONTINUOUS
 90
13
 70
0
 10
138.5151526081
 20
124.9278062988
 10
138.5620685726
 20
124.9455067835
 10
138.6110837292
 20
124.9586730338
 10
138.6620251621
 20
124.9672595528
 10
138.7147157186
 20
124.9712387384
 10
138.7689665882
 20
124.9705965053
 10
138.8245779795
 20
124.9653323002
 10
138.8813541266
 20
124.95546625
 10
138.9390933032
 20
124.9410354257
 10
138.9975803249
 20
124.922090027
 10
139.0566043521
 20
124.8986992053
 10
139.1159597922
 20
124.870949988
 10
139.1754362573
 20
124.8389438457
  0
LWPOLYLINE
  5
23B
100
AcDbEntity
  8
ASSI
100
AcDbPolyline
 62
7
  6
CONTINUOUS
 90
5
 70
0
 10
144.750419575
 20
126.1984308647
 10
144.7261400169
 20
126.1909711517
 10
144.6994331992
 20
126.180846781
 10
144.6727180452
 20
126.1686961336
 10
144.6504569552
 20
126.1570051591
  0
LINE
  5
23C
100
AcDbEntity
  8
SUPERFICI
100
AcDbLine
 62
7
  6
CONTINUOUS
 10
135.5009067022
 20
124.0929476329
 11
134.9989337648
 21
123.5702093459
  0
LINE
  5
23D
100
AcDbEntity
  8
ASSI
100
AcDbLine
 62
250
  6
CONTINUOUS
 10
145.1332357261
 20
125.9231137691
 11
142.2674588189
 21
124.2684500995
  0
LINE
  5
23E
100
AcDbEntity
  8
ASSI
100
AcDbLine
 62
250
  6
CONTINUOUS
 10
145.2744632693
 20
125.6868228508
 11
142.4086863621
 21
124.0321591812
  0
LINE
  5
23F
100
AcDbEntity
  8
ASSI
100
AcDbLine
 62
250
  6
CONTINUOUS
 10
142.7297477459
 20
123.9847318916
 11
141.3032928821
 21
123.1611147309
  0
LINE
  5
240
100
AcDbEntity
  8
ASSI
100
AcDbLine
 62
250
  6
CONTINUOUS
 10
142.8709752891
 20
123.7484409733
 11
141.5785274081
 21
123.0021977651
  0
LWPOLYLINE
  5
241
100
AcDbEntity
  8
ASSI
100
AcDbPolyline
 62
250
  6
CONTINUOUS
 90
13
 70
0
 10
138.5065175604
 20
123.0391894524
 10
138.5191872933
 20
123.0464913315
 10
138.5318374862
 20
123.0547875758
 10
138.5443838952
 20
123.063991612
 10
138.5566379823
 20
123.0739125961
 10
138.5686416506
 20
123.0845394114
 10
138.5806334827
 20
123.0961201954
 10
138.5926493442
 20
123.1087721598
 10
138.6044234108
 20
123.1222975316
 10
138.615719891
 20
123.1365006187
 10
138.626402117
 20
123.1512341585
 10
138.6364135025
 20
123.1664193782
 10
138.645659109
 20
123.1819283616
  0
LWPOLYLINE
  5
242
100
AcDbEntity
  8
RACCORDO
100
AcDbPolyline
 62
7
  6
CONTINUOUS
 90
8
 70
0
 10
147.9066360869
 20
126.209471435
 10
147.9154762504
 20
126.2144746585
 10
147.9232887071
 20
126.2188071733
 10
147.9299616656
 20
126.2224032889
 10
147.9353324516
 20
126.2252129849
 10
147.9392437562
 20
126.2271932212
 10
147.9416315561
 20
126.2281936595
 10
147.9424268509
 20
126.2282673146
  0
LWPOLYLINE
  5
243
100
AcDbEntity
  8
ASSI
100
AcDbPolyline
 62
250
  6
CONTINUOUS
 90
16
 70
0
 10
142.2674588189
 20
124.2684500995
 10
142.2350831036
 20
124.2503680459
 10
142.2034798784
 20
124.2338695688
 10
142.1726738606
 20
124.2188860569
 10
142.1429288493
 20
124.2054556498
 10
142.1140168834
 20
124.1933841902
 10
142.0852272693
 20
124.1823275072
 10
142.0565515735
 20
124.1722746669
 10
142.0280391219
 20
124.1632435269
 10
141.9990841784
 20
124.1550705416
 10
141.9696558289
 20
124.1478052506
 10
141.93985556
 20
124.1415384013
 10
141.9093021154
 20
124.136281961
 10
141.8779123825
 20
124.1321424973
 10
141.8458896612
 20
124.1292685035
 10
141.8133019991
 20
124.1277870191
  0
LINE
  5
244
100
AcDbEntity
  8
ASSI
100
AcDbLine
 62
7
  6
CONTINUOUS
 10
139.0525555178
 20
124.1555551449
 11
139.1938159975
 21
124.2343081766
  0
LINE
  5
245
100
AcDbEntity
  8
ASSI
100
AcDbLine
 62
250
  6
CONTINUOUS
 10
139.1499438521
 20
124.1441623022
 11
139.291204292
 21
124.2229153118
  0
LINE
  5
246
100
AcDbEntity
  8
ASSI
100
AcDbLine
 62
7
  6
CONTINUOUS
 10
137.2443416516
 20
122.4012102353
 11
138.4091295742
 21
123.0505820932
  0
LINE
  5
247
100
AcDbEntity
  8
ASSI
100
AcDbLine
 62
250
  6
CONTINUOUS
 10
137.3022213347
 20
122.3677912317
 11
138.5065179093
 21
123.0391892509
  0
LINE
  5
248
100
AcDbEntity
  8
ASSI
100
AcDbLine
 62
7
  6
CONTINUOUS
 10
141.7344249307
 20
124.5313204552
 11
142.96547356
 21
125.2176231721
  0
LINE
  5
249
100
AcDbEntity
  8
ASSI
100
AcDbLine
 62
250
  6
CONTINUOUS
 10
141.8318735371
 20
124.519951582
 11
143.0628619269
 21
125.2062303477
  0
LINE
  5
24A
100
AcDbEntity
  8
ASSI
100
AcDbLine
 62
250
  6
CONTINUOUS
 10
139.0525555178
 20
124.1555551449
 11
139.0527222969
 21
124.1556478007
  0
LWPOLYLINE
  5
24B
100
AcDbEntity
  8
ASSI
100
AcDbPolyline
 62
250
  6
CONTINUOUS
 90
16
 70
0
 10
142.4086863621
 20
124.0321591812
 10
142.3719594568
 20
124.0117944666
 10
142.3361629493
 20
123.9930638388
 10
142.3012968396
 20
123.975967298
 10
142.2676144955
 20
123.9606602865
 10
142.2348625493
 20
123.946987362
 10
142.2022808976
 20
123.9344821971
 10
142.1698231505
 20
123.9230246026
 10
142.137535698
 20
123.9127347677
 10
142.1047976067
 20
123.9035069329
 10
142.0715093613
 20
123.8952296887
 10
142.0377704771
 20
123.8880144446
 10
142.003258567
 20
123.882089669
 10
141.9678661687
 20
123.8775315183
 10
141.9317007446
 20
123.874263836
 10
141.8947622946
 20
123.8722866224
  0
LWPOLYLINE
  5
24C
100
AcDbEntity
  8
ASSI
100
AcDbPolyline
 62
7
  6
CONTINUOUS
 90
16
 70
0
 10
144.6504755092
 20
126.157015507
 10
143.8821758471
 20
125.7286923949
 10
143.8698947005
 20
125.7224834344
 10
143.8552887672
 20
125.7162104665
 10
143.8385075875
 20
125.710156902
 10
143.8196029816
 20
125.7045287622
 10
143.7988433995
 20
125.6995683006
 10
143.7764118145
 20
125.6954584555
 10
143.7525955043
 20
125.6923703815
 10
143.7278878396
 20
125.6904508871
 10
143.7025589577
 20
125.6897815327
 10
143.6770183311
 20
125.6904150047
 10
143.6520128792
 20
125.6923224576
 10
143.6278752169
 20
125.6954298882
 10
143.604969103
 20
125.6996180152
 10
143.5989169989
 20
125.7009414109
  0
LINE
  5
24D
100
AcDbEntity
  8
ASSI
100
AcDbLine
 62
250
  6
CONTINUOUS
 10
144.7565610496
 20
126.1504263819
 11
143.9807403365
 21
125.7179496028
  0
LWPOLYLINE
  5
24E
100
AcDbEntity
  8
ASSI
100
AcDbPolyline
 62
7
  6
CONTINUOUS
 90
10
 70
0
 10
141.7344249307
 20
124.5313204552
 10
141.7221481733
 20
124.5245511474
 10
141.6593226467
 20
124.4921906119
 10
141.5979243258
 20
124.4643550395
 10
141.5384367053
 20
124.4411513138
 10
141.4810329362
 20
124.4225110406
 10
141.4256639987
 20
124.4082966284
 10
141.3725644221
 20
124.3984809091
 10
141.3221446015
 20
124.3930332334
 10
141.3142275995
 20
124.3925531328
  0
LWPOLYLINE
  5
24F
100
AcDbEntity
  8
ASSI
100
AcDbPolyline
 62
250
  6
CONTINUOUS
 90
13
 70
0
 10
139.291204292
 20
124.2229153118
 10
139.3039416266
 20
124.229873409
 10
139.3162978422
 20
124.2361457058
 10
139.328260031
 20
124.2417668812
 10
139.3398112359
 20
124.2467712022
 10
139.3509495995
 20
124.2511956576
 10
139.3616879693
 20
124.2550778798
 10
139.3720241521
 20
124.2584525661
 10
139.3819526531
 20
124.2613528713
 10
139.3914835128
 20
124.2638114344
 10
139.4006184024
 20
124.2658609879
 10
139.4093563094
 20
124.2675330624
 10
139.4177049021
 20
124.2688567827
  0
LINE
  5
250
100
AcDbEntity
  8
RACCORDO
100
AcDbLine
 62
7
  6
CONTINUOUS
 10
145.6484227218
 20
127.1847858317
 11
145.6483015871
 21
127.1847205604
  0
LINE
  5
251
100
AcDbEntity
  8
ASSI
100
AcDbLine
 62
7
  6
CONTINUOUS
 10
145.6484235012
 20
127.1847862508
 11
141.0683634255
 21
124.7217781587
  0
LINE
  5
252
100
AcDbEntity
  8
RACCORDO
100
AcDbLine
 62
250
  6
CONTINUOUS
 10
145.7704344744
 20
127.1707518175
 11
141.0940135306
 21
124.6559239688
  0
LINE
  5
253
100
AcDbEntity
  8
ASSI
100
AcDbLine
 62
250
  6
CONTINUOUS
 10
144.6540087613
 20
126.1588445286
 11
144.6504755092
 21
126.157015507
  0
LWPOLYLINE
  5
254
100
AcDbEntity
  8
ASSI
100
AcDbPolyline
 62
250
  6
CONTINUOUS
 90
8
 70
0
 10
138.4091375575
 20
123.0505865431
 10
138.4126630936
 20
123.0524112428
 10
138.4260096758
 20
123.0571153785
 10
138.4405851609
 20
123.0590532708
 10
138.4561670625
 20
123.0581953481
 10
138.4725175305
 20
123.0545547128
 10
138.4893869806
 20
123.0481869446
 10
138.5065179093
 20
123.0391892509
  0
LWPOLYLINE
  5
255
100
AcDbEntity
  8
ASSI
100
AcDbPolyline
 62
250
  6
CONTINUOUS
 90
8
 70
0
 10
143.8833806858
 20
125.729358427
 10
143.8868852541
 20
125.7311714669
 10
143.9002318233
 20
125.7358756641
 10
143.9148073206
 20
125.7378136135
 10
143.9303892573
 20
125.7369557331
 10
143.9467397818
 20
125.733315118
 10
143.9636093102
 20
125.7269473408
 10
143.9807403365
 20
125.7179496028
  0
LWPOLYLINE
  5
256
100
AcDbEntity
  8
ASSI
100
AcDbPolyline
 62
250
  6
CONTINUOUS
 90
8
 70
0
 10
142.9655987987
 20
125.2176928102
 10
142.9690068026
 20
125.2194521891
 10
142.982353373
 20
125.2241563888
 10
142.9969288721
 20
125.2260943398
 10
143.0125108105
 20
125.2252364601
 10
143.0288613365
 20
125.2215958451
 10
143.0457308662
 20
125.2152280675
 10
143.0628618934
 20
125.2062303289
  0
LWPOLYLINE
  5
257
100
AcDbEntity
  8
ASSI
100
AcDbPolyline
 62
250
  6
CONTINUOUS
 90
8
 70
0
 10
141.7344810911
 20
124.5313518106
 10
141.7380184554
 20
124.5331734466
 10
141.7513650249
 20
124.537877644
 10
141.7659405226
 20
124.5398155936
 10
141.7815224594
 20
124.5389577133
 10
141.7978729837
 20
124.5353170981
 10
141.8147425116
 20
124.5289493206
 10
141.8318735371
 20
124.519951582
  0
LWPOLYLINE
  5
258
100
AcDbEntity
  8
ASSI
100
AcDbPolyline
 62
250
  6
CONTINUOUS
 90
6
 70
0
 10
143.9807403365
 20
125.7179496028
 10
143.9520463602
 20
125.703409609
 10
143.9214936872
 20
125.6906588213
 10
143.8890823175
 20
125.6796972396
 10
143.8544410947
 20
125.6704311255
 10
143.8179411752
 20
125.6629542175
  0
LINE
  5
259
100
AcDbEntity
  8
ASSI
100
AcDbLine
 62
7
  6
CONTINUOUS
 10
138.6274406944
 20
123.4216672998
 11
136.9382145969
 21
122.5779641601
  0
LWPOLYLINE
  5
25A
100
AcDbEntity
  8
ASSI
100
AcDbPolyline
 62
250
  6
CONTINUOUS
 90
5
 70
0
 10
145.059062446
 20
122.4814069775
 10
145.0973633701
 20
122.4977153114
 10
145.1376034186
 20
122.516530688
 10
145.1794584014
 20
122.5379141077
 10
145.2228722995
 20
122.5620313958
  0
LWPOLYLINE
  5
25B
100
AcDbEntity
  8
ASSI
100
AcDbPolyline
 62
250
  6
CONTINUOUS
 90
6
 70
0
 10
148.1322888417
 20
124.2388565946
 10
148.1398017965
 20
124.2420504285
 10
148.1474240552
 20
124.2450994724
 10
148.1552317806
 20
124.2480211674
 10
148.163245226
 20
124.2508044455
 10
148.1714296561
 20
124.2534173427
  0
LWPOLYLINE
  5
25C
100
AcDbEntity
  8
ASSI
100
AcDbPolyline
 62
250
  6
CONTINUOUS
 90
13
 70
0
 10
150.2024581164
 20
124.1913216825
 10
150.2094502546
 20
124.1941439828
 10
150.2163432377
 20
124.1970632636
 10
150.2231310814
 20
124.2000791547
 10
150.229778935
 20
124.2031762683
 10
150.2363108833
 20
124.2063684388
 10
150.2428027806
 20
124.2097013898
 10
150.2492461815
 20
124.2131782934
 10
150.2556226944
 20
124.2167989981
 10
150.2619801581
 20
124.2206082333
 10
150.2683175976
 20
124.2246234648
 10
150.2745918346
 20
124.2288327399
 10
150.2807800457
 20
124.2332380377
  0
LWPOLYLINE
  5
25D
100
AcDbEntity
  8
ASSI
100
AcDbPolyline
 62
250
  6
CONTINUOUS
 90
6
 70
0
 10
147.9913011694
 20
124.2280578698
 10
148.0050253947
 20
124.2333719613
 10
148.0200867731
 20
124.2358082991
 10
148.0362444717
 20
124.235327926
 10
148.0532401272
 20
124.2319385233
 10
148.0708019775
 20
124.2256942877
  0
LINE
  5
25E
100
AcDbEntity
  8
SUPERFICI
100
AcDbLine
 62
7
  6
CONTINUOUS
 10
140.4645704741
 20
121.2269903803
 11
139.5951278425
 21
120.9164244893
  0
LWPOLYLINE
  5
25F
100
AcDbEntity
  8
ASSI
100
AcDbPolyline
 62
250
  6
CONTINUOUS
 90
3
 70
0
 10
145.0567911187
 20
121.9391123929
 10
144.9891160248
 20
121.9159813616
 10
144.9739765652
 20
121.9108763041
  0
LWPOLYLINE
  5
260
100
AcDbEntity
  8
ASSI
100
AcDbPolyline
 62
7
  6
CONTINUOUS
 90
5
 70
0
 10
148.0892362783
 20
124.2695638009
 10
148.0606686058
 20
124.2603828023
 10
148.0324669794
 20
124.2489907602
 10
148.0048388002
 20
124.235551529
 10
147.9886075549
 20
124.226582026
  0
LINE
  5
261
100
AcDbEntity
  8
ASSI
100
AcDbLine
 62
250
  6
CONTINUOUS
 10
148.1714296561
 20
124.2534173427
 11
148.1797767425
 21
124.2558381337
  0
LWPOLYLINE
  5
262
100
AcDbEntity
  8
RACCORDO
100
AcDbPolyline
 62
250
  6
CONTINUOUS
 90
4
 70
0
 10
145.8493465098
 20
82.1559510329
 10
145.8405764235
 20
82.1534754578
 10
145.8317356943
 20
82.1511696983
 10
145.8316238593
 20
82.151142853
  0
LWPOLYLINE
  5
263
100
AcDbEntity
  8
RACCORDO
100
AcDbPolyline
 62
250
  6
CONTINUOUS
 90
10
 70
0
 10
145.8928200069
 20
82.1311160724
 10
145.8897818211
 20
82.130618695
 10
145.8861911797
 20
82.1309738303
 10
145.8820851491
 20
82.1321777995
 10
145.8775061082
 20
82.1342181559
 10
145.8725013352
 20
82.1370738248
 10
145.8671225279
 20
82.1407153212
 10
145.861425232
 20
82.1451050403
 10
145.8554682607
 20
82.1501976462
 10
145.8493131175
 20
82.1559405504
  0
LWPOLYLINE
  5
264
100
AcDbEntity
  8
SUPERFICI
100
AcDbPolyline
 62
7
  6
CONTINUOUS
 90
5
 70
0
 10
145.9357644977
 20
81.453105741
 10
145.9173563893
 20
81.4532740943
 10
145.8985514392
 20
81.4505907401
 10
145.8795938993
 20
81.4449518479
 10
145.860744556
 20
81.4362791597
  0
LINE
  5
265
100
AcDbEntity
  8
SUPERFICI
100
AcDbLine
 62
7
  6
CONTINUOUS
 10
127.965167046
 20
82.5413159321
 11
142.8333812143
 21
73.9565954138
  0
LINE
  5
266
100
AcDbEntity
  8
SUPERFICI
100
AcDbLine
 62
250
  6
CONTINUOUS
 10
127.8616257354
 20
82.7701843627
 11
142.7298399038
 21
74.1854638444
  0
LWPOLYLINE
  5
267
100
AcDbEntity
  8
SUPERFICI
100
AcDbPolyline
 62
250
  6
CONTINUOUS
 90
9
 70
0
 10
127.965167046
 20
82.5413159321
 10
127.9495671436
 20
82.5515247584
 10
127.9269879295
 20
82.5714407458
 10
127.9074619181
 20
82.5956250011
 10
127.8911959755
 20
82.6238213073
 10
127.8783624289
 20
82.6557309424
 10
127.8690972416
 20
82.6910158438
 10
127.8634985723
 20
82.7293021904
 10
127.8616257354
 20
82.7701843627
  0
LWPOLYLINE
  5
268
100
AcDbEntity
  8
ASSI
100
AcDbPolyline
 62
250
  6
CONTINUOUS
 90
3
 70
0
 10
136.2856077264
 20
123.230993705
 10
136.2650792808
 20
123.2033350044
 10
136.2463257947
 20
123.1749012018
  0
LWPOLYLINE
  5
269
100
AcDbEntity
  8
ASSI
100
AcDbPolyline
 62
250
  6
CONTINUOUS
 90
3
 70
0
 10
136.3320108733
 20
123.2848703974
 10
136.3079182572
 20
123.2581721693
 10
136.2856077264
 20
123.230993705
  0
LWPOLYLINE
  5
26A
100
AcDbEntity
  8
ASSI
100
AcDbPolyline
 62
250
  6
CONTINUOUS
 90
8
 70
0
 10
136.6348331964
 20
123.5367369068
 10
136.6360127558
 20
123.5380361385
 10
136.6400108935
 20
123.5444438718
 10
136.6423918371
 20
123.5522900815
 10
136.643129159
 20
123.5614886664
 10
136.6422148829
 20
123.5719389799
 10
136.6396590309
 20
123.5835273854
 10
136.6354894679
 20
123.5961275582
  0
LINE
  5
26B
100
AcDbEntity
  8
ASSI
100
AcDbLine
 62
250
  6
CONTINUOUS
 10
136.6354894679
 20
123.5961275582
 11
136.3320108733
 21
123.2848703974
  0
LINE
  5
26C
100
AcDbEntity
  8
ASSI
100
AcDbLine
 62
7
  6
CONTINUOUS
 10
136.6348208774
 20
123.5367242632
 11
136.3313422827
 21
123.2254671022
  0
LWPOLYLINE
  5
26D
100
AcDbEntity
  8
ASSI
100
AcDbPolyline
 62
250
  6
CONTINUOUS
 90
3
 70
0
 10
140.1574922143
 20
123.8385248769
 10
140.1520069663
 20
123.8333743344
 10
140.1491208593
 20
123.8271593653
  0
LWPOLYLINE
  5
26E
100
AcDbEntity
  8
ASSI
100
AcDbPolyline
 62
250
  6
CONTINUOUS
 90
10
 70
0
 10
142.8864980459
 20
121.9867227408
 10
142.8700800325
 20
121.9761390502
 10
142.8538840435
 20
121.963490214
 10
142.8381291016
 20
121.9489472855
 10
142.8230282655
 20
121.9327069324
 10
142.8087857483
 20
121.9149887773
 10
142.7955941561
 20
121.896032428
 10
142.7836318829
 20
121.8760942369
 10
142.773060698
 20
121.8554438335
 10
142.7640235587
 20
121.8343604792
  0
LWPOLYLINE
  5
26F
100
AcDbEntity
  8
ASSI
100
AcDbPolyline
 62
250
  6
CONTINUOUS
 90
35
 70
0
 10
144.9250127872
 20
121.8811258719
 10
144.9150902144
 20
121.8749397722
 10
144.9050833842
 20
121.8686272295
 10
144.895014738
 20
121.862196833
 10
144.8849263129
 20
121.8556209195
 10
144.8748653372
 20
121.848937463
 10
144.8647845826
 20
121.8421084896
 10
144.8545844016
 20
121.834992414
 10
144.8443044544
 20
121.8276395544
 10
144.8339050808
 20
121.8199995926
 10
144.8231676522
 20
121.8117799886
 10
144.8120494849
 20
121.8029880074
 10
144.8005932625
 20
121.793616384
 10
144.7887084075
 20
121.7833507828
 10
144.7763334537
 20
121.7721826804
 10
144.7635298672
 20
121.7601206004
 10
144.7503914691
 20
121.7468757773
 10
144.7368878392
 20
121.7324716448
 10
144.7230493978
 20
121.7168847693
 10
144.7090612257
 20
121.6997560846
 10
144.6948491658
 20
121.6810692726
 10
144.6804873754
 20
121.6608406513
 10
144.666383407
 20
121.6387601084
 10
144.6523620492
 20
121.6144763802
 10
144.6385985135
 20
121.5883407304
 10
144.6260259873
 20
121.5610968371
 10
144.6147384774
 20
121.5324403474
 10
144.604641977
 20
121.5026756143
 10
144.5963876536
 20
121.4734593755
 10
144.5902663832
 20
121.4449783881
 10
144.5859872898
 20
121.417045895
 10
144.5833289129
 20
121.390758363
 10
144.5822174326
 20
121.366481281
 10
144.5827266688
 20
121.3438491601
 10
144.5848566217
 20
121.3228620003
  0
LINE
  5
270
100
AcDbEntity
  8
ASSI
100
AcDbLine
 62
250
  6
CONTINUOUS
 10
144.9446977714
 20
121.893197941
 11
144.9250127872
 21
121.8811258719
  0
LWPOLYLINE
  5
271
100
AcDbEntity
  8
ASSI
100
AcDbPolyline
 62
250
  6
CONTINUOUS
 90
3
 70
0
 10
144.9739765652
 20
121.9108763041
 10
144.9642534965
 20
121.9050479392
 10
144.9446977714
 20
121.893197941
  0
LWPOLYLINE
  5
272
100
AcDbEntity
  8
ASSI
100
AcDbPolyline
 62
250
  6
CONTINUOUS
 90
10
 70
0
 10
144.5848566233
 20
121.3228619984
 10
144.601827021
 20
121.3330313884
 10
144.6205001107
 20
121.3421787519
 10
144.6406242734
 20
121.3501808283
 10
144.6619283365
 20
121.3569297895
 10
144.6841252282
 20
121.3623346933
 10
144.7069158459
 20
121.3663227084
 10
144.7299930862
 20
121.3688400963
 10
144.7530459839
 20
121.3698529351
 10
144.7757639014
 20
121.3693475765
  0
LINE
  5
273
100
AcDbEntity
  8
ASSI
100
AcDbLine
 62
250
  6
CONTINUOUS
 10
143.0228934718
 20
122.0682847484
 11
142.8864980459
 21
121.9867227408
  0
LINE
  5
274
100
AcDbEntity
  8
ASSI
100
AcDbLine
 62
250
  6
CONTINUOUS
 10
143.1662233629
 20
121.839313807
 11
143.0298279369
 21
121.7577517994
  0
LINE
  5
275
100
AcDbEntity
  8
ASSI
100
AcDbLine
 62
250
  6
CONTINUOUS
 10
142.3868287753
 20
120.7987463887
 11
141.8068886905
 21
120.4519526653
  0
LINE
  5
276
100
AcDbEntity
  8
ASSI
100
AcDbLine
 62
250
  6
CONTINUOUS
 10
142.5301586663
 20
120.5697754473
 11
142.074616964
 21
120.2973697156
  0
LINE
  5
277
100
AcDbEntity
  8
ASSI
100
AcDbLine
 62
250
  6
CONTINUOUS
 10
146.847050687
 20
123.0212871786
 11
145.6584575814
 21
122.3105299133
  0
LINE
  5
278
100
AcDbEntity
  8
ASSI
100
AcDbLine
 62
250
  6
CONTINUOUS
 10
147.7333173352
 20
123.5512586685
 11
148.4740210894
 21
123.9941861702
  0
LINE
  5
279
100
AcDbEntity
  8
ASSI
100
AcDbLine
 62
250
  6
CONTINUOUS
 10
146.9903805782
 20
122.7923162372
 11
145.8017874724
 21
122.0815589719
  0
LINE
  5
27A
100
AcDbEntity
  8
ASSI
100
AcDbLine
 62
250
  6
CONTINUOUS
 10
147.8766472585
 20
123.3222877464
 11
148.6173509805
 21
123.7652152288
  0
LWPOLYLINE
  5
27B
100
AcDbEntity
  8
ASSI
100
AcDbPolyline
 62
250
  6
CONTINUOUS
 90
7
 70
0
 10
145.4250314462
 20
121.8252714102
 10
145.4098448365
 20
121.8162114641
 10
145.3967943288
 20
121.8063886246
 10
145.3860557591
 20
121.7959352632
 10
145.3777738089
 20
121.7849922482
 10
145.3720600485
 20
121.7737070387
 10
145.3705493665
 20
121.7680577007
  0
LWPOLYLINE
  5
27C
100
AcDbEntity
  8
ASSI
100
AcDbPolyline
 62
250
  6
CONTINUOUS
 90
13
 70
0
 10
148.6173509805
 20
123.7652152288
 10
148.6215847842
 20
123.7676958595
 10
148.6258512412
 20
123.7700801993
 10
148.6301503514
 20
123.7723682483
 10
148.6344663021
 20
123.7745569914
 10
148.6388149061
 20
123.7766494436
 10
148.6432436015
 20
123.7786546496
 10
148.6477558828
 20
123.7805797595
 10
148.6523482555
 20
123.7824176232
 10
148.6570576749
 20
123.7841558352
 10
148.6618964594
 20
123.7857902604
 10
148.6668522906
 20
123.787325034
 10
148.6719251684
 20
123.7887601559
  0
LWPOLYLINE
  5
27D
100
AcDbEntity
  8
ASSI
100
AcDbPolyline
 62
250
  6
CONTINUOUS
 90
10
 70
0
 10
146.9935370298
 20
122.7632095138
 10
147.0121094307
 20
122.7739977152
 10
147.032670942
 20
122.7835667649
 10
147.054893734
 20
122.7917640954
 10
147.0784234901
 20
122.7984590093
 10
147.1028850552
 20
122.8035447637
 10
147.1278884175
 20
122.8069402718
 10
147.1530349268
 20
122.808591396
 10
147.1779236506
 20
122.8084718107
 10
147.2021577666
 20
122.8065834224
  0
LINE
  5
27E
100
AcDbEntity
  8
ASSI
100
AcDbLine
 62
7
  6
CONTINUOUS
 10
147.9886075549
 20
124.226582026
 11
147.9886443747
 21
124.226603301
  0
LINE
  5
27F
100
AcDbEntity
  8
RACCORDO
100
AcDbLine
 62
7
  6
CONTINUOUS
 10
144.2213286665
 20
124.0816086742
 11
147.9066360869
 21
126.209471435
  0
LINE
  5
280
100
AcDbEntity
  8
ASSI
100
AcDbLine
 62
7
  6
CONTINUOUS
 10
145.1227990226
 20
122.571900058
 11
147.9886443747
 21
124.226603301
  0
LINE
  5
281
100
AcDbEntity
  8
ASSI
100
AcDbLine
 62
250
  6
CONTINUOUS
 10
145.2228722995
 20
122.5620313958
 11
148.0886492067
 21
124.2166950654
  0
LWPOLYLINE
  5
282
100
AcDbEntity
  8
ASSI
100
AcDbPolyline
 62
250
  6
CONTINUOUS
 90
13
 70
0
 10
148.4740210894
 20
123.9941861702
 10
148.4811199606
 20
123.9982840098
 10
148.4882746034
 20
124.0022349397
 10
148.4954819097
 20
124.0060336545
 10
148.5027084791
 20
124.0096604565
 10
148.5099812288
 20
124.0131258819
 10
148.5173868156
 20
124.0164631696
 10
148.5249248791
 20
124.0196619832
 10
148.5325866462
 20
124.0227073724
 10
148.5404442442
 20
124.0256121966
 10
148.5485166622
 20
124.0283644862
 10
148.5567705921
 20
124.0309344057
 10
148.5651978177
 20
124.0333008354
  0
LWPOLYLINE
  5
283
100
AcDbEntity
  8
ASSI
100
AcDbPolyline
 62
250
  6
CONTINUOUS
 90
13
 70
0
 10
145.8017874724
 20
122.0815589719
 10
145.767078739
 20
122.0615263546
 10
145.7326933878
 20
122.0428806552
 10
145.6986314189
 20
122.0256218738
 10
145.664919051
 20
122.0097860356
 10
145.6315300653
 20
121.9953371154
 10
145.598385806
 20
121.982167037
 10
145.5654940389
 20
121.9702599239
 10
145.5328469982
 20
121.9596316526
 10
145.5003427305
 20
121.9502217768
 10
145.4679472512
 20
121.9420101477
 10
145.4356945449
 20
121.9350169141
 10
145.4035846115
 20
121.929242076
  0
LWPOLYLINE
  5
284
100
AcDbEntity
  8
ASSI
100
AcDbPolyline
 62
250
  6
CONTINUOUS
 90
10
 70
0
 10
145.1111285397
 20
121.6856949217
 10
145.1014003744
 20
121.6801324673
 10
145.0915426773
 20
121.6747158747
 10
145.0815537557
 20
121.6694316736
 10
145.0714035593
 20
121.6642548884
 10
145.0611113739
 20
121.6591841976
 10
145.0507555028
 20
121.6542359619
 10
145.04032696
 20
121.649382349
 10
145.0298323787
 20
121.6446124392
 10
145.0193935469
 20
121.6399558037
  0
LWPOLYLINE
  5
285
100
AcDbEntity
  8
ASSI
100
AcDbPolyline
 62
7
  6
CONTINUOUS
 90
10
 70
0
 10
145.1227990228
 20
122.5719000581
 10
145.1112542878
 20
122.5653041947
 10
145.0500840639
 20
122.5326782159
 10
144.9901120972
 20
122.5045740506
 10
144.9317611951
 20
122.4810865798
 10
144.8752188878
 20
122.4621677428
 10
144.8205443796
 20
122.4477368348
 10
144.7680009045
 20
122.4377779387
 10
144.7179772841
 20
122.4322515062
 10
144.7100297187
 20
122.4317610479
  0
LWPOLYLINE
  5
286
100
AcDbEntity
  8
ASSI
100
AcDbPolyline
 62
250
  6
CONTINUOUS
 90
10
 70
0
 10
145.6584575814
 20
122.3105299133
 10
145.6064652875
 20
122.2809881753
 10
145.5549696488
 20
122.2549994325
 10
145.5040906008
 20
122.2325161506
 10
145.4542611383
 20
122.2135941008
 10
145.4052531509
 20
122.198013547
 10
145.3562116032
 20
122.1854760428
 10
145.3069505124
 20
122.1760230455
 10
145.257918671
 20
122.1698394402
 10
145.2092488404
 20
122.1670098742
  0
LINE
  5
287
100
AcDbEntity
  8
RACCORDO
100
AcDbLine
 62
250
  6
CONTINUOUS
 10
150.1432083853
 20
124.4543385887
 11
150.8367996845
 21
124.8481714679
  0
LINE
  5
288
100
AcDbEntity
  8
RACCORDO
100
AcDbLine
 62
250
  6
CONTINUOUS
 10
150.2807800457
 20
124.2332380377
 11
150.9739923429
 21
124.6268557132
  0
LWPOLYLINE
  5
289
100
AcDbEntity
  8
ASSI
100
AcDbPolyline
 62
250
  6
CONTINUOUS
 90
7
 70
0
 10
148.0886492067
 20
124.2166950654
 10
148.0958612424
 20
124.2207767548
 10
148.1031020204
 20
124.22470891
 10
148.1103684228
 20
124.2284872412
 10
148.1176229353
 20
124.2320906434
 10
148.1248966985
 20
124.2355334153
 10
148.1322888417
 20
124.2388565946
  0
LWPOLYLINE
  5
28A
100
AcDbEntity
  8
ASSI
100
AcDbPolyline
 62
250
  6
CONTINUOUS
 90
8
 70
0
 10
145.1228674675
 20
122.5719396314
 10
145.1255242619
 20
122.5733942
 10
145.1392484871
 20
122.5787082916
 10
145.1543098655
 20
122.5811446294
 10
145.1704675642
 20
122.5806642564
 10
145.1874632198
 20
122.5772748537
 10
145.2050250702
 20
122.5710306182
 10
145.2228722995
 20
122.5620313958
  0
LWPOLYLINE
  5
28B
100
AcDbEntity
  8
ASSI
100
AcDbPolyline
 62
250
  6
CONTINUOUS
 90
13
 70
0
 10
146.847050687
 20
123.0212871786
 10
146.8748448424
 20
123.0363986533
 10
146.9046051127
 20
123.049759617
 10
146.9363314981
 20
123.0613700697
 10
146.9703892396
 20
123.0713311998
 10
147.0064130962
 20
123.0795418188
 10
147.0433073444
 20
123.0856983611
 10
147.0811112809
 20
123.0897088546
 10
147.1197856091
 20
123.0916652715
 10
147.1581167165
 20
123.0915399629
 10
147.1957000655
 20
123.0893237125
 10
147.2329401938
 20
123.0850257367
 10
147.297527221
 20
123.0738954545
  0
LWPOLYLINE
  5
28C
100
AcDbEntity
  8
RACCORDO
100
AcDbPolyline
 62
7
  6
CONTINUOUS
 90
6
 70
0
 10
151.0068671021
 20
124.1739976932
 10
151.0137933863
 20
124.1777149189
 10
151.0195076623
 20
124.180576129
 10
151.0238934902
 20
124.1825308163
 10
151.0267818083
 20
124.1835726014
 10
151.0280713112
 20
124.1836765691
  0
LINE
  5
28D
100
AcDbEntity
  8
ASSI
100
AcDbLine
 62
250
  6
CONTINUOUS
 10
144.0498879493
 20
119.8071984923
 11
144.0460352274
 21
119.8052842269
  0
LWPOLYLINE
  5
28E
100
AcDbEntity
  8
ASSI
100
AcDbPolyline
 62
250
  6
CONTINUOUS
 90
13
 70
0
 10
146.9903805782
 20
122.7923162363
 10
147.0040431439
 20
122.7990361537
 10
147.0189624861
 20
122.8049123533
 10
147.0350098938
 20
122.809869085
 10
147.0520774776
 20
122.8138403581
 10
147.0699959445
 20
122.8167715374
 10
147.0885274287
 20
122.8186165093
 10
147.1074635313
 20
122.8193612752
 10
147.1266801322
 20
122.8189988001
 10
147.1460559253
 20
122.817500194
 10
147.1654317814
 20
122.814852493
 10
147.1845987812
 20
122.8110881427
 10
147.203356477
 20
122.8062391909
  0
LWPOLYLINE
  5
28F
100
AcDbEntity
  8
ASSI
100
AcDbPolyline
 62
250
  6
CONTINUOUS
 90
27
 70
0
 10
144.9784893562
 20
121.6219782974
 10
144.968375317
 20
121.6174702211
 10
144.9581657471
 20
121.6127950066
 10
144.9477790831
 20
121.6079265215
 10
144.9372577852
 20
121.6028491545
 10
144.9266271417
 20
121.5974443318
 10
144.9158209773
 20
121.5916691016
 10
144.9048594422
 20
121.5855091314
 10
144.8938948125
 20
121.5788680665
 10
144.8829334885
 20
121.5717144906
 10
144.8719603951
 20
121.5640055705
 10
144.8611079078
 20
121.5556062504
 10
144.8503893332
 20
121.5464780745
 10
144.8398322373
 20
121.5365885393
 10
144.8296095655
 20
121.5257982951
 10
144.8197227584
 20
121.5139472012
 10
144.8102894693
 20
121.5011668953
 10
144.8016971857
 20
121.48776757
 10
144.794126161
 20
121.4736570773
 10
144.7876064261
 20
121.4590074661
 10
144.7822991033
 20
121.4445387553
 10
144.778380049
 20
121.4303689861
 10
144.7757927908
 20
121.4164910384
 10
144.7742797354
 20
121.403398709
 10
144.7737348783
 20
121.391251088
 10
144.7742376307
 20
121.3799025478
 10
144.775764531
 20
121.3693474903
  0
LINE
  5
290
100
AcDbEntity
  8
ASSI
100
AcDbLine
 62
250
  6
CONTINUOUS
 10
145.0193935469
 20
121.6399558037
 11
144.9784893562
 21
121.6219782974
  0
LWPOLYLINE
  5
291
100
AcDbEntity
  8
ASSI
100
AcDbPolyline
 62
250
  6
CONTINUOUS
 90
6
 70
0
 10
136.2463257947
 20
123.1749012018
 10
136.2293543938
 20
123.1459871629
 10
136.2141864555
 20
123.1174774858
 10
136.2009524882
 20
123.0897496277
 10
136.1895219835
 20
123.0624261314
 10
136.1795247931
 20
123.0352592231
  0
LWPOLYLINE
  5
292
100
AcDbEntity
  8
ASSI
100
AcDbPolyline
 62
250
  6
CONTINUOUS
 90
6
 70
0
 10
136.3313440118
 20
123.2254688759
 10
136.3365526773
 20
123.2332323477
 10
136.3392577433
 20
123.243251732
 10
136.3393967723
 20
123.2553399856
 10
136.3369673994
 20
123.2692918442
 10
136.3320108733
 20
123.2848703974
  0
LINE
  5
293
100
AcDbEntity
  8
ASSI
100
AcDbLine
 62
250
  6
CONTINUOUS
 10
147.8476003201
 20
123.2708803101
 11
147.8614658847
 21
123.2818976735
  0
LWPOLYLINE
  5
294
100
AcDbEntity
  8
ASSI
100
AcDbPolyline
 62
7
  6
CONTINUOUS
 90
7
 70
0
 10
145.4369539921
 20
120.6783792705
 10
145.4259891734
 20
120.6702334346
 10
145.4165418039
 20
120.6615877738
 10
145.4085499567
 20
120.6523697999
 10
145.4020755586
 20
120.642652001
 10
145.3973043902
 20
120.6326518412
 10
145.3947073742
 20
120.6238309778
  0
LINE
  5
295
100
AcDbEntity
  8
ASSI
100
AcDbLine
 62
7
  6
CONTINUOUS
 10
144.2411526874
 20
119.8017918429
 11
144.9362587008
 21
120.2919207234
  0
LINE
  5
296
100
AcDbEntity
  8
RACCORDO
100
AcDbLine
 62
250
  6
CONTINUOUS
 10
144.304333289
 20
119.7656379165
 11
145.0397931058
 21
120.2842208229
  0
LINE
  5
297
100
AcDbEntity
  8
RACCORDO
100
AcDbLine
 62
7
  6
CONTINUOUS
 10
144.9363403281
 20
120.2919781969
 11
144.9362621863
 21
120.2919231811
  0
LINE
  5
298
100
AcDbEntity
  8
ASSI
100
AcDbLine
 62
7
  6
CONTINUOUS
 10
145.8233178561
 20
119.2668580121
 11
146.6538460297
 21
119.8016483396
  0
LWPOLYLINE
  5
299
100
AcDbEntity
  8
ASSI
100
AcDbPolyline
 62
7
  6
CONTINUOUS
 90
6
 70
0
 10
147.9155354098
 20
122.0952618647
 10
147.9016579471
 20
122.0863384532
 10
147.8897036757
 20
122.0768127161
 10
147.8796725953
 20
122.0666846533
 10
147.8714813954
 20
122.0558204545
 10
147.8695811084
 20
122.0523441213
  0
LINE
  5
29A
100
AcDbEntity
  8
ASSI
100
AcDbLine
 62
250
  6
CONTINUOUS
 10
147.8614658847
 20
123.2818976735
 11
147.8778781273
 21
123.2920295371
  0
LINE
  5
29B
100
AcDbEntity
  8
ASSI
100
AcDbLine
 62
7
  6
CONTINUOUS
 10
145.4494362598
 20
120.6860252813
 11
145.4369539921
 21
120.6783792705
  0
LINE
  5
29C
100
AcDbEntity
  8
RACCORDO
100
AcDbLine
 62
250
  6
CONTINUOUS
 10
152.7907796513
 20
122.6183052126
 11
148.7605404659
 21
120.2779857703
  0
LINE
  5
29D
100
AcDbEntity
  8
RACCORDO
100
AcDbLine
 62
250
  6
CONTINUOUS
 10
152.936837147
 20
122.3329874962
 11
149.0801493526
 21
120.0934476048
  0
LINE
  5
29E
100
AcDbEntity
  8
RACCORDO
100
AcDbLine
 62
250
  6
CONTINUOUS
 10
145.0362276988
 20
119.3430512571
 11
145.8530385754
 21
119.8146630811
  0
LINE
  5
29F
100
AcDbEntity
  8
RACCORDO
100
AcDbLine
 62
250
  6
CONTINUOUS
 10
145.3186698167
 20
119.179972718
 11
145.9942661186
 21
119.5700498011
  0
LINE
  5
2A0
100
AcDbEntity
  8
RACCORDO
100
AcDbLine
 62
250
  6
CONTINUOUS
 10
148.0980626683
 20
120.6118737781
 11
152.61402988
 21
123.2193456007
  0
LINE
  5
2A1
100
AcDbEntity
  8
ASSI
100
AcDbLine
 62
7
  6
CONTINUOUS
 10
145.4957549575
 20
119.0777259771
 11
145.8233178561
 21
119.2668580121
  0
LINE
  5
2A2
100
AcDbEntity
  8
ASSI
100
AcDbLine
 62
250
  6
CONTINUOUS
 10
145.670432433
 20
118.912044899
 11
145.0721749176
 21
118.5666173215
  0
LINE
  5
2A3
100
AcDbEntity
  8
RACCORDO
100
AcDbLine
 62
250
  6
CONTINUOUS
 10
148.4936467852
 20
120.4320868366
 11
152.7907796513
 21
122.9132060168
  0
LINE
  5
2A4
100
AcDbEntity
  8
ASSI
100
AcDbLine
 62
250
  6
CONTINUOUS
 10
145.8118322501
 20
118.6671332319
 11
145.3549606444
 21
118.403340387
  0
LINE
  5
2A5
100
AcDbEntity
  8
SUPERFICI
100
AcDbLine
 62
250
  6
CONTINUOUS
 10
145.4781916226
 20
118.3321883646
 11
143.0741383456
 21
116.9441249782
  0
LINE
  5
2A6
100
AcDbEntity
  8
ASSI
100
AcDbLine
 62
7
  6
CONTINUOUS
 10
150.2567775643
 20
123.4430577175
 11
147.9155354098
 21
122.0952618647
  0
LINE
  5
2A7
100
AcDbEntity
  8
ASSI
100
AcDbLine
 62
7
  6
CONTINUOUS
 10
147.1263439148
 20
121.6409436099
 11
145.9184704697
 21
120.9456004015
  0
LINE
  5
2A8
100
AcDbEntity
  8
RACCORDO
100
AcDbLine
 62
250
  6
CONTINUOUS
 10
148.3865921304
 20
119.5205378874
 11
149.1962717119
 21
119.9777816401
  0
LINE
  5
2A9
100
AcDbEntity
  8
ASSI
100
AcDbLine
 62
7
  6
CONTINUOUS
 10
145.9184704697
 20
120.9456004015
 11
145.4494369989
 21
120.6860256903
  0
LINE
  5
2AA
100
AcDbEntity
  8
ASSI
100
AcDbLine
 62
7
  6
CONTINUOUS
 10
144.7194939711
 20
120.2820571846
 11
143.3825731817
 21
119.5421721881
  0
LINE
  5
2AB
100
AcDbEntity
  8
ASSI
100
AcDbLine
 62
7
  6
CONTINUOUS
 10
144.0460352274
 20
119.8052842269
 11
143.4665761858
 21
119.4936699063
  0
LINE
  5
2AC
100
AcDbEntity
  8
ASSI
100
AcDbLine
 62
250
  6
CONTINUOUS
 10
144.1432285673
 20
119.7938332707
 11
143.5237147746
 21
119.4606788013
  0
LINE
  5
2AD
100
AcDbEntity
  8
ASSI
100
AcDbLine
 62
250
  6
CONTINUOUS
 10
145.6977000215
 20
118.1165019241
 11
148.3865329261
 21
119.5205720712
  0
LWPOLYLINE
  5
2AE
100
AcDbEntity
  8
RACCORDO
100
AcDbPolyline
 62
250
  6
CONTINUOUS
 90
8
 70
0
 10
152.936837147
 20
122.3329874962
 10
152.9503154722
 20
122.3397149147
 10
152.96322915
 20
122.344471966
 10
152.9753620998
 20
122.3471790534
 10
152.9865113054
 20
122.3477908817
 10
152.9964902103
 20
122.346297215
 10
153.0051318401
 20
122.3427230492
 10
153.0088710218
 20
122.3401996857
  0
LWPOLYLINE
  5
2AF
100
AcDbEntity
  8
RACCORDO
100
AcDbPolyline
 62
250
  6
CONTINUOUS
 90
8
 70
0
 10
153.2811182587
 20
122.064108848
 10
153.294596556
 20
122.0708362543
 10
153.3075102124
 20
122.075593303
 10
153.319643148
 20
122.0783003961
 10
153.3307923459
 20
122.0789122364
 10
153.3407712502
 20
122.0774185864
 10
153.3494128869
 20
122.0738444387
 10
153.3531039334
 20
122.0713585289
  0
LWPOLYLINE
  5
2B0
100
AcDbEntity
  8
SUPERFICI
100
AcDbPolyline
 62
250
  6
CONTINUOUS
 90
16
 70
0
 10
143.4275705822
 20
116.3319623879
 10
143.3883463359
 20
116.3125912312
 10
143.3458723589
 20
116.2956580879
 10
143.3006012741
 20
116.2813434062
 10
143.2530098514
 20
116.2697985523
 10
143.2036104875
 20
116.2611484068
 10
143.152947605
 20
116.2554866218
 10
143.1015740151
 20
116.2528706017
 10
143.0500250073
 20
116.2533232949
 10
142.9988304936
 20
116.2568384655
 10
142.9484653015
 20
116.2633900268
 10
142.8995384091
 20
116.2729053987
 10
142.8527472511
 20
116.2852303884
 10
142.8086168225
 20
116.3001816762
 10
142.7675172294
 20
116.3175865682
 10
142.7298399038
 20
116.3372361266
  0
LWPOLYLINE
  5
2B1
100
AcDbEntity
  8
RACCORDO
100
AcDbPolyline
 62
250
  6
CONTINUOUS
 90
7
 70
0
 10
152.61402988
 20
123.2193456007
 10
152.6277037394
 20
123.2259403361
 10
152.6411178245
 20
123.2303578904
 10
152.6540476813
 20
123.2325243461
 10
152.6662769588
 20
123.2324034525
 10
152.6776010281
 20
123.2299972325
 10
152.6871445077
 20
123.2257484787
  0
LWPOLYLINE
  5
2B2
100
AcDbEntity
  8
RACCORDO
100
AcDbPolyline
 62
250
  6
CONTINUOUS
 90
7
 70
0
 10
149.1962717119
 20
119.9777816401
 10
149.2099455712
 20
119.9843763757
 10
149.2233596561
 20
119.9887939301
 10
149.2362895129
 20
119.9909603858
 10
149.2485187904
 20
119.9908394922
 10
149.2598428598
 20
119.9884332721
 10
149.2693724081
 20
119.9841925427
  0
LINE
  5
2B3
100
AcDbEntity
  8
RACCORDO
100
AcDbLine
 62
250
  6
CONTINUOUS
 10
153.4271757544
 20
89.7293788229
 11
149.9399121758
 21
88.7424318481
  0
LINE
  5
2B4
100
AcDbEntity
  8
RACCORDO
100
AcDbLine
 62
250
  6
CONTINUOUS
 10
153.3467266896
 20
89.9236897235
 11
149.9399121758
 21
88.9595110194
  0
LINE
  5
2B5
100
AcDbEntity
  8
RACCORDO
100
AcDbLine
 62
250
  6
CONTINUOUS
 10
149.9399121758
 20
89.3120899384
 11
153.0434282886
 21
90.098810419
  0
LINE
  5
2B6
100
AcDbEntity
  8
RACCORDO
100
AcDbLine
 62
7
  6
CONTINUOUS
 10
149.9399121758
 20
89.3396453495
 11
152.9791181872
 21
90.1100636515
  0
LWPOLYLINE
  5
2B7
100
AcDbEntity
  8
RACCORDO
100
AcDbPolyline
 62
250
  6
CONTINUOUS
 90
6
 70
0
 10
153.0434282886
 20
90.098810419
 10
153.0541825966
 20
90.1009715317
 10
153.0645483187
 20
90.1015816049
 10
153.0743997064
 20
90.1006122994
 10
153.0836071681
 20
90.0980561234
 10
153.090978416
 20
90.0945652109
  0
LWPOLYLINE
  5
2B8
100
AcDbEntity
  8
RACCORDO
100
AcDbPolyline
 62
250
  6
CONTINUOUS
 90
6
 70
0
 10
153.3467266896
 20
89.9236897235
 10
153.3575575362
 20
89.9258608643
 10
153.3679933296
 20
89.9264581898
 10
153.3779055832
 20
89.9254528905
 10
153.387182714
 20
89.9228296527
 10
153.3941203526
 20
89.9195344722
  0
LWPOLYLINE
  5
2B9
100
AcDbEntity
  8
SUPERFICI
100
AcDbPolyline
 62
7
  6
CONTINUOUS
 90
3
 70
0
 10
145.9705068254
 20
81.4447324666
 10
145.953549964
 20
81.4502109578
 10
145.9357644977
 20
81.453105741
  0
LWPOLYLINE
  5
2BA
100
AcDbEntity
  8
SUPERFICI
100
AcDbPolyline
 62
7
  6
CONTINUOUS
 90
10
 70
0
 10
146.3689471303
 20
81.2157387527
 10
146.3555920186
 20
81.2215306449
 10
146.3415258048
 20
81.2254581048
 10
146.326748489
 20
81.2275211326
 10
146.3111496439
 20
81.2277083726
 10
146.2948396968
 20
81.2260311805
 10
146.2781499291
 20
81.2225236226
 10
146.2611907681
 20
81.2171970546
 10
146.2438517866
 20
81.2100401208
 10
146.2261329846
 20
81.2010528214
  0
LINE
  5
2BB
100
AcDbEntity
  8
SUPERFICI
100
AcDbLine
 62
7
  6
CONTINUOUS
 10
146.4620137572
 20
81.1882765115
 11
145.9798143666
 21
81.4404191335
  0
LINE
  5
2BC
100
AcDbEntity
  8
RACCORDO
100
AcDbLine
 62
7
  6
CONTINUOUS
 10
146.7331850053
 20
81.0243575989
 11
146.3689471303
 21
81.2157387527
  0
LWPOLYLINE
  5
2BD
100
AcDbEntity
  8
SUPERFICI
100
AcDbPolyline
 62
250
  6
CONTINUOUS
 90
9
 70
0
 10
127.715179126
 20
82.9743216593
 10
127.7162938111
 20
82.9550552286
 10
127.7223818729
 20
82.925496158
 10
127.7337287789
 20
82.8964159273
 10
127.7502088247
 20
82.8681661528
 10
127.7715549577
 20
82.8411495246
 10
127.7974496795
 20
82.8156691682
 10
127.8275938947
 20
82.7919387783
 10
127.8616257354
 20
82.7701843627
  0
LWPOLYLINE
  5
2BE
100
AcDbEntity
  8
0
100
AcDbPolyline
 62
7
  6
CONTINUOUS
 90
35
 70
0
 10
125.7954169173
 20
96.8327542538
 10
125.7995806564
 20
96.6687337282
 10
125.8117035263
 20
96.5017381657
 10
125.8317855272
 20
96.3317675662
 10
125.8599481979
 20
96.1582280121
 10
125.8960699994
 20
95.981713421
 10
125.9397863152
 20
95.8040055465
 10
125.9911740639
 20
95.6250923029
 10
126.0501563268
 20
95.444985776
 10
126.116137732
 20
95.2655039765
 10
126.1891891679
 20
95.0866532319
 10
126.2692397461
 20
94.9084272148
 10
126.3554814291
 20
94.732624954
 10
126.4479769213
 20
94.5592709977
 10
126.5466635184
 20
94.3883407978
 10
126.6505450692
 20
94.2215597384
 10
126.7596741891
 20
94.0589698427
 10
126.8739982627
 20
93.9005290876
 10
126.992363293
 20
93.7478367877
 10
127.1148102074
 20
93.6009511643
 10
127.2412980785
 20
93.4598139961
 10
127.3705501267
 20
93.3258499339
 10
127.5025943482
 20
93.1991316282
 10
127.6374027468
 20
93.0795864284
 10
127.7736145549
 20
92.9684210342
 10
127.9112439865
 20
92.8657203177
 10
128.0502768276
 20
92.7713994068
 10
128.1893096687
 20
92.6864103848
 10
128.3283425098
 20
92.6108477668
 10
128.4673753509
 20
92.5446170378
 10
128.6050047825
 20
92.4883867366
 10
128.7412165906
 20
92.442258149
 10
128.8760249892
 20
92.4061299892
 10
129.0080692106
 20
92.3803669378
 10
129.0437942043
 20
92.3751267972
  0
LINE
  5
2BF
100
AcDbEntity
  8
SUPERFICI
100
AcDbLine
 62
7
  6
CONTINUOUS
 10
127.715179126
 20
82.9743216593
 11
127.715179126
 21
93.0161114479
  0
LINE
  5
2C0
100
AcDbEntity
  8
SUPERFICI
100
AcDbLine
 62
7
  6
CONTINUOUS
 10
127.715179126
 20
100.5396108152
 11
127.715179126
 21
125.1260939416
  0
LINE
  5
2C1
100
AcDbEntity
  8
SUPERFICI
100
AcDbLine
 62
250
  6
CONTINUOUS
 10
127.8616257354
 20
82.7701843627
 11
127.8616257354
 21
92.902746046
  0
LINE
  5
2C2
100
AcDbEntity
  8
SUPERFICI
100
AcDbLine
 62
250
  6
CONTINUOUS
 10
127.8616257354
 20
100.6307939761
 11
127.8616257354
 21
124.9219566449
  0
LWPOLYLINE
  5
2C3
100
AcDbEntity
  8
SUPERFICI
100
AcDbPolyline
 62
250
  6
CONTINUOUS
 90
16
 70
0
 10
127.8616257354
 20
124.9219566449
 10
127.8634985723
 20
124.9650015223
 10
127.8690972416
 20
125.0097530718
 10
127.8783624289
 20
125.0557371792
 10
127.8911959755
 20
125.1024666722
 10
127.9074619181
 20
125.1494464814
 10
127.9269879295
 20
125.1961788851
 10
127.9495671436
 20
125.2421687831
 10
127.9749603482
 20
125.2869289417
 10
128.0028985185
 20
125.3299851556
 10
128.0330856674
 20
125.3708812716
 10
128.0652019811
 20
125.4091840213
 10
128.0989072075
 20
125.444487611
 10
128.1338442611
 20
125.4764180216
 10
128.169643006
 20
125.5046369708
 10
128.2059241772
 20
125.5288454965
  0
LWPOLYLINE
  5
2C4
100
AcDbEntity
  8
0
100
AcDbPolyline
 62
7
  6
CONTINUOUS
 90
3
 70
0
 10
126.6343571678
 20
99.394535492
 10
126.5948577521
 20
99.2917600927
 10
126.581163101
 20
99.249469338
  0
LWPOLYLINE
  5
2C5
100
AcDbEntity
  8
0
100
AcDbPolyline
 62
7
  6
CONTINUOUS
 90
8
 70
0
 10
125.9530295158
 20
97.7281424985
 10
125.9397863152
 20
97.6947887991
 10
125.8960699994
 20
97.5675634304
 10
125.8599481979
 20
97.4327613903
 10
125.8317855272
 20
97.2917433822
 10
125.8117035263
 20
97.1449629741
 10
125.7995806564
 20
96.9919665979
 10
125.7954169173
 20
96.8327542538
  0
LINE
  5
2C6
100
AcDbEntity
  8
0
100
AcDbLine
 62
7
  6
CONTINUOUS
 10
126.5234363784
 20
99.123245131
 11
125.9529784144
 21
97.7280175285
  0
LINE
  5
2C7
100
AcDbEntity
  8
0
100
AcDbLine
 62
7
  6
CONTINUOUS
 10
126.6606960784
 20
99.4565761586
 11
126.6343571678
 21
99.394535492
  0
LWPOLYLINE
  5
2C8
100
AcDbEntity
  8
0
100
AcDbPolyline
 62
7
  6
CONTINUOUS
 90
3
 70
0
 10
126.5234363784
 20
99.123245131
 10
126.5478451106
 20
99.1807285631
 10
126.6176069778
 20
99.3246593569
  0
LINE
  5
2C9
100
AcDbEntity
  8
ASSI
100
AcDbLine
 62
7
  6
CONTINUOUS
 10
138.587227846
 20
123.2562845327
 11
138.9690401167
 21
124.0661550485
  0
LINE
  5
2CA
100
AcDbEntity
  8
ASSI
100
AcDbLine
 62
250
  6
CONTINUOUS
 10
138.6456570943
 20
123.1819295249
 11
139.0274693649
 21
123.9918000407
  0
LINE
  5
2CB
100
AcDbEntity
  8
0
100
AcDbLine
 62
7
  6
CONTINUOUS
 10
126.735933006
 20
99.6119434277
 11
126.6606960784
 21
99.4565761586
  0
LWPOLYLINE
  5
2CC
100
AcDbEntity
  8
ASSI
100
AcDbPolyline
 62
7
  6
CONTINUOUS
 90
13
 70
0
 10
138.5872287809
 20
123.2562865152
 10
138.5770620239
 20
123.2359542096
 10
138.5647350017
 20
123.2139508208
 10
138.5511440412
 20
123.1921944891
 10
138.5364750085
 20
123.1709921013
 10
138.5209385818
 20
123.1506419928
 10
138.5047070484
 20
123.1313486989
 10
138.488011009
 20
123.1133469843
 10
138.4711257271
 20
123.0968791904
 10
138.4543665429
 20
123.0821687044
 10
138.4380954633
 20
123.0694118511
 10
138.422659626
 20
123.0587314568
 10
138.4091375574
 20
123.0505865431
  0
LINE
  5
2CD
100
AcDbEntity
  8
0
100
AcDbLine
 62
7
  6
CONTINUOUS
 10
126.6176069778
 20
99.3246593569
 11
126.6959079928
 21
99.4592664021
  0
LWPOLYLINE
  5
2CE
100
AcDbEntity
  8
ASSI
100
AcDbPolyline
 62
7
  6
CONTINUOUS
 90
7
 70
0
 10
142.9916034113
 20
125.2366146655
 10
142.9919587896
 20
125.2371694556
 10
142.9914209181
 20
125.2365456985
 10
142.9886768209
 20
125.2337633878
 10
142.9835036885
 20
125.2293771478
 10
142.9760509247
 20
125.2240360219
 10
142.9655988024
 20
125.2176928038
  0
LWPOLYLINE
  5
2CF
100
AcDbEntity
  8
ASSI
100
AcDbPolyline
 62
250
  6
CONTINUOUS
 90
11
 70
0
 10
145.2277624785
 20
121.7788069435
 10
145.2138932458
 20
121.7650593738
 10
145.2060837751
 20
121.7575063216
 10
145.1975587321
 20
121.7495737945
 10
145.1883036807
 20
121.7412383576
 10
145.1781618215
 20
121.7325498461
 10
145.1670205533
 20
121.7235843505
 10
145.1548956819
 20
121.7143527859
 10
145.1416767455
 20
121.7048996926
 10
145.1271441012
 20
121.6953186757
 10
145.1111285397
 20
121.6856949217
  0
LWPOLYLINE
  5
2D0
100
AcDbEntity
  8
ASSI
100
AcDbPolyline
 62
250
  6
CONTINUOUS
 90
3
 70
0
 10
147.8533495171
 20
123.3038614491
 10
147.8643535361
 20
123.3134864873
 10
147.8766472525
 20
123.3222877135
  0
LWPOLYLINE
  5
2D1
100
AcDbEntity
  8
RACCORDO
100
AcDbPolyline
 62
250
  6
CONTINUOUS
 90
7
 70
0
 10
152.7907796513
 20
122.9132060168
 10
152.8033273588
 20
122.9217514183
 10
152.8138596139
 20
122.9311605229
 10
152.8222001865
 20
122.9412758885
 10
152.8282095203
 20
122.9519282563
 10
152.8317870664
 20
122.9629393814
 10
152.8328786196
 20
122.9732905441
  0
LWPOLYLINE
  5
2D2
100
AcDbEntity
  8
RACCORDO
100
AcDbPolyline
 62
250
  6
CONTINUOUS
 90
7
 70
0
 10
152.7907796513
 20
122.6183052126
 10
152.8033273127
 20
122.6268505804
 10
152.8138595445
 20
122.6362596509
 10
152.8222001142
 20
122.6463749851
 10
152.8282094616
 20
122.6570273262
 10
152.8317870343
 20
122.668038432
 10
152.8328786813
 20
122.6784682681
  0
LWPOLYLINE
  5
2D3
100
AcDbEntity
  8
RACCORDO
100
AcDbPolyline
 62
250
  6
CONTINUOUS
 90
7
 70
0
 10
153.4271757544
 20
121.7787911317
 10
153.4397234193
 20
121.7873365022
 10
153.4502556528
 20
121.7967455755
 10
153.4585962228
 20
121.8068609122
 10
153.4646055692
 20
121.8175132554
 10
153.4681831398
 20
121.8285243627
 10
153.4692747577
 20
121.8389025384
  0
LWPOLYLINE
  5
2D4
100
AcDbEntity
  8
SUPERFICI
100
AcDbPolyline
 62
250
  6
CONTINUOUS
 90
16
 70
0
 10
143.0741383456
 20
116.9441249782
 10
143.0378571744
 20
116.9199164524
 10
143.0020584294
 20
116.8916975033
 10
142.9671213758
 20
116.8597670927
 10
142.9334161494
 20
116.824463503
 10
142.9012998357
 20
116.7861607533
 10
142.8711126869
 20
116.7452646373
 10
142.8431745166
 20
116.7022084233
 10
142.817781312
 20
116.6574482648
 10
142.7952020978
 20
116.6114583668
 10
142.7756760865
 20
116.564725963
 10
142.7594101438
 20
116.5177461539
 10
142.7465765972
 20
116.4710166609
 10
142.7373114099
 20
116.4250325535
 10
142.7317127407
 20
116.3802810039
 10
142.7298399038
 20
116.3372361266
  0
LWPOLYLINE
  5
2D5
100
AcDbEntity
  8
ASSI
100
AcDbPolyline
 62
250
  6
CONTINUOUS
 90
9
 70
0
 10
145.8118322501
 20
118.6671332319
 10
145.8254871632
 20
118.6761970463
 10
145.8374344609
 20
118.6860282271
 10
145.8475463015
 20
118.6965198747
 10
145.8557105647
 20
118.7075513571
 10
145.8618472922
 20
118.7190093152
 10
145.8658972526
 20
118.7307911674
 10
145.8678087011
 20
118.7427965438
 10
145.867964266
 20
118.7472940509
  0
LWPOLYLINE
  5
2D6
100
AcDbEntity
  8
ASSI
100
AcDbPolyline
 62
250
  6
CONTINUOUS
 90
8
 70
0
 10
145.8118322501
 20
118.2978222423
 10
145.8254386146
 20
118.3068502404
 10
145.8373536512
 20
118.3166428491
 10
145.8474493833
 20
118.3270948937
 10
145.8556175795
 20
118.3380944385
 10
145.8617701837
 20
118.3495230469
 10
145.8658408455
 20
118.3612569439
 10
145.8676461534
 20
118.3723110037
  0
LINE
  5
2D7
100
AcDbEntity
  8
RACCORDO
100
AcDbLine
 62
250
  6
CONTINUOUS
 10
147.5569520057
 20
117.6625740665
 11
149.9687465909
 21
119.1260586732
  0
LINE
  5
2D8
100
AcDbEntity
  8
RACCORDO
100
AcDbLine
 62
7
  6
CONTINUOUS
 10
147.691452024
 20
117.5611328666
 11
149.9732613367
 21
118.9453622918
  0
LINE
  5
2D9
100
AcDbEntity
  8
RACCORDO
100
AcDbLine
 62
250
  6
CONTINUOUS
 10
153.2811182587
 20
122.064108848
 11
149.4649132972
 21
119.8480769313
  0
LINE
  5
2DA
100
AcDbEntity
  8
RACCORDO
100
AcDbLine
 62
250
  6
CONTINUOUS
 10
153.4271757544
 20
121.7787911317
 11
149.7027931859
 21
119.6160795569
  0
LINE
  5
2DB
100
AcDbEntity
  8
SUPERFICI
100
AcDbLine
 62
250
  6
CONTINUOUS
 10
145.8316238593
 20
117.7200257743
 11
143.4275705822
 21
116.3319623879
  0
LINE
  5
2DC
100
AcDbEntity
  8
RACCORDO
100
AcDbLine
 62
250
  6
CONTINUOUS
 10
146.3796316147
 20
115.2807529356
 11
145.8316238593
 21
114.9643401258
  0
LWPOLYLINE
  5
2DD
100
AcDbEntity
  8
RACCORDO
100
AcDbPolyline
 62
250
  6
CONTINUOUS
 90
9
 70
0
 10
149.9687465909
 20
119.1260586732
 10
149.9813838989
 20
119.1332522701
 10
149.9927451517
 20
119.1395466381
 10
150.0026133367
 20
119.1448171827
 10
150.0108069643
 20
119.1489610136
 10
150.0171212196
 20
119.1518672427
 10
150.0213813759
 20
119.1534513428
 10
150.0235126562
 20
119.1536874028
 10
150.0237140668
 20
119.153528868
  0
LINE
  5
2DE
100
AcDbEntity
  8
RACCORDO
100
AcDbLine
 62
250
  6
CONTINUOUS
 10
149.0296000951
 20
118.8568960974
 11
149.8610043349
 21
119.3259957829
  0
LWPOLYLINE
  5
2DF
100
AcDbEntity
  8
RACCORDO
100
AcDbPolyline
 62
250
  6
CONTINUOUS
 90
8
 70
0
 10
149.8610043349
 20
119.3259957829
 10
149.8725208263
 20
119.3323325121
 10
149.882428626
 20
119.3375551087
 10
149.8905619633
 20
119.3415761936
 10
149.89678475
 20
119.3443284877
 10
149.9009928699
 20
119.3457659458
 10
149.9031159375
 20
119.3458645336
 10
149.9033090104
 20
119.3456907408
  0
LINE
  5
2E0
100
AcDbEntity
  8
ASSI
100
AcDbLine
 62
250
  6
CONTINUOUS
 10
145.8316238593
 20
117.1956208619
 11
149.0296000951
 21
118.8568960974
  0
LINE
  5
2E1
100
AcDbEntity
  8
SUPERFICI
100
AcDbLine
 62
250
  6
CONTINUOUS
 10
146.2261329846
 20
81.2010528214
 11
145.8391819228
 21
81.4244735148
  0
LINE
  5
2E2
100
AcDbEntity
  8
SUPERFICI
100
AcDbLine
 62
250
  6
CONTINUOUS
 10
146.3689471303
 20
81.2157387527
 11
145.9798143666
 21
81.4404191335
  0
LINE
  5
2E3
100
AcDbEntity
  8
RACCORDO
100
AcDbLine
 62
7
  6
CONTINUOUS
 10
146.4620137572
 20
81.1882765115
 11
146.7331850053
 21
81.0317056314
  0
LINE
  5
2E4
100
AcDbEntity
  8
RACCORDO
100
AcDbLine
 62
250
  6
CONTINUOUS
 10
146.6506028161
 20
82.5682627656
 11
146.669949822
 21
82.5568885084
  0
LWPOLYLINE
  5
2E5
100
AcDbEntity
  8
RACCORDO
100
AcDbPolyline
 62
250
  6
CONTINUOUS
 90
31
 70
0
 10
129.927430614
 20
101.82345484
 10
129.9073960514
 20
102.0111135498
 10
129.8851326075
 20
102.3508525193
 10
129.8776722711
 20
102.682044124
 10
129.8851337974
 20
103.004619733
 10
129.9073984311
 20
103.3186479773
 10
129.9442879762
 20
103.6215735434
 10
129.9959201995
 20
103.9133085048
 10
130.0621773341
 20
104.193940788
 10
130.1425278837
 20
104.461178859
 10
130.2370865503
 20
104.7149164843
 10
130.3457386319
 20
104.9552598975
 10
130.4676085259
 20
105.1802362654
 10
130.6028055813
 20
105.3897224964
 10
130.7512204492
 20
105.5838416821
 10
130.9116494802
 20
105.7609902646
 10
131.0841952152
 20
105.9210303741
 10
131.2687551134
 20
106.0640998805
 10
131.463817903
 20
106.1890088349
 10
131.6694729493
 20
106.2956053021
 10
131.8856308869
 20
106.3840412174
 10
132.1105123486
 20
106.4535824375
 10
132.3441862532
 20
106.5040707399
 10
132.5865836818
 20
106.5356643472
 10
132.8357185098
 20
106.5481037832
 10
133.0916477717
 20
106.541230924
 10
133.3543144329
 20
106.5152038935
 10
133.6215612659
 20
106.4702375878
 10
133.8934535869
 20
106.406159144
 10
134.1699260796
 20
106.323141425
 10
134.448625567
 20
106.2219179153
  0
LWPOLYLINE
  5
2E6
100
AcDbEntity
  8
SUPERFICI
100
AcDbPolyline
 62
250
  6
CONTINUOUS
 90
9
 70
0
 10
127.7151791264
 20
125.1260825347
 10
127.7162956623
 20
125.1068115378
 10
127.7223870862
 20
125.0772509017
 10
127.7337372495
 20
125.0481707602
 10
127.7502198738
 20
125.0199223022
 10
127.7715670854
 20
124.9929083394
 10
127.7974606401
 20
124.96743183
 10
127.8276009583
 20
124.9437060563
 10
127.8616257354
 20
124.9219566449
  0
LWPOLYLINE
  5
2E7
100
AcDbEntity
  8
0
100
AcDbPolyline
 62
7
  6
CONTINUOUS
 90
49
 70
0
 10
130.5832024201
 20
94.0683469095
 10
130.579038681
 20
94.2323674352
 10
130.566915811
 20
94.3993629977
 10
130.5468338102
 20
94.5693335971
 10
130.5186711395
 20
94.7428731513
 10
130.482549338
 20
94.9193877424
 10
130.4388330221
 20
95.0970956169
 10
130.3874452735
 20
95.2760088604
 10
130.3284630105
 20
95.4561153874
 10
130.2624816053
 20
95.6355971868
 10
130.1894301694
 20
95.8144479315
 10
130.1093795913
 20
95.9926739486
 10
130.0231379083
 20
96.1684762094
 10
129.9306424161
 20
96.3418301656
 10
129.831955819
 20
96.5127603656
 10
129.7280742682
 20
96.679541425
 10
129.6189451483
 20
96.8421313207
 10
129.5046210747
 20
97.0005720758
 10
129.3862560444
 20
97.1532643757
 10
129.26380913
 20
97.3001499991
 10
129.1373212589
 20
97.4412871673
 10
129.0080692106
 20
97.5752512294
 10
128.8760249892
 20
97.7019695352
 10
128.7412165906
 20
97.821514735
 10
128.6050047825
 20
97.9326801291
 10
128.4673753509
 20
98.0353808457
 10
128.3283425098
 20
98.1297017566
 10
128.1893096687
 20
98.2146907785
 10
128.0502768276
 20
98.2902533965
 10
127.9112439865
 20
98.3564841255
 10
127.7736145549
 20
98.4127144268
 10
127.6374027468
 20
98.4588430144
 10
127.5025943482
 20
98.4949711742
 10
127.3705501267
 20
98.5207342255
 10
127.2412980785
 20
98.5360271889
 10
127.1148102074
 20
98.5409550437
 10
126.992363293
 20
98.5354680479
 10
126.8739982627
 20
98.519460718
 10
126.7596741891
 20
98.4930385375
 10
126.6505450692
 20
98.456468214
 10
126.5466635184
 20
98.4096469656
 10
126.4479769213
 20
98.3526775742
 10
126.3554814291
 20
98.286135094
 10
126.2692397461
 20
98.2099225669
 10
126.1891891679
 20
98.1241369509
 10
126.116137732
 20
98.0296441734
 10
126.0501563268
 20
97.9263560468
 10
125.9911740639
 20
97.8143607586
 10
125.9530295158
 20
97.7281424985
  0
LWPOLYLINE
  5
2E8
100
AcDbEntity
  8
RACCORDO
100
AcDbPolyline
 62
250
  6
CONTINUOUS
 90
16
 70
0
 10
130.5804778474
 20
102.7236345053
 10
130.5804778456
 20
102.8385234617
 10
130.5958530972
 20
103.1514266861
 10
130.6265569599
 20
103.4540131305
 10
130.672496194
 20
103.7453635472
 10
130.7335311599
 20
104.0245925456
 10
130.8094763312
 20
104.2908518935
 10
130.9001010464
 20
104.5433333334
 10
131.0051301407
 20
104.7812704282
 10
131.1242447129
 20
105.0039407433
 10
131.2570829252
 20
105.2106678814
 10
131.4032411868
 20
105.4008238676
 10
131.5622754509
 20
105.5738311648
 10
131.7337027795
 20
105.7291645682
 10
131.9170027128
 20
105.8663525562
 10
132.1062270022
 20
105.9820263379
  0
LWPOLYLINE
  5
2E9
100
AcDbEntity
  8
DRAFT
100
AcDbPolyline
 62
7
  6
CONTINUOUS
 90
11
 70
0
 10
131.1099457538
 20
103.4768280701
 10
131.1363629301
 20
103.737102402
 10
131.1821811877
 20
104.0276903979
 10
131.2429410037
 20
104.3057148042
 10
131.3188919276
 20
104.5715273077
 10
131.40978441
 20
104.8247762216
 10
131.5145717271
 20
105.0625297598
 10
131.6332027073
 20
105.2842692741
 10
131.7657285224
 20
105.4905134126
 10
131.9112559636
 20
105.6798863333
 10
132.0701272183
 20
105.8525147447
  0
LWPOLYLINE
  5
2EA
100
AcDbEntity
  8
ASSI
100
AcDbPolyline
 62
7
  6
CONTINUOUS
 90
12
 70
0
 10
136.2106006052
 20
122.9980793597
 10
136.2141823049
 20
123.0146302879
 10
136.2199924831
 20
123.0356981622
 10
136.2273839912
 20
123.0577579151
 10
136.2363539157
 20
123.0804759618
 10
136.2468614504
 20
123.1035109778
 10
136.2586931741
 20
123.126284478
 10
136.271705478
 20
123.1484868582
 10
136.2856971115
 20
123.1697785226
 10
136.3002469032
 20
123.1896051594
 10
136.3151014524
 20
123.207759356
 10
136.3313440118
 20
123.2254688759
  0
LINE
  5
2EB
100
AcDbEntity
  8
ASSI
100
AcDbLine
 62
250
  6
CONTINUOUS
 10
136.1795247931
 20
123.0352592231
 11
136.1742765705
 21
123.0190524021
  0
LWPOLYLINE
  5
2EC
100
AcDbEntity
  8
ASSI
100
AcDbPolyline
 62
250
  6
CONTINUOUS
 90
9
 70
0
 10
138.587227846
 20
123.2562845327
 10
138.586276409
 20
123.2535366651
 10
138.5862398765
 20
123.2462445123
 10
138.5892039583
 20
123.2377110354
 10
138.5951197566
 20
123.2280770086
 10
138.6038896803
 20
123.2175013618
 10
138.6153690546
 20
123.2061585581
 10
138.6293685075
 20
123.1942357166
 10
138.6456570943
 20
123.1819295249
  0
LWPOLYLINE
  5
2ED
100
AcDbEntity
  8
ASSI
100
AcDbPolyline
 62
250
  6
CONTINUOUS
 90
11
 70
0
 10
138.9690401167
 20
124.0661550485
 10
138.968439871
 20
124.0646548684
 10
138.9677083599
 20
124.059114825
 10
138.9689115253
 20
124.0527421255
 10
138.9720336396
 20
124.0456126352
 10
138.9770358348
 20
124.0378049657
 10
138.983860686
 20
124.029402429
 10
138.9924241494
 20
124.0205023109
 10
139.002624829
 20
124.0112030506
 10
139.0143498564
 20
124.0016017349
 10
139.0274693649
 20
123.9918000407
  0
LWPOLYLINE
  5
2EE
100
AcDbEntity
  8
ASSI
100
AcDbPolyline
 62
250
  6
CONTINUOUS
 90
10
 70
0
 10
139.0274693649
 20
123.9918000407
 10
139.0365065006
 20
124.0128833874
 10
139.0470776819
 20
124.0335337854
 10
139.0590399518
 20
124.0534719734
 10
139.0722315416
 20
124.0724283215
 10
139.0864740576
 20
124.0901464775
 10
139.1015748942
 20
124.1063868334
 10
139.1173298386
 20
124.1209297661
 10
139.1335258322
 20
124.1335786071
 10
139.1499438521
 20
124.1441623022
  0
LWPOLYLINE
  5
2EF
100
AcDbEntity
  8
0
100
AcDbPolyline
 62
7
  6
CONTINUOUS
 90
49
 70
0
 10
126.6959079928
 20
99.4592664021
 10
126.7824852225
 20
99.5840722425
 10
126.8771383182
 20
99.6987664501
 10
126.9800056446
 20
99.8033688963
 10
127.0910618429
 20
99.8975689206
 10
127.2099154017
 20
99.9807686379
 10
127.3361802395
 20
100.0525096682
 10
127.4697120238
 20
100.1125246848
 10
127.6100123695
 20
100.1604139141
 10
127.7560162538
 20
100.1957745052
 10
127.9071746295
 20
100.2185439028
 10
128.0630735092
 20
100.228728502
 10
128.2226997035
 20
100.2263811603
 10
128.3850079013
 20
100.2117491728
 10
128.5499422619
 20
100.1850634844
 10
128.7179885985
 20
100.1463089346
 10
128.8891350863
 20
100.0954016057
 10
129.0624193463
 20
100.0325428085
 10
129.2369307222
 20
99.9580638014
 10
129.4119852048
 20
99.8723110809
 10
129.5872198393
 20
99.7755172417
 10
129.762195016
 20
99.6679578026
 10
129.9363409189
 20
99.5500137642
 10
130.109198543
 20
99.4220273014
 10
130.2804947807
 20
99.2842049186
 10
130.4495499139
 20
99.1370922465
 10
130.616033931
 20
98.9809755905
 10
130.7801604559
 20
98.8155612029
 10
130.9418122773
 20
98.6407471794
 10
131.0999935914
 20
98.4573843654
 10
131.2536048638
 20
98.2666335175
 10
131.4022022386
 20
98.0689928911
 10
131.5452522858
 20
97.8651173493
 10
131.6816711192
 20
97.6566000489
 10
131.8109033874
 20
97.4444769861
 10
131.9328404391
 20
97.2291223006
 10
132.0471910067
 20
97.0112166391
 10
132.1535275875
 20
96.7917869537
 10
132.2517860987
 20
96.5711915993
 10
132.3421526478
 20
96.3490783301
 10
132.4245327836
 20
96.125521511
 10
132.4983958072
 20
95.9017868195
 10
132.5632850454
 20
95.6792938475
 10
132.6189710575
 20
95.4590923865
 10
132.6654629464
 20
95.2414500083
 10
132.7027401281
 20
95.0266043981
 10
132.7307108957
 20
94.8150689186
 10
132.749270173
 20
94.6076154387
 10
132.7583672261
 20
94.4048677563
  0
LINE
  5
2F0
100
AcDbEntity
  8
0
100
AcDbLine
 62
7
  6
CONTINUOUS
 10
131.9897070503
 20
104.728330832
 11
129.9616494569
 21
101.8433213534
  0
LWPOLYLINE
  5
2F1
100
AcDbEntity
  8
RACCORDO
100
AcDbPolyline
 62
250
  6
CONTINUOUS
 90
5
 70
0
 10
150.9739923429
 20
124.6268557132
 10
150.9831244773
 20
124.6375939863
 10
150.9893727032
 20
124.6487643256
 10
150.9926080933
 20
124.660136239
 10
150.9929686614
 20
124.6693847605
  0
LWPOLYLINE
  5
2F2
100
AcDbEntity
  8
ASSI
100
AcDbPolyline
 62
250
  6
CONTINUOUS
 90
10
 70
0
 10
145.4035854442
 20
121.9292422872
 10
145.3898406252
 20
121.9132244206
 10
145.3782106857
 20
121.8965378811
 10
145.3688522338
 20
121.8794073403
 10
145.3618912936
 20
121.8620634472
 10
145.3574216121
 20
121.8447397347
 10
145.3555033905
 20
121.8276694752
 10
145.3561624702
 20
121.8110825219
 10
145.3593899898
 20
121.7952022147
 10
145.3635006358
 20
121.7838172548
  0
LINE
  5
2F3
100
AcDbEntity
  8
ASSI
100
AcDbLine
 62
250
  6
CONTINUOUS
 10
145.6713102747
 20
118.153698499
 11
145.8118322501
 21
118.2978222423
  0
LINE
  5
2F4
100
AcDbEntity
  8
ASSI
100
AcDbLine
 62
7
  6
CONTINUOUS
 10
145.695517669
 20
118.1198087938
 11
145.8111636596
 21
118.2384189473
  0
LINE
  5
2F5
100
AcDbEntity
  8
RACCORDO
100
AcDbLine
 62
7
  6
CONTINUOUS
 10
150.987115999
 20
124.1587052855
 11
150.3339242408
 21
123.5011634729
  0
LWPOLYLINE
  5
2F6
100
AcDbEntity
  8
DRAFT
100
AcDbPolyline
 62
7
  6
CONTINUOUS
 90
3
 70
0
 10
132.0701272183
 20
105.8525147447
 10
132.2420000992
 20
106.0082719383
 10
132.3617774036
 20
106.0980485847
  0
LWPOLYLINE
  5
2F7
100
AcDbEntity
  8
0
100
AcDbPolyline
 62
7
  6
CONTINUOUS
 90
4
 70
0
 10
129.7642838751
 20
101.7118809679
 10
129.8046321042
 20
101.7434769678
 10
129.9229172334
 20
101.8208113169
 10
129.9405286223
 20
101.8311264482
  0
LWPOLYLINE
  5
2F8
100
AcDbEntity
  8
0
100
AcDbPolyline
 62
7
  6
CONTINUOUS
 90
3
 70
0
 10
127.6439727696
 20
100.4876477909
 10
127.690690637
 20
100.523911536
 10
127.8192082788
 20
100.6063026682
  0
LWPOLYLINE
  5
2F9
100
AcDbEntity
  8
0
100
AcDbPolyline
 62
7
  6
CONTINUOUS
 90
3
 70
0
 10
128.4914301382
 20
100.9767379366
 10
128.5406948876
 20
101.0148856701
 10
128.6677364162
 20
101.0962321802
  0
LWPOLYLINE
  5
2FA
100
AcDbEntity
  8
0
100
AcDbPolyline
 62
7
  6
CONTINUOUS
 90
3
 70
0
 10
128.9157279969
 20
101.2217246482
 10
128.966375031
 20
101.2608502873
 10
129.0920004849
 20
101.3411969362
  0
LWPOLYLINE
  5
2FB
100
AcDbEntity
  8
0
100
AcDbPolyline
 62
7
  6
CONTINUOUS
 90
3
 70
0
 10
129.3400309802
 20
101.4667164508
 10
129.3928274518
 20
101.5073558279
 10
129.5162645536
 20
101.5861616922
  0
LWPOLYLINE
  5
2FC
100
AcDbEntity
  8
0
100
AcDbPolyline
 62
7
  6
CONTINUOUS
 90
3
 70
0
 10
130.1885816902
 20
101.9566796512
 10
130.2434790887
 20
101.9987754084
 10
130.3647926911
 20
102.0760912042
  0
LWPOLYLINE
  5
2FD
100
AcDbEntity
  8
0
100
AcDbPolyline
 62
7
  6
CONTINUOUS
 90
3
 70
0
 10
130.6129158097
 20
102.2016936475
 10
130.6694068697
 20
102.2449041301
 10
130.7890567598
 20
102.3210559602
  0
LWPOLYLINE
  5
2FE
100
AcDbEntity
  8
0
100
AcDbPolyline
 62
7
  6
CONTINUOUS
 90
3
 70
0
 10
131.0372621561
 20
102.4467118663
 10
131.0952991834
 20
102.4910050953
 10
131.2133208285
 20
102.5660207162
  0
LWPOLYLINE
  5
2FF
100
AcDbEntity
  8
0
100
AcDbPolyline
 62
7
  6
CONTINUOUS
 90
3
 70
0
 10
131.461558187
 20
102.6916967838
 10
131.5203049843
 20
102.7364864778
 10
131.6375848972
 20
102.8109854722
  0
LWPOLYLINE
  5
300
100
AcDbEntity
  8
0
100
AcDbPolyline
 62
7
  6
CONTINUOUS
 90
3
 70
0
 10
128.0676398407
 20
100.7320616142
 10
128.1292252369
 20
100.7788745605
 10
128.2434723475
 20
100.8512674242
  0
LWPOLYLINE
  5
301
100
AcDbEntity
  8
RACCORDO
100
AcDbPolyline
 62
250
  6
CONTINUOUS
 90
16
 70
0
 10
149.9743347389
 20
118.9459998293
 10
149.9811462579
 20
118.9509403317
 10
149.9880329321
 20
118.9579703732
 10
149.9938402212
 20
118.9663695844
 10
149.9984997008
 20
118.9760389924
 10
150.0019564803
 20
118.9868646757
 10
150.0041698382
 20
118.9987191173
 10
150.005113688
 20
119.011462657
 10
150.0047768998
 20
119.0249451487
 10
150.0031634294
 20
119.0390077664
 10
150.000292267
 20
119.0534848477
 10
149.9961972293
 20
119.0682057984
 10
149.9909265695
 20
119.0829971255
 10
149.9845423936
 20
119.0976845339
 10
149.9771199162
 20
119.1120949812
 10
149.9687465909
 20
119.1260586732
  0
LWPOLYLINE
  5
302
100
AcDbEntity
  8
0
100
AcDbPolyline
 62
7
  6
CONTINUOUS
 90
7
 70
0
 10
127.3713816981
 20
100.3209667567
 10
127.2449952193
 20
100.2312915785
 10
127.1263753555
 20
100.1297612666
 10
127.0158597285
 20
100.0166924836
 10
126.9137607875
 20
99.8924369253
 10
126.8203652288
 20
99.7573807221
 10
126.735933006
 20
99.6119434277
  0
LWPOLYLINE
  5
303
100
AcDbEntity
  8
RACCORDO
100
AcDbPolyline
 62
250
  6
CONTINUOUS
 90
7
 70
0
 10
153.4271757544
 20
120.5349641061
 10
153.4395820213
 20
120.5433996609
 10
153.4500599167
 20
120.5527166897
 10
153.4584135206
 20
120.5627707261
 10
153.4644850941
 20
120.5734158117
 10
153.4681340909
 20
120.5844664741
 10
153.4692747843
 20
120.5951271616
  0
LWPOLYLINE
  5
304
100
AcDbEntity
  8
SUPERFICI
100
AcDbPolyline
 62
7
  6
CONTINUOUS
 90
10
 70
0
 10
146.2261329846
 20
112.4419553138
 10
146.2438517866
 20
112.4534292428
 10
146.2611907681
 20
112.4662949303
 10
146.2781499291
 20
112.4805523762
 10
146.2948396968
 20
112.4963177437
 10
146.3111496439
 20
112.5134748697
 10
146.326748489
 20
112.5316752651
 10
146.3415258048
 20
112.5508027667
 10
146.3555920186
 20
112.5709735378
 10
146.3689471303
 20
112.5921875781
  0
LINE
  5
305
100
AcDbEntity
  8
SUPERFICI
100
AcDbLine
 62
7
  6
CONTINUOUS
 10
145.8316238593
 20
112.2062194669
 11
146.2261329846
 21
112.4419553138
  0
LINE
  5
306
100
AcDbEntity
  8
RACCORDO
100
AcDbLine
 62
250
  6
CONTINUOUS
 10
146.7331850053
 20
114.6683805005
 11
145.8316238593
 21
114.147830394
  0
LINE
  5
307
100
AcDbEntity
  8
0
100
AcDbLine
 62
7
  6
CONTINUOUS
 10
133.6867633251
 20
105.708189856
 11
131.9897070503
 21
104.728330832
  0
LINE
  5
308
100
AcDbEntity
  8
RACCORDO
100
AcDbLine
 62
250
  6
CONTINUOUS
 10
145.8316238593
 20
111.6988737033
 11
146.5114253166
 21
112.0913066821
  0
LINE
  5
309
100
AcDbEntity
  8
RACCORDO
100
AcDbLine
 62
250
  6
CONTINUOUS
 10
145.8316238593
 20
111.583558134
 11
146.4943443133
 21
111.9661306618
  0
LWPOLYLINE
  5
30A
100
AcDbEntity
  8
RACCORDO
100
AcDbPolyline
 62
250
  6
CONTINUOUS
 90
3
 70
0
 10
145.8316238593
 20
111.1816213784
 10
145.8411497877
 20
111.186845997
 10
145.8508464222
 20
111.1923624463
  0
LWPOLYLINE
  5
30B
100
AcDbEntity
  8
RACCORDO
100
AcDbPolyline
 62
250
  6
CONTINUOUS
 90
40
 70
0
 10
146.4943443602
 20
111.9661306929
 10
146.5015126717
 20
111.9696958409
 10
146.508887986
 20
111.972319179
 10
146.516392767
 20
111.9740646808
 10
146.5239362261
 20
111.9749951945
 10
146.531471612
 20
111.9751864701
 10
146.5390016565
 20
111.9747128031
 10
146.5464863603
 20
111.9736319709
 10
146.553873453
 20
111.97200171
 10
146.561161009
 20
111.9698786489
 10
146.568317347
 20
111.9673145271
 10
146.5753110832
 20
111.9643594002
 10
146.5821489195
 20
111.9610556099
 10
146.5888122658
 20
111.9574455245
 10
146.5952789204
 20
111.9535717721
 10
146.6015554983
 20
111.9494677533
 10
146.6076291098
 20
111.9451700701
 10
146.6134880537
 20
111.9407129488
 10
146.6191440808
 20
111.9361189302
 10
146.6245882048
 20
111.9314194485
 10
146.6298165427
 20
111.9266401693
 10
146.6348502213
 20
111.9217877895
 10
146.6396841506
 20
111.9168870146
 10
146.6443179959
 20
111.9119565793
 10
146.6487800356
 20
111.9069868555
 10
146.6530682406
 20
111.9019951828
 10
146.6571827916
 20
111.8969955056
 10
146.6611538103
 20
111.8919663378
 10
146.6649800173
 20
111.8869197581
 10
146.6686615906
 20
111.881865517
 10
146.672228232
 20
111.8767729537
 10
146.6756779481
 20
111.8716506654
 10
146.6790102829
 20
111.8665049872
 10
146.6822536488
 20
111.8612972222
 10
146.6854039288
 20
111.8560344569
 10
146.6884596472
 20
111.8507198548
 10
146.6914483994
 20
111.8453050397
 10
146.6943744418
 20
111.8397755864
 10
146.6972217694
 20
111.8341530422
 10
146.6999847081
 20
111.8284416041
  0
LWPOLYLINE
  5
30C
100
AcDbEntity
  8
RACCORDO
100
AcDbPolyline
 62
7
  6
CONTINUOUS
 90
16
 70
0
 10
132.1062270022
 20
105.9820263379
 10
132.2882867236
 20
106.0706794831
 10
132.4777103602
 20
106.141223867
 10
132.6738735208
 20
106.1941191839
 10
132.8757085879
 20
106.2297741713
 10
133.0828315025
 20
106.2487769945
 10
133.2956547654
 20
106.2516044074
 10
133.513286257
 20
106.2385542184
 10
133.7350383379
 20
106.2099829141
 10
133.961807929
 20
106.1659184825
 10
134.1931560844
 20
106.1064135751
 10
134.4280592782
 20
106.0317165614
 10
134.6667343761
 20
105.9417014942
 10
134.9088101556
 20
105.8363535878
 10
135.1532371306
 20
105.7159893002
 10
135.3992741301
 20
105.5808776964
  0
LWPOLYLINE
  5
30D
100
AcDbEntity
  8
RACCORDO
100
AcDbPolyline
 62
250
  6
CONTINUOUS
 90
16
 70
0
 10
146.5114253166
 20
112.0913066821
 10
146.5220615227
 20
112.0964088263
 10
146.5328060664
 20
112.1003793614
 10
146.5436589476
 20
112.1032182874
 10
146.5546734078
 20
112.1048358579
 10
146.5657962056
 20
112.1053218193
 10
146.5768676165
 20
112.1049454114
 10
146.5878732726
 20
112.103721551
 10
146.5988275417
 20
112.1016353212
 10
146.609613803
 20
112.0989112111
 10
146.6202161506
 20
112.0955621014
 10
146.6306504903
 20
112.0915751115
 10
146.6408479186
 20
112.0871360882
 10
146.6507854677
 20
112.0823069806
 10
146.6604861054
 20
112.0770258397
 10
146.6699498317
 20
112.0712926655
  0
LWPOLYLINE
  5
30E
100
AcDbEntity
  8
DRAFT
100
AcDbPolyline
 62
7
  6
CONTINUOUS
 90
9
 70
0
 10
139.2501315033
 20
93.6440066263
 10
139.0256169306
 20
93.5832223099
 10
138.7914977096
 20
93.5417671499
 10
138.5502540943
 20
93.5200980932
 10
138.3020401722
 20
93.5184208694
 10
138.0467018559
 20
93.5365297488
 10
137.7862571373
 20
93.5742644889
 10
137.5204945845
 20
93.6318167956
 10
137.3778964609
 20
93.6724470031
  0
LWPOLYLINE
  5
30F
100
AcDbEntity
  8
0
100
AcDbPolyline
 62
7
  6
CONTINUOUS
 90
21
 70
0
 10
130.7643541619
 20
92.152873516
 10
130.9125330158
 20
92.1558470046
 10
131.0557236208
 20
92.1714443456
 10
131.1934624581
 20
92.1995892605
 10
131.3253035623
 20
92.2401658499
 10
131.4508202785
 20
92.2930191156
 10
131.5696060853
 20
92.3579553398
 10
131.6812758529
 20
92.4347425753
 10
131.785467362
 20
92.5231114935
 10
131.881841909
 20
92.6227556722
 10
131.9700870461
 20
92.7333342884
 10
132.049917029
 20
92.8544737733
 10
132.1210719298
 20
92.9857669385
 10
132.1833181549
 20
93.1267722654
 10
132.2364508593
 20
93.2770170932
 10
132.2802952098
 20
93.4360013285
 10
132.3147059292
 20
93.6031970174
 10
132.3395676702
 20
93.778048004
 10
132.3547962775
 20
93.9599756159
 10
132.3603385701
 20
94.1483809103
 10
132.3561721515
 20
94.342643953
  0
LWPOLYLINE
  5
310
100
AcDbEntity
  8
0
100
AcDbPolyline
 62
7
  6
CONTINUOUS
 90
22
 70
0
 10
129.0437942043
 20
92.3751267972
 10
129.1373212589
 20
92.3650739745
 10
129.26380913
 20
92.3601461197
 10
129.3862560444
 20
92.3656331155
 10
129.5046210747
 20
92.3816404454
 10
129.6189451483
 20
92.4080626259
 10
129.7280742682
 20
92.4446329494
 10
129.831955819
 20
92.4914541978
 10
129.9306424161
 20
92.5484235891
 10
130.0231379083
 20
92.6149660694
 10
130.1093795913
 20
92.6911785965
 10
130.1894301694
 20
92.7769642125
 10
130.2624816053
 20
92.87145699
 10
130.3284630105
 20
92.9747451166
 10
130.3874452735
 20
93.0867404047
 10
130.4388330221
 20
93.2063123643
 10
130.482549338
 20
93.333537733
 10
130.5186711395
 20
93.4683397731
 10
130.5468338102
 20
93.6093577811
 10
130.566915811
 20
93.7561381893
 10
130.579038681
 20
93.9091345655
 10
130.5832024201
 20
94.0683469095
  0
LWPOLYLINE
  5
311
100
AcDbEntity
  8
0
100
AcDbPolyline
 62
7
  6
CONTINUOUS
 90
3
 70
0
 10
130.546583034
 20
92.170367627
 10
130.6116663023
 20
92.1625603431
 10
130.7643541619
 20
92.152873516
  0
LINE
  5
312
100
AcDbEntity
  8
0
100
AcDbLine
 62
7
  6
CONTINUOUS
 10
130.7804518784
 20
92.1385023454
 11
130.546583034
 21
92.170367627
  0
LINE
  5
313
100
AcDbEntity
  8
0
100
AcDbLine
 62
7
  6
CONTINUOUS
 10
130.3966894217
 20
92.1907910493
 11
129.0436598701
 21
92.3751450953
  0
LINE
  5
314
100
AcDbEntity
  8
0
100
AcDbLine
 62
7
  6
CONTINUOUS
 10
130.4588457152
 20
92.184288086
 11
130.546583034
 21
92.170367627
  0
LINE
  5
315
100
AcDbEntity
  8
0
100
AcDbLine
 62
7
  6
CONTINUOUS
 10
134.9876881365
 20
94.0161610816
 11
136.4804382454
 21
93.1542658773
  0
LWPOLYLINE
  5
316
100
AcDbEntity
  8
RACCORDO
100
AcDbPolyline
 62
250
  6
CONTINUOUS
 90
4
 70
0
 10
135.2957328196
 20
93.2976743623
 10
135.0111371867
 20
93.4707221172
 10
134.7287685646
 20
93.6594039104
 10
134.5691841031
 20
93.7757937313
  0
LWPOLYLINE
  5
317
100
AcDbEntity
  8
0
100
AcDbPolyline
 62
7
  6
CONTINUOUS
 90
25
 70
0
 10
132.3561721515
 20
94.342643953
 10
132.3439035972
 20
94.5245003569
 10
132.323592814
 20
94.7101477336
 10
132.2952978171
 20
94.8990765886
 10
132.2591152663
 20
95.0906854777
 10
132.215134296
 20
95.2845340047
 10
132.1634022648
 20
95.4803529586
 10
132.1039637455
 20
95.6778232422
 10
132.0370014024
 20
95.8762053091
 10
131.9628111941
 20
96.074595839
 10
131.8817626738
 20
96.2720888574
 10
131.7939531539
 20
96.4685217063
 10
131.6992618737
 20
96.6640964531
 10
131.5977727237
 20
96.8584675476
 10
131.489794034
 20
97.0508822019
 10
131.3754869357
 20
97.2409075491
 10
131.2549359823
 20
97.4282263449
 10
131.1285558962
 20
97.612025061
 10
130.9970755016
 20
97.7911641699
 10
130.8608260631
 20
97.9651699125
 10
130.720199243
 20
98.133520735
 10
130.5761325809
 20
98.2951388677
 10
130.4292460555
 20
98.4494528482
 10
130.2797884433
 20
98.5963224963
 10
130.1281885875
 20
98.735426138
  0
LWPOLYLINE
  5
318
100
AcDbEntity
  8
0
100
AcDbPolyline
 62
7
  6
CONTINUOUS
 90
42
 70
0
 10
134.0725741206
 20
95.0505200236
 10
134.0647082704
 20
95.2469379109
 10
134.0480143062
 20
95.4486544075
 10
134.0224280859
 20
95.6551711284
 10
133.9878763099
 20
95.8661497916
 10
133.944362966
 20
96.0808677721
 10
133.8920455952
 20
96.2981963865
 10
133.8309985476
 20
96.517639581
 10
133.7613735034
 20
96.7384898664
 10
133.6836488329
 20
96.9592573115
 10
133.5983209113
 20
97.1787782437
 10
133.5054967895
 20
97.3969995989
 10
133.4051175993
 20
97.614092698
 10
133.2974311792
 20
97.8294595413
 10
133.1827063997
 20
98.0425042503
 10
133.0607950351
 20
98.2533659373
 10
132.9316002436
 20
98.461948318
 10
132.7957000136
 20
98.6670658268
 10
132.654001181
 20
98.8672463264
 10
132.5069011779
 20
99.0619131814
 10
132.3547962986
 20
99.2505275072
 10
132.19874838
 20
99.4318323504
 10
132.0395261449
 20
99.6050967094
 10
131.8773306254
 20
99.7702597195
 10
131.712417885
 20
99.9271631389
 10
131.5455528195
 20
100.0751875575
 10
131.376903691
 20
100.2142905325
 10
131.2057762999
 20
100.3450177033
 10
131.0320750893
 20
100.4672643691
 10
130.8567700105
 20
100.580170952
 10
130.6807500182
 20
100.6830734545
 10
130.5043895084
 20
100.7756909522
 10
130.3282666198
 20
100.8576581823
 10
130.1535780647
 20
100.928430728
 10
129.9812166597
 20
100.9877648809
 10
129.8111911471
 20
101.0357770099
 10
129.643367331
 20
101.0725316058
 10
129.4782048776
 20
101.0979013744
 10
129.3161394844
 20
101.1117930375
 10
129.1570501341
 20
101.1141297035
 10
129.0010220958
 20
101.104715033
 10
128.84894455
 20
101.0834021741
  0
LWPOLYLINE
  5
319
100
AcDbEntity
  8
0
100
AcDbPolyline
 62
7
  6
CONTINUOUS
 90
42
 70
0
 10
134.4968381893
 20
95.2954847796
 10
134.4889560993
 20
95.4921661872
 10
134.472211044
 20
95.6942693986
 10
134.4465244466
 20
95.9013000741
 10
134.4117916318
 20
96.113015339
 10
134.3680122147
 20
96.3286017398
 10
134.315405354
 20
96.5466417982
 10
134.2540962526
 20
96.7665303723
 10
134.1842361104
 20
96.9876499723
 10
134.106321423
 20
97.2085143518
 10
134.0208794596
 20
97.4279296344
 10
133.9280245968
 20
97.6458736642
 10
133.8276685588
 20
97.8626159904
 10
133.7200592949
 20
98.0775739155
 10
133.605476028
 20
98.2901453697
 10
133.4837403032
 20
98.5005333518
 10
133.3547428359
 20
98.7086629942
 10
133.2190707429
 20
98.9133346098
 10
133.0776266215
 20
99.1130841024
 10
132.9308063847
 20
99.3073376094
 10
132.7790034344
 20
99.4955605988
 10
132.6232719616
 20
99.6765052816
 10
132.4644371736
 20
99.8493802614
 10
132.302640125
 20
100.0141950202
 10
132.1379422679
 20
100.1709694396
 10
131.9710016215
 20
100.3191382702
 10
131.8020700483
 20
100.4585384834
 10
131.6305406408
 20
100.5896152964
 10
131.4562689076
 20
100.7122764663
 10
131.2802752165
 20
100.825601797
 10
131.1036937612
 20
100.928770594
 10
130.9269842601
 20
101.0214821304
 10
130.7506469738
 20
101.10344234
 10
130.5758788266
 20
101.1741305399
 10
130.4035928806
 20
101.2333207301
 10
130.2337711509
 20
101.2811638137
 10
130.0662085254
 20
101.3177614627
 10
129.9013565763
 20
101.342999369
 10
129.739649165
 20
101.3567959045
 10
129.5809081522
 20
101.3590854041
 10
129.4252006217
 20
101.3496712704
 10
129.273428694
 20
101.3284069788
  0
LWPOLYLINE
  5
31A
100
AcDbEntity
  8
0
100
AcDbPolyline
 62
7
  6
CONTINUOUS
 90
28
 70
0
 10
133.6483100518
 20
94.8055552676
 10
133.6405403314
 20
95.0004083063
 10
133.6241136823
 20
95.200165444
 10
133.5990076033
 20
95.4043229105
 10
133.5652206356
 20
95.6123717276
 10
133.5227783918
 20
95.8237624696
 10
133.471738825
 20
96.0379050025
 10
133.4120956041
 20
96.2545154137
 10
133.3440113956
 20
96.4727341851
 10
133.2679390157
 20
96.6910781929
 10
133.1843306594
 20
96.9084397199
 10
133.0932803602
 20
97.1247460173
 10
132.9947652309
 20
97.3400588714
 10
132.889034157
 20
97.5537671214
 10
132.7763295464
 20
97.7653177848
 10
132.6565145887
 20
97.9748280537
 10
132.5295029105
 20
98.1821891373
 10
132.3958407636
 20
98.3862606858
 10
132.2563813676
 20
98.5856320369
 10
132.1114879869
 20
98.7797568829
 10
131.9615562198
 20
98.9680793563
 10
131.8076422531
 20
99.1493251283
 10
131.6504868101
 20
99.3227767825
 10
131.4902912767
 20
99.4883627819
 10
131.3273543634
 20
99.6458766887
 10
131.1620737606
 20
99.7950132762
 10
130.9949562971
 20
99.9353934377
 10
130.8264532446
 20
100.0667207117
  0
LWPOLYLINE
  5
31B
100
AcDbEntity
  8
0
100
AcDbPolyline
 62
7
  6
CONTINUOUS
 90
43
 70
0
 10
133.2240459831
 20
94.5605905116
 10
133.2163416066
 20
94.7543749343
 10
133.2000983206
 20
94.9527749513
 10
133.1753240952
 20
95.1552820671
 10
133.1420659742
 20
95.3612820659
 10
133.1003675222
 20
95.5703313092
 10
133.0502316066
 20
95.7821695142
 10
132.9916136916
 20
95.9966249656
 10
132.9246833311
 20
96.2127657875
 10
132.8498609157
 20
96.4291726047
 10
132.7675601358
 20
96.6447978732
 10
132.6778719962
 20
96.8595376248
 10
132.5807978506
 20
97.0733790302
 10
132.4765849506
 20
97.2857069433
 10
132.3654584126
 20
97.4959966199
 10
132.2472946606
 20
97.7043417272
 10
132.1220212215
 20
97.9106169546
 10
131.9901564546
 20
98.1137267572
 10
131.8525018036
 20
98.3123260723
 10
131.7093906946
 20
98.5058966545
 10
131.561219803
 20
98.6938662433
 10
131.4090362806
 20
98.8749518145
 10
131.2535599338
 20
99.048444693
 10
131.0949896283
 20
99.2142668445
 10
130.9336463302
 20
99.372182389
 10
130.7701266086
 20
99.521707193
 10
130.6047264179
 20
99.6626689084
 10
130.437283202
 20
99.795234664
 10
130.2681309165
 20
99.9191068694
 10
130.0977873904
 20
100.0338737816
 10
129.926344685
 20
100.139419592
 10
129.7539184492
 20
100.2355622508
 10
129.5812744359
 20
100.3217641014
 10
129.4094804687
 20
100.397463685
 10
129.2392766132
 20
100.462388109
 10
129.0707955178
 20
100.5165409169
 10
128.9041890061
 20
100.5598762006
 10
128.7399879679
 20
100.5922431266
 10
128.5785162315
 20
100.6135656033
 10
128.4196476687
 20
100.6237827243
 10
128.2635189602
 20
100.6227155334
 10
128.110916518
 20
100.6101950781
 10
127.9626853632
 20
100.586195377
  0
LWPOLYLINE
  5
31C
100
AcDbEntity
  8
0
100
AcDbPolyline
 62
7
  6
CONTINUOUS
 90
23
 70
0
 10
132.2564574438
 20
94.3272170401
 10
132.2562924519
 20
94.1391989493
 10
132.2469430779
 20
93.956148101
 10
132.2283323319
 20
93.7787041645
 10
132.2003604748
 20
93.6072351451
 10
132.1630318242
 20
93.4426577931
 10
132.1166010572
 20
93.2863118208
 10
132.0612570997
 20
93.1387175734
 10
131.9971869518
 20
93.0002789243
 10
131.9249152944
 20
92.8718986402
 10
131.8450325736
 20
92.7541753117
 10
131.7577047997
 20
92.6469528819
 10
131.6628374421
 20
92.5499791299
 10
131.5605316074
 20
92.4634108724
 10
131.4512643393
 20
92.3877027041
 10
131.3354388738
 20
92.3231273708
 10
131.2134536851
 20
92.2698832635
 10
131.0856619622
 20
92.2281029803
 10
130.9524334384
 20
92.1978973994
 10
130.8141926972
 20
92.1793564263
 10
130.6713528036
 20
92.1725301838
 10
130.5242773041
 20
92.1774424523
 10
130.3966894217
 20
92.1907910493
  0
LWPOLYLINE
  5
31D
100
AcDbEntity
  8
0
100
AcDbPolyline
 62
7
  6
CONTINUOUS
 90
24
 70
0
 10
132.7583672261
 20
94.4048677563
 10
132.7580834992
 20
94.2114586884
 10
132.7487067541
 20
94.0236901603
 10
132.7302656302
 20
93.8421057376
 10
132.702814458
 20
93.6672306648
 10
132.6664335228
 20
93.4995731688
 10
132.6212293123
 20
93.3396226147
 10
132.5673332722
 20
93.1878440943
 10
132.5049014056
 20
93.0446787904
 10
132.4341148121
 20
92.9105450004
 10
132.3551786676
 20
92.7858350538
 10
132.2683202216
 20
92.6709125204
 10
132.173788362
 20
92.5661127975
 10
132.0718544868
 20
92.4717441069
 10
131.9628121743
 20
92.3880861533
 10
131.8469749022
 20
92.315387738
 10
131.7246753791
 20
92.2538664776
 10
131.5962650931
 20
92.203708461
 10
131.4621134503
 20
92.1650675917
 10
131.3226062635
 20
92.1380648949
 10
131.1781437829
 20
92.1227881645
 10
131.0291400295
 20
92.1192920865
 10
130.8760229789
 20
92.1275980985
 10
130.7804518784
 20
92.1385023454
  0
LWPOLYLINE
  5
31E
100
AcDbEntity
  8
0
100
AcDbPolyline
 62
7
  6
CONTINUOUS
 90
15
 70
0
 10
133.1672053758
 20
94.5277714574
 10
133.1662623552
 20
94.3346849686
 10
133.1563520672
 20
94.1465311415
 10
133.1374027142
 20
93.9639027392
 10
133.1093221742
 20
93.7871448694
 10
133.0721109657
 20
93.6171039955
 10
133.0259885978
 20
93.4550184851
 10
132.9711046801
 20
93.3013553605
 10
132.9076257132
 20
93.1565339364
 10
132.836047461
 20
93.0214809862
 10
132.7568773325
 20
92.8967407912
 10
132.6702862414
 20
92.7822154629
 10
132.5763224205
 20
92.6777976796
 10
132.4752564025
 20
92.5837206529
 10
132.3674165592
 20
92.5002288849
  0
LWPOLYLINE
  5
31F
100
AcDbEntity
  8
0
100
AcDbPolyline
 62
7
  6
CONTINUOUS
 90
15
 70
0
 10
133.5914694446
 20
94.7727362134
 10
133.5905301774
 20
94.5797820585
 10
133.5806360966
 20
94.391752777
 10
133.5617154505
 20
94.2092399593
 10
133.533676218
 20
94.0325880225
 10
133.4965187598
 20
93.862641793
 10
133.4504618335
 20
93.7006373715
 10
133.3956546102
 20
93.5470413192
 10
133.332262921
 20
93.4022720192
 10
133.2607806372
 20
93.2672541459
 10
133.1817230762
 20
93.1425453513
 10
133.095252725
 20
93.0280324525
 10
133.001383147
 20
92.9235737533
 10
132.9003770005
 20
92.8294139164
 10
132.7925542334
 20
92.7458083832
  0
LWPOLYLINE
  5
320
100
AcDbEntity
  8
0
100
AcDbPolyline
 62
7
  6
CONTINUOUS
 90
15
 70
0
 10
134.0157335133
 20
95.0177009694
 10
134.0147975087
 20
94.8248619694
 10
134.0049175205
 20
94.6369410715
 10
133.9860218369
 20
94.4545288472
 10
133.9580185256
 20
94.277969116
 10
133.92090781
 20
94.1081052781
 10
133.8749077925
 20
93.9461714552
 10
133.8201672318
 20
93.7926337311
 10
133.7568513978
 20
93.6479097667
 10
133.6854526312
 20
93.5129226081
 10
133.60649069
 20
93.3882379425
 10
133.5201227848
 20
93.2737333795
 10
133.4263412956
 20
93.1692463182
 10
133.3254048083
 20
93.0750291862
 10
133.2176270739
 20
92.9913431039
  0
LWPOLYLINE
  5
321
100
AcDbEntity
  8
0
100
AcDbPolyline
 62
7
  6
CONTINUOUS
 90
15
 70
0
 10
134.439997582
 20
95.2626657254
 10
134.4390680728
 20
95.0700563291
 10
134.4292161535
 20
94.8823515509
 10
134.4103701927
 20
94.7001399333
 10
134.3824384356
 20
94.5237641111
 10
134.3454208336
 20
94.3540646402
 10
134.2995341835
 20
94.1922716913
 10
134.2449263891
 20
94.0388503153
 10
134.1817616276
 20
93.8942168286
 10
134.110529317
 20
93.7592912462
 10
134.0317552054
 20
93.6346510651
 10
133.9455883954
 20
93.5201603406
 10
133.8519895575
 20
93.4156253127
 10
133.751212282
 20
93.3213112097
 10
133.643559407
 20
93.2374861046
  0
LWPOLYLINE
  5
322
100
AcDbEntity
  8
RACCORDO
100
AcDbPolyline
 62
250
  6
CONTINUOUS
 90
5
 70
0
 10
145.0828084356
 20
120.3293474315
 10
145.0735632132
 20
120.3160136946
 10
145.0629619438
 20
120.3036107165
 10
145.0515976697
 20
120.2929118224
 10
145.0397931058
 20
120.2842208229
  0
LWPOLYLINE
  5
323
100
AcDbEntity
  8
RACCORDO
100
AcDbPolyline
 62
250
  6
CONTINUOUS
 90
7
 70
0
 10
153.4203998559
 20
120.4843403398
 10
153.4213764549
 20
120.4852791692
 10
153.4262479704
 20
120.4920240359
 10
153.4292996269
 20
120.5005229425
 10
153.4304794988
 20
120.510631303
 10
153.4297675069
 20
120.5221771631
 10
153.4271757544
 20
120.5349641061
  0
LINE
  5
324
100
AcDbEntity
  8
RACCORDO
100
AcDbLine
 62
250
  6
CONTINUOUS
 10
148.5617336815
 20
116.0938386198
 11
153.4271757544
 21
120.5349641061
  0
LINE
  5
325
100
AcDbEntity
  8
RACCORDO
100
AcDbLine
 62
7
  6
CONTINUOUS
 10
148.5784021315
 20
116.0646146136
 11
153.4203998559
 21
120.4843403398
  0
LWPOLYLINE
  5
326
100
AcDbEntity
  8
RACCORDO
100
AcDbPolyline
 62
250
  6
CONTINUOUS
 90
10
 70
0
 10
146.4943468262
 20
111.9661321124
 10
146.5050031612
 20
111.9749370493
 10
146.5138338351
 20
111.9858871953
 10
146.5205880863
 20
111.9986715827
 10
146.5250741214
 20
112.0129271623
 10
146.5271645569
 20
112.0282491023
 10
146.5268000423
 20
112.044202282
 10
146.5239909471
 20
112.0603336674
 10
146.5188170588
 20
112.0761851779
 10
146.5114253166
 20
112.0913066821
  0
LINE
  5
327
100
AcDbEntity
  8
RACCORDO
100
AcDbLine
 62
250
  6
CONTINUOUS
 10
146.6999847081
 20
111.8284416041
 11
145.8316238593
 21
111.2486542063
  0
LINE
  5
328
100
AcDbEntity
  8
RACCORDO
100
AcDbLine
 62
250
  6
CONTINUOUS
 10
146.4943443133
 20
111.9661306618
 11
145.8316238593
 21
111.5240632103
  0
LINE
  5
329
100
AcDbEntity
  8
RACCORDO
100
AcDbLine
 62
250
  6
CONTINUOUS
 10
149.8986301278
 20
113.5098295021
 11
149.8875049455
 21
113.5028680762
  0
LWPOLYLINE
  5
32A
100
AcDbEntity
  8
0
100
AcDbPolyline
 62
7
  6
CONTINUOUS
 90
11
 70
0
 10
127.4129171027
 20
100.3717152352
 10
127.3796254698
 20
100.3519344957
 10
127.2750971246
 20
100.2820906088
 10
127.1759543653
 20
100.2036371382
 10
127.0824139832
 20
100.1167456347
 10
126.9946805188
 20
100.0216061
 10
126.9129458152
 20
99.9184265718
 10
126.8373885978
 20
99.807432668
 10
126.7681740845
 20
99.6888670942
 10
126.7054536236
 20
99.5629891125
 10
126.6663959242
 20
99.4728959674
  0
LINE
  5
32B
100
AcDbEntity
  8
RACCORDO
100
AcDbLine
 62
250
  6
CONTINUOUS
 10
149.8978131458
 20
113.4055560884
 11
145.9376572833
 21
111.0661868521
  0
LINE
  5
32C
100
AcDbEntity
  8
RACCORDO
100
AcDbLine
 62
250
  6
CONTINUOUS
 10
149.8875049455
 20
113.5028680762
 11
145.8928104522
 21
111.1429298168
  0
LINE
  5
32D
100
AcDbEntity
  8
0
100
AcDbLine
 62
7
  6
CONTINUOUS
 10
127.5051720949
 20
100.3985057286
 11
127.3713816981
 21
100.3209667567
  0
LINE
  5
32E
100
AcDbEntity
  8
0
100
AcDbLine
 62
7
  6
CONTINUOUS
 10
127.4893108335
 20
100.4130160744
 11
127.4129171027
 21
100.3717152352
  0
LINE
  5
32F
100
AcDbEntity
  8
0
100
AcDbLine
 62
7
  6
CONTINUOUS
 10
129.9405286223
 20
101.8311264482
 11
130.0477595204
 21
101.8878673458
  0
LINE
  5
330
100
AcDbEntity
  8
0
100
AcDbLine
 62
7
  6
CONTINUOUS
 10
127.8192082788
 20
100.6063026682
 11
127.94222445
 21
100.6705624928
  0
LINE
  5
331
100
AcDbEntity
  8
0
100
AcDbLine
 62
7
  6
CONTINUOUS
 10
128.6677364162
 20
101.0962321802
 11
128.7917993918
 21
101.1609833975
  0
LWPOLYLINE
  5
332
100
AcDbEntity
  8
0
100
AcDbPolyline
 62
7
  6
CONTINUOUS
 90
46
 70
0
 10
129.0920004849
 20
101.3411969362
 10
129.2170603508
 20
101.4064152851
 10
129.3526763413
 20
101.4627518475
 10
129.4940711601
 20
101.507503652
 10
129.6408521554
 20
101.5405526805
 10
129.7926240831
 20
101.5618169721
 10
129.9483316136
 20
101.5712311058
 10
130.1070726264
 20
101.5689416062
 10
130.2687800377
 20
101.5551450707
 10
130.4336319868
 20
101.5299071644
 10
130.6011946123
 20
101.4933095154
 10
130.771016342
 20
101.4454664318
 10
130.943302288
 20
101.3862762416
 10
131.1180704353
 20
101.3155880417
 10
131.2944077215
 20
101.2336278321
 10
131.4711172227
 20
101.1409162957
 10
131.6476986779
 20
101.0377474987
 10
131.823692369
 20
100.924422168
 10
131.9979641022
 20
100.8017609982
 10
132.1694935097
 20
100.6706841851
 10
132.3384250829
 20
100.5312839719
 10
132.5053657293
 20
100.3831151413
 10
132.6700635864
 20
100.2263407219
 10
132.831860635
 20
100.0615259631
 10
132.990695423
 20
99.8886509833
 10
133.1464268959
 20
99.7077063005
 10
133.2982298462
 20
99.5194833111
 10
133.4450500829
 20
99.3252298042
 10
133.5864942043
 20
99.1254803115
 10
133.7221662973
 20
98.9208086959
 10
133.8511637646
 20
98.7126790536
 10
133.9728994894
 20
98.5022910715
 10
134.0874827563
 20
98.2897196172
 10
134.1950920202
 20
98.0747616921
 10
134.2954480582
 20
97.8580193659
 10
134.388302921
 20
97.6400753362
 10
134.4737448844
 20
97.4206600535
 10
134.5516595718
 20
97.199795674
 10
134.621519714
 20
96.978676074
 10
134.6828288154
 20
96.7587874999
 10
134.7354356761
 20
96.5407474415
 10
134.7792150932
 20
96.3251610408
 10
134.813947908
 20
96.1134457759
 10
134.8396345054
 20
95.9064151003
 10
134.8563795607
 20
95.7043118889
 10
134.8642616507
 20
95.5076304813
  0
LWPOLYLINE
  5
333
100
AcDbEntity
  8
0
100
AcDbPolyline
 62
7
  6
CONTINUOUS
 90
46
 70
0
 10
129.5162645536
 20
101.5861616922
 10
129.6430412724
 20
101.6521826427
 10
129.778422703
 20
101.7082567382
 10
129.9195592953
 20
101.7527983929
 10
130.0660601178
 20
101.785688891
 10
130.2175344222
 20
101.8068459917
 10
130.3729342906
 20
101.8162034186
 10
130.5313486228
 20
101.8139057616
 10
130.6927259147
 20
101.800147845
 10
130.8572914997
 20
101.7749843168
 10
131.0246156071
 20
101.7384851568
 10
131.1942521337
 20
101.6907526041
 10
131.3664585737
 20
101.6316551513
 10
131.541273175
 20
101.5610139312
 10
131.7177683389
 20
101.4790394623
 10
131.8947465023
 20
101.3862329594
 10
132.0717259143
 20
101.2828576759
 10
132.2482228913
 20
101.1692073543
 10
132.4230370036
 20
101.046131946
 10
132.5952604647
 20
100.9144543558
 10
132.7649112733
 20
100.7743453528
 10
132.9321862912
 20
100.6257281287
 10
133.0965946617
 20
100.4690715799
 10
133.2577605354
 20
100.3047674899
 10
133.4159950804
 20
100.132450896
 10
133.5712706078
 20
99.9519752437
 10
133.7226497973
 20
99.7642484036
 10
133.8690890843
 20
99.5705021726
 10
134.0101977885
 20
99.3712629358
 10
134.1455795046
 20
99.1671004477
 10
134.274335222
 20
98.9594674817
 10
134.3958725613
 20
98.7495659185
 10
134.5103048355
 20
98.5374577227
 10
134.6178240363
 20
98.3229050168
 10
134.7181413062
 20
98.1065159012
 10
134.8110090482
 20
97.8888581756
 10
134.8965340453
 20
97.6695953398
 10
134.9745958914
 20
97.4487270461
 10
135.044644344
 20
97.2274678341
 10
135.1061679515
 20
97.0073040507
 10
135.1590048057
 20
96.7888349781
 10
135.2030065428
 20
96.5726960206
 10
135.2379279149
 20
96.3603783408
 10
135.2637591223
 20
96.1527239787
 10
135.2806013275
 20
95.9499619355
 10
135.2885257194
 20
95.7525952373
  0
LWPOLYLINE
  5
334
100
AcDbEntity
  8
0
100
AcDbPolyline
 62
7
  6
CONTINUOUS
 90
46
 70
0
 10
130.3647926911
 20
102.0760912042
 10
130.4921492534
 20
102.142382681
 10
130.6265986051
 20
102.1980580405
 10
130.766895798
 20
102.2424066752
 10
130.9127482946
 20
102.2752837123
 10
131.0637219107
 20
102.2965417286
 10
131.2187894614
 20
102.3060717927
 10
131.3770924197
 20
102.3039737719
 10
131.5385605758
 20
102.2903974967
 10
131.7033219759
 20
102.2653766611
 10
131.8709428639
 20
102.2289639374
 10
132.0409856962
 20
102.1812421448
 10
132.2136175122
 20
102.1220959546
 10
132.3888445205
 20
102.0513588251
 10
132.5657642629
 20
101.9692320937
 10
132.7431709477
 20
101.8762199422
 10
132.9205784944
 20
101.7725879669
 10
133.0975005193
 20
101.6586316358
 10
133.2727307669
 20
101.5352053073
 10
133.4455011216
 20
101.4030216665
 10
133.6156799837
 20
101.2623538287
 10
133.7830404999
 20
101.1135156386
 10
133.946860952
 20
100.9572869004
 10
134.107050111
 20
100.7938944854
 10
134.2642735437
 20
100.6226612904
 10
134.4185370954
 20
100.4434190417
 10
134.5688974792
 20
100.2570975117
 10
134.7145634562
 20
100.0646023499
 10
134.8552068624
 20
99.8663225445
 10
134.9903367874
 20
99.6629040662
 10
135.1190414664
 20
99.4557675265
 10
135.240735955
 20
99.2460433553
 10
135.3554767368
 20
99.0338319469
 10
135.4633562651
 20
98.8190396617
 10
135.5640650392
 20
98.6022905886
 10
135.6573506095
 20
98.3841363182
 10
135.7432677436
 20
98.1643460882
 10
135.82168217
 20
97.9429552356
 10
135.8920525012
 20
97.7211509592
 10
135.9538611919
 20
97.5004325133
 10
136.0069441258
 20
97.2814043859
 10
136.0511512182
 20
97.0647060979
 10
136.0862343762
 20
96.8518399489
 10
136.1121831812
 20
96.6436543879
 10
136.1290992245
 20
96.4403803454
 10
136.1370538568
 20
96.2425247493
  0
LWPOLYLINE
  5
335
100
AcDbEntity
  8
0
100
AcDbPolyline
 62
7
  6
CONTINUOUS
 90
46
 70
0
 10
130.7890567598
 20
102.3210559602
 10
130.9176465093
 20
102.3879218731
 10
131.0514434764
 20
102.4432341548
 10
131.1911342365
 20
102.4873645122
 10
131.3365548683
 20
102.5201649503
 10
131.4871822614
 20
102.541425558
 10
131.6420000701
 20
102.5510115184
 10
131.8001805671
 20
102.5489959901
 10
131.9616442461
 20
102.5355016027
 10
132.1264631229
 20
102.5105487026
 10
132.2942035288
 20
102.4741785072
 10
132.4644319469
 20
102.4264617292
 10
132.6372579477
 20
102.3672933719
 10
132.8126674185
 20
102.2965150051
 10
132.9897750086
 20
102.2143220555
 10
133.1673713661
 20
102.1212199742
 10
133.3449688675
 20
102.0174751572
 10
133.522079546
 20
101.9033840218
 10
133.6974935181
 20
101.7798036369
 10
133.8704500357
 20
101.6474413769
 10
134.0408071199
 20
101.5065781051
 10
134.2083088615
 20
101.3575549253
 10
134.3723043124
 20
101.201087918
 10
134.5326294785
 20
101.0374723902
 10
134.6897221011
 20
100.8662932426
 10
134.8434149715
 20
100.6876471807
 10
134.9929930791
 20
100.5022778385
 10
135.1380274306
 20
100.31065888
 10
135.278289248
 20
100.1130080363
 10
135.4131667437
 20
99.9100998899
 10
135.5417435084
 20
99.7033321234
 10
135.6634393232
 20
99.4937923201
 10
135.7782774403
 20
99.2816022043
 10
135.8862935953
 20
99.0667479328
 10
135.9871677985
 20
98.8498575243
 10
136.0806419773
 20
98.6314766594
 10
136.1667360125
 20
98.4114456535
 10
136.2453066982
 20
98.189823751
 10
136.3158198258
 20
97.9677780158
 10
136.3777549886
 20
97.7468138405
 10
136.4309470572
 20
97.5275381655
 10
136.4752452245
 20
97.3105921999
 10
136.5104001358
 20
97.0974831717
 10
136.5364010963
 20
96.889062372
 10
136.5533498858
 20
96.6855615958
 10
136.5613179255
 20
96.4874895053
  0
LWPOLYLINE
  5
336
100
AcDbEntity
  8
0
100
AcDbPolyline
 62
7
  6
CONTINUOUS
 90
46
 70
0
 10
131.2133208285
 20
102.5660207162
 10
131.3434684552
 20
102.6336105469
 10
131.4767397658
 20
102.6885739504
 10
131.6159065214
 20
102.7324663865
 10
131.7609043762
 20
102.7651453127
 10
131.9111362455
 20
102.7863590019
 10
132.0656494505
 20
102.7959614251
 10
132.2236667825
 20
102.7939984199
 10
132.3850815551
 20
102.7805636158
 10
132.5499115237
 20
102.7556637158
 10
132.7177245963
 20
102.719328002
 10
132.8880907333
 20
102.6716149327
 10
133.0610607178
 20
102.6124301386
 10
133.2365996803
 20
102.5416236882
 10
133.4138405865
 20
102.4593849011
 10
133.5915716352
 20
102.3662200877
 10
133.769304321
 20
102.2623960722
 10
133.9465493325
 20
102.1482100479
 10
134.1220936449
 20
102.0245214122
 10
134.2951523522
 20
101.892057258
 10
134.4656062461
 20
101.7510836629
 10
134.6332643021
 20
101.6018823452
 10
134.7976075891
 20
101.4450267
 10
134.9583251687
 20
101.2809267883
 10
135.1155186616
 20
101.1095326435
 10
135.26883391
 20
100.9312254845
 10
135.417797147
 20
100.7465515621
 10
135.5622860785
 20
100.5556310317
 10
135.7021391309
 20
100.3585756902
 10
135.8366728682
 20
100.1562431361
 10
135.9650321893
 20
99.9499191938
 10
136.0866594093
 20
99.7406180409
 10
136.2015265312
 20
99.528511239
 10
136.3096162225
 20
99.3136578187
 10
136.4105996887
 20
99.0966853811
 10
136.5042113173
 20
98.8781367091
 10
136.590434176
 20
98.6579272686
 10
136.6691158804
 20
98.4361415034
 10
136.7397306176
 20
98.21392403
 10
136.8017557658
 20
97.9927850875
 10
136.8550254392
 20
97.7733335248
 10
136.899388367
 20
97.5562115878
 10
136.9345943003
 20
97.3429299934
 10
136.960632348
 20
97.1343420494
 10
136.9776044223
 20
96.9306801731
 10
136.9855819942
 20
96.7324542613
  0
LWPOLYLINE
  5
337
100
AcDbEntity
  8
0
100
AcDbPolyline
 62
7
  6
CONTINUOUS
 90
46
 70
0
 10
131.6375848972
 20
102.8109854722
 10
131.7685918017
 20
102.8789737527
 10
131.9017624375
 20
102.9338138483
 10
132.0407741568
 20
102.9775937742
 10
132.185539407
 20
103.0101777808
 10
132.335476962
 20
103.0313315024
 10
132.4897501711
 20
103.0409222047
 10
132.6476425427
 20
103.0389770715
 10
132.8090035877
 20
103.0255685246
 10
132.9738168789
 20
103.0006944689
 10
133.1416518447
 20
102.9643764362
 10
133.3120806025
 20
102.916665014
 10
133.4851159727
 20
102.8574727333
 10
133.6607097002
 20
102.7866552527
 10
133.8380069906
 20
102.7043979158
 10
134.0157950625
 20
102.6112073662
 10
134.193585085
 20
102.5073505746
 10
134.3708871278
 20
102.3931250814
 10
134.5464867467
 20
102.2693913269
 10
134.7195843022
 20
102.1368883508
 10
134.8900748447
 20
101.9958728587
 10
135.0578079206
 20
101.8465893476
 10
135.2223191413
 20
101.6895495348
 10
135.3832351845
 20
101.5252097791
 10
135.5405285439
 20
101.3536573283
 10
135.6938008485
 20
101.1753460954
 10
135.8426380747
 20
100.9907779375
 10
135.9869524306
 20
100.8000468999
 10
136.1265596847
 20
100.603312677
 10
136.260816491
 20
100.4013951259
 10
136.3889804953
 20
100.1954089575
 10
136.5105285622
 20
99.9862864577
 10
136.6253788579
 20
99.7742643513
 10
136.7334825944
 20
99.5594438545
 10
136.8345063348
 20
99.3424499374
 10
136.9281786407
 20
99.1238252321
 10
137.014458304
 20
98.9035348552
 10
137.0931870102
 20
98.6816798555
 10
137.1638448799
 20
98.45938946
 10
137.225908218
 20
98.2381763228
 10
137.2792107918
 20
98.0186502251
 10
137.3236011725
 20
97.8014537285
 10
137.358828735
 20
97.5880990162
 10
137.3848825051
 20
97.3794402474
 10
137.4018644504
 20
97.1757101075
 10
137.409846063
 20
96.9774190173
  0
LWPOLYLINE
  5
338
100
AcDbEntity
  8
0
100
AcDbPolyline
 62
7
  6
CONTINUOUS
 90
19
 70
0
 10
128.2434723475
 20
100.8512674242
 10
128.3842946293
 20
100.9237648633
 10
128.5222103147
 20
100.979297827
 10
128.6659590695
 20
101.0229545389
 10
128.8151347599
 20
101.054625438
 10
128.9693186393
 20
101.0742359371
 10
129.1274038356
 20
101.0817393775
 10
129.2884216878
 20
101.077311228
 10
129.45233064
 20
101.0611680041
 10
129.6194002967
 20
101.0333671684
 10
129.7893231278
 20
100.99395373
 10
129.9614988744
 20
100.943061623
 10
130.1358045673
 20
100.880704498
 10
130.3121354193
 20
100.8068335504
 10
130.4896590749
 20
100.7217124279
 10
130.6671517567
 20
100.6259430551
 10
130.8438803667
 20
100.5200249646
 10
131.0196122116
 20
100.4042018135
 10
131.193876706
 20
100.2788664134
  0
LWPOLYLINE
  5
339
100
AcDbEntity
  8
0
100
AcDbPolyline
 62
7
  6
CONTINUOUS
 90
46
 70
0
 10
130.0477595204
 20
101.8878673458
 10
130.1790833926
 20
101.9444332298
 10
130.3164424989
 20
101.9901535219
 10
130.4589469388
 20
102.0246804947
 10
130.6061800782
 20
102.0479444286
 10
130.7577834788
 20
102.0599197362
 10
130.9128289138
 20
102.0606178973
 10
131.0703513
 20
102.0502282783
 10
131.2304043362
 20
102.0289362792
 10
131.3936027784
 20
101.9966922791
 10
131.5598541285
 20
101.953418786
 10
131.7284528519
 20
101.8992055314
 10
131.8991379532
 20
101.8340574035
 10
132.0717667705
 20
101.7579112193
 10
132.2456126927
 20
101.6709709353
 10
132.419521125
 20
101.5737853024
 10
132.5930203406
 20
101.4666527297
 10
132.7656696948
 20
101.3498806182
 10
132.9363709982
 20
101.2243041973
 10
133.1042469999
 20
101.0907607377
 10
133.2693535666
 20
100.9493985621
 10
133.4319984499
 20
100.800041688
 10
133.5917654391
 20
100.6430955198
 10
133.7482592805
 20
100.4789722454
 10
133.9017570995
 20
100.3073347298
 10
134.0522287743
 20
100.1280514012
 10
134.1988018784
 20
99.9419918073
 10
134.3405004135
 20
99.7503362897
 10
134.4769576763
 20
99.5535903101
 10
134.6078099784
 20
99.3522882393
 10
134.7322298683
 20
99.147792601
 10
134.8496354611
 20
98.9412936885
 10
134.9601670849
 20
98.7327892187
 10
135.064092134
 20
98.5218626552
 10
135.1611817836
 20
98.308947757
 10
135.2511159811
 20
98.0947134043
 10
135.3338907565
 20
97.8790635248
 10
135.4093717604
 20
97.6620704627
 10
135.4770750606
 20
97.4448178244
 10
135.5365218282
 20
97.2287286956
 10
135.5875637362
 20
97.0143749857
 10
135.6300678067
 20
96.8023520818
 10
135.6638093336
 20
96.5940696878
 10
135.6887828832
 20
96.3903232983
 10
135.7050863875
 20
96.1913284242
 10
135.7127897881
 20
95.9975599933
  0
LWPOLYLINE
  5
33A
100
AcDbEntity
  8
0
100
AcDbPolyline
 62
7
  6
CONTINUOUS
 90
18
 70
0
 10
127.94222445
 20
100.6705624928
 10
128.078348404
 20
100.7272963194
 10
128.220306932
 20
100.7723466696
 10
128.3677034344
 20
100.8055935211
 10
128.5201368645
 20
100.8269530583
 10
128.6765374573
 20
100.836358955
 10
128.8360407261
 20
100.833958018
 10
128.9985310262
 20
100.8199454272
 10
129.1640327811
 20
100.7944168875
 10
129.3321055937
 20
100.7574857806
 10
129.5022805333
 20
100.7093005002
 10
129.6745811134
 20
100.6498562878
 10
129.8489458713
 20
100.5790972539
 10
130.0245270595
 20
100.4972915446
 10
130.2001656196
 20
100.4050008854
 10
130.3750759155
 20
100.3027491763
 10
130.5491058818
 20
100.1907364783
 10
130.7220453801
 20
100.0691599314
  0
LWPOLYLINE
  5
33B
100
AcDbEntity
  8
0
100
AcDbPolyline
 62
7
  6
CONTINUOUS
 90
45
 70
0
 10
128.7917993918
 20
101.1609833975
 10
128.9276487528
 20
101.2175082601
 10
129.0693029613
 20
101.2624027164
 10
129.2163680114
 20
101.2955478758
 10
129.3684455573
 20
101.3168607347
 10
129.5244735955
 20
101.3262754052
 10
129.6835629458
 20
101.3239387392
 10
129.8456283391
 20
101.3100470762
 10
130.0107907924
 20
101.2846773075
 10
130.1786146085
 20
101.2479227116
 10
130.3486401211
 20
101.1999105826
 10
130.5210015262
 20
101.1405764298
 10
130.6956900812
 20
101.0698038841
 10
130.8718129698
 20
100.9878366539
 10
131.0481734796
 20
100.8952191563
 10
131.2241934719
 20
100.7923166537
 10
131.3994985508
 20
100.6794100708
 10
131.5731997613
 20
100.5571634051
 10
131.7443271525
 20
100.4264362343
 10
131.9129762809
 20
100.2873332592
 10
132.0798413464
 20
100.1393088406
 10
132.2447540868
 20
99.9824054212
 10
132.4069496064
 20
99.8172424112
 10
132.5661718415
 20
99.6439780522
 10
132.72221976
 20
99.4626732089
 10
132.8743246393
 20
99.2740588832
 10
133.0214246424
 20
99.0793920281
 10
133.163123475
 20
98.8792115285
 10
133.299023705
 20
98.6740940197
 10
133.4282184965
 20
98.4655116391
 10
133.5501298611
 20
98.254649952
 10
133.6648546406
 20
98.0416052431
 10
133.7725410607
 20
97.8262383998
 10
133.8729202509
 20
97.6091453007
 10
133.9657443727
 20
97.3909239455
 10
134.0510722943
 20
97.1714030132
 10
134.1287969648
 20
96.9506355682
 10
134.1984220091
 20
96.7297852827
 10
134.2594690566
 20
96.5103420883
 10
134.3117864275
 20
96.2930134738
 10
134.3552997713
 20
96.0782954933
 10
134.3898515473
 20
95.8673168301
 10
134.4154377676
 20
95.6608001092
 10
134.4321317318
 20
95.4590836127
 10
134.439997582
 20
95.2626657254
  0
LWPOLYLINE
  5
33C
100
AcDbEntity
  8
0
100
AcDbPolyline
 62
7
  6
CONTINUOUS
 90
15
 70
0
 10
130.8264532446
 20
100.0667207117
 10
130.6521887502
 20
100.1920561118
 10
130.4764569053
 20
100.3078792629
 10
130.2997282953
 20
100.4137973533
 10
130.1222356135
 20
100.5095667262
 10
129.9447119579
 20
100.5946878487
 10
129.7683811059
 20
100.6685587963
 10
129.594075413
 20
100.7309159212
 10
129.4218996663
 20
100.7818080283
 10
129.2519768353
 20
100.8212214666
 10
129.0849071786
 20
100.8490223023
 10
128.9209982263
 20
100.8651655263
 10
128.7599803742
 20
100.8695936758
 10
128.6018951779
 20
100.8620902353
 10
128.4477112985
 20
100.8424797362
  0
LWPOLYLINE
  5
33D
100
AcDbEntity
  8
0
100
AcDbPolyline
 62
7
  6
CONTINUOUS
 90
28
 70
0
 10
130.7220453801
 20
100.0691599314
 10
130.8933081417
 20
99.9384840332
 10
131.0625808558
 20
99.7990009491
 10
131.2300459781
 20
99.650543521
 10
131.3953658146
 20
99.4933225652
 10
131.5579438181
 20
99.3278157158
 10
131.7175364037
 20
99.1541691914
 10
131.8739454498
 20
98.9724390124
 10
132.0263923242
 20
98.7833660145
 10
132.1738080034
 20
98.5882160392
 10
132.3157931512
 20
98.3875326711
 10
132.4519483428
 20
98.1818961559
 10
132.5813624871
 20
97.9727870502
 10
132.7034756562
 20
97.7613610575
 10
132.8183618625
 20
97.5477523601
 10
132.9261148937
 20
97.3319363294
 10
133.0264811275
 20
97.114504464
 10
133.1192181576
 20
96.8960709888
 10
133.2043424727
 20
96.6766133932
 10
133.2817575
 20
96.4562399914
 10
133.3510202109
 20
96.2360561466
 10
133.4116893507
 20
96.0175258272
 10
133.4635841937
 20
95.8016135862
 10
133.5067428126
 20
95.5885232036
 10
133.5411547508
 20
95.3785581047
 10
133.5667722975
 20
95.1721959905
 10
133.5835466893
 20
94.970076429
 10
133.5914694446
 20
94.7727362134
  0
LWPOLYLINE
  5
33E
100
AcDbEntity
  8
0
100
AcDbPolyline
 62
7
  6
CONTINUOUS
 90
28
 70
0
 10
131.193876706
 20
100.2788664134
 10
131.3623797585
 20
100.1475391394
 10
131.529497222
 20
100.0071589779
 10
131.6947778248
 20
99.8580223904
 10
131.8577147381
 20
99.7005084836
 10
132.0179102715
 20
99.5349224843
 10
132.1750657145
 20
99.3614708301
 10
132.3289796812
 20
99.180225058
 10
132.4789114483
 20
98.9919025846
 10
132.6238048291
 20
98.7977777387
 10
132.763264225
 20
98.5984063875
 10
132.8969263719
 20
98.3943348391
 10
133.0239380501
 20
98.1869737555
 10
133.1437530078
 20
97.9774634865
 10
133.2564576184
 20
97.7659128231
 10
133.3621886923
 20
97.5522045731
 10
133.4607038216
 20
97.336891719
 10
133.5517541208
 20
97.1205854216
 10
133.6353624771
 20
96.9032238946
 10
133.7114348571
 20
96.6848798868
 10
133.7795190656
 20
96.4666611155
 10
133.8391622864
 20
96.2500507042
 10
133.8902018532
 20
96.0359081713
 10
133.9326440971
 20
95.8245174294
 10
133.9664310647
 20
95.6164686122
 10
133.9915371437
 20
95.4123111457
 10
134.0079637928
 20
95.212554008
 10
134.0157335133
 20
95.0177009694
  0
LWPOLYLINE
  5
33F
100
AcDbEntity
  8
0
100
AcDbPolyline
 62
7
  6
CONTINUOUS
 90
25
 70
0
 10
130.1281885875
 20
98.735426138
 10
130.2764134922
 20
98.5936691086
 10
130.4223566472
 20
98.4442987232
 10
130.5655936506
 20
98.2876455639
 10
130.705874034
 20
98.1238578036
 10
130.8425903074
 20
97.9535154778
 10
130.9748324932
 20
97.777702101
 10
131.1022186
 20
97.596940866
 10
131.2244235397
 20
97.411709125
 10
131.3407428246
 20
97.223148619
 10
131.450777657
 20
97.0320706849
 10
131.5544460436
 20
96.8387903977
 10
131.6515919936
 20
96.643740008
 10
131.7419206461
 20
96.4476705126
 10
131.8253534548
 20
96.2509219262
 10
131.9020038705
 20
96.053287701
 10
131.9717756336
 20
95.8549272139
 10
132.0343163329
 20
95.6567440581
 10
132.0893469324
 20
95.4596385972
 10
132.1366985767
 20
95.2643455883
 10
132.1763321359
 20
95.0711760503
 10
132.2082045218
 20
94.8803901011
 10
132.2322339802
 20
94.6924206655
 10
132.2483346276
 20
94.5078624773
 10
132.2564574438
 20
94.3272170401
  0
LWPOLYLINE
  5
340
100
AcDbEntity
  8
RACCORDO
100
AcDbPolyline
 62
7
  6
CONTINUOUS
 90
12
 70
0
 10
146.6999847081
 20
82.5988960536
 10
146.7011428742
 20
82.5974394689
 10
146.7017884409
 20
82.5957062892
 10
146.7019215875
 20
82.5936962178
 10
146.7016545338
 20
82.5914801456
 10
146.7008754374
 20
82.5889865623
 10
146.6992482745
 20
82.5860017209
 10
146.6967003002
 20
82.5824709584
 10
146.6933043202
 20
82.5784487687
 10
146.6889427481
 20
82.5738849436
 10
146.6835766716
 20
82.5687622773
 10
146.6772456091
 20
82.5630969509
  0
LWPOLYLINE
  5
341
100
AcDbEntity
  8
0
100
AcDbPolyline
 62
7
  6
CONTINUOUS
 90
42
 70
0
 10
134.921102258
 20
95.5404495356
 10
134.9131778661
 20
95.7378162338
 10
134.8963356609
 20
95.940578277
 10
134.8705044535
 20
96.1482326391
 10
134.8355830814
 20
96.3605503189
 10
134.7915813443
 20
96.5766892763
 10
134.7387444901
 20
96.795158349
 10
134.6772208826
 20
97.0153221324
 10
134.60717243
 20
97.2365813444
 10
134.5291105838
 20
97.4574496381
 10
134.4435855867
 20
97.6767124739
 10
134.3507178448
 20
97.8943701994
 10
134.2504005749
 20
98.110759315
 10
134.1428813741
 20
98.3253120209
 10
134.0284490999
 20
98.5374202168
 10
133.9069117606
 20
98.74732178
 10
133.7781560432
 20
98.954954746
 10
133.6427743271
 20
99.1591172341
 10
133.5016656228
 20
99.3583564709
 10
133.3552263359
 20
99.5521027019
 10
133.2038471464
 20
99.7398295419
 10
133.048571619
 20
99.9203051943
 10
132.8903370739
 20
100.0926217882
 10
132.7291712002
 20
100.2569258782
 10
132.5647628298
 20
100.413582427
 10
132.3974878118
 20
100.562199651
 10
132.2278370033
 20
100.702308654
 10
132.0556135422
 20
100.8339862443
 10
131.8807994299
 20
100.9570616525
 10
131.7043024529
 20
101.0707119742
 10
131.5273230409
 20
101.1740872576
 10
131.3503448775
 20
101.2668937606
 10
131.1738497136
 20
101.3488682294
 10
130.9990351123
 20
101.4195094496
 10
130.8268286723
 20
101.4786069024
 10
130.6571921457
 20
101.5263394551
 10
130.4898680383
 20
101.5628386151
 10
130.3253024532
 20
101.5880021433
 10
130.1639251614
 20
101.6017600598
 10
130.0055108291
 20
101.6040577169
 10
129.8501109608
 20
101.59470029
 10
129.6986366564
 20
101.5735431893
  0
LWPOLYLINE
  5
342
100
AcDbEntity
  8
0
100
AcDbPolyline
 62
7
  6
CONTINUOUS
 90
42
 70
0
 10
135.7696303954
 20
96.0303790476
 10
135.7616757631
 20
96.2282346437
 10
135.7447597198
 20
96.4315086862
 10
135.7188109147
 20
96.6396942472
 10
135.6837277568
 20
96.8525603962
 10
135.6395206644
 20
97.0692586841
 10
135.5864377305
 20
97.2882868115
 10
135.5246290397
 20
97.5090052575
 10
135.4542587086
 20
97.7308095339
 10
135.3758442822
 20
97.9522003864
 10
135.2899271481
 20
98.1719906165
 10
135.1966415777
 20
98.3901448869
 10
135.0959328037
 20
98.6068939599
 10
134.9880532754
 20
98.8216862452
 10
134.8733124936
 20
99.0338976535
 10
134.7516180049
 20
99.2436218248
 10
134.622913326
 20
99.4507583644
 10
134.4877834009
 20
99.6541768428
 10
134.3471399948
 20
99.8524566482
 10
134.2014740178
 20
100.04495181
 10
134.051113634
 20
100.23127334
 10
133.8968500823
 20
100.4105155887
 10
133.7396266496
 20
100.5817487836
 10
133.5794374906
 20
100.7451411987
 10
133.4156170385
 20
100.9013699369
 10
133.2482565223
 20
101.0502081269
 10
133.0780776602
 20
101.1908759648
 10
132.9053073054
 20
101.3230596056
 10
132.7300770579
 20
101.4464859341
 10
132.553155033
 20
101.5604422652
 10
132.3757474863
 20
101.6640742404
 10
132.1983408015
 20
101.7570863919
 10
132.021421059
 20
101.8392131234
 10
131.8461940507
 20
101.9099502529
 10
131.6735622348
 20
101.9690964431
 10
131.5035194024
 20
102.0168182357
 10
131.3358985145
 20
102.0532309594
 10
131.1711371144
 20
102.078251795
 10
131.0096689583
 20
102.0918280702
 10
130.851366
 20
102.0939260909
 10
130.6962984493
 20
102.0843960269
 10
130.5453248332
 20
102.0631380106
  0
LWPOLYLINE
  5
343
100
AcDbEntity
  8
0
100
AcDbPolyline
 62
7
  6
CONTINUOUS
 90
42
 70
0
 10
136.1938944641
 20
96.2753438036
 10
136.1859264244
 20
96.473415894
 10
136.1689776349
 20
96.6769166702
 10
136.1429766743
 20
96.88533747
 10
136.1078217631
 20
97.0984464982
 10
136.0635235958
 20
97.3153924638
 10
136.0103315272
 20
97.5346681388
 10
135.9483963644
 20
97.7556323141
 10
135.8778832368
 20
97.9776780493
 10
135.799312551
 20
98.1992999518
 10
135.7132185159
 20
98.4193309577
 10
135.6197443371
 20
98.6377118226
 10
135.5188701339
 20
98.8546022311
 10
135.4108539789
 20
99.0694565025
 10
135.2960158618
 20
99.2816466183
 10
135.174320047
 20
99.4911864217
 10
135.0457432822
 20
99.6979541882
 10
134.9108657866
 20
99.9008623346
 10
134.7706039692
 20
100.0985131783
 10
134.6255696177
 20
100.2901321368
 10
134.4759915101
 20
100.4755014789
 10
134.3222986397
 20
100.6541475408
 10
134.1652060171
 20
100.8253266884
 10
134.004880851
 20
100.9889422163
 10
133.8408854001
 20
101.1454092236
 10
133.6733836585
 20
101.2944324034
 10
133.5030265743
 20
101.4352956752
 10
133.3300700567
 20
101.5676579351
 10
133.1546560846
 20
101.69123832
 10
132.9775454061
 20
101.8053294555
 10
132.7999479047
 20
101.9090742725
 10
132.6223515472
 20
102.0021763537
 10
132.4452439571
 20
102.0843693034
 10
132.2698344863
 20
102.1551476702
 10
132.0970084855
 20
102.2143160275
 10
131.9267800674
 20
102.2620328055
 10
131.7590396615
 20
102.2984030009
 10
131.5942207847
 20
102.323355901
 10
131.4327571057
 20
102.3368502884
 10
131.2745766087
 20
102.3388658167
 10
131.1197587999
 20
102.3292798562
 10
130.9691314069
 20
102.3080192486
  0
LWPOLYLINE
  5
344
100
AcDbEntity
  8
0
100
AcDbPolyline
 62
7
  6
CONTINUOUS
 90
42
 70
0
 10
136.6181585328
 20
96.5203085596
 10
136.6101809609
 20
96.7185344714
 10
136.5932088866
 20
96.9221963477
 10
136.5671708389
 20
97.1307842916
 10
136.5319649056
 20
97.3440658861
 10
136.4876019777
 20
97.5611878231
 10
136.4343323044
 20
97.7806393858
 10
136.3723071562
 20
98.0017783283
 10
136.301692419
 20
98.2239958017
 10
136.2230107146
 20
98.4457815669
 10
136.1367878559
 20
98.6659910073
 10
136.0431762273
 20
98.8845396794
 10
135.9421927611
 20
99.101512117
 10
135.8341030698
 20
99.3163655372
 10
135.7192359479
 20
99.5284723392
 10
135.5976087279
 20
99.7377734921
 10
135.4692494067
 20
99.9440974344
 10
135.3347156695
 20
100.1464299885
 10
135.1948626171
 20
100.34348533
 10
135.0503736856
 20
100.5344058604
 10
134.9014104486
 20
100.7190797828
 10
134.7480952002
 20
100.8973869418
 10
134.5909017073
 20
101.0687810866
 10
134.4301841277
 20
101.2328809982
 10
134.2658408407
 20
101.3897366435
 10
134.0981827847
 20
101.5389379611
 10
133.9277288907
 20
101.6799115563
 10
133.7546701835
 20
101.8123757105
 10
133.5791258711
 20
101.9360643462
 10
133.4018808596
 20
102.0502503705
 10
133.2241481738
 20
102.1540743859
 10
133.0464171251
 20
102.2472391994
 10
132.8691762189
 20
102.3294779864
 10
132.6936372564
 20
102.4002844369
 10
132.5206672719
 20
102.459469231
 10
132.3503011348
 20
102.5071823003
 10
132.1824880623
 20
102.5435180141
 10
132.0176580936
 20
102.5684179141
 10
131.856243321
 20
102.5818527182
 10
131.698225989
 20
102.5838157234
 10
131.5437127841
 20
102.5742133002
 10
131.3934809148
 20
102.5529996109
  0
LWPOLYLINE
  5
345
100
AcDbEntity
  8
0
100
AcDbPolyline
 62
7
  6
CONTINUOUS
 90
42
 70
0
 10
137.0424226015
 20
96.7652733156
 10
137.034440989
 20
96.9635644058
 10
137.0174590437
 20
97.1672945457
 10
136.9914052736
 20
97.3759533145
 10
136.9561777111
 20
97.5893080267
 10
136.9117873304
 20
97.8065045234
 10
136.8584847565
 20
98.0260306211
 10
136.7964214184
 20
98.2472437582
 10
136.7257635488
 20
98.4695341538
 10
136.6470348425
 20
98.6913891535
 10
136.5607551793
 20
98.9116795304
 10
136.4670828734
 20
99.1303042356
 10
136.366059133
 20
99.3472981527
 10
136.2579553965
 20
99.5621186496
 10
136.1431051008
 20
99.7741407559
 10
136.0215570339
 20
99.9832632558
 10
135.8933930296
 20
100.1892494241
 10
135.7591362233
 20
100.3911669752
 10
135.6195289691
 20
100.5879011981
 10
135.4752146133
 20
100.7786322358
 10
135.3263773871
 20
100.9632003937
 10
135.1731050825
 20
101.1415116266
 10
135.0158117231
 20
101.3130640774
 10
134.8548956799
 20
101.4774038331
 10
134.6903844592
 20
101.6344436459
 10
134.5226513833
 20
101.7837271569
 10
134.3521608408
 20
101.9247426491
 10
134.1790632853
 20
102.0572456251
 10
134.0034636664
 20
102.1809793797
 10
133.8261616236
 20
102.2952048728
 10
133.6483716011
 20
102.3990616645
 10
133.4705835292
 20
102.4922522141
 10
133.2932862388
 20
102.574509551
 10
133.1176925113
 20
102.6453270316
 10
132.9446571411
 20
102.7045193122
 10
132.7742283833
 20
102.7522307345
 10
132.6063934175
 20
102.7885487672
 10
132.4415801262
 20
102.8134228229
 10
132.2802190813
 20
102.8268313698
 10
132.1223267097
 20
102.828776503
 10
131.9680535006
 20
102.8191858007
 10
131.8181159456
 20
102.798032079
  0
LWPOLYLINE
  5
346
100
AcDbEntity
  8
0
100
AcDbPolyline
 62
7
  6
CONTINUOUS
 90
46
 70
0
 10
137.4666866703
 20
97.0102380716
 10
137.4587018933
 20
97.2085801959
 10
137.4417122172
 20
97.4123637858
 10
137.4156461335
 20
97.6210780103
 10
137.3804016331
 20
97.8344899632
 10
137.3359897544
 20
98.0517448287
 10
137.2826614087
 20
98.2713293067
 10
137.2205680578
 20
98.4926008811
 10
137.1498762675
 20
98.7149487506
 10
137.071110888
 20
98.9368575181
 10
136.9847816072
 20
99.1572237423
 10
136.8910561459
 20
99.3759195231
 10
136.7900149797
 20
99.5928992478
 10
136.6819401245
 20
99.8076181331
 10
136.5671708943
 20
100.0194587361
 10
136.4458020863
 20
100.2282596265
 10
136.3180334385
 20
100.4336291194
 10
136.1843020861
 20
100.6348188105
 10
136.0450579243
 20
100.8311394542
 10
135.9007471487
 20
101.0219727015
 10
135.7516920987
 20
101.2069028624
 10
135.5981781829
 20
101.3855648095
 10
135.440672736
 20
101.5573986268
 10
135.2795263014
 20
101.7220065315
 10
135.114835822
 20
101.8792356939
 10
134.947023479
 20
102.0285991806
 10
134.7765144418
 20
102.1696361174
 10
134.6033968572
 20
102.3021592928
 10
134.4277537451
 20
102.4259265937
 10
134.2504067823
 20
102.5401812427
 10
134.0725717318
 20
102.6440618524
 10
133.8947391232
 20
102.7372705666
 10
133.7173979283
 20
102.8195403834
 10
133.5417615604
 20
102.8903644704
 10
133.3686647115
 20
102.9495638606
 10
133.1981768969
 20
102.997273847
 10
133.0303456719
 20
103.0335708505
 10
132.8655955155
 20
103.0584167418
 10
132.7043539304
 20
103.0718023418
 10
132.5466907293
 20
103.0737436936
 10
132.3928675179
 20
103.0642060339
 10
132.2434598709
 20
103.0431934963
 10
132.0990018125
 20
103.010785697
 10
131.9599486869
 20
102.9671199545
 10
131.8265629056
 20
102.9123161116
 10
131.6944255045
 20
102.8438045264
  0
LWPOLYLINE
  5
347
100
AcDbEntity
  8
0
100
AcDbPolyline
 62
7
  6
CONTINUOUS
 90
43
 70
0
 10
135.3453663267
 20
95.7854142916
 10
135.3376629261
 20
95.9791827225
 10
135.3213594218
 20
96.1781775965
 10
135.2963858722
 20
96.3819239861
 10
135.2626443453
 20
96.5902063801
 10
135.2201402747
 20
96.802229284
 10
135.1690983667
 20
97.0165829939
 10
135.1096515992
 20
97.2326721227
 10
135.041948299
 20
97.4499247609
 10
134.9664672951
 20
97.6669178231
 10
134.8836925197
 20
97.8825677026
 10
134.7937583221
 20
98.0968020553
 10
134.6966686726
 20
98.3097169535
 10
134.5927436235
 20
98.520643517
 10
134.4822119997
 20
98.7291479868
 10
134.3648064069
 20
98.9356468993
 10
134.240386517
 20
99.1401425376
 10
134.1095342148
 20
99.3414446084
 10
133.9730769521
 20
99.5381905879
 10
133.831378417
 20
99.7298461056
 10
133.6848053128
 20
99.9159056995
 10
133.5343336381
 20
100.0951890281
 10
133.3808358191
 20
100.2668265437
 10
133.2243419776
 20
100.430949818
 10
133.0645749885
 20
100.5878959862
 10
132.9019301052
 20
100.7372528604
 10
132.7368235385
 20
100.878615036
 10
132.5689475367
 20
101.0121584956
 10
132.3982462334
 20
101.1377349165
 10
132.2255968792
 20
101.2545070279
 10
132.0520976635
 20
101.3616396006
 10
131.8781892313
 20
101.4588252336
 10
131.7043433091
 20
101.5457655176
 10
131.5317144918
 20
101.6219117018
 10
131.3610293905
 20
101.6870598297
 10
131.1924306671
 20
101.7412730843
 10
131.0261793169
 20
101.7845465774
 10
130.8629808748
 20
101.8167905775
 10
130.7029278386
 20
101.8380825766
 10
130.5454054523
 20
101.8484721956
 10
130.3903600174
 20
101.8477740345
 10
130.2387566168
 20
101.8357987268
 10
130.0915234774
 20
101.812534793
  0
LINE
  5
348
100
AcDbEntity
  8
SUPERFICI
100
AcDbLine
 62
7
  6
CONTINUOUS
 10
135.5009067022
 20
124.0929476329
 11
135.5009067022
 21
123.4078477248
  0
LINE
  5
349
100
AcDbEntity
  8
ASSI
100
AcDbLine
 62
250
  6
CONTINUOUS
 10
136.6354894679
 20
123.9654385477
 11
136.6354894679
 21
123.5961275582
  0
LINE
  5
34A
100
AcDbEntity
  8
ASSI
100
AcDbLine
 62
7
  6
CONTINUOUS
 10
136.6916215078
 20
124.0456559551
 11
136.6916215078
 21
123.6763449656
  0
LWPOLYLINE
  5
34B
100
AcDbEntity
  8
0
100
AcDbPolyline
 62
7
  6
CONTINUOUS
 90
16
 70
0
 10
137.409846063
 20
96.9774190173
 10
137.4090588553
 20
96.789962494
 10
137.3998838667
 20
96.6078834792
 10
137.3823591917
 20
96.431648083
 10
137.3565616533
 20
96.2618041677
 10
137.322563761
 20
96.0986805097
 10
137.2803858114
 20
95.9424259702
 10
137.2300381763
 20
95.7932922601
 10
137.1716717786
 20
95.6519078526
 10
137.1055566965
 20
95.5189482471
 10
137.0319897426
 20
95.3949072214
 10
136.9510976344
 20
95.2799076491
 10
136.8629302982
 20
95.1740358088
 10
136.7677221779
 20
95.0776332996
 10
136.6656751448
 20
94.9909615204
 10
136.5567221815
 20
94.9140901149
  0
LWPOLYLINE
  5
34C
100
AcDbEntity
  8
0
100
AcDbPolyline
 62
7
  6
CONTINUOUS
 90
15
 70
0
 10
135.2885257194
 20
95.7525952373
 10
135.2876204871
 20
95.5608481745
 10
135.2778698632
 20
95.3739063522
 10
135.2591954734
 20
95.1923558653
 10
135.2315005042
 20
95.0165477806
 10
135.1947764501
 20
94.8473112995
 10
135.1492227375
 20
94.685850354
 10
135.0949714653
 20
94.5326288182
 10
135.0321761967
 20
94.3880791527
 10
134.9613111601
 20
94.2531286103
 10
134.8828923359
 20
94.128372122
 10
134.797054289
 20
94.013679247
 10
134.7037318645
 20
93.9088525122
 10
134.6031749302
 20
93.8141848998
 10
134.4956639435
 20
93.7299532257
  0
LWPOLYLINE
  5
34D
100
AcDbEntity
  8
0
100
AcDbPolyline
 62
7
  6
CONTINUOUS
 90
15
 70
0
 10
135.7127897881
 20
95.9975599933
 10
135.7118939034
 20
95.8061467391
 10
135.702184896
 20
95.619533434
 10
135.6835865613
 20
95.4383017624
 10
135.6560102102
 20
95.2628306661
 10
135.6194463322
 20
95.0939092338
 10
135.5740673001
 20
94.9326477996
 10
135.5199803491
 20
94.7794908825
 10
135.4573337468
 20
94.6349139662
 10
135.3865895892
 20
94.4998591519
 10
135.3082443945
 20
94.374924217
 10
135.222427854
 20
94.2600049157
 10
135.1290922868
 20
94.154946526
 10
135.0284878892
 20
94.0600523581
 10
134.9208885565
 20
93.975602258
  0
LWPOLYLINE
  5
34E
100
AcDbEntity
  8
0
100
AcDbPolyline
 62
7
  6
CONTINUOUS
 90
15
 70
0
 10
136.1370538568
 20
96.2425247493
 10
136.1361572143
 20
96.0510843963
 10
136.1264585897
 20
95.8646234523
 10
136.1079073315
 20
95.6837052349
 10
136.0804586003
 20
95.5087866328
 10
136.044119466
 20
95.3405245396
 10
135.9990003523
 20
95.1797306373
 10
135.945152592
 20
95.0267757799
 10
135.8827273793
 20
94.8822497003
 10
135.8121686755
 20
94.7471195082
 10
135.7339434088
 20
94.6219881275
 10
135.6481725129
 20
94.506790331
 10
135.5548334327
 20
94.4014362576
 10
135.4541747582
 20
94.3062442842
 10
135.3464607259
 20
94.2215007483
  0
LWPOLYLINE
  5
34F
100
AcDbEntity
  8
0
100
AcDbPolyline
 62
7
  6
CONTINUOUS
 90
15
 70
0
 10
134.8642616507
 20
95.5076304813
 10
134.8633402937
 20
95.3153099221
 10
134.8535236282
 20
95.1278770503
 10
134.8347401246
 20
94.9459178623
 10
134.8068982528
 20
94.7697735097
 10
134.7699976242
 20
94.6002809749
 10
134.7242533976
 20
94.4386654568
 10
134.6698123776
 20
94.2853906395
 10
134.606837391
 20
94.1408712294
 10
134.5358142951
 20
94.0060236078
 10
134.4572735274
 20
93.8814359623
 10
134.3713563839
 20
93.7669600626
 10
134.2779940743
 20
93.662373349
 10
134.1774371516
 20
93.5679546471
 10
134.0699760208
 20
93.4839762672
  0
LWPOLYLINE
  5
350
100
AcDbEntity
  8
0
100
AcDbPolyline
 62
7
  6
CONTINUOUS
 90
15
 70
0
 10
136.5613179255
 20
96.4874895053
 10
136.560403379
 20
96.2954108108
 10
136.5506536648
 20
96.1086915452
 10
136.5320672708
 20
95.9278646584
 10
136.5046754913
 20
95.753497512
 10
136.4685212817
 20
95.5860460684
 10
136.4236356544
 20
95.4258735591
 10
136.3700006374
 20
95.27323635
 10
136.3077822333
 20
95.1288788739
 10
136.2374040532
 20
94.9937845465
 10
136.1593026905
 20
94.868559369
 10
136.073590606
 20
94.7531778023
 10
135.9802678793
 20
94.6476122609
 10
135.8795792032
 20
94.5521948439
 10
135.7717798259
 20
94.4672201643
  0
LWPOLYLINE
  5
351
100
AcDbEntity
  8
0
100
AcDbPolyline
 62
7
  6
CONTINUOUS
 90
15
 70
0
 10
136.9855819942
 20
96.7324542613
 10
136.9844871249
 20
96.5341379922
 10
136.9739845217
 20
96.3417986706
 10
136.9541094058
 20
96.1559969337
 10
136.9249453611
 20
95.9773862207
 10
136.8865714606
 20
95.8063681031
 10
136.8390039504
 20
95.6431407838
 10
136.7822242463
 20
95.4879635503
 10
136.7164287633
 20
95.3416478543
 10
136.642036914
 20
95.2051391333
 10
136.5595249975
 20
95.0790983588
 10
136.469002848
 20
94.9635044069
 10
136.3703700291
 20
94.8582582014
 10
136.2637590542
 20
94.7636693431
 10
136.1495223977
 20
94.6802086342
  0
LWPOLYLINE
  5
352
100
AcDbEntity
  8
ASSI
100
AcDbPolyline
 62
250
  6
CONTINUOUS
 90
9
 70
0
 10
136.6916215078
 20
123.6763449656
 10
136.6914537523
 20
123.6716162336
 10
136.6895252216
 20
123.6596693591
 10
136.6854680183
 20
123.6479205473
 10
136.6793284571
 20
123.6364838929
 10
136.6711667171
 20
123.6254708784
 10
136.6610642174
 20
123.6149972601
 10
136.6491296873
 20
123.6051805294
 10
136.6354894679
 20
123.5961275582
  0
LWPOLYLINE
  5
353
100
AcDbEntity
  8
ASSI
100
AcDbPolyline
 62
250
  6
CONTINUOUS
 90
9
 70
0
 10
136.6916214978
 20
124.0456194282
 10
136.6914535958
 20
124.0409250188
 10
136.6895297117
 20
124.0289981234
 10
136.6854732324
 20
124.0172433939
 10
136.6793257914
 20
124.0057906978
 10
136.6711547573
 20
123.9947677991
 10
136.6610495617
 20
123.984294757
 10
136.6491182634
 20
123.9744830905
 10
136.6354894679
 20
123.9654385477
  0
LWPOLYLINE
  5
354
100
AcDbEntity
  8
ASSI
100
AcDbPolyline
 62
250
  6
CONTINUOUS
 90
13
 70
0
 10
140.3132028137
 20
123.8339242276
 10
140.3187926502
 20
123.8580821311
 10
140.3220197169
 20
123.8830260355
 10
140.3228320731
 20
123.9083545128
 10
140.3212166401
 20
123.9336599343
 10
140.3171994098
 20
123.9585350604
 10
140.310845018
 20
123.9825795922
 10
140.3022557136
 20
124.0054065664
 10
140.2915697158
 20
124.026648606
 10
140.2789589763
 20
124.0459638556
 10
140.2646264278
 20
124.0630414486
 10
140.2488027243
 20
124.0776065152
 10
140.2317425183
 20
124.0894246242
  0
LWPOLYLINE
  5
355
100
AcDbEntity
  8
ASSI
100
AcDbPolyline
 62
250
  6
CONTINUOUS
 90
13
 70
0
 10
141.8947622946
 20
123.8722866224
 10
141.9003521651
 20
123.8964447276
 10
141.9035792251
 20
123.9213888208
 10
141.9043915397
 20
123.9467174635
 10
141.9027760359
 20
123.9720230285
 10
141.8987587129
 20
123.9968982598
 10
141.8924042236
 20
124.0209428271
 10
141.8838148342
 20
124.0437697685
 10
141.8731287782
 20
124.0650117178
 10
141.8605180321
 20
124.0843268172
 10
141.8461855472
 20
124.1014042183
 10
141.8303619839
 20
124.1159690857
 10
141.8133019991
 20
124.1277870191
  0
LWPOLYLINE
  5
356
100
AcDbEntity
  8
ASSI
100
AcDbPolyline
 62
250
  6
CONTINUOUS
 90
13
 70
0
 10
142.9413635384
 20
124.0505617688
 10
142.9357734912
 20
124.0264026824
 10
142.9325464621
 20
124.0014577675
 10
142.9317343303
 20
123.9761285156
 10
142.9333501058
 20
123.9508225997
 10
142.9373677241
 20
123.9259472755
 10
142.9437224796
 20
123.9019028297
 10
142.9523120529
 20
123.8790762088
 10
142.9629981676
 20
123.8578347327
 10
142.9756088441
 20
123.8385201624
 10
142.9899411286
 20
123.8214432869
 10
143.0057643437
 20
123.8068789079
 10
143.0228238338
 20
123.7950613721
  0
LWPOLYLINE
  5
357
100
AcDbEntity
  8
ASSI
100
AcDbPolyline
 62
250
  6
CONTINUOUS
 90
16
 70
0
 10
142.4926378413
 20
120.9607310555
 10
142.4886791177
 20
120.9457643007
 10
142.4840885156
 20
120.9313277557
 10
142.4789473173
 20
120.9174839575
 10
142.4733432918
 20
120.9043013386
 10
142.4673428806
 20
120.8918021811
 10
142.4609843711
 20
120.8799680113
 10
142.4543852631
 20
120.8689093479
 10
142.4475518154
 20
120.8585534958
 10
142.4403193253
 20
120.8486363947
 10
142.4327497169
 20
120.839223735
 10
142.4248445245
 20
120.8303387572
 10
142.4163055263
 20
120.8217496432
 10
142.4070433193
 20
120.8134866741
 10
142.39720195
 20
120.8057744079
 10
142.3868289028
 20
120.798746315
  0
LWPOLYLINE
  5
358
100
AcDbEntity
  8
ASSI
100
AcDbPolyline
 62
250
  6
CONTINUOUS
 90
14
 70
0
 10
142.9776998382
 20
125.2834524726
 10
142.9828098844
 20
125.3010024201
 10
142.9898853862
 20
125.3183995215
 10
142.99884882
 20
125.3354531747
 10
143.0096019847
 20
125.3519765481
 10
143.0220270693
 20
125.3677886116
 10
143.0359879399
 20
125.3827161215
 10
143.0513316384
 20
125.3965955291
 10
143.0678900553
 20
125.4092747683
 10
143.085481774
 20
125.4206149236
 10
143.1039140594
 20
125.4304917517
 10
143.122984965
 20
125.4387970397
 10
143.1424855454
 20
125.4454397918
 10
143.1622021483
 20
125.4503472275
  0
LINE
  5
359
100
AcDbEntity
  8
ASSI
100
AcDbLine
 62
250
  6
CONTINUOUS
 10
142.7640235587
 20
121.8343604792
 11
142.4926385646
 21
120.9607306379
  0
LINE
  5
35A
100
AcDbEntity
  8
ASSI
100
AcDbLine
 62
250
  6
CONTINUOUS
 10
143.0298279369
 20
121.7577517994
 11
142.7584429428
 21
120.8841219581
  0
LWPOLYLINE
  5
35B
100
AcDbEntity
  8
ASSI
100
AcDbPolyline
 62
250
  6
CONTINUOUS
 90
16
 70
0
 10
142.7584429428
 20
120.8841219581
 10
142.7484501562
 20
120.8550646459
 10
142.7376153601
 20
120.827219075
 10
142.7259385544
 20
120.8005852456
 10
142.7133044072
 20
120.775129124
 10
142.6998282504
 20
120.7508847438
 10
142.68585608
 20
120.7279542057
 10
142.6715581728
 20
120.7064962466
 10
142.656764252
 20
120.6863521295
 10
142.6413094832
 20
120.6671477444
 10
142.6252950226
 20
120.6488003186
 10
142.608619714
 20
120.6313926247
 10
142.5908152544
 20
120.6147988699
 10
142.5717255427
 20
120.5989771232
 10
142.5515066801
 20
120.5839693157
 10
142.5301586663
 20
120.5697754473
  0
LWPOLYLINE
  5
35C
100
AcDbEntity
  8
RACCORDO
100
AcDbPolyline
 62
250
  6
CONTINUOUS
 90
10
 70
0
 10
145.8492792661
 20
111.0660564246
 10
145.8554375465
 20
111.0733362035
 10
145.8613975229
 20
111.0811319072
 10
145.8670976533
 20
111.089362947
 10
145.8724790212
 20
111.0979441383
 10
145.8774861661
 20
111.1067869208
 10
145.8820676016
 20
111.1158003056
 10
145.886176063
 20
111.1248913284
 10
145.889769051
 20
111.1339659812
 10
145.8928094554
 20
111.1429305436
  0
LINE
  5
35D
100
AcDbEntity
  8
0
100
AcDbLine
 62
7
  6
CONTINUOUS
 10
138.1325107401
 20
103.0893248752
 11
136.4804382454
 21
102.135438922
  0
LWPOLYLINE
  5
35E
100
AcDbEntity
  8
RACCORDO
100
AcDbPolyline
 62
250
  6
CONTINUOUS
 90
6
 70
0
 10
153.0434282886
 20
90.098810419
 10
153.0296168138
 20
90.1056991443
 10
153.0155732917
 20
90.1101885642
 10
153.0015366298
 20
90.1122023063
 10
152.9877456369
 20
90.1117061169
 10
152.9791181872
 20
90.1100636515
  0
LINE
  5
35F
100
AcDbEntity
  8
RACCORDO
100
AcDbLine
 62
250
  6
CONTINUOUS
 10
153.3941203526
 20
89.9195344722
 11
153.3942784083
 21
89.9194435966
  0
LINE
  5
360
100
AcDbEntity
  8
RACCORDO
100
AcDbLine
 62
250
  6
CONTINUOUS
 10
151.2641980877
 20
89.6753429297
 11
149.9399121758
 21
90.439969018
  0
LINE
  5
361
100
AcDbEntity
  8
RACCORDO
100
AcDbLine
 62
7
  6
CONTINUOUS
 10
151.3227123449
 20
89.6901759007
 11
149.9399121758
 21
90.4885873878
  0
LINE
  5
362
100
AcDbEntity
  8
RACCORDO
100
AcDbLine
 62
250
  6
CONTINUOUS
 10
153.3467266896
 20
89.9236897235
 11
153.0434282886
 21
90.098810419
  0
LINE
  5
363
100
AcDbEntity
  8
RACCORDO
100
AcDbLine
 62
7
  6
CONTINUOUS
 10
153.3942784083
 20
89.9194435966
 11
153.0909800074
 21
90.0945642921
  0
LINE
  5
364
100
AcDbEntity
  8
0
100
AcDbLine
 62
7
  6
CONTINUOUS
 10
138.7258038429
 20
96.3484064447
 11
136.4804382454
 21
102.135438922
  0
LWPOLYLINE
  5
365
100
AcDbEntity
  8
RACCORDO
100
AcDbPolyline
 62
250
  6
CONTINUOUS
 90
34
 70
0
 10
140.6471811065
 20
97.4418320672
 10
140.6840695879
 20
97.0963069394
 10
140.7063330317
 20
96.75656797
 10
140.7137933681
 20
96.4253763653
 10
140.7063318418
 20
96.1028007562
 10
140.6840672081
 20
95.788772512
 10
140.647177663
 20
95.4858469459
 10
140.5955454398
 20
95.1941119845
 10
140.5292883051
 20
94.9134797013
 10
140.4489377555
 20
94.6462416302
 10
140.3543790889
 20
94.3925040049
 10
140.2457270074
 20
94.1521605918
 10
140.1238571133
 20
93.9271842239
 10
139.9886600579
 20
93.7176979929
 10
139.8402451901
 20
93.5235788072
 10
139.679816159
 20
93.3464302247
 10
139.507270424
 20
93.1863901151
 10
139.3227105258
 20
93.0433206088
 10
139.1276477362
 20
92.9184116544
 10
138.9219926899
 20
92.8118151871
 10
138.7058347523
 20
92.7233792718
 10
138.4809532907
 20
92.6538380518
 10
138.247279386
 20
92.6033497493
 10
138.0048819574
 20
92.5717561421
 10
137.7557471294
 20
92.5593167061
 10
137.4998178676
 20
92.5661895653
 10
137.2371512063
 20
92.5922165957
 10
136.9699043733
 20
92.6371829014
 10
136.6980120523
 20
92.7012613452
 10
136.4215395596
 20
92.7842790643
 10
136.1428400723
 20
92.885502574
 10
135.8626979827
 20
93.0046873795
 10
135.5803288985
 20
93.1420779756
 10
135.2957328196
 20
93.2976743623
  0
LINE
  5
366
100
AcDbEntity
  8
DRAFT
100
AcDbLine
 62
7
  6
CONTINUOUS
 10
138.6274406944
 20
123.4216672998
 11
138.6274406944
 21
123.3415809015
  0
LWPOLYLINE
  5
367
100
AcDbEntity
  8
0
100
AcDbPolyline
 62
7
  6
CONTINUOUS
 90
7
 70
0
 10
140.383121212
 20
97.4306854658
 10
140.3869016442
 20
97.5939921967
 10
140.3810502362
 20
97.8535177951
 10
140.3635912845
 20
98.1197454439
 10
140.334667697
 20
98.3904959689
 10
140.2941853748
 20
98.665806493
 10
140.2807882011
 20
98.7379758139
  0
LINE
  5
368
100
AcDbEntity
  8
ASSI
100
AcDbLine
 62
250
  6
CONTINUOUS
 10
140.1491208593
 20
123.8271593653
 11
140.1487958137
 21
123.821301242
  0
LINE
  5
369
100
AcDbEntity
  8
ASSI
100
AcDbLine
 62
250
  6
CONTINUOUS
 10
142.97461124
 20
125.2659419638
 11
142.9776998382
 21
125.2834524726
  0
LWPOLYLINE
  5
36A
100
AcDbEntity
  8
ASSI
100
AcDbPolyline
 62
250
  6
CONTINUOUS
 90
13
 70
0
 10
143.2560422429
 20
121.8680310187
 10
143.2608159547
 20
121.8918362706
 10
143.2633266197
 20
121.9162814321
 10
143.2635358457
 20
121.9409929787
 10
143.2614404063
 20
121.965593311
 10
143.2570722924
 20
121.9897065142
 10
143.2504982275
 20
122.0129641032
 10
143.241818643
 20
122.0350106749
 10
143.2311661493
 20
122.0555093172
 10
143.2187035192
 20
122.0741467536
 10
143.2046211862
 20
122.0906381612
 10
143.1891343295
 20
122.1047315181
 10
143.1724795977
 20
122.1162114384
  0
LWPOLYLINE
  5
36B
100
AcDbEntity
  8
ASSI
100
AcDbPolyline
 62
250
  6
CONTINUOUS
 90
5
 70
0
 10
147.824713302
 20
123.2588466134
 10
147.8293529744
 20
123.2708565166
 10
147.8357376812
 20
123.2824572358
 10
147.8437714059
 20
123.2934952516
 10
147.8533495171
 20
123.3038614491
  0
LWPOLYLINE
  5
36C
100
AcDbEntity
  8
ASSI
100
AcDbPolyline
 62
250
  6
CONTINUOUS
 90
4
 70
0
 10
147.8247146459
 20
123.2379101687
 10
147.8283617795
 20
123.2469264804
 10
147.8365024708
 20
123.259153092
 10
147.8476003201
 20
123.2708803101
  0
LINE
  5
36D
100
AcDbEntity
  8
RACCORDO
100
AcDbLine
 62
7
  6
CONTINUOUS
 10
146.3689471303
 20
112.5921875781
 11
146.7331850053
 21
113.2041815001
  0
LINE
  5
36E
100
AcDbEntity
  8
0
100
AcDbLine
 62
7
  6
CONTINUOUS
 10
136.4804382454
 20
93.1542658773
 11
138.7258038429
 21
96.3484064447
  0
LWPOLYLINE
  5
36F
100
AcDbEntity
  8
0
100
AcDbPolyline
 62
7
  6
CONTINUOUS
 90
13
 70
0
 10
136.4624998764
 20
94.9265652036
 10
136.5557633138
 20
95.0322811561
 10
136.6413620129
 20
95.1477465408
 10
136.719261143
 20
95.2728882114
 10
136.7893215014
 20
95.4075789986
 10
136.8512091666
 20
95.5512864948
 10
136.9046284583
 20
95.7033021153
 10
136.9494111152
 20
95.8629617006
 10
136.9855376927
 20
96.0299783724
 10
137.0129797045
 20
96.2041656818
 10
137.031656454
 20
96.3851564225
 10
137.0414845455
 20
96.5723618949
 10
137.0424226015
 20
96.7652733156
  0
LWPOLYLINE
  5
370
100
AcDbEntity
  8
0
100
AcDbPolyline
 62
7
  6
CONTINUOUS
 90
13
 70
0
 10
135.6128444179
 20
94.4354665592
 10
135.7061671446
 20
94.5410321006
 10
135.791879229
 20
94.6564136673
 10
135.8699805918
 20
94.7816388447
 10
135.9403587719
 20
94.9167331721
 10
136.0025771759
 20
95.0610906483
 10
136.056212193
 20
95.2137278574
 10
136.1010978203
 20
95.3739003667
 10
136.1372520299
 20
95.5413518103
 10
136.1646438094
 20
95.7157189567
 10
136.1832302034
 20
95.8965458435
 10
136.1929799176
 20
96.083265109
 10
136.1938944641
 20
96.2753438036
  0
LWPOLYLINE
  5
371
100
AcDbEntity
  8
0
100
AcDbPolyline
 62
7
  6
CONTINUOUS
 90
13
 70
0
 10
135.1874099713
 20
94.1892905558
 10
135.2807490514
 20
94.2946446293
 10
135.3665199474
 20
94.4098424258
 10
135.4447452141
 20
94.5349738064
 10
135.5153039179
 20
94.6701039985
 10
135.5777291306
 20
94.8146300782
 10
135.6315768909
 20
94.9675849356
 10
135.6766960046
 20
95.1283788379
 10
135.7130351389
 20
95.2966409311
 10
135.74048387
 20
95.4715595331
 10
135.7590351283
 20
95.6524777506
 10
135.7687337529
 20
95.8389386946
 10
135.7696303954
 20
96.0303790476
  0
LWPOLYLINE
  5
372
100
AcDbEntity
  8
0
100
AcDbPolyline
 62
7
  6
CONTINUOUS
 90
13
 70
0
 10
134.7616688254
 20
93.9428008243
 10
134.8550043926
 20
94.047859214
 10
134.9408209331
 20
94.1627785153
 10
135.0191661278
 20
94.2877134501
 10
135.0899102854
 20
94.4227682645
 10
135.1525568877
 20
94.5673451808
 10
135.2066438387
 20
94.7205020979
 10
135.2520228707
 20
94.8817635321
 10
135.2885867488
 20
95.0506849644
 10
135.3161630999
 20
95.2261560607
 10
135.3347614345
 20
95.4073877322
 10
135.344470442
 20
95.5940010374
 10
135.3453663267
 20
95.7854142916
  0
LWPOLYLINE
  5
373
100
AcDbEntity
  8
0
100
AcDbPolyline
 62
7
  6
CONTINUOUS
 90
13
 70
0
 10
134.3363084031
 20
93.6967068105
 10
134.4296308275
 20
93.8015335452
 10
134.5154688744
 20
93.9162264203
 10
134.5938876987
 20
94.0409829086
 10
134.6647527353
 20
94.175933451
 10
134.7275480039
 20
94.3204831164
 10
134.7817992761
 20
94.4737046522
 10
134.8273529887
 20
94.6351655977
 10
134.8640770428
 20
94.8044020789
 10
134.891772012
 20
94.9802101636
 10
134.9104464018
 20
95.1617606505
 10
134.9201970257
 20
95.3487024728
 10
134.921102258
 20
95.5404495356
  0
LWPOLYLINE
  5
374
100
AcDbEntity
  8
0
100
AcDbPolyline
 62
7
  6
CONTINUOUS
 90
13
 70
0
 10
133.9105706129
 20
93.4502276472
 10
134.0039329225
 20
93.5548143609
 10
134.089850066
 20
93.6692902606
 10
134.1683908337
 20
93.7938779061
 10
134.2394139296
 20
93.9287255276
 10
134.3023889162
 20
94.0732449378
 10
134.3568299362
 20
94.2265197551
 10
134.4025741628
 20
94.3881352732
 10
134.4394747913
 20
94.557627808
 10
134.4673166632
 20
94.7337721606
 10
134.4861001667
 20
94.9157313486
 10
134.4959168323
 20
95.1031642204
 10
134.4968381893
 20
95.2954847796
  0
LWPOLYLINE
  5
375
100
AcDbEntity
  8
0
100
AcDbPolyline
 62
7
  6
CONTINUOUS
 90
13
 70
0
 10
133.4845660961
 20
93.203479611
 10
133.5781649339
 20
93.3080146388
 10
133.664331744
 20
93.4225053633
 10
133.7431058555
 20
93.5471455444
 10
133.8143381662
 20
93.6820711269
 10
133.8775029276
 20
93.8267046136
 10
133.932110722
 20
93.9801259896
 10
133.9779973722
 20
94.1419189385
 10
134.0150149742
 20
94.3116184093
 10
134.0429467313
 20
94.4879942316
 10
134.0617926921
 20
94.6702058492
 10
134.0716446113
 20
94.8579106273
 10
134.0725741206
 20
95.0505200236
  0
LWPOLYLINE
  5
376
100
AcDbEntity
  8
0
100
AcDbPolyline
 62
7
  6
CONTINUOUS
 90
13
 70
0
 10
133.0589178342
 20
92.9571006165
 10
133.1526993233
 20
93.0615876777
 10
133.2390672286
 20
93.1760922407
 10
133.3180291698
 20
93.3007769064
 10
133.3894279364
 20
93.4357640649
 10
133.4527437703
 20
93.5804880294
 10
133.5074843311
 20
93.7340257534
 10
133.5534843485
 20
93.8959595764
 10
133.5905950642
 20
94.0658234143
 10
133.6185983755
 20
94.2423831455
 10
133.6374940591
 20
94.4247953698
 10
133.6473740473
 20
94.6127162676
 10
133.6483100518
 20
94.8055552676
  0
LWPOLYLINE
  5
377
100
AcDbEntity
  8
0
100
AcDbPolyline
 62
7
  6
CONTINUOUS
 90
13
 70
0
 10
132.6339596856
 20
92.7114280516
 10
132.7278292635
 20
92.8158867508
 10
132.8142996148
 20
92.9303996495
 10
132.8933571758
 20
93.0551084441
 10
132.9648394596
 20
93.1901263175
 10
133.0282311488
 20
93.3348956175
 10
133.0830383721
 20
93.4884916698
 10
133.1290952984
 20
93.6504960912
 10
133.1662527566
 20
93.8204423208
 10
133.1942919891
 20
93.9970942576
 10
133.2132126352
 20
94.1796070752
 10
133.223106716
 20
94.3676363568
 10
133.2240459831
 20
94.5605905116
  0
LWPOLYLINE
  5
378
100
AcDbEntity
  8
0
100
AcDbPolyline
 62
7
  6
CONTINUOUS
 90
4
 70
0
 10
132.7384056097
 20
92.7076975739
 10
132.8502036124
 20
92.7791974022
 10
132.9579813469
 20
92.8628834845
 10
133.0589178342
 20
92.9571006165
  0
LWPOLYLINE
  5
379
100
AcDbEntity
  8
0
100
AcDbPolyline
 62
7
  6
CONTINUOUS
 90
4
 70
0
 10
132.314141541
 20
92.4627328179
 10
132.425130772
 20
92.5336626814
 10
132.5329535391
 20
92.6172682147
 10
132.6339596856
 20
92.7114280516
  0
LINE
  5
37A
100
AcDbEntity
  8
0
100
AcDbLine
 62
7
  6
CONTINUOUS
 10
132.7925542334
 20
92.7458083832
 11
132.6815650024
 21
92.6748785196
  0
LINE
  5
37B
100
AcDbEntity
  8
0
100
AcDbLine
 62
7
  6
CONTINUOUS
 10
132.3674165592
 20
92.5002288849
 11
132.2573009337
 21
92.4299137636
  0
LWPOLYLINE
  5
37C
100
AcDbEntity
  8
0
100
AcDbPolyline
 62
7
  6
CONTINUOUS
 90
4
 70
0
 10
127.9469984086
 20
100.5560590604
 10
127.7933981225
 20
100.5162379124
 10
127.645980129
 20
100.4636645955
 10
127.5051720949
 20
100.3985057286
  0
LWPOLYLINE
  5
37D
100
AcDbEntity
  8
0
100
AcDbPolyline
 62
7
  6
CONTINUOUS
 90
5
 70
0
 10
127.9626853632
 20
100.586195377
 10
127.8191457419
 20
100.5507081617
 10
127.6807927715
 20
100.5037944794
 10
127.5486068584
 20
100.4458269441
 10
127.4517848174
 20
100.3941569665
  0
LWPOLYLINE
  5
37E
100
AcDbEntity
  8
0
100
AcDbPolyline
 62
7
  6
CONTINUOUS
 90
5
 70
0
 10
128.84894455
 20
101.0834021741
 10
128.7018794999
 20
101.0502570147
 10
128.5602252914
 20
101.0053625584
 10
128.4243759304
 20
100.9488376958
 10
128.3003129548
 20
100.8840864785
  0
LWPOLYLINE
  5
37F
100
AcDbEntity
  8
0
100
AcDbPolyline
 62
7
  6
CONTINUOUS
 90
5
 70
0
 10
129.273428694
 20
101.3284069788
 10
129.1266476987
 20
101.2953579503
 10
128.9852528799
 20
101.2506061458
 10
128.8496368894
 20
101.1942695834
 10
128.7245770235
 20
101.1290512345
  0
LWPOLYLINE
  5
380
100
AcDbEntity
  8
0
100
AcDbPolyline
 62
7
  6
CONTINUOUS
 90
5
 70
0
 10
128.4477112985
 20
100.8424797362
 10
128.298535608
 20
100.8108088372
 10
128.1547868532
 20
100.7671521253
 10
128.0168711679
 20
100.7116191615
 10
127.8760488861
 20
100.6391217225
  0
LINE
  5
381
100
AcDbEntity
  8
0
100
AcDbLine
 62
7
  6
CONTINUOUS
 10
128.106333719
 20
100.5830003551
 11
127.9469984086
 21
100.5560590604
  0
LWPOLYLINE
  5
382
100
AcDbEntity
  8
0
100
AcDbPolyline
 62
7
  6
CONTINUOUS
 90
6
 70
0
 10
128.106333719
 20
100.5830003551
 10
127.9746676169
 20
100.5673412556
 10
127.8468573806
 20
100.5424488273
 10
127.7231824873
 20
100.5083775015
 10
127.6039133714
 20
100.4652017804
 10
127.4893108335
 20
100.4130160744
  0
LWPOLYLINE
  5
383
100
AcDbEntity
  8
0
100
AcDbPolyline
 62
7
  6
CONTINUOUS
 90
43
 70
0
 10
128.106333719
 20
100.5830003551
 10
128.2548725735
 20
100.5914495751
 10
128.4067505281
 20
100.5892446653
 10
128.5615685847
 20
100.5764786671
 10
128.7187736404
 20
100.5532975987
 10
128.8781101183
 20
100.5198379522
 10
129.0396435776
 20
100.4761271606
 10
129.2031930166
 20
100.4221954943
 10
129.3681624336
 20
100.3582215627
 10
129.5340045502
 20
100.284431032
 10
129.7002967102
 20
100.2010402528
 10
129.8666576759
 20
100.1082690457
 10
130.0325993362
 20
100.0064242671
 10
130.1975702912
 20
99.8958998072
 10
130.3613340563
 20
99.7769100489
 10
130.5238730873
 20
99.6494792517
 10
130.6847984836
 20
99.513891653
 10
130.8437127446
 20
99.3704616691
 10
131.0005642863
 20
99.2191842884
 10
131.1550651023
 20
99.060241466
 10
131.3066850753
 20
98.8940810736
 10
131.4549953945
 20
98.7210880108
 10
131.5997927034
 20
98.5413923949
 10
131.7404668205
 20
98.3556413985
 10
131.8760475052
 20
98.1651013913
 10
132.0061432319
 20
97.9703950328
 10
132.1305315212
 20
97.771930491
 10
132.2486254231
 20
97.5707615936
 10
132.3600039173
 20
97.3678172906
 10
132.4646944259
 20
97.1632693358
 10
132.5628026681
 20
96.9570390868
 10
132.6541499799
 20
96.749559541
 10
132.7384982077
 20
96.5414329003
 10
132.8157972245
 20
96.332812839
 10
132.8859466647
 20
96.1239079759
 10
132.9486439055
 20
95.9155503612
 10
133.003585972
 20
95.7088207999
 10
133.0506215161
 20
95.5045485027
 10
133.0897816792
 20
95.3028982081
 10
133.1210807799
 20
95.1039462303
 10
133.1444611006
 20
94.9080508003
 10
133.1598467166
 20
94.7158338964
 10
133.1672053758
 20
94.5277714574
  0
LINE
  5
384
100
AcDbEntity
  8
0
100
AcDbLine
 62
7
  6
CONTINUOUS
 10
136.4804382454
 20
102.135438922
 11
131.9897070503
 21
104.728330832
  0
LINE
  5
385
100
AcDbEntity
  8
0
100
AcDbLine
 62
7
  6
CONTINUOUS
 10
138.0569621813
 20
103.1848918078
 11
133.6867633251
 21
105.708189856
  0
LINE
  5
386
100
AcDbEntity
  8
RACCORDO
100
AcDbLine
 62
250
  6
CONTINUOUS
 10
153.3605209277
 20
89.914639222
 11
153.3467266896
 21
89.9236897235
  0
LWPOLYLINE
  5
387
100
AcDbEntity
  8
0
100
AcDbPolyline
 62
7
  6
CONTINUOUS
 90
6
 70
0
 10
137.0707179546
 20
104.2881250649
 10
137.026146655
 20
104.3262155909
 10
136.8079561833
 20
104.498939488
 10
136.5885402611
 20
104.658969494
 10
136.367308519
 20
104.8068101371
 10
136.144260957
 20
104.9424614174
  0
LWPOLYLINE
  5
388
100
AcDbEntity
  8
0
100
AcDbPolyline
 62
7
  6
CONTINUOUS
 90
10
 70
0
 10
137.6277114185
 20
103.4327358186
 10
137.4477493446
 20
103.621571096
 10
137.2653938367
 20
103.8019678092
 10
137.0806448947
 20
103.9739259582
 10
136.893123267
 20
104.1377598378
 10
136.7032082052
 20
104.2931551532
 10
136.5120374644
 20
104.4391690195
 10
136.3199902962
 20
104.5754871418
 10
136.126687449
 20
104.7024238151
 10
135.9321289227
 20
104.8199790394
  0
LINE
  5
389
100
AcDbEntity
  8
RACCORDO
100
AcDbLine
 62
7
  6
CONTINUOUS
 10
137.9136658555
 20
103.3661578776
 11
138.1429033388
 21
103.0761785122
  0
LINE
  5
38A
100
AcDbEntity
  8
RACCORDO
100
AcDbLine
 62
250
  6
CONTINUOUS
 10
138.0048792554
 20
103.4072102269
 11
138.247276648
 21
103.0957024364
  0
LWPOLYLINE
  5
38B
100
AcDbEntity
  8
RACCORDO
100
AcDbPolyline
 62
7
  6
CONTINUOUS
 90
35
 70
0
 10
138.1429033388
 20
103.0761785122
 10
138.3651428898
 20
102.7766349081
 10
138.5797275492
 20
102.4683560554
 10
138.7860247461
 20
102.1522005998
 10
138.9833784596
 20
101.8291383964
 10
139.1712248934
 20
101.5000714013
 10
139.3490171888
 20
101.1659449069
 10
139.5161890106
 20
100.8278340349
 10
139.6722652221
 20
100.4867391646
 10
139.8168360677
 20
100.143609481
 10
139.9494993352
 20
99.7994712741
 10
140.0699163262
 20
99.4552983729
 10
140.1777755046
 20
99.1121022415
 10
140.2727860351
 20
98.7709837681
 10
140.3547363723
 20
98.4329486676
 10
140.423470245
 20
98.098953553
 10
140.4788602527
 20
97.7700375875
 10
140.520838047
 20
97.4472211505
 10
140.5494056503
 20
97.1313596644
 10
140.5646035297
 20
96.8232650065
 10
140.5665102714
 20
96.5239923401
 10
140.5552661717
 20
96.2342362506
 10
140.5309988206
 20
95.9543445529
 10
140.4939163264
 20
95.6854108546
 10
140.4442293829
 20
95.4280005665
 10
140.3819366314
 20
95.1818870021
 10
140.3072568532
 20
94.948035647
 10
140.2204265022
 20
94.7272033626
 10
140.1212467535
 20
94.5191849514
 10
140.0099550438
 20
94.3249571023
 10
139.8867561905
 20
94.1452659059
 10
139.7510770667
 20
93.9799035201
 10
139.6026571559
 20
93.8294737662
 10
139.4417695597
 20
93.695120157
 10
139.268398401
 20
93.5775807838
  0
LWPOLYLINE
  5
38C
100
AcDbEntity
  8
RACCORDO
100
AcDbPolyline
 62
250
  6
CONTINUOUS
 90
17
 70
0
 10
138.247276648
 20
103.0957024364
 10
138.4809507141
 20
102.7753733276
 10
138.7058325969
 20
102.4461442478
 10
138.9219911531
 20
102.1080938497
 10
139.127647041
 20
101.7640107439
 10
139.3227110285
 20
101.4138459275
 10
139.5072723477
 20
101.0576484033
 10
139.6798193534
 20
100.6983537916
 10
139.8402494231
 20
100.3359426812
 10
139.9886651792
 20
99.9704344832
 10
140.1238628436
 20
99.6048230503
 10
140.2457330173
 20
99.2391115982
 10
140.3543850992
 20
98.8732969111
 10
140.4489435073
 20
98.510363194
 10
140.5292935021
 20
98.1503367856
 10
140.5955498231
 20
97.7931913473
 10
140.6471811065
 20
97.4418320672
  0
LINE
  5
38D
100
AcDbEntity
  8
0
100
AcDbLine
 62
7
  6
CONTINUOUS
 10
140.4228601178
 20
97.3282654687
 11
138.2472335289
 21
102.9355579925
  0
LWPOLYLINE
  5
38E
100
AcDbEntity
  8
0
100
AcDbPolyline
 62
7
  6
CONTINUOUS
 90
19
 70
0
 10
140.1479685669
 20
98.036749795
 10
140.1216798014
 20
98.2743756793
 10
140.0868298462
 20
98.5144197936
 10
140.0434187015
 20
98.7568821379
 10
139.9913208951
 20
99.002274575
 10
139.9306618992
 20
99.2500852422
 10
139.8618181294
 20
99.498778551
 10
139.7847396923
 20
99.7483599787
 10
139.6994764813
 20
99.9988240479
 10
139.6065545929
 20
100.2486187389
 10
139.5059271908
 20
100.497740393
 10
139.3976411113
 20
100.7461926688
 10
139.282362959
 20
100.9924345222
 10
139.1600485522
 20
101.2364549037
 10
139.0307420727
 20
101.4782648627
 10
138.8952426698
 20
101.7163565034
 10
138.7538167269
 20
101.9502271938
 10
138.6061978606
 20
102.1803795659
 10
138.4523860711
 20
102.4068136197
  0
LINE
  5
38F
100
AcDbEntity
  8
ASSI
100
AcDbLine
 62
7
  6
CONTINUOUS
 10
140.1487958137
 20
123.821301242
 11
140.1488016292
 21
123.8212380822
  0
LINE
  5
390
100
AcDbEntity
  8
ASSI
100
AcDbLine
 62
250
  6
CONTINUOUS
 10
140.3228920803
 20
123.7271858666
 11
140.3132028137
 21
123.8339242276
  0
LWPOLYLINE
  5
391
100
AcDbEntity
  8
SUPERFICI
100
AcDbPolyline
 62
250
  6
CONTINUOUS
 90
9
 70
0
 10
142.7298399038
 20
74.1854638444
 10
142.7317127407
 20
74.1445816721
 10
142.7373114099
 20
74.1062953255
 10
142.7465765972
 20
74.0710104241
 10
142.7594101438
 20
74.039100789
 10
142.7756760865
 20
74.0109044827
 10
142.7952020978
 20
73.9867202275
 10
142.817781312
 20
73.96680424
 10
142.8333812143
 20
73.9565954138
  0
LINE
  5
392
100
AcDbEntity
  8
SUPERFICI
100
AcDbLine
 62
250
  6
CONTINUOUS
 10
142.7298399038
 20
116.3372361266
 11
142.7298399038
 21
74.1854638444
  0
LINE
  5
393
100
AcDbEntity
  8
ASSI
100
AcDbLine
 62
7
  6
CONTINUOUS
 10
142.9451384728
 20
125.3446388058
 11
142.9451384728
 21
125.2123705992
  0
LINE
  5
394
100
AcDbEntity
  8
SUPERFICI
100
AcDbLine
 62
250
  6
CONTINUOUS
 10
143.4275705822
 20
116.3319623879
 11
143.4275705822
 21
74.1801901057
  0
LINE
  5
395
100
AcDbEntity
  8
ASSI
100
AcDbLine
 62
250
  6
CONTINUOUS
 10
142.9728145571
 20
125.2220719246
 11
142.9735779163
 21
125.2486627635
  0
LWPOLYLINE
  5
396
100
AcDbEntity
  8
ASSI
100
AcDbPolyline
 62
7
  6
CONTINUOUS
 90
22
 70
0
 10
142.945138477
 20
125.3446388058
 10
142.9467758076
 20
125.3759438671
 10
142.9518208923
 20
125.4076844809
 10
142.9604415514
 20
125.4395138876
 10
142.9727336108
 20
125.4710210473
 10
142.9887634272
 20
125.5018756704
 10
143.0086537699
 20
125.5318774584
 10
143.0326353537
 20
125.5608992143
 10
143.0605818039
 20
125.5883874022
 10
143.092035613
 20
125.613716256
 10
143.1271809889
 20
125.6369079359
 10
143.1657394705
 20
125.6576275956
 10
143.2062194591
 20
125.6751575745
 10
143.2480019674
 20
125.6895043912
 10
143.2912080075
 20
125.7009069596
 10
143.3351063462
 20
125.709319231
 10
143.3792077032
 20
125.7148189827
 10
143.4235008199
 20
125.7175295369
 10
143.467837542
 20
125.7174968067
 10
143.5120102803
 20
125.7147312461
 10
143.5557809023
 20
125.7092228497
 10
143.5989176012
 20
125.7009412675
  0
LINE
  5
397
100
AcDbEntity
  8
ASSI
100
AcDbLine
 62
250
  6
CONTINUOUS
 10
142.973577933
 20
125.2486627433
 11
142.97461124
 21
125.2659419638
  0
LWPOLYLINE
  5
398
100
AcDbEntity
  8
ASSI
100
AcDbPolyline
 62
250
  6
CONTINUOUS
 90
13
 70
0
 10
145.329745895
 20
125.7099587348
 10
145.3323414494
 20
125.733638318
 10
145.3326318535
 20
125.7581083431
 10
145.3306124527
 20
125.7829766125
 10
145.3263156132
 20
125.8078445456
 10
145.3198102031
 20
125.832313567
 10
145.3112004891
 20
125.8559914952
 10
145.3006244648
 20
125.8784988277
 10
145.2882516391
 20
125.899474824
 10
145.2742803199
 20
125.9185832876
 10
145.2589344349
 20
125.9355179537
 10
145.242459943
 20
125.950007399
 10
145.2251208922
 20
125.9618193911
  0
LINE
  5
399
100
AcDbEntity
  8
RACCORDO
100
AcDbLine
 62
250
  6
CONTINUOUS
 10
144.8972145107
 20
120.3126496863
 11
144.8961850209
 21
120.3045968591
  0
LWPOLYLINE
  5
39A
100
AcDbEntity
  8
ASSI
100
AcDbPolyline
 62
250
  6
CONTINUOUS
 90
10
 70
0
 10
145.3003709699
 20
121.9743825696
 10
145.2969453318
 20
121.9562138985
 10
145.2948976743
 20
121.9381170619
 10
145.2942462808
 20
121.9202536301
 10
145.2949969699
 20
121.9027830891
 10
145.2971430394
 20
121.8858614181
 10
145.3006653277
 20
121.8696396964
 10
145.3055323885
 20
121.8542627537
 10
145.3117007709
 20
121.8398678768
 10
145.3191154044
 20
121.8265835854
  0
LINE
  5
39B
100
AcDbEntity
  8
0
100
AcDbLine
 62
7
  6
CONTINUOUS
 10
138.1774945202
 20
94.1341249013
 11
140.4228601178
 21
97.3282654687
  0
LWPOLYLINE
  5
39C
100
AcDbEntity
  8
0
100
AcDbPolyline
 62
7
  6
CONTINUOUS
 90
14
 70
0
 10
139.1600485522
 20
94.8783391761
 10
139.282362959
 20
94.9811139465
 10
139.3976411113
 20
95.0942354791
 10
139.5059271908
 20
95.2176417046
 10
139.6065545929
 20
95.3505613572
 10
139.6994764813
 20
95.4930521805
 10
139.7847396923
 20
95.645056431
 10
139.8618181294
 20
95.8056296114
 10
139.9306618992
 20
95.9748238605
 10
139.9913208951
 20
96.1525870397
 10
140.0434187015
 20
96.3378182359
 10
140.0868298462
 20
96.5301504784
 10
140.1216798014
 20
96.7299507381
 10
140.1479685669
 20
96.9372190149
  0
LINE
  5
39D
100
AcDbEntity
  8
0
100
AcDbLine
 62
7
  6
CONTINUOUS
 10
139.0307420727
 20
94.7858490984
 11
139.1600485522
 21
94.8783391761
  0
LWPOLYLINE
  5
39E
100
AcDbEntity
  8
0
100
AcDbPolyline
 62
7
  6
CONTINUOUS
 90
4
 70
0
 10
136.1325181594
 20
94.6674156219
 10
136.2539250821
 20
94.7457496725
 10
136.3618068542
 20
94.8309513548
 10
136.4624998764
 20
94.9265652036
  0
LWPOLYLINE
  5
39F
100
AcDbEntity
  8
0
100
AcDbPolyline
 62
7
  6
CONTINUOUS
 90
4
 70
0
 10
135.283990022
 20
94.1774861099
 10
135.4043563645
 20
94.2550744625
 10
135.5121557418
 20
94.3400491421
 10
135.6128444179
 20
94.4354665592
  0
LINE
  5
3A0
100
AcDbEntity
  8
0
100
AcDbLine
 62
7
  6
CONTINUOUS
 10
135.7717798259
 20
94.4672201643
 11
135.6514134834
 21
94.3896318116
  0
LWPOLYLINE
  5
3A1
100
AcDbEntity
  8
0
100
AcDbPolyline
 62
7
  6
CONTINUOUS
 90
4
 70
0
 10
134.8597259533
 20
93.9325213539
 10
134.9790372645
 20
94.0093550466
 10
135.0867512968
 20
94.0940985825
 10
135.1874099713
 20
94.1892905558
  0
LINE
  5
3A2
100
AcDbEntity
  8
0
100
AcDbLine
 62
7
  6
CONTINUOUS
 10
135.3464607259
 20
94.2215007483
 11
135.2271494147
 21
94.1446670556
  0
LWPOLYLINE
  5
3A3
100
AcDbEntity
  8
0
100
AcDbPolyline
 62
7
  6
CONTINUOUS
 90
4
 70
0
 10
134.4354618846
 20
93.6875565979
 10
134.5534650951
 20
93.7634565563
 10
134.6610644278
 20
93.8479066564
 10
134.7616688254
 20
93.9428008243
  0
LINE
  5
3A4
100
AcDbEntity
  8
0
100
AcDbLine
 62
7
  6
CONTINUOUS
 10
134.9208885565
 20
93.975602258
 11
134.802885346
 21
93.8997022996
  0
LWPOLYLINE
  5
3A5
100
AcDbEntity
  8
0
100
AcDbPolyline
 62
7
  6
CONTINUOUS
 90
4
 70
0
 10
134.0111978159
 20
93.4425918419
 10
134.1282404821
 20
93.5178075239
 10
134.2357514688
 20
93.602039198
 10
134.3363084031
 20
93.6967068105
  0
LINE
  5
3A6
100
AcDbEntity
  8
0
100
AcDbLine
 62
7
  6
CONTINUOUS
 10
134.4956639435
 20
93.7299532257
 11
134.3786212773
 21
93.6547375436
  0
LWPOLYLINE
  5
3A7
100
AcDbEntity
  8
0
100
AcDbPolyline
 62
7
  6
CONTINUOUS
 90
4
 70
0
 10
133.5869337471
 20
93.1976270859
 10
133.7025525594
 20
93.2718305655
 10
133.8100136902
 20
93.3558089454
 10
133.9105706129
 20
93.4502276472
  0
LINE
  5
3A8
100
AcDbEntity
  8
0
100
AcDbLine
 62
7
  6
CONTINUOUS
 10
134.0699760208
 20
93.4839762672
 11
133.9543572086
 21
93.4097727876
  0
LWPOLYLINE
  5
3A9
100
AcDbEntity
  8
0
100
AcDbPolyline
 62
7
  6
CONTINUOUS
 90
4
 70
0
 10
133.1626696784
 20
92.9526623299
 10
133.2761359456
 20
93.0253404029
 10
133.3837888206
 20
93.109165508
 10
133.4845660961
 20
93.203479611
  0
LINE
  5
3AA
100
AcDbEntity
  8
0
100
AcDbLine
 62
7
  6
CONTINUOUS
 10
133.643559407
 20
93.2374861046
 11
133.5300931399
 21
93.1648080316
  0
LWPOLYLINE
  5
3AB
100
AcDbEntity
  8
0
100
AcDbPolyline
 62
7
  6
CONTINUOUS
 90
15
 70
0
 10
139.1444065152
 20
94.8475713747
 10
139.2969858447
 20
94.9452067333
 10
139.4415029594
 20
95.057142407
 10
139.5766293739
 20
95.1823781246
 10
139.7022880115
 20
95.3210230498
 10
139.8185559489
 20
95.4729680189
 10
139.924481489
 20
95.6369693048
 10
140.0199797439
 20
95.8131258631
 10
140.1051356014
 20
96.0013387382
 10
140.1792520288
 20
96.2000673365
 10
140.2422384169
 20
96.4093979687
 10
140.2941853748
 20
96.6292443242
 10
140.334667697
 20
96.8578068772
 10
140.3635912845
 20
97.0951571685
 10
140.3753338629
 20
97.2606570851
  0
LINE
  5
3AC
100
AcDbEntity
  8
0
100
AcDbLine
 62
7
  6
CONTINUOUS
 10
133.2176270739
 20
92.9913431039
 11
133.1058290711
 21
92.9198432756
  0
LWPOLYLINE
  5
3AD
100
AcDbEntity
  8
0
100
AcDbPolyline
 62
7
  6
CONTINUOUS
 90
18
 70
0
 10
136.5567822281
 20
94.9123803779
 10
136.6526188535
 20
94.9727808176
 10
136.7505651649
 20
95.0460739179
 10
136.8426837157
 20
95.1275471449
 10
136.9288814619
 20
95.2169908985
 10
137.0091660056
 20
95.3143328784
 10
137.0833953186
 20
95.4193656378
 10
137.1513992715
 20
95.5318113851
 10
137.2131100045
 20
95.6515411082
 10
137.2684037066
 20
95.7783396442
 10
137.3171316575
 20
95.9118952426
 10
137.3591856384
 20
96.0519387031
 10
137.3944689726
 20
96.1981941269
 10
137.4228869971
 20
96.3503259883
 10
137.444360716
 20
96.507951887
 10
137.4588382806
 20
96.6707084939
 10
137.4662870696
 20
96.8382588869
 10
137.4666866703
 20
97.0102380716
  0
LWPOLYLINE
  5
3AE
100
AcDbEntity
  8
0
100
AcDbPolyline
 62
7
  6
CONTINUOUS
 90
16
 70
0
 10
135.7082540907
 20
94.4224508659
 10
135.7820989363
 20
94.4680629325
 10
135.8963355928
 20
94.5515236413
 10
136.0029465677
 20
94.6461124997
 10
136.1015793866
 20
94.7513587052
 10
136.1921015361
 20
94.8669526571
 10
136.2746134525
 20
94.9929934316
 10
136.3490053019
 20
95.1295021526
 10
136.4148007848
 20
95.2758178486
 10
136.471580489
 20
95.430995082
 10
136.5191479992
 20
95.5942224014
 10
136.5575218996
 20
95.765240519
 10
136.5866859443
 20
95.943851232
 10
136.6065610602
 20
96.1296529689
 10
136.6170636634
 20
96.3219922905
 10
136.6181585328
 20
96.5203085596
  0
LINE
  5
3AF
100
AcDbEntity
  8
0
100
AcDbLine
 62
7
  6
CONTINUOUS
 10
136.1495223977
 20
94.6802086342
 11
136.0756775521
 21
94.6345965676
  0
LINE
  5
3B0
100
AcDbEntity
  8
0
100
AcDbLine
 62
7
  6
CONTINUOUS
 10
138.9323602348
 20
94.7251385128
 11
139.0307420727
 21
94.7858490984
  0
LINE
  5
3B1
100
AcDbEntity
  8
0
100
AcDbLine
 62
7
  6
CONTINUOUS
 10
136.5567221815
 20
94.9140901149
 11
136.4999416208
 21
94.8795613236
  0
LINE
  5
3B2
100
AcDbEntity
  8
0
100
AcDbLine
 62
7
  6
CONTINUOUS
 10
140.4228601178
 20
97.3282654687
 11
138.7258038429
 21
96.3484064447
  0
LINE
  5
3B3
100
AcDbEntity
  8
0
100
AcDbLine
 62
7
  6
CONTINUOUS
 10
139.1444059179
 20
94.8475710298
 11
138.9322738835
 21
94.7250886518
  0
LINE
  5
3B4
100
AcDbEntity
  8
0
100
AcDbLine
 62
7
  6
CONTINUOUS
 10
138.1774945202
 20
94.1341249013
 11
136.4804382454
 21
93.1542658773
  0
LWPOLYLINE
  5
3B5
100
AcDbEntity
  8
RACCORDO
100
AcDbPolyline
 62
250
  6
CONTINUOUS
 90
12
 70
0
 10
139.268398401
 20
93.5775807838
 10
139.1746131653
 20
93.5235912087
 10
138.9692724662
 20
93.4238875302
 10
138.7538301777
 20
93.3434087841
 10
138.5289403352
 20
93.2823994006
 10
138.2952860852
 20
93.2410448172
 10
138.0535773171
 20
93.2194707119
 10
137.8045482085
 20
93.2177425938
 10
137.5489549456
 20
93.2358656903
 10
137.287573742
 20
93.2737849581
 10
137.0211983989
 20
93.3313852355
 10
136.8645278234
 20
93.3760343859
  0
LWPOLYLINE
  5
3B6
100
AcDbEntity
  8
0
100
AcDbPolyline
 62
7
  6
CONTINUOUS
 90
4
 70
0
 10
136.0756775521
 20
94.6345965676
 10
136.0278106613
 20
94.6081404546
 10
135.8986725268
 20
94.5477119481
 10
135.8839674874
 20
94.5424875677
  0
LWPOLYLINE
  5
3B7
100
AcDbEntity
  8
0
100
AcDbPolyline
 62
7
  6
CONTINUOUS
 90
4
 70
0
 10
136.4999416208
 20
94.8795613236
 10
136.4408317249
 20
94.8472251192
 10
136.3184620714
 20
94.7908490586
 10
136.3049674643
 20
94.786061365
  0
LWPOLYLINE
  5
3B8
100
AcDbEntity
  8
0
100
AcDbPolyline
 62
7
  6
CONTINUOUS
 90
3
 70
0
 10
135.6514134834
 20
94.3896318116
 10
135.5345424068
 20
94.328992594
 10
135.4591971798
 20
94.2983036613
  0
LWPOLYLINE
  5
3B9
100
AcDbEntity
  8
0
100
AcDbPolyline
 62
7
  6
CONTINUOUS
 90
3
 70
0
 10
135.2271494147
 20
94.1446670556
 10
135.1094525859
 20
94.0836457042
 10
135.0349593189
 20
94.0533514742
  0
LWPOLYLINE
  5
3BA
100
AcDbEntity
  8
0
100
AcDbPolyline
 62
7
  6
CONTINUOUS
 90
3
 70
0
 10
134.802885346
 20
93.8997022996
 10
134.6841908808
 20
93.838220097
 10
134.6107312663
 20
93.8084023173
  0
LWPOLYLINE
  5
3BB
100
AcDbEntity
  8
0
100
AcDbPolyline
 62
7
  6
CONTINUOUS
 90
3
 70
0
 10
134.3786212773
 20
93.6547375436
 10
134.2592061831
 20
93.5929230127
 10
134.1864965249
 20
93.5634494082
  0
LWPOLYLINE
  5
3BC
100
AcDbEntity
  8
0
100
AcDbPolyline
 62
7
  6
CONTINUOUS
 90
3
 70
0
 10
133.9543572086
 20
93.4097727876
 10
133.8337958605
 20
93.3474306146
 10
133.7622718525
 20
93.3184998071
  0
LWPOLYLINE
  5
3BD
100
AcDbEntity
  8
0
100
AcDbPolyline
 62
7
  6
CONTINUOUS
 90
3
 70
0
 10
133.5300931399
 20
93.1648080316
 10
133.4072895941
 20
93.1014371681
 10
133.3380683176
 20
93.0735647312
  0
LWPOLYLINE
  5
3BE
100
AcDbEntity
  8
0
100
AcDbPolyline
 62
7
  6
CONTINUOUS
 90
3
 70
0
 10
133.1058290711
 20
92.9198432756
 10
132.9814083816
 20
92.8557333043
 10
132.9138492612
 20
92.8286162829
  0
LWPOLYLINE
  5
3BF
100
AcDbEntity
  8
0
100
AcDbPolyline
 62
7
  6
CONTINUOUS
 90
3
 70
0
 10
132.6815650024
 20
92.6748785196
 10
132.5564408197
 20
92.6104477555
 10
132.4896051662
 20
92.583655983
  0
LWPOLYLINE
  5
3C0
100
AcDbEntity
  8
0
100
AcDbPolyline
 62
7
  6
CONTINUOUS
 90
6
 70
0
 10
132.2573009337
 20
92.4299137636
 10
132.1316047687
 20
92.3652225039
 10
132.0042250919
 20
92.3142039888
 10
131.8715051872
 20
92.2745958581
 10
131.7341083416
 20
92.2464762444
 10
131.6935195269
 20
92.2416967691
  0
LWPOLYLINE
  5
3C1
100
AcDbEntity
  8
DRAFT
100
AcDbPolyline
 62
7
  6
CONTINUOUS
 90
3
 70
0
 10
139.4931085754
 20
93.7379922131
 10
139.4647070791
 20
93.7242017737
 10
139.2501315033
 20
93.6440066263
  0
LWPOLYLINE
  5
3C2
100
AcDbEntity
  8
0
100
AcDbPolyline
 62
7
  6
CONTINUOUS
 90
5
 70
0
 10
138.4523860711
 20
94.525171355
 10
138.6061978606
 20
94.5739874097
 10
138.7538167269
 20
94.6336732153
 10
138.8952426698
 20
94.7042287717
 10
138.9323602348
 20
94.7251385128
  0
LWPOLYLINE
  5
3C3
100
AcDbEntity
  8
0
100
AcDbPolyline
 62
7
  6
CONTINUOUS
 90
5
 70
0
 10
130.0915234774
 20
101.812534793
 10
129.9490190374
 20
101.7780078202
 10
129.8116599312
 20
101.732287528
 10
129.680336059
 20
101.6757216441
 10
129.5731051609
 20
101.6189807465
  0
LWPOLYLINE
  5
3C4
100
AcDbEntity
  8
0
100
AcDbPolyline
 62
7
  6
CONTINUOUS
 90
5
 70
0
 10
130.9691314069
 20
102.3080192486
 10
130.8237107751
 20
102.2752188105
 10
130.684020015
 20
102.231088453
 10
130.5502230479
 20
102.1757761714
 10
130.4216332983
 20
102.1089102585
  0
LWPOLYLINE
  5
3C5
100
AcDbEntity
  8
0
100
AcDbPolyline
 62
7
  6
CONTINUOUS
 90
5
 70
0
 10
130.5453248332
 20
102.0631380106
 10
130.3994723366
 20
102.0302609735
 10
130.2591751436
 20
101.9859123388
 10
130.124725792
 20
101.9302369793
 10
129.9973692296
 20
101.8639455025
  0
LWPOLYLINE
  5
3C6
100
AcDbEntity
  8
0
100
AcDbPolyline
 62
7
  6
CONTINUOUS
 90
5
 70
0
 10
131.3934809148
 20
102.5529996109
 10
131.24848306
 20
102.5203206848
 10
131.1093163044
 20
102.4764282486
 10
130.9760449938
 20
102.4214648452
 10
130.8458973671
 20
102.3538750145
  0
LWPOLYLINE
  5
3C7
100
AcDbEntity
  8
0
100
AcDbPolyline
 62
7
  6
CONTINUOUS
 90
5
 70
0
 10
131.8181159456
 20
102.798032079
 10
131.6733506954
 20
102.7654480725
 10
131.5343389761
 20
102.7216681466
 10
131.4011683403
 20
102.6668280509
 10
131.2701614358
 20
102.5988397704
  0
LWPOLYLINE
  5
3C8
100
AcDbEntity
  8
0
100
AcDbPolyline
 62
7
  6
CONTINUOUS
 90
5
 70
0
 10
129.6986366564
 20
101.5735431893
 10
129.5521358339
 20
101.5406526911
 10
129.4109992416
 20
101.4961110365
 10
129.275617811
 20
101.440036941
 10
129.1488410922
 20
101.3740159905
  0
LWPOLYLINE
  5
3C9
100
AcDbEntity
  8
RACCORDO
100
AcDbPolyline
 62
250
  6
CONTINUOUS
 90
4
 70
0
 10
134.448625567
 20
106.2219179153
 10
134.7287676566
 20
106.1027331098
 10
135.0111367408
 20
105.9653425137
 10
135.2957328196
 20
105.8097461269
  0
LWPOLYLINE
  5
3CA
100
AcDbEntity
  8
0
100
AcDbPolyline
 62
7
  6
CONTINUOUS
 90
11
 70
0
 10
136.144260957
 20
104.9424614174
 10
135.921213395
 20
105.0643798708
 10
135.699981653
 20
105.1720120981
 10
135.4805657308
 20
105.2653580992
 10
135.2623752591
 20
105.3445950897
 10
135.0460006072
 20
105.409545854
 10
134.8332128837
 20
105.4596787455
 10
134.6240415292
 20
105.4948721426
 10
134.4184571029
 20
105.5152476669
 10
134.2181423913
 20
105.5206385371
 10
134.0280002814
 20
105.5111639141
  0
LWPOLYLINE
  5
3CB
100
AcDbEntity
  8
0
100
AcDbPolyline
 62
7
  6
CONTINUOUS
 90
10
 70
0
 10
135.9321289227
 20
104.8199790394
 10
135.7375703964
 20
104.9270951245
 10
135.5442675492
 20
105.0233797339
 10
135.352220381
 20
105.1088328675
 10
135.1610496402
 20
105.1835781808
 10
134.9711345784
 20
105.2474920184
 10
134.7836129507
 20
105.3002034141
 10
134.5988640087
 20
105.3415887124
 10
134.4165085008
 20
105.3717715689
 10
134.2365464269
 20
105.3907519834
  0
LINE
  5
3CC
100
AcDbEntity
  8
RACCORDO
100
AcDbLine
 62
7
  6
CONTINUOUS
 10
135.3992741301
 20
105.5808776964
 11
135.6575283388
 21
105.4241387672
  0
LWPOLYLINE
  5
3CD
100
AcDbEntity
  8
RACCORDO
100
AcDbPolyline
 62
250
  6
CONTINUOUS
 90
3
 70
0
 10
135.2957328196
 20
105.8097461269
 10
135.5803284526
 20
105.6366983721
 10
135.8626970747
 20
105.4480165788
  0
LINE
  5
3CE
100
AcDbEntity
  8
RACCORDO
100
AcDbLine
 62
7
  6
CONTINUOUS
 10
135.6575283388
 20
105.4241387672
 11
135.9163505409
 21
105.2517449076
  0
LINE
  5
3CF
100
AcDbEntity
  8
RACCORDO
100
AcDbLine
 62
7
  6
CONTINUOUS
 10
135.9163505409
 20
105.2517449076
 11
136.1749487096
 21
105.0640837435
  0
LWPOLYLINE
  5
3D0
100
AcDbEntity
  8
RACCORDO
100
AcDbPolyline
 62
250
  6
CONTINUOUS
 90
9
 70
0
 10
135.8626970747
 20
105.4480165788
 10
136.1428386859
 20
105.2437007473
 10
136.4215376076
 20
105.0230896517
 10
136.6980095185
 20
104.7868445178
 10
136.9699014544
 20
104.5369490226
 10
137.2371482405
 20
104.2733055951
 10
137.4998150516
 20
103.9960118062
 10
137.7557444485
 20
103.7073440461
 10
138.0048792554
 20
103.4072102269
  0
LWPOLYLINE
  5
3D1
100
AcDbEntity
  8
RACCORDO
100
AcDbPolyline
 62
7
  6
CONTINUOUS
 90
8
 70
0
 10
136.1749487096
 20
105.0640837435
 10
136.4325116385
 20
104.8616148946
 10
136.6882560782
 20
104.6448354021
 10
136.9414504719
 20
104.414250577
 10
137.1913496615
 20
104.1704254276
 10
137.4371732073
 20
103.9140151242
 10
137.6781781958
 20
103.6456976736
 10
137.9136658555
 20
103.3661578776
  0
LINE
  5
3D2
100
AcDbEntity
  8
RACCORDO
100
AcDbLine
 62
250
  6
CONTINUOUS
 10
149.9399121758
 20
84.7500974457
 11
149.9732613367
 21
84.6923350046
  0
LINE
  5
3D3
100
AcDbEntity
  8
RACCORDO
100
AcDbLine
 62
7
  6
CONTINUOUS
 10
149.9399121758
 20
84.8726493059
 11
150.0263254629
 21
84.7229771023
  0
LINE
  5
3D4
100
AcDbEntity
  8
RACCORDO
100
AcDbLine
 62
250
  6
CONTINUOUS
 10
149.9732613367
 20
84.6923350046
 11
149.9811462651
 21
84.6781176165
  0
LINE
  5
3D5
100
AcDbEntity
  8
RACCORDO
100
AcDbLine
 62
250
  6
CONTINUOUS
 10
149.9811462651
 20
84.6781176165
 11
149.9880329451
 21
84.6635451132
  0
LWPOLYLINE
  5
3D6
100
AcDbEntity
  8
RACCORDO
100
AcDbPolyline
 62
250
  6
CONTINUOUS
 90
8
 70
0
 10
149.9880329451
 20
84.6635451132
 10
149.9938402381
 20
84.6487891915
 10
149.9984997174
 20
84.6340237287
 10
150.0019564947
 20
84.6194226741
 10
150.0041698498
 20
84.6051580029
 10
150.0051136919
 20
84.5913977607
 10
150.0047768808
 20
84.5783041127
 10
150.003163377
 20
84.5660313697
  0
LWPOLYLINE
  5
3D7
100
AcDbEntity
  8
ASSI
100
AcDbPolyline
 62
250
  6
CONTINUOUS
 90
13
 70
0
 10
142.4086863621
 20
124.0321591812
 10
142.4066231158
 20
124.0538619134
 10
142.4023345421
 20
124.0763847725
 10
142.3958892494
 20
124.0993675934
 10
142.3873903347
 20
124.1224428573
 10
142.3769737253
 20
124.145241591
 10
142.3648059987
 20
124.1673992656
 10
142.3510817393
 20
124.1885615834
 10
142.3360204121
 20
124.2083901771
 10
142.3198628338
 20
124.2265680336
 10
142.3028673583
 20
124.2428045134
 10
142.2853057511
 20
124.2568400042
 10
142.2674588189
 20
124.2684500995
  0
LWPOLYLINE
  5
3D8
100
AcDbEntity
  8
ASSI
100
AcDbPolyline
 62
250
  6
CONTINUOUS
 90
13
 70
0
 10
142.7297477459
 20
123.9847318916
 10
142.731810919
 20
123.9630296687
 10
142.7360993444
 20
123.9405072393
 10
142.7425444498
 20
123.9175247393
 10
142.7510431771
 20
123.8944496613
 10
142.7614596311
 20
123.8716509781
 10
142.7736272514
 20
123.8494932429
 10
142.7873514766
 20
123.8283307601
 10
142.802412855
 20
123.8085019199
 10
142.8185705537
 20
123.7903237876
 10
142.8355662093
 20
123.7740870332
 10
142.8531280597
 20
123.7600512841
 10
142.8709752891
 20
123.7484409733
  0
LINE
  5
3D9
100
AcDbEntity
  8
ASSI
100
AcDbLine
 62
250
  6
CONTINUOUS
 10
144.8046275016
 20
121.0384272002
 11
144.8315686275
 21
120.7448423982
  0
LINE
  5
3DA
100
AcDbEntity
  8
ASSI
100
AcDbLine
 62
250
  6
CONTINUOUS
 10
144.7757639014
 20
121.3693475769
 11
144.8046275016
 21
121.0384272002
  0
LWPOLYLINE
  5
3DB
100
AcDbEntity
  8
ASSI
100
AcDbPolyline
 62
250
  6
CONTINUOUS
 90
5
 70
0
 10
142.9451384728
 20
125.3446388058
 10
142.9469504372
 20
125.3200833292
 10
142.9523240748
 20
125.295871028
 10
142.9612210912
 20
125.2720073001
 10
142.9735779163
 20
125.2486627635
  0
LWPOLYLINE
  5
3DC
100
AcDbEntity
  8
SUPERFICI
100
AcDbPolyline
 62
250
  6
CONTINUOUS
 90
16
 70
0
 10
143.4275705822
 20
116.3319623879
 10
143.4246806346
 20
116.3753393099
 10
143.4180319336
 20
116.4205447055
 10
143.4076977409
 20
116.4670806911
 10
143.3937900894
 20
116.5144402639
 10
143.3764632062
 20
116.5620963742
 10
143.3559156907
 20
116.6095076298
 10
143.3323825638
 20
116.6561423799
 10
143.306121384
 20
116.7014995071
 10
143.2774139115
 20
116.7450958181
 10
143.2465310049
 20
116.7865089643
 10
143.2138518734
 20
116.8252201814
 10
143.1798720567
 20
116.8606710987
 10
143.1450238759
 20
116.8924738953
 10
143.1096509076
 20
116.9203760713
 10
143.0741383408
 20
116.9441249754
  0
LWPOLYLINE
  5
3DD
100
AcDbEntity
  8
ASSI
100
AcDbPolyline
 62
250
  6
CONTINUOUS
 90
10
 70
0
 10
145.4250314477
 20
121.825271411
 10
145.4243749312
 20
121.8382902833
 10
145.4232843576
 20
121.850942209
 10
145.4217597268
 20
121.8632271879
 10
145.4197977847
 20
121.8751448165
 10
145.4174017854
 20
121.8866954984
 10
145.4145814922
 20
121.8978804442
 10
145.4113401593
 20
121.9087000576
 10
145.4076745324
 20
121.9191539348
 10
145.4035846115
 20
121.929242076
  0
LWPOLYLINE
  5
3DE
100
AcDbEntity
  8
ASSI
100
AcDbPolyline
 62
250
  6
CONTINUOUS
 90
16
 70
0
 10
145.8118322501
 20
118.6671332319
 10
145.8112938016
 20
118.6848413237
 10
145.8091761386
 20
118.7032381744
 10
145.8055025864
 20
118.7221210889
 10
145.8003128816
 20
118.741284389
 10
145.7936645704
 20
118.760514574
 10
145.7856341373
 20
118.7795926955
 10
145.7763140199
 20
118.7983042432
 10
145.7658062412
 20
118.816448776
 10
145.7542228295
 20
118.8338342111
 10
145.7416721579
 20
118.8502925622
 10
145.7283086476
 20
118.8656164002
 10
145.7143364408
 20
118.8795837867
 10
145.6999348185
 20
118.8920425929
 10
145.6852465269
 20
118.9028953584
 10
145.670432433
 20
118.912044899
  0
LINE
  5
3DF
100
AcDbEntity
  8
ASSI
100
AcDbLine
 62
250
  6
CONTINUOUS
 10
145.4347959075
 20
121.4859300171
 11
145.4250314477
 21
121.825271411
  0
LINE
  5
3E0
100
AcDbEntity
  8
ASSI
100
AcDbLine
 62
250
  6
CONTINUOUS
 10
145.4420619448
 20
121.171274867
 11
145.4347959075
 21
121.4859300171
  0
LINE
  5
3E1
100
AcDbEntity
  8
ASSI
100
AcDbLine
 62
250
  6
CONTINUOUS
 10
145.4459990947
 20
120.9526561779
 11
145.4420619448
 21
121.171274867
  0
LWPOLYLINE
  5
3E2
100
AcDbEntity
  8
RACCORDO
100
AcDbPolyline
 62
250
  6
CONTINUOUS
 90
19
 70
0
 10
145.9942658631
 20
119.5700496536
 10
145.994041431
 20
119.5851833999
 10
145.9926423615
 20
119.6008184925
 10
145.9900875297
 20
119.6168337323
 10
145.9863956473
 20
119.6331486874
 10
145.9816054255
 20
119.6495927134
 10
145.9758003838
 20
119.6659024952
 10
145.9690380738
 20
119.6819600352
 10
145.9614058257
 20
119.6976353351
 10
145.953084766
 20
119.7126611187
 10
145.9442783194
 20
119.72678811
 10
145.9349925234
 20
119.740109664
 10
145.9250966946
 20
119.7528662289
 10
145.9146776575
 20
119.7649496146
 10
145.9037737421
 20
119.7762874532
 10
145.8921262852
 20
119.7870769606
 10
145.8796816034
 20
119.7972398779
 10
145.8666213649
 20
119.8064967963
 10
145.8530383631
 20
119.8146629584
  0
LWPOLYLINE
  5
3E3
100
AcDbEntity
  8
ASSI
100
AcDbPolyline
 62
250
  6
CONTINUOUS
 90
3
 70
0
 10
145.4494369989
 20
120.6860256903
 10
145.4487663482
 20
120.7499803769
 10
145.4459990947
 20
120.9526561779
  0
LWPOLYLINE
  5
3E4
100
AcDbEntity
  8
ASSI
100
AcDbPolyline
 62
250
  6
CONTINUOUS
 90
16
 70
0
 10
145.3003705193
 20
121.9743826188
 10
145.3003327861
 20
121.9903810625
 10
145.299329226
 20
122.0063416788
 10
145.2973663351
 20
122.0221623094
 10
145.2944567518
 20
122.0377416528
 10
145.2906191715
 20
122.0529800525
 10
145.2858781992
 20
122.0677801235
 10
145.280264197
 20
122.0820471993
 10
145.2738131572
 20
122.0956899184
 10
145.2665664544
 20
122.1086209453
 10
145.2585704714
 20
122.1207575953
 10
145.249876464
 20
122.1320221396
 10
145.2405403173
 20
122.1423423278
 10
145.2306219251
 20
122.151652133
 10
145.2201847665
 20
122.1598921184
 10
145.2092956951
 20
122.167009636
  0
LINE
  5
3E5
100
AcDbEntity
  8
RACCORDO
100
AcDbLine
 62
250
  6
CONTINUOUS
 10
144.8949617582
 20
120.2821557917
 11
144.8949617582
 21
120.262801677
  0
LINE
  5
3E6
100
AcDbEntity
  8
ASSI
100
AcDbLine
 62
7
  6
CONTINUOUS
 10
145.3947073742
 20
121.6497537362
 11
145.3947073742
 21
120.5809830494
  0
LINE
  5
3E7
100
AcDbEntity
  8
ASSI
100
AcDbLine
 62
7
  6
CONTINUOUS
 10
145.5487811468
 20
120.6071350563
 11
145.5487811468
 21
120.7410051963
  0
LINE
  5
3E8
100
AcDbEntity
  8
ASSI
100
AcDbLine
 62
250
  6
CONTINUOUS
 10
145.8118322501
 20
118.2978222423
 11
145.8118322501
 21
118.6671332319
  0
LINE
  5
3E9
100
AcDbEntity
  8
SUPERFICI
100
AcDbLine
 62
7
  6
CONTINUOUS
 10
145.8316238593
 20
75.4265856524
 11
145.8316238593
 21
117.7200257743
  0
LINE
  5
3EA
100
AcDbEntity
  8
ASSI
100
AcDbLine
 62
7
  6
CONTINUOUS
 10
145.86796429
 20
118.3780396497
 11
145.86796429
 21
118.7473506393
  0
LINE
  5
3EB
100
AcDbEntity
  8
RACCORDO
100
AcDbLine
 62
250
  6
CONTINUOUS
 10
145.9025038816
 20
81.9923074073
 11
145.9025038815
 21
82.1210842301
  0
LINE
  5
3EC
100
AcDbEntity
  8
RACCORDO
100
AcDbLine
 62
250
  6
CONTINUOUS
 10
145.9376572833
 20
82.2072198385
 11
145.9376572833
 21
111.0661868521
  0
LINE
  5
3ED
100
AcDbEntity
  8
RACCORDO
100
AcDbLine
 62
250
  6
CONTINUOUS
 10
145.9942661186
 20
119.3769343228
 11
145.9942661186
 21
119.5700498011
  0
LINE
  5
3EE
100
AcDbEntity
  8
RACCORDO
100
AcDbLine
 62
250
  6
CONTINUOUS
 10
146.1318898574
 20
119.4655524416
 11
146.1318898574
 21
119.5679690096
  0
LINE
  5
3EF
100
AcDbEntity
  8
RACCORDO
100
AcDbLine
 62
250
  6
CONTINUOUS
 10
146.1803249099
 20
82.1760829761
 11
146.1803249069
 21
82.2871373414
  0
LINE
  5
3F0
100
AcDbEntity
  8
DRAFT
100
AcDbLine
 62
250
  6
CONTINUOUS
 10
146.5949083678
 20
120.5550336369
 11
146.5949083678
 21
119.7636974397
  0
LINE
  5
3F1
100
AcDbEntity
  8
RACCORDO
100
AcDbLine
 62
250
  6
CONTINUOUS
 10
146.7331850053
 20
114.6683805005
 11
146.7331850053
 21
113.2041815001
  0
LINE
  5
3F2
100
AcDbEntity
  8
RACCORDO
100
AcDbLine
 62
250
  6
CONTINUOUS
 10
146.7331850053
 20
81.0243575989
 11
146.7331850053
 21
79.5601585984
  0
LINE
  5
3F3
100
AcDbEntity
  8
ASSI
100
AcDbLine
 62
250
  6
CONTINUOUS
 10
145.867964266
 20
118.7472940509
 11
145.86796429
 21
118.7473506393
  0
LWPOLYLINE
  5
3F4
100
AcDbEntity
  8
ASSI
100
AcDbPolyline
 62
7
  6
CONTINUOUS
 90
21
 70
0
 10
145.394652973
 20
120.5809841645
 10
145.3946346196
 20
120.5785629559
 10
145.3927150914
 20
120.556317516
 10
145.3876374603
 20
120.5344383407
 10
145.3793230889
 20
120.5127872223
 10
145.3678506144
 20
120.4915023685
 10
145.3534559484
 20
120.470998403
 10
145.3361035216
 20
120.4513040872
 10
145.3158289032
 20
120.4323906596
 10
145.2929747126
 20
120.4145864599
 10
145.2674578399
 20
120.3978903531
 10
145.2393613949
 20
120.3823034741
 10
145.2092773267
 20
120.3681575675
 10
145.1771966924
 20
120.3554976057
 10
145.1431284349
 20
120.3442786163
 10
145.1076913324
 20
120.3346974264
 10
145.0708593769
 20
120.3267783013
 10
145.0326585765
 20
120.3204969758
 10
144.9937857332
 20
120.3159774807
 10
144.9544731143
 20
120.3132611597
 10
144.9144884526
 20
120.3123066692
  0
LWPOLYLINE
  5
3F5
100
AcDbEntity
  8
ASSI
100
AcDbPolyline
 62
250
  6
CONTINUOUS
 90
16
 70
0
 10
147.2033564296
 20
122.8064416615
 10
147.203720668
 20
122.8241071549
 10
147.2048093928
 20
122.8427723338
 10
147.2066106755
 20
122.8622326986
 10
147.209104781
 20
122.8822750373
 10
147.2122643832
 20
122.9026797619
 10
147.216054865
 20
122.9232233144
 10
147.2204346969
 20
122.9436806152
 10
147.2253558927
 20
122.96382753
 10
147.2307645347
 20
122.9834433252
 10
147.2366013648
 20
123.002313086
 10
147.2428024335
 20
123.0202300715
 10
147.2492998007
 20
123.0369979798
 10
147.25602228
 20
123.0524330983
 10
147.2628962186
 20
123.0663663161
 10
147.269846304
 20
123.0786449778
  0
LINE
  5
3F6
100
AcDbEntity
  8
ASSI
100
AcDbLine
 62
250
  6
CONTINUOUS
 10
145.867786335
 20
118.373169348
 11
145.86796429
 21
118.3780396497
  0
LINE
  5
3F7
100
AcDbEntity
  8
RACCORDO
100
AcDbLine
 62
250
  6
CONTINUOUS
 10
144.8961850209
 20
120.3045968591
 11
144.8949617582
 21
120.2821557917
  0
LWPOLYLINE
  5
3F8
100
AcDbEntity
  8
ASSI
100
AcDbPolyline
 62
250
  6
CONTINUOUS
 90
22
 70
0
 10
145.3947073742
 20
121.6497537362
 10
145.3933947986
 20
121.628849018
 10
145.3883687051
 20
121.6039305177
 10
145.3796148403
 20
121.5793580335
 10
145.3671992889
 20
121.5553170946
 10
145.3512158083
 20
121.5319892675
 10
145.3317850877
 20
121.5095507043
 10
145.3090538382
 20
121.4881708371
 10
145.2831937144
 20
121.4680111243
 10
145.254400026
 20
121.4492238218
 10
145.2228902326
 20
121.4319508069
 10
145.1889022599
 20
121.4163224961
 10
145.1526927309
 20
121.4024568872
 10
145.1145350615
 20
121.3904586815
 10
145.0747174003
 20
121.3804184864
 10
145.0335404181
 20
121.3724121192
 10
144.9913150447
 20
121.3665000391
 10
144.9483601446
 20
121.3627268938
 10
144.9050001072
 20
121.3611211777
 10
144.8615623657
 20
121.361695014
 10
144.8183749235
 20
121.3644440673
 10
144.7757639014
 20
121.3693475769
  0
LWPOLYLINE
  5
3F9
100
AcDbEntity
  8
SUPERFICI
100
AcDbPolyline
 62
250
  6
CONTINUOUS
 90
9
 70
0
 10
143.4275705822
 20
74.1801901057
 10
143.4246809544
 20
74.1380323047
 10
143.4180330444
 20
74.0986447935
 10
143.4077000587
 20
74.0624613106
 10
143.393793897
 20
74.0298766131
 10
143.3764687573
 20
74.00125418
 10
143.355923466
 20
73.9769172828
 10
143.3323936029
 20
73.9571332566
 10
143.3136436214
 20
73.9457714958
  0
LWPOLYLINE
  5
3FA
100
AcDbEntity
  8
RACCORDO
100
AcDbPolyline
 62
250
  6
CONTINUOUS
 90
10
 70
0
 10
145.9200485426
 20
119.9348889295
 10
145.9190445447
 20
119.9205994002
 10
145.9160610618
 20
119.9055562641
 10
145.9111828171
 20
119.8901867062
 10
145.9045483396
 20
119.8749271814
 10
145.8963460309
 20
119.8602110197
 10
145.886808815
 20
119.846456121
 10
145.8762075234
 20
119.8340530881
 10
145.8648432047
 20
119.8233541341
 10
145.8530385754
 20
119.8146630811
  0
LINE
  5
3FB
100
AcDbEntity
  8
RACCORDO
100
AcDbLine
 62
250
  6
CONTINUOUS
 10
147.8909960645
 20
126.3833090721
 11
147.8897317761
 21
126.3660558507
  0
LWPOLYLINE
  5
3FC
100
AcDbEntity
  8
ASSI
100
AcDbPolyline
 62
250
  6
CONTINUOUS
 90
3
 70
0
 10
147.8215664397
 20
123.2428799681
 10
147.8218721333
 20
123.2465704455
 10
147.824713302
 20
123.2588466134
  0
LWPOLYLINE
  5
3FD
100
AcDbEntity
  8
ASSI
100
AcDbPolyline
 62
7
  6
CONTINUOUS
 90
20
 70
0
 10
147.8695614103
 20
121.9479933964
 10
147.8672979857
 20
121.9209399478
 10
147.8609837836
 20
121.8958854094
 10
147.8506895419
 20
121.8710630926
 10
147.8366530972
 20
121.8470895728
 10
147.8187819513
 20
121.8239935469
 10
147.7971686024
 20
121.801746318
 10
147.7723283815
 20
121.7808783709
 10
147.7441837123
 20
121.7614228483
 10
147.712812171
 20
121.7433466075
 10
147.6789618173
 20
121.7270807052
 10
147.6425730748
 20
121.7126686602
 10
147.6037055199
 20
121.7000669538
 10
147.5632859411
 20
121.6895760866
 10
147.5212625642
 20
121.6812480994
 10
147.4776871635
 20
121.6750309514
 10
147.4336418503
 20
121.6710690213
 10
147.3894873286
 20
121.6694104353
 10
147.3448628944
 20
121.6700070671
 10
147.2997685478
 20
121.6728589169
  0
LWPOLYLINE
  5
3FE
100
AcDbEntity
  8
RACCORDO
100
AcDbPolyline
 62
250
  6
CONTINUOUS
 90
7
 70
0
 10
146.7917636491
 20
114.7500354192
 10
146.7900526213
 20
114.7349625817
 10
146.7849488143
 20
114.7201476446
 10
146.7765395556
 20
114.7058440957
 10
146.7649687298
 20
114.6922966725
 10
146.7504343171
 20
114.6797371753
 10
146.7331850053
 20
114.6683805005
  0
LWPOLYLINE
  5
3FF
100
AcDbEntity
  8
RACCORDO
100
AcDbPolyline
 62
250
  6
CONTINUOUS
 90
4
 70
0
 10
153.3968182116
 20
89.8755121872
 10
153.3857815531
 20
89.8903437966
 10
153.3736134601
 20
89.9034605195
 10
153.3605209277
 20
89.914639222
  0
LINE
  5
400
100
AcDbEntity
  8
RACCORDO
100
AcDbLine
 62
7
  6
CONTINUOUS
 10
141.0906058784
 20
124.6705004515
 11
141.0940135306
 21
124.6559239688
  0
LWPOLYLINE
  5
401
100
AcDbEntity
  8
ASSI
100
AcDbPolyline
 62
250
  6
CONTINUOUS
 90
7
 70
0
 10
140.0348893922
 20
123.9278167009
 10
140.0378252795
 20
123.9135010662
 10
140.0434555535
 20
123.8974377135
 10
140.0519532218
 20
123.880094597
 10
140.0634418989
 20
123.8618043026
 10
140.0780163995
 20
123.8429846611
 10
140.0957575847
 20
123.8241782119
  0
LWPOLYLINE
  5
402
100
AcDbEntity
  8
ASSI
100
AcDbPolyline
 62
250
  6
CONTINUOUS
 90
13
 70
0
 10
143.0298279369
 20
121.7577517994
 10
143.0271816991
 20
121.7792112432
 10
143.0223815513
 20
121.8013451133
 10
143.015501781
 20
121.8238143139
 10
143.0066492862
 20
121.8462729408
 10
142.9959597396
 20
121.8683792974
 10
142.9835939921
 20
121.889800713
 10
142.9697294098
 20
121.9102243934
 10
142.9545869374
 20
121.9293199215
 10
142.9384326624
 20
121.9467596979
 10
142.9215305576
 20
121.9622774864
 10
142.9041304614
 20
121.9756617382
 10
142.8864980459
 20
121.9867227408
  0
LWPOLYLINE
  5
403
100
AcDbEntity
  8
ASSI
100
AcDbPolyline
 62
250
  6
CONTINUOUS
 90
13
 70
0
 10
142.5301586663
 20
120.5697754473
 10
142.5275186443
 20
120.5911984868
 10
142.5227310514
 20
120.6132970423
 10
142.5158689682
 20
120.635733789
 10
142.5070371415
 20
120.6581662393
 10
142.4963703853
 20
120.6802519715
 10
142.4840315231
 20
120.7016538564
 10
142.4702089024
 20
120.7220452033
 10
142.4551135197
 20
120.7411147469
 10
142.4389757994
 20
120.7585713988
 10
142.4220420771
 20
120.7741486907
 10
142.4045708387
 20
120.7876088418
 10
142.3868287753
 20
120.7987463887
  0
LWPOLYLINE
  5
404
100
AcDbEntity
  8
ASSI
100
AcDbPolyline
 62
250
  6
CONTINUOUS
 90
13
 70
0
 10
143.1662233629
 20
121.839313807
 10
143.1635833409
 20
121.8607368465
 10
143.1587957479
 20
121.8828354021
 10
143.1519336647
 20
121.9052721487
 10
143.143101838
 20
121.927704599
 10
143.1324350818
 20
121.9497903313
 10
143.1200962197
 20
121.9711922162
 10
143.106273599
 20
121.991583563
 10
143.0911782162
 20
122.0106531066
 10
143.075040496
 20
122.0281097585
 10
143.0581067736
 20
122.0436870504
 10
143.0406355352
 20
122.0571472015
 10
143.0228934718
 20
122.0682847484
  0
LINE
  5
405
100
AcDbEntity
  8
ASSI
100
AcDbLine
 62
250
  6
CONTINUOUS
 10
146.9903805782
 20
122.7923162372
 11
147.0034332837
 21
122.6728117036
  0
LINE
  5
406
100
AcDbEntity
  8
ASSI
100
AcDbLine
 62
250
  6
CONTINUOUS
 10
144.8503682692
 20
120.5484902019
 11
144.8738315475
 21
120.3131140024
  0
LWPOLYLINE
  5
407
100
AcDbEntity
  8
ASSI
100
AcDbPolyline
 62
250
  6
CONTINUOUS
 90
13
 70
0
 10
145.2744632693
 20
125.6868228508
 10
145.2724000962
 20
125.7085250738
 10
145.2681116708
 20
125.7310475032
 10
145.2616665654
 20
125.7540300031
 10
145.2531678381
 20
125.7771050811
 10
145.2427513841
 20
125.7999037643
 10
145.2305837638
 20
125.8220614995
 10
145.2168595386
 20
125.8432239823
 10
145.2017981602
 20
125.8630528225
 10
145.1856404615
 20
125.8812309549
 10
145.1686448059
 20
125.8974677092
 10
145.1510829555
 20
125.9115034583
 10
145.1332357261
 20
125.9231137691
  0
LINE
  5
408
100
AcDbEntity
  8
ASSI
100
AcDbLine
 62
250
  6
CONTINUOUS
 10
144.8315686275
 20
120.7448423982
 11
144.8503682692
 21
120.5484902019
  0
LINE
  5
409
100
AcDbEntity
  8
ASSI
100
AcDbLine
 62
250
  6
CONTINUOUS
 10
147.2705853597
 20
121.9954548918
 11
147.2997686244
 21
121.6728589169
  0
LINE
  5
40A
100
AcDbEntity
  8
ASSI
100
AcDbLine
 62
250
  6
CONTINUOUS
 10
147.2383875841
 20
122.3717178251
 11
147.2705853597
 21
121.9954548918
  0
LINE
  5
40B
100
AcDbEntity
  8
ASSI
100
AcDbLine
 62
250
  6
CONTINUOUS
 10
147.2033564365
 20
122.8064416575
 11
147.2383875841
 21
122.3717178251
  0
LINE
  5
40C
100
AcDbEntity
  8
RACCORDO
100
AcDbLine
 62
250
  6
CONTINUOUS
 10
147.8897317761
 20
126.3660558507
 11
147.8969063454
 21
126.2038411602
  0
LINE
  5
40D
100
AcDbEntity
  8
RACCORDO
100
AcDbLine
 62
7
  6
CONTINUOUS
 10
147.9336646193
 20
126.427431346
 11
147.9424757727
 21
126.2282140175
  0
LWPOLYLINE
  5
40E
100
AcDbEntity
  8
RACCORDO
100
AcDbPolyline
 62
7
  6
CONTINUOUS
 90
16
 70
0
 10
146.7917636491
 20
114.7500354192
 10
146.7899071252
 20
114.7929656585
 10
146.7845255435
 20
114.8358014041
 10
146.7758742774
 20
114.8783319399
 10
146.7641373826
 20
114.920486917
 10
146.7494916082
 20
114.962054657
 10
146.7322036612
 20
115.0025908358
 10
146.7125201785
 20
115.0417895817
 10
146.6905351579
 20
115.0796208032
 10
146.6663196899
 20
115.1159893439
 10
146.6398889375
 20
115.150799486
 10
146.6113921825
 20
115.1837304088
 10
146.5810591589
 20
115.2143982985
 10
146.5489842714
 20
115.2425784692
 10
146.5151571001
 20
115.2680948521
 10
146.4796364467
 20
115.2906611711
  0
LWPOLYLINE
  5
40F
100
AcDbEntity
  8
RACCORDO
100
AcDbPolyline
 62
250
  6
CONTINUOUS
 90
19
 70
0
 10
146.1318898574
 20
119.5679690096
 10
146.1309827434
 20
119.5906900056
 10
146.1284480887
 20
119.6138248374
 10
146.1242858934
 20
119.637373505
 10
146.1184007585
 20
119.661590091
 10
146.110888083
 20
119.6862205127
 10
146.1020340635
 20
119.7105025221
 10
146.0917602694
 20
119.7344186499
 10
146.0801451313
 20
119.7579863654
 10
146.0677101373
 20
119.7804958286
 10
146.0546143577
 20
119.8016801511
 10
146.0406987221
 20
119.8218062214
 10
146.0260075076
 20
119.8409648642
 10
146.0106152167
 20
119.8592194461
 10
145.9944473467
 20
119.8765066006
 10
145.9773246674
 20
119.8927270536
 10
145.9591874352
 20
119.9078477137
 10
145.9400953936
 20
119.9219016724
 10
145.9200485426
 20
119.9348889295
  0
LINE
  5
410
100
AcDbEntity
  8
ASSI
100
AcDbLine
 62
250
  6
CONTINUOUS
 10
147.8941419197
 20
122.8572022576
 11
147.8766472585
 21
123.3222877464
  0
LINE
  5
411
100
AcDbEntity
  8
ASSI
100
AcDbLine
 62
250
  6
CONTINUOUS
 10
147.9038254472
 20
122.5534625722
 11
147.8941419197
 21
122.8572022576
  0
LINE
  5
412
100
AcDbEntity
  8
ASSI
100
AcDbLine
 62
250
  6
CONTINUOUS
 10
147.911491285
 20
122.2709410086
 11
147.9038254472
 21
122.5534625722
  0
LINE
  5
413
100
AcDbEntity
  8
ASSI
100
AcDbLine
 62
250
  6
CONTINUOUS
 10
147.9155344943
 20
122.0952613307
 11
147.911491285
 21
122.2709410086
  0
LWPOLYLINE
  5
414
100
AcDbEntity
  8
RACCORDO
100
AcDbPolyline
 62
250
  6
CONTINUOUS
 90
8
 70
0
 10
147.9336683788
 20
126.4273444319
 10
147.9337083339
 20
126.4253951254
 10
147.9324125263
 20
126.4146505429
 10
147.9285741074
 20
126.4040112392
 10
147.9222587537
 20
126.3936592557
 10
147.9135745225
 20
126.3837717176
 10
147.9026700036
 20
126.3745178037
 10
147.8897317761
 20
126.3660558507
  0
LINE
  5
415
100
AcDbEntity
  8
RACCORDO
100
AcDbLine
 62
7
  6
CONTINUOUS
 10
146.7917636491
 20
114.7500354192
 11
146.7917636491
 21
113.3961180686
  0
LINE
  5
416
100
AcDbEntity
  8
RACCORDO
100
AcDbLine
 62
7
  6
CONTINUOUS
 10
146.7917636491
 20
80.9957308677
 11
146.7917636491
 21
79.6418135171
  0
LINE
  5
417
100
AcDbEntity
  8
ASSI
100
AcDbLine
 62
7
  6
CONTINUOUS
 10
147.8695811084
 20
123.0787148128
 11
147.8695811084
 21
121.9479932079
  0
LWPOLYLINE
  5
418
100
AcDbEntity
  8
RACCORDO
100
AcDbPolyline
 62
250
  6
CONTINUOUS
 90
9
 70
0
 10
146.7331850053
 20
79.5601585984
 10
146.7312482028
 20
79.5186046921
 10
146.7254590154
 20
79.47974263
 10
146.7158808705
 20
79.4439981929
 10
146.7026187084
 20
79.4117630046
 10
146.685817832
 20
79.3833902403
 10
146.6656623153
 20
79.3591907583
 10
146.6423729864
 20
79.339429693
 10
146.6296436948
 20
79.3312901679
  0
LWPOLYLINE
  5
419
100
AcDbEntity
  8
RACCORDO
100
AcDbPolyline
 62
250
  6
CONTINUOUS
 90
7
 70
0
 10
149.939912138
 20
113.4656576472
 10
149.9388125108
 20
113.4552512156
 10
149.9352220069
 20
113.4442309188
 10
149.929200789
 20
113.4335784038
 10
149.9208573991
 20
113.4234736774
 10
149.9103348188
 20
113.4140812453
 10
149.8978131458
 20
113.4055560884
  0
LWPOLYLINE
  5
41A
100
AcDbEntity
  8
RACCORDO
100
AcDbPolyline
 62
250
  6
CONTINUOUS
 90
7
 70
0
 10
146.7917636491
 20
79.6418135171
 10
146.7900526214
 20
79.6267406803
 10
146.7849488144
 20
79.6119257434
 10
146.7765395557
 20
79.5976221938
 10
146.7649687299
 20
79.5840747688
 10
146.7504343172
 20
79.5715152689
 10
146.7331850053
 20
79.5601585906
  0
LWPOLYLINE
  5
41B
100
AcDbEntity
  8
RACCORDO
100
AcDbPolyline
 62
250
  6
CONTINUOUS
 90
19
 70
0
 10
145.84928268
 20
111.0660573763
 10
145.8558964456
 20
111.0651757721
 10
145.8622376122
 20
111.0644528323
 10
145.8683000834
 20
111.0638706619
 10
145.8740505962
 20
111.0634094282
 10
145.8795175143
 20
111.063053754
 10
145.8847868878
 20
111.0627992669
 10
145.8898606316
 20
111.0626382203
 10
145.8947333608
 20
111.0625593601
 10
145.8994748042
 20
111.0625637627
 10
145.9040854945
 20
111.0626483517
 10
145.9085585055
 20
111.062806964
 10
145.9129460052
 20
111.0630439331
 10
145.9172417829
 20
111.0633582426
 10
145.9214402652
 20
111.0637479681
 10
145.9255869818
 20
111.0642225229
 10
145.9296881467
 20
111.0647872706
 10
145.9337153161
 20
111.0654399023
 10
145.9376572833
 20
111.0661811484
  0
LWPOLYLINE
  5
41C
100
AcDbEntity
  8
RACCORDO
100
AcDbPolyline
 62
250
  6
CONTINUOUS
 90
4
 70
0
 10
153.421376885
 20
89.8233712732
 10
153.4147685745
 20
89.8417385836
 10
153.4065356648
 20
89.8592180285
 10
153.3968182116
 20
89.8755121872
  0
LWPOLYLINE
  5
41D
100
AcDbEntity
  8
RACCORDO
100
AcDbPolyline
 62
250
  6
CONTINUOUS
 90
19
 70
0
 10
145.9376645121
 20
111.0661826157
 10
145.9363126324
 20
111.070023407
 10
145.9348379685
 20
111.073881599
 10
145.9332471041
 20
111.0777511472
 10
145.9315553069
 20
111.0816124581
 10
145.9297639986
 20
111.0854738064
 10
145.9278543644
 20
111.0893737525
 10
145.9258306305
 20
111.0933116648
 10
145.923696403
 20
111.0972836861
 10
145.9214238846
 20
111.1013282651
 10
145.9190155146
 20
111.1054444499
 10
145.9164694047
 20
111.1096331594
 10
145.9137438079
 20
111.1139404491
 10
145.9108393474
 20
111.1183714426
 10
145.9077490338
 20
111.1229260536
 10
145.904412135
 20
111.1276485806
 10
145.9008028353
 20
111.1325595746
 10
145.8969362312
 20
111.1376513947
 10
145.8928105138
 20
111.1429299354
  0
LWPOLYLINE
  5
41E
100
AcDbEntity
  8
ASSI
100
AcDbPolyline
 62
7
  6
CONTINUOUS
 90
4
 70
0
 10
145.5346201142
 20
120.733168131
 10
145.5414960723
 20
120.7004488752
 10
145.5468722868
 20
120.6553168907
 10
145.5487811468
 20
120.6071350563
  0
LWPOLYLINE
  5
41F
100
AcDbEntity
  8
ASSI
100
AcDbPolyline
 62
7
  6
CONTINUOUS
 90
5
 70
0
 10
145.3882680622
 20
121.7116535623
 10
145.391085665
 20
121.6962610491
 10
145.3930999884
 20
121.6807772766
 10
145.3943063287
 20
121.6652620122
 10
145.3947073701
 20
121.6497537362
  0
LINE
  5
420
100
AcDbEntity
  8
ASSI
100
AcDbLine
 62
250
  6
CONTINUOUS
 10
144.6955062742
 20
120.4537820322
 11
144.7194939711
 21
120.2820571846
  0
LINE
  5
421
100
AcDbEntity
  8
ASSI
100
AcDbLine
 62
250
  6
CONTINUOUS
 10
144.6701656303
 20
120.6415402059
 11
144.6955062742
 21
120.4537820322
  0
LINE
  5
422
100
AcDbEntity
  8
ASSI
100
AcDbLine
 62
250
  6
CONTINUOUS
 10
144.6432477247
 20
120.8482297833
 11
144.6701656303
 21
120.6415402059
  0
LINE
  5
423
100
AcDbEntity
  8
ASSI
100
AcDbLine
 62
250
  6
CONTINUOUS
 10
144.6147249844
 20
121.0755183099
 11
144.6432477247
 21
120.8482297833
  0
LWPOLYLINE
  5
424
100
AcDbEntity
  8
ASSI
100
AcDbPolyline
 62
250
  6
CONTINUOUS
 90
13
 70
0
 10
145.8017874724
 20
122.0815589719
 10
145.7991473643
 20
122.1029825155
 10
145.7943596154
 20
122.1250814919
 10
145.7874973417
 20
122.1475185501
 10
145.7786653275
 20
122.1699511793
 10
145.7679984175
 20
122.1920369587
 10
145.7556594517
 20
122.2134387828
 10
145.7418367995
 20
122.2338299683
 10
145.7267414701
 20
122.2528992723
 10
145.7106038727
 20
122.2703556557
 10
145.6936703339
 20
122.2859326793
 10
145.6761993428
 20
122.2993925778
 10
145.6584575819
 20
122.3105299136
  0
LWPOLYLINE
  5
425
100
AcDbEntity
  8
ASSI
100
AcDbPolyline
 62
250
  6
CONTINUOUS
 90
13
 70
0
 10
146.9903805781
 20
122.7923162372
 10
146.9877405561
 20
122.8137392763
 10
146.9829529633
 20
122.8358378317
 10
146.9760908802
 20
122.8582745782
 10
146.9672590535
 20
122.8807070285
 10
146.9565922973
 20
122.9027927609
 10
146.9442534351
 20
122.9241946459
 10
146.9304308145
 20
122.9445859928
 10
146.9153354317
 20
122.9636555365
 10
146.8991977114
 20
122.9811121885
 10
146.8822639889
 20
122.9966894805
 10
146.8647927505
 20
123.0101496316
 10
146.847050687
 20
123.0212871786
  0
LWPOLYLINE
  5
426
100
AcDbEntity
  8
ASSI
100
AcDbPolyline
 62
250
  6
CONTINUOUS
 90
13
 70
0
 10
144.9739765652
 20
121.9108763041
 10
144.9765264087
 20
121.8901128314
 10
144.9810995533
 20
121.8687038535
 10
144.9876302753
 20
121.846957061
 10
144.9960247169
 20
121.8251849999
 10
145.0061622341
 20
121.8037005807
 10
145.0178971305
 20
121.7828125813
 10
145.0310607524
 20
121.7628212066
 10
145.0454639115
 20
121.744013776
 10
145.0608996034
 20
121.7266605949
 10
145.0771459842
 20
121.7110110667
 10
145.0939695598
 20
121.6972901088
 10
145.1111285397
 20
121.6856949217
  0
LINE
  5
427
100
AcDbEntity
  8
ASSI
100
AcDbLine
 62
250
  6
CONTINUOUS
 10
147.0775442083
 20
122.0308275106
 11
147.1106943033
 21
121.7631721642
  0
LINE
  5
428
100
AcDbEntity
  8
ASSI
100
AcDbLine
 62
250
  6
CONTINUOUS
 10
144.5848566217
 20
121.3228620003
 11
144.6147249844
 21
121.0755183099
  0
LINE
  5
429
100
AcDbEntity
  8
ASSI
100
AcDbLine
 62
250
  6
CONTINUOUS
 10
147.0417078899
 20
122.3335097848
 11
147.0775442083
 21
122.0308275106
  0
LINE
  5
42A
100
AcDbEntity
  8
ASSI
100
AcDbLine
 62
250
  6
CONTINUOUS
 10
147.0034332837
 20
122.6728117036
 11
147.0417078899
 21
122.3335097848
  0
LWPOLYLINE
  5
42B
100
AcDbEntity
  8
RACCORDO
100
AcDbPolyline
 62
7
  6
CONTINUOUS
 90
11
 70
0
 10
147.9336683788
 20
126.4273444319
 10
147.9315557376
 20
126.4491453478
 10
147.9263237727
 20
126.4741150649
 10
147.9185995657
 20
126.4975914155
 10
147.9083461196
 20
126.5203181874
 10
147.8956247748
 20
126.5420758198
 10
147.8811842197
 20
126.561713798
 10
147.8652429009
 20
126.5792158637
 10
147.8475420665
 20
126.5948731127
 10
147.8286995663
 20
126.6081070397
 10
147.8233824865
 20
126.6112904305
  0
LINE
  5
42C
100
AcDbEntity
  8
RACCORDO
100
AcDbLine
 62
250
  6
CONTINUOUS
 10
149.896701757
 20
113.4245472715
 11
149.8975587468
 21
113.4149094668
  0
LINE
  5
42D
100
AcDbEntity
  8
ASSI
100
AcDbLine
 62
250
  6
CONTINUOUS
 10
150.2567775643
 20
123.4430577175
 11
150.2024581164
 21
124.1913216825
  0
LINE
  5
42E
100
AcDbEntity
  8
ASSI
100
AcDbLine
 62
250
  6
CONTINUOUS
 10
150.3339242408
 20
123.5011634729
 11
150.2807800457
 21
124.2332380377
  0
LINE
  5
42F
100
AcDbEntity
  8
RACCORDO
100
AcDbLine
 62
250
  6
CONTINUOUS
 10
150.9739923429
 20
124.6268557132
 11
151.0068671021
 21
124.1739976932
  0
LINE
  5
430
100
AcDbEntity
  8
RACCORDO
100
AcDbLine
 62
7
  6
CONTINUOUS
 10
151.0282454743
 20
124.1834378646
 11
150.9929680056
 21
124.6693938082
  0
LINE
  5
431
100
AcDbEntity
  8
RACCORDO
100
AcDbLine
 62
250
  6
CONTINUOUS
 10
149.8975587468
 20
113.4149094668
 11
149.8978131458
 21
113.4055560884
  0
LWPOLYLINE
  5
432
100
AcDbEntity
  8
RACCORDO
100
AcDbPolyline
 62
250
  6
CONTINUOUS
 90
9
 70
0
 10
150.9739923429
 20
124.6268557132
 10
150.9739833914
 20
124.6372293442
 10
150.9734496716
 20
124.6477750308
 10
150.9723828815
 20
124.658460239
 10
150.9707897521
 20
124.6691600915
 10
150.9686615633
 20
124.6799308239
 10
150.965928163
 20
124.6910082092
 10
150.9625106192
 20
124.7024556314
 10
150.9583938552
 20
124.7141130735
  0
LINE
  5
433
100
AcDbEntity
  8
RACCORDO
100
AcDbLine
 62
250
  6
CONTINUOUS
 10
149.8978131458
 20
113.4055560884
 11
149.8978131458
 21
84.6034225812
  0
LINE
  5
434
100
AcDbEntity
  8
RACCORDO
100
AcDbLine
 62
7
  6
CONTINUOUS
 10
149.9399121758
 20
113.465719144
 11
149.9399121758
 21
84.6635856367
  0
LINE
  5
435
100
AcDbEntity
  8
RACCORDO
100
AcDbLine
 62
250
  6
CONTINUOUS
 10
152.7907796513
 20
122.6183052126
 11
152.7907796513
 21
122.9132060168
  0
LINE
  5
436
100
AcDbEntity
  8
RACCORDO
100
AcDbLine
 62
250
  6
CONTINUOUS
 10
149.9399121758
 20
113.465719144
 11
149.939912138
 21
113.4656576472
  0
LINE
  5
437
100
AcDbEntity
  8
RACCORDO
100
AcDbLine
 62
7
  6
CONTINUOUS
 10
152.8328786196
 20
122.9732905441
 11
152.8328786813
 21
122.9733690646
  0
LWPOLYLINE
  5
438
100
AcDbEntity
  8
RACCORDO
100
AcDbPolyline
 62
250
  6
CONTINUOUS
 90
9
 70
0
 10
149.8978131458
 20
84.6034225812
 10
149.8975587464
 20
84.5944629108
 10
149.8967017555
 20
84.5858901814
 10
149.8952469708
 20
84.5777523819
 10
149.8932025362
 20
84.5700950663
 10
149.8905798962
 20
84.5629610991
 10
149.8873937325
 20
84.5563904155
 10
149.8836618811
 20
84.5504197972
 10
149.8794052325
 20
84.5450826662
  0
LWPOLYLINE
  5
439
100
AcDbEntity
  8
RACCORDO
100
AcDbPolyline
 62
250
  6
CONTINUOUS
 90
7
 70
0
 10
149.9399121758
 20
84.6635856367
 10
149.9388124449
 20
84.6531173954
 10
149.9352218839
 20
84.6420971343
 10
149.9292006353
 20
84.6314446744
 10
149.9208572493
 20
84.6213400153
 10
149.910334718
 20
84.6119476597
 10
149.8978131458
 20
84.6034225812
  0
LWPOLYLINE
  5
43A
100
AcDbEntity
  8
RACCORDO
100
AcDbPolyline
 62
250
  6
CONTINUOUS
 90
3
 70
0
 10
145.8316238593
 20
111.0695320776
 10
145.8371242757
 20
111.0682212494
 10
145.84928268
 20
111.0660573763
  0
LWPOLYLINE
  5
43B
100
AcDbEntity
  8
RACCORDO
100
AcDbPolyline
 62
250
  6
CONTINUOUS
 90
13
 70
0
 10
145.8928104522
 20
111.1429298168
 10
145.8887137047
 20
111.1455524686
 10
145.8847337327
 20
111.1484539606
 10
145.8808704884
 20
111.1516342748
 10
145.8771377504
 20
111.1550897181
 10
145.873521641
 20
111.1588239457
 10
145.8699806161
 20
111.1628479582
 10
145.8664769779
 20
111.1671942446
 10
145.8630482809
 20
111.1718302628
 10
145.8597658832
 20
111.1766694739
 10
145.8566535652
 20
111.1816830271
 10
145.8536874873
 20
111.1868997464
 10
145.850867615
 20
111.1923196161
  0
LINE
  5
43C
100
AcDbEntity
  8
RACCORDO
100
AcDbLine
 62
7
  6
CONTINUOUS
 10
146.3874559654
 20
112.6232861964
 11
146.4550001302
 21
112.4929048102
  0
LINE
  5
43D
100
AcDbEntity
  8
RACCORDO
100
AcDbLine
 62
7
  6
CONTINUOUS
 10
146.4550001302
 20
112.4929048102
 11
146.5630101847
 21
112.282307746
  0
LINE
  5
43E
100
AcDbEntity
  8
RACCORDO
100
AcDbLine
 62
7
  6
CONTINUOUS
 10
146.5630101847
 20
112.282307746
 11
146.6699498317
 21
112.0712926655
  0
LINE
  5
43F
100
AcDbEntity
  8
RACCORDO
100
AcDbLine
 62
250
  6
CONTINUOUS
 10
145.8316238593
 20
111.231167096
 11
145.850867615
 21
111.1923196161
  0
LWPOLYLINE
  5
440
100
AcDbEntity
  8
RACCORDO
100
AcDbPolyline
 62
7
  6
CONTINUOUS
 90
13
 70
0
 10
146.6699498322
 20
112.0712926651
 10
146.677249494
 20
112.0551563621
 10
146.6835837064
 20
112.0381302366
 10
146.6889521917
 20
112.0202141383
 10
146.6933157944
 20
112.0012985237
 10
146.6967130479
 20
111.9814926048
 10
146.6992604425
 20
111.9611244632
 10
146.7008836545
 20
111.9402783033
 10
146.7016569864
 20
111.9188698373
 10
146.7019199855
 20
111.8969744789
 10
146.7017856633
 20
111.8746172932
 10
146.7011406302
 20
111.8517730314
 10
146.6999847081
 20
111.8284416041
  0
LWPOLYLINE
  5
441
100
AcDbEntity
  8
ASSI
100
AcDbPolyline
 62
250
  6
CONTINUOUS
 90
3
 70
0
 10
142.9735779163
 20
125.2486627635
 10
142.9805333756
 20
125.2323597944
 10
142.9815130565
 20
125.2279505339
  0
LWPOLYLINE
  5
442
100
AcDbEntity
  8
ASSI
100
AcDbPolyline
 62
250
  6
CONTINUOUS
 90
8
 70
0
 10
145.8118322501
 20
118.2978222423
 10
145.8160109305
 20
118.2851892607
 10
145.8185662266
 20
118.2735791768
 10
145.8194724971
 20
118.263117569
 10
145.8187227362
 20
118.2539201082
 10
145.8163280929
 20
118.2460815549
 10
145.8123120432
 20
118.2396795674
 10
145.8111789365
 20
118.2384346294
  0
LINE
  5
443
100
AcDbEntity
  8
RACCORDO
100
AcDbLine
 62
250
  6
CONTINUOUS
 10
149.8952469738
 20
113.4344155513
 11
149.896701757
 21
113.4245472715
  0
LINE
  5
444
100
AcDbEntity
  8
ASSI
100
AcDbLine
 62
250
  6
CONTINUOUS
 10
147.1106943033
 20
121.7631721642
 11
147.1263413172
 21
121.6409421142
  0
LWPOLYLINE
  5
445
100
AcDbEntity
  8
ASSI
100
AcDbPolyline
 62
250
  6
CONTINUOUS
 90
13
 70
0
 10
147.8766472575
 20
123.3222877458
 10
147.8740072377
 20
123.3437107722
 10
147.8692196484
 20
123.3658093184
 10
147.862357569
 20
123.3882460599
 10
147.8535257444
 20
123.4106785113
 10
147.8428589878
 20
123.4327642491
 10
147.8305201244
 20
123.4541661395
 10
147.8166975024
 20
123.4745574907
 10
147.8016021179
 20
123.4936270383
 10
147.7854643957
 20
123.5110836934
 10
147.7685306717
 20
123.5266609875
 10
147.751059432
 20
123.5401211401
 10
147.7333173676
 20
123.5512586879
  0
LWPOLYLINE
  5
446
100
AcDbEntity
  8
RACCORDO
100
AcDbPolyline
 62
7
  6
CONTINUOUS
 90
12
 70
0
 10
150.9929686614
 20
124.6693847608
 10
150.9925149863
 20
124.6746823302
 10
150.989278826
 20
124.6960808347
 10
150.9837273676
 20
124.7176118291
 10
150.9761027934
 20
124.738362354
 10
150.966373889
 20
124.7585180004
 10
150.9544626915
 20
124.7780412693
 10
150.9409758299
 20
124.7959178053
 10
150.925982269
 20
124.8121683496
 10
150.9093098599
 20
124.8269074448
 10
150.8916541087
 20
124.8394965431
 10
150.8843314883
 20
124.8439368336
  0
LWPOLYLINE
  5
447
100
AcDbEntity
  8
RACCORDO
100
AcDbPolyline
 62
7
  6
CONTINUOUS
 90
12
 70
0
 10
153.4692747577
 20
121.8389025384
 10
153.4683928031
 20
121.8598911463
 10
153.4651176878
 20
121.8847854938
 10
153.4594049942
 20
121.9099886073
 10
153.451216595
 20
121.9353646989
 10
153.4408242553
 20
121.9600412125
 10
153.4282362162
 20
121.9840423345
 10
153.4134324387
 20
122.0072528374
 10
153.3969716103
 20
122.0287527294
 10
153.3791099763
 20
122.0483029864
 10
153.3596095642
 20
122.0661178132
 10
153.3531039334
 20
122.0713585289
  0
LWPOLYLINE
  5
448
100
AcDbEntity
  8
RACCORDO
100
AcDbPolyline
 62
250
  6
CONTINUOUS
 90
4
 70
0
 10
152.7907796513
 20
122.9132060168
 10
152.7900390159
 20
122.9345679798
 10
152.7874591959
 20
122.9567638614
 10
152.7830635097
 20
122.9795641872
  0
LWPOLYLINE
  5
449
100
AcDbEntity
  8
RACCORDO
100
AcDbPolyline
 62
7
  6
CONTINUOUS
 90
14
 70
0
 10
152.8328786196
 20
122.9732905441
 10
152.8325273333
 20
122.9864936356
 10
152.8302258172
 20
123.0098394196
 10
152.8257857222
 20
123.0334528518
 10
152.8191787634
 20
123.057230574
 10
152.8106178104
 20
123.0804792698
 10
152.8001142554
 20
123.1032440153
 10
152.7876731232
 20
123.1254424697
 10
152.7737584894
 20
123.1462664517
 10
152.7584647146
 20
123.1656653472
 10
152.7417469475
 20
123.1836830021
 10
152.7240632991
 20
123.1998127786
 10
152.7055316984
 20
123.2140260712
 10
152.6871445077
 20
123.2257484787
  0
LWPOLYLINE
  5
44A
100
AcDbEntity
  8
RACCORDO
100
AcDbPolyline
 62
250
  6
CONTINUOUS
 90
7
 70
0
 10
153.4271757544
 20
121.7787911317
 10
153.427060679
 20
121.7881957526
 10
153.4265671077
 20
121.7979544678
 10
153.4256767539
 20
121.8080556442
 10
153.4243701359
 20
121.8184965457
 10
153.4226314024
 20
121.8292496551
 10
153.4204529215
 20
121.8402611942
  0
LINE
  5
44B
100
AcDbEntity
  8
RACCORDO
100
AcDbLine
 62
7
  6
CONTINUOUS
 10
152.8328786813
 20
122.6784682681
 11
152.8328786813
 21
122.9733690646
  0
LINE
  5
44C
100
AcDbEntity
  8
RACCORDO
100
AcDbLine
 62
250
  6
CONTINUOUS
 10
153.4271757544
 20
88.4855517973
 11
153.4271757544
 21
89.7293788229
  0
LINE
  5
44D
100
AcDbEntity
  8
RACCORDO
100
AcDbLine
 62
250
  6
CONTINUOUS
 10
153.4271757544
 20
120.5349641061
 11
153.4271757544
 21
121.7787911317
  0
LINE
  5
44E
100
AcDbEntity
  8
RACCORDO
100
AcDbLine
 62
7
  6
CONTINUOUS
 10
153.4692747843
 20
88.5457148528
 11
153.4692747843
 21
89.7895418784
  0
LINE
  5
44F
100
AcDbEntity
  8
RACCORDO
100
AcDbLine
 62
7
  6
CONTINUOUS
 10
153.4692747843
 20
120.5951271616
 11
153.4692747843
 21
121.8389541872
  0
LWPOLYLINE
  5
450
100
AcDbEntity
  8
RACCORDO
100
AcDbPolyline
 62
250
  6
CONTINUOUS
 90
6
 70
0
 10
153.4271757544
 20
89.7293788229
 10
153.4297674779
 20
89.7473857484
 10
153.4304795066
 20
89.7661098312
 10
153.4292997277
 20
89.7852325385
 10
153.4262482166
 20
89.8044285309
 10
153.421376885
 20
89.8233712732
  0
LWPOLYLINE
  5
451
100
AcDbEntity
  8
RACCORDO
100
AcDbPolyline
 62
250
  6
CONTINUOUS
 90
7
 70
0
 10
150.003163377
 20
84.5660313697
 10
150.0002921889
 20
84.5547241439
 10
149.9961971416
 20
84.5445156594
 10
149.9909264856
 20
84.5355262085
 10
149.9845423231
 20
84.5278617128
 10
149.9771198735
 20
84.5216124784
 10
149.9743861459
 20
84.5198305543
  0
LWPOLYLINE
  5
452
100
AcDbEntity
  8
RACCORDO
100
AcDbPolyline
 62
7
  6
CONTINUOUS
 90
10
 70
0
 10
153.3779326679
 20
88.3726432214
 10
153.3965284533
 20
88.3857317922
 10
153.4127126872
 20
88.4003411443
 10
153.4272286819
 20
88.4169424921
 10
153.439844972
 20
88.4353463554
 10
153.4503542529
 20
88.4553041632
 10
153.4586697381
 20
88.4767284137
 10
153.4646716452
 20
88.4994989462
 10
153.4682277073
 20
88.5233667929
 10
153.4692747696
 20
88.5456764752
  0
LWPOLYLINE
  5
453
100
AcDbEntity
  8
RACCORDO
100
AcDbPolyline
 62
7
  6
CONTINUOUS
 90
4
 70
0
 10
152.7418799083
 20
87.9733421053
 10
152.7568022902
 20
87.9836109983
 10
152.773448733
 20
87.997968694
 10
152.7793564672
 20
88.0044500464
  0
LWPOLYLINE
  5
454
100
AcDbEntity
  8
RACCORDO
100
AcDbPolyline
 62
250
  6
CONTINUOUS
 90
7
 70
0
 10
153.4271757544
 20
88.4855517973
 10
153.4397234157
 20
88.4940971651
 10
153.4502556475
 20
88.5035062356
 10
153.4585962173
 20
88.5136215698
 10
153.4646055647
 20
88.5242739109
 10
153.4681831374
 20
88.5352850167
 10
153.4692747696
 20
88.5456764752
  0
LWPOLYLINE
  5
455
100
AcDbEntity
  8
RACCORDO
100
AcDbPolyline
 62
250
  6
CONTINUOUS
 90
7
 70
0
 10
153.4271757544
 20
89.7293788229
 10
153.4395803082
 20
89.7378130494
 10
153.4500574055
 20
89.7471288249
 10
153.4584109879
 20
89.7571818123
 10
153.4644831317
 20
89.7678261534
 10
153.468133073
 20
89.7788764537
 10
153.4692747835
 20
89.789532543
  0
LWPOLYLINE
  5
456
100
AcDbEntity
  8
RACCORDO
100
AcDbPolyline
 62
250
  6
CONTINUOUS
 90
5
 70
0
 10
152.741933781
 20
87.9733658364
 10
152.7432144689
 20
87.9741740113
 10
152.7547701317
 20
87.9831243049
 10
152.7651185429
 20
87.9944601602
 10
152.7664461962
 20
87.9965087517
  0
LINE
  5
457
100
AcDbEntity
  8
RACCORDO
100
AcDbLine
 62
250
  6
CONTINUOUS
 10
153.3779573329
 20
88.3726581109
 11
153.3794924555
 21
88.3736255
  0
LINE
  5
458
100
AcDbEntity
  8
ASSI
100
AcDbLine
 62
7
  6
CONTINUOUS
 10
152.7419346016
 20
87.9733663439
 11
149.9399121758
 21
86.2405536446
  0
LINE
  5
459
100
AcDbEntity
  8
RACCORDO
100
AcDbLine
 62
7
  6
CONTINUOUS
 10
152.7418616368
 20
87.9733212721
 11
152.741933781
 21
87.9733658364
  0
LINE
  5
45A
100
AcDbEntity
  8
RACCORDO
100
AcDbLine
 62
250
  6
CONTINUOUS
 10
153.4271757544
 20
88.4855517973
 11
149.9399121758
 21
86.3404854494
  0
LINE
  5
45B
100
AcDbEntity
  8
ASSI
100
AcDbLine
 62
7
  6
CONTINUOUS
 10
153.377957304
 20
88.3726580931
 11
149.9399121758
 21
86.2578667272
  0
LWPOLYLINE
  5
45C
100
AcDbEntity
  8
RACCORDO
100
AcDbPolyline
 62
250
  6
CONTINUOUS
 90
7
 70
0
 10
146.4796364467
 20
115.2906611711
 10
146.4657234817
 20
115.2967171295
 10
146.4503422926
 20
115.2997031401
 10
146.4337512249
 20
115.2995709003
 10
146.4162341568
 20
115.2963226728
 10
146.3980908097
 20
115.2900140358
 10
146.3796316215
 20
115.2807529317
  0
LINE
  5
45D
100
AcDbEntity
  8
SUPERFICI
100
AcDbLine
 62
250
  6
CONTINUOUS
 10
142.7298399038
 20
116.3372361266
 11
127.8616257354
 21
124.9219566449
  0
LINE
  5
45E
100
AcDbEntity
  8
SUPERFICI
100
AcDbLine
 62
250
  6
CONTINUOUS
 10
143.0741383456
 20
116.9441249782
 11
128.2059241772
 21
125.5288454965
  0
LINE
  5
45F
100
AcDbEntity
  8
RACCORDO
100
AcDbLine
 62
250
  6
CONTINUOUS
 10
145.8316238593
 20
115.5971657454
 11
146.3796316147
 21
115.2807529356
  0
LINE
  5
460
100
AcDbEntity
  8
RACCORDO
100
AcDbLine
 62
7
  6
CONTINUOUS
 10
145.8316238593
 20
115.6648155176
 11
146.4796364467
 21
115.2906611711
  0
LWPOLYLINE
  5
461
100
AcDbEntity
  8
RACCORDO
100
AcDbPolyline
 62
250
  6
CONTINUOUS
 90
4
 70
0
 10
146.3796316147
 20
115.2807529356
 10
146.4165880075
 20
115.2571784228
 10
146.4531394983
 20
115.2293894876
 10
146.4888856213
 20
115.1976905914
  0
LWPOLYLINE
  5
462
100
AcDbEntity
  8
RACCORDO
100
AcDbPolyline
 62
250
  6
CONTINUOUS
 90
13
 70
0
 10
146.4888856213
 20
115.1976905914
 10
146.5234347347
 20
115.162429034
 10
146.556408311
 20
115.1239911482
 10
146.5874450847
 20
115.0827980678
 10
146.6162050105
 20
115.0393011128
 10
146.6423729887
 20
114.993976845
 10
146.6656623172
 20
114.9473218464
 10
146.6858178336
 20
114.8998472791
 10
146.7026187096
 20
114.8520732843
 10
146.7158808713
 20
114.8045232841
 10
146.7254590158
 20
114.7577182463
 10
146.7312482029
 20
114.7121709767
 10
146.7331850053
 20
114.6683805005
  0
LWPOLYLINE
  5
463
100
AcDbEntity
  8
ASSI
100
AcDbPolyline
 62
250
  6
CONTINUOUS
 90
7
 70
0
 10
140.135828391
 20
123.864365679
 10
140.1304768755
 20
123.871192267
 10
140.1151189243
 20
123.8873012982
 10
140.0975960102
 20
123.9012144681
 10
140.0781791516
 20
123.9127166411
 10
140.057168635
 20
123.921629986
 10
140.0348893919
 20
123.9278167025
  0
LWPOLYLINE
  5
464
100
AcDbEntity
  8
RACCORDO
100
AcDbPolyline
 62
250
  6
CONTINUOUS
 90
9
 70
0
 10
147.5569520057
 20
117.6625740665
 10
147.811686392
 20
117.2481484482
 10
148.0667897436
 20
116.8236793959
 10
148.3219677212
 20
116.389155032
 10
148.5753511263
 20
115.9473364197
 10
148.828248051
 20
115.4955068769
 10
149.0848471902
 20
115.0253169543
 10
149.3459958877
 20
114.5338700325
 10
149.6094958218
 20
114.023881249
  0
LINE
  5
465
100
AcDbEntity
  8
RACCORDO
100
AcDbLine
 62
7
  6
CONTINUOUS
 10
147.8886612683
 20
117.2393639144
 11
147.6744045971
 21
117.5892344235
  0
LWPOLYLINE
  5
466
100
AcDbEntity
  8
ASSI
100
AcDbPolyline
 62
250
  6
CONTINUOUS
 90
4
 70
0
 10
142.9735780252
 20
125.2484581854
 10
142.979194466
 20
125.2392329091
 10
142.9830015478
 20
125.2297312303
 10
142.9831283514
 20
125.2291081573
  0
LWPOLYLINE
  5
467
100
AcDbEntity
  8
ASSI
100
AcDbPolyline
 62
250
  6
CONTINUOUS
 90
16
 70
0
 10
143.1622023599
 20
125.4503466131
 10
143.1713064943
 20
125.4333670391
 10
143.1781165491
 20
125.4162104496
 10
143.1826325241
 20
125.3988768446
 10
143.1848652491
 20
125.3812607937
 10
143.1848038944
 20
125.3634677273
 10
143.1824159714
 20
125.345813937
 10
143.177639592
 20
125.328285736
 10
143.1705366443
 20
125.310896811
 10
143.1612603039
 20
125.2940045141
 10
143.1497655344
 20
125.2776377504
 10
143.1360973722
 20
125.2617676148
 10
143.1205441019
 20
125.2466647431
 10
143.1032018183
 20
125.2324193473
 10
143.0839744267
 20
125.2189412155
 10
143.0628619269
 20
125.2062303477
  0
LWPOLYLINE
  5
468
100
AcDbEntity
  8
ASSI
100
AcDbPolyline
 62
250
  6
CONTINUOUS
 90
4
 70
0
 10
145.3632953263
 20
121.7842560156
 10
145.3610292524
 20
121.7886332688
 10
145.3564303545
 20
121.7961676847
 10
145.3514534313
 20
121.8028689324
  0
LINE
  5
469
100
AcDbEntity
  8
RACCORDO
100
AcDbLine
 62
250
  6
CONTINUOUS
 10
149.6094958218
 20
114.023881249
 11
149.8746476152
 21
113.4953207448
  0
LWPOLYLINE
  5
46A
100
AcDbEntity
  8
RACCORDO
100
AcDbPolyline
 62
7
  6
CONTINUOUS
 90
9
 70
0
 10
149.9243936311
 20
113.5321626398
 10
149.6881407116
 20
114.003870882
 10
149.4465119181
 20
114.4735283317
 10
149.1995910725
 20
114.9409724081
 10
148.947464021
 20
115.4060408974
 10
148.6902179643
 20
115.8685731946
 10
148.4279413876
 20
116.3284103302
 10
148.160724905
 20
116.7853934537
 10
147.8886612683
 20
117.2393639144
  0
LINE
  5
46B
100
AcDbEntity
  8
ASSI
100
AcDbLine
 62
7
  6
CONTINUOUS
 10
145.363313531
 20
121.7842186024
 11
145.3632953263
 21
121.7842560156
  0
LINE
  5
46C
100
AcDbEntity
  8
RACCORDO
100
AcDbLine
 62
250
  6
CONTINUOUS
 10
149.8746476152
 20
113.4953207448
 11
149.879405236
 21
113.4852529334
  0
LWPOLYLINE
  5
46D
100
AcDbEntity
  8
ASSI
100
AcDbPolyline
 62
7
  6
CONTINUOUS
 90
6
 70
0
 10
145.3633322469
 20
121.7841802219
 10
145.3688645986
 20
121.7721980297
 10
145.3749477455
 20
121.7572486534
 10
145.3802111352
 20
121.7421424747
 10
145.384648035
 20
121.7269385339
 10
145.3882680622
 20
121.7116535623
  0
LINE
  5
46E
100
AcDbEntity
  8
ASSI
100
AcDbLine
 62
7
  6
CONTINUOUS
 10
145.3635006358
 20
121.7838172548
 11
145.3635327038
 21
121.7837435391
  0
LWPOLYLINE
  5
46F
100
AcDbEntity
  8
RACCORDO
100
AcDbPolyline
 62
250
  6
CONTINUOUS
 90
6
 70
0
 10
149.879405236
 20
113.4852529334
 10
149.8836618865
 20
113.4750757748
 10
149.8873937385
 20
113.4648462394
 10
149.8905799018
 20
113.4546215908
 10
149.8932025406
 20
113.4444590652
 10
149.8952469738
 20
113.4344155513
  0
LWPOLYLINE
  5
470
100
AcDbEntity
  8
RACCORDO
100
AcDbPolyline
 62
250
  6
CONTINUOUS
 90
7
 70
0
 10
149.9243927242
 20
113.5321644716
 10
149.9245039431
 20
113.531794755
 10
149.9236619057
 20
113.5293937645
 10
149.9205860738
 20
113.5258973231
 10
149.9152744586
 20
113.5214680697
 10
149.9079076893
 20
113.5160867156
 10
149.8986301278
 20
113.5098295021
  0
LINE
  5
471
100
AcDbEntity
  8
RACCORDO
100
AcDbLine
 62
250
  6
CONTINUOUS
 10
149.8794052325
 20
84.5450826662
 11
149.8746476153
 21
84.540408899
  0
LWPOLYLINE
  5
472
100
AcDbEntity
  8
RACCORDO
100
AcDbPolyline
 62
250
  6
CONTINUOUS
 90
16
 70
0
 10
145.9376572833
 20
82.2072301368
 10
145.9322961855
 20
82.2021128695
 10
145.9268757202
 20
82.197335237
 10
145.9214337984
 20
82.1928875081
 10
145.9160488974
 20
82.1887889124
 10
145.910711762
 20
82.1849955829
 10
145.9053126895
 20
82.1814117669
 10
145.8998735539
 20
82.1780366065
 10
145.8944044287
 20
82.1748645281
 10
145.8887553098
 20
82.1718133018
 10
145.8829374726
 20
82.1688894089
 10
145.8769519637
 20
82.1661014043
 10
145.8706164563
 20
82.1633952461
 10
145.86386861
 20
82.1607744678
 10
145.8567758143
 20
82.1582848729
 10
145.8493465098
 20
82.1559510329
  0
LINE
  5
473
100
AcDbEntity
  8
RACCORDO
100
AcDbLine
 62
250
  6
CONTINUOUS
 10
149.8883168783
 20
84.5503755909
 11
149.8882894027
 21
84.5503517173
  0
LWPOLYLINE
  5
474
100
AcDbEntity
  8
RACCORDO
100
AcDbPolyline
 62
250
  6
CONTINUOUS
 90
14
 70
0
 10
153.3855563364
 20
88.3779313868
 10
153.3912501756
 20
88.3827790613
 10
153.3965484773
 20
88.388139612
 10
153.4014534404
 20
88.3940075755
 10
153.4059723835
 20
88.4003932024
 10
153.4100721335
 20
88.4072506444
 10
153.4137608318
 20
88.4145943644
 10
153.4170805915
 20
88.4225541155
 10
153.4199927979
 20
88.4311310641
 10
153.4224624847
 20
88.4403322307
 10
153.4244845125
 20
88.4503405758
 10
153.4259979581
 20
88.4612374747
 10
153.4269186948
 20
88.4729740588
 10
153.4271757544
 20
88.4855517973
  0
LINE
  5
475
100
AcDbEntity
  8
RACCORDO
100
AcDbLine
 62
7
  6
CONTINUOUS
 10
146.6772456091
 20
82.5630969509
 11
146.6699498328
 21
82.5568885019
  0
LWPOLYLINE
  5
476
100
AcDbEntity
  8
RACCORDO
100
AcDbPolyline
 62
250
  6
CONTINUOUS
 90
16
 70
0
 10
145.8928105138
 20
82.1311091969
 10
145.8974642168
 20
82.1350369192
 10
145.9017794963
 20
82.1391320391
 10
145.9057660923
 20
82.143349319
 10
145.9094002316
 20
82.1476042953
 10
145.9127348435
 20
82.1518992687
 10
145.9158814883
 20
82.1563431366
 10
145.9188444869
 20
82.1609271014
 10
145.9216218025
 20
82.1656331416
 10
145.9242879293
 20
82.1705900834
 10
145.9268326196
 20
82.175802635
 10
145.929241177
 20
82.181265288
 10
145.931553539
 20
82.1871161579
 10
145.9337575797
 20
82.193411432
 10
145.9358061182
 20
82.2001166009
 10
145.9376703843
 20
82.2072431975
  0
LWPOLYLINE
  5
477
100
AcDbEntity
  8
RACCORDO
100
AcDbPolyline
 62
250
  6
CONTINUOUS
 90
7
 70
0
 10
149.8746476152
 20
84.5404088989
 10
149.6239090804
 20
84.3297200368
 10
149.3713001964
 20
84.1314566323
 10
149.1171994453
 20
83.9452532485
 10
148.8627883699
 20
83.7712792833
 10
148.6076391295
 20
83.6085722686
 10
148.5532258337
 20
83.5753334099
  0
LINE
  5
478
100
AcDbEntity
  8
RACCORDO
100
AcDbLine
 62
7
  6
CONTINUOUS
 10
146.669949822
 20
82.5568885084
 11
146.6166140414
 21
82.5129200074
  0
LWPOLYLINE
  5
479
100
AcDbEntity
  8
RACCORDO
100
AcDbPolyline
 62
7
  6
CONTINUOUS
 90
9
 70
0
 10
146.6166140414
 20
82.5129200074
 10
146.5630107883
 20
82.4693651301
 10
146.5091400625
 20
82.4262238763
 10
146.4550008963
 20
82.383495486
 10
146.4005942576
 20
82.3411807193
 10
146.3459230492
 20
82.2992818568
 10
146.290988239
 20
82.2577996589
 10
146.2357888592
 20
82.2167333654
 10
146.1664780533
 20
82.1659171223
  0
LINE
  5
47A
100
AcDbEntity
  8
RACCORDO
100
AcDbLine
 62
250
  6
CONTINUOUS
 10
149.8882894027
 20
84.5503517173
 11
149.8746476151
 21
84.5404088991
  0
LINE
  5
47B
100
AcDbEntity
  8
RACCORDO
100
AcDbLine
 62
250
  6
CONTINUOUS
 10
146.6914998962
 20
82.5927145541
 11
146.6999847081
 21
82.5988960536
  0
LWPOLYLINE
  5
47C
100
AcDbEntity
  8
RACCORDO
100
AcDbPolyline
 62
250
  6
CONTINUOUS
 90
16
 70
0
 10
145.8928113648
 20
82.1311097119
 10
145.8898687599
 20
82.1289673336
 10
145.8869228281
 20
82.126799838
 10
145.8839735314
 20
82.124607282
 10
145.8810129488
 20
82.1223841252
 10
145.8780489175
 20
82.1201360337
 10
145.8751050383
 20
82.1178798715
 10
145.8721771983
 20
82.1156124496
 10
145.8692694237
 20
82.1133370882
 10
145.8664175376
 20
82.1110803969
 10
145.8636266156
 20
82.1088465526
 10
145.8608915107
 20
82.1066314878
 10
145.8582327258
 20
82.104449426
 10
145.8556570736
 20
82.102305142
 10
145.8531576725
 20
82.1001939679
 10
145.8316238593
 20
82.0816041359
  0
LINE
  5
47D
100
AcDbEntity
  8
RACCORDO
100
AcDbLine
 62
7
  6
CONTINUOUS
 10
146.1664780533
 20
82.1659171223
 11
146.1517984956
 21
82.1555479284
  0
LINE
  5
47E
100
AcDbEntity
  8
RACCORDO
100
AcDbLine
 62
7
  6
CONTINUOUS
 10
146.1517984956
 20
82.1555479284
 11
146.104636751
 21
82.1230706452
  0
LWPOLYLINE
  5
47F
100
AcDbEntity
  8
RACCORDO
100
AcDbPolyline
 62
7
  6
CONTINUOUS
 90
3
 70
0
 10
146.104636751
 20
82.1230706452
 10
146.0717270706
 20
82.1009231774
 10
146.0551498577
 20
82.0898417243
  0
LINE
  5
480
100
AcDbEntity
  8
RACCORDO
100
AcDbLine
 62
7
  6
CONTINUOUS
 10
146.0551498577
 20
82.0898417243
 11
146.004783078
 21
82.0568876238
  0
LINE
  5
481
100
AcDbEntity
  8
RACCORDO
100
AcDbLine
 62
7
  6
CONTINUOUS
 10
146.004783078
 20
82.0568876238
 11
145.9883273343
 21
82.0462601759
  0
LWPOLYLINE
  5
482
100
AcDbEntity
  8
RACCORDO
100
AcDbPolyline
 62
7
  6
CONTINUOUS
 90
3
 70
0
 10
145.9883273343
 20
82.0462601759
 10
145.9568750313
 20
82.0261960157
 10
145.9420758724
 20
82.0168488643
  0
LWPOLYLINE
  5
483
100
AcDbEntity
  8
RACCORDO
100
AcDbPolyline
 62
7
  6
CONTINUOUS
 90
3
 70
0
 10
145.9420758724
 20
82.0168488643
 10
145.9148162618
 20
81.9998708673
 10
145.9025038816
 20
81.9923074073
  0
LWPOLYLINE
  5
484
100
AcDbEntity
  8
RACCORDO
100
AcDbPolyline
 62
7
  6
CONTINUOUS
 90
10
 70
0
 10
148.5532258336
 20
83.57533341
 10
148.7088762016
 20
83.671742155
 10
148.8627438928
 20
83.771161655
 10
149.0148090916
 20
83.8735798042
 10
149.1650503275
 20
83.9789827528
 10
149.3134502026
 20
84.0873588977
 10
149.459995176
 20
84.1986992737
 10
149.6046680352
 20
84.3129920571
 10
149.7474481162
 20
84.4302221794
 10
149.8883168783
 20
84.5503755909
  0
LINE
  5
485
100
AcDbEntity
  8
RACCORDO
100
AcDbLine
 62
250
  6
CONTINUOUS
 10
149.9732613367
 20
84.6923350046
 11
149.9399121758
 21
84.6720455027
  0
LINE
  5
486
100
AcDbEntity
  8
RACCORDO
100
AcDbLine
 62
7
  6
CONTINUOUS
 10
149.505030242
 20
84.2342773571
 11
149.9743861459
 21
84.5198305543
  0
LINE
  5
487
100
AcDbEntity
  8
ASSI
100
AcDbLine
 62
7
  6
CONTINUOUS
 10
148.5532258337
 20
83.5753334099
 11
145.8316238593
 21
81.9253611604
  0
LINE
  5
488
100
AcDbEntity
  8
RACCORDO
100
AcDbLine
 62
250
  6
CONTINUOUS
 10
145.9376572833
 20
82.2072198385
 11
149.8978131458
 21
84.6034225812
  0
LINE
  5
489
100
AcDbEntity
  8
RACCORDO
100
AcDbLine
 62
250
  6
CONTINUOUS
 10
145.8928113648
 20
82.1311097119
 11
149.8746476152
 21
84.5404088989
  0
LINE
  5
48A
100
AcDbEntity
  8
RACCORDO
100
AcDbLine
 62
250
  6
CONTINUOUS
 10
146.691140166
 20
82.5924978302
 11
146.6914998962
 21
82.5927145541
  0
LINE
  5
48B
100
AcDbEntity
  8
RACCORDO
100
AcDbLine
 62
7
  6
CONTINUOUS
 10
145.8316238593
 20
82.0787220391
 11
146.6911276098
 21
82.5924903235
  0
LINE
  5
48C
100
AcDbEntity
  8
RACCORDO
100
AcDbLine
 62
250
  6
CONTINUOUS
 10
145.8316238593
 20
82.079887619
 11
146.6999847081
 21
82.5988960536
  0
LINE
  5
48D
100
AcDbEntity
  8
RACCORDO
100
AcDbLine
 62
250
  6
CONTINUOUS
 10
150.0263254629
 20
84.7229771023
 11
149.9732613367
 21
84.6923350046
  0
LINE
  5
48E
100
AcDbEntity
  8
SUPERFICI
100
AcDbLine
 62
7
  6
CONTINUOUS
 10
146.2261329846
 20
81.2010528214
 11
145.8316238593
 21
80.9812194191
  0
LINE
  5
48F
100
AcDbEntity
  8
SUPERFICI
100
AcDbLine
 62
7
  6
CONTINUOUS
 10
145.8316238593
 20
81.4203234714
 11
145.8391819228
 21
81.4244735148
  0
LWPOLYLINE
  5
490
100
AcDbEntity
  8
RACCORDO
100
AcDbPolyline
 62
250
  6
CONTINUOUS
 90
3
 70
0
 10
145.8508399575
 20
82.0982073335
 10
145.8411458259
 20
82.0933501914
 10
145.8316238593
 20
82.0903282757
  0
LINE
  5
491
100
AcDbEntity
  8
RACCORDO
100
AcDbLine
 62
250
  6
CONTINUOUS
 10
148.1797767425
 20
124.2558381337
 11
150.6598383111
 21
124.9503467471
  0
LINE
  5
492
100
AcDbEntity
  8
ASSI
100
AcDbLine
 62
7
  6
CONTINUOUS
 10
148.0892416372
 20
124.2695653018
 11
150.5712666381
 21
124.9646237485
  0
LWPOLYLINE
  5
493
100
AcDbEntity
  8
ASSI
100
AcDbPolyline
 62
250
  6
CONTINUOUS
 90
13
 70
0
 10
150.0957307657
 20
124.4358623619
 10
150.0999716669
 20
124.437011308
 10
150.1041457611
 20
124.4382186719
 10
150.1082530482
 20
124.4394844537
 10
150.1122821243
 20
124.4408012315
 10
150.1162443933
 20
124.4421764272
 10
150.1201740671
 20
124.4436323062
 10
150.12407987
 20
124.4451676933
 10
150.1279530776
 20
124.4467837637
 10
150.131801729
 20
124.4485063094
 10
150.1356285039
 20
124.4503439273
 10
150.1394307227
 20
124.4522880205
 10
150.1432083853
 20
124.4543385887
  0
LINE
  5
494
100
AcDbEntity
  8
ASSI
100
AcDbLine
 62
250
  6
CONTINUOUS
 10
148.6719251684
 20
123.7887601559
 11
150.2024581164
 21
124.1913216825
  0
LINE
  5
495
100
AcDbEntity
  8
ASSI
100
AcDbLine
 62
250
  6
CONTINUOUS
 10
148.5651978177
 20
124.0333008354
 11
150.0957307657
 21
124.4358623619
  0
LWPOLYLINE
  5
496
100
AcDbEntity
  8
ASSI
100
AcDbPolyline
 62
7
  6
CONTINUOUS
 90
10
 70
0
 10
144.873831748
 20
120.3131140092
 10
144.8543080139
 20
120.3134011838
 10
144.8352760188
 20
120.3127276664
 10
144.8167357625
 20
120.3110934572
 10
144.7985511037
 20
120.308463558
 10
144.7808581838
 20
120.3048729669
 10
144.7640654269
 20
120.3004266777
 10
144.7483089742
 20
120.2951596884
 10
144.7334526845
 20
120.289037001
 10
144.7194965577
 20
120.2820586155
  0
LINE
  5
497
100
AcDbEntity
  8
ASSI
100
AcDbLine
 62
7
  6
CONTINUOUS
 10
144.9144884526
 20
120.3123066692
 11
144.873831748
 21
120.3131140092
  0
LWPOLYLINE
  5
498
100
AcDbEntity
  8
ASSI
100
AcDbPolyline
 62
250
  6
CONTINUOUS
 90
8
 70
0
 10
144.2363643091
 20
119.8046679214
 10
144.2250797273
 20
119.8089189215
 10
144.2128916908
 20
119.811243702
 10
144.1999307884
 20
119.8116173412
 10
144.186335907
 20
119.8100358294
 10
144.1722527152
 20
119.806516113
 10
144.1578320992
 20
119.8010959023
 10
144.1432285673
 20
119.7938332707
  0
LWPOLYLINE
  5
499
100
AcDbEntity
  8
RACCORDO
100
AcDbPolyline
 62
7
  6
CONTINUOUS
 90
5
 70
0
 10
147.5569520057
 20
117.6625740664
 10
147.5727423999
 20
117.6565645621
 10
147.5876958696
 20
117.6503841359
 10
147.6017571698
 20
117.6440044198
 10
147.6149069574
 20
117.6373375686
  0
LWPOLYLINE
  5
49A
100
AcDbEntity
  8
ASSI
100
AcDbPolyline
 62
250
  6
CONTINUOUS
 90
9
 70
0
 10
145.767969122
 20
118.9205529302
 10
145.7635680284
 20
118.9228796203
 10
145.7522834229
 20
118.9271305975
 10
145.7400953911
 20
118.9294553481
 10
145.7271345152
 20
118.9298289631
 10
145.7135396665
 20
118.9282474381
 10
145.6994565068
 20
118.924727718
 10
145.6850359264
 20
118.9193075137
 10
145.670432433
 20
118.912044899
  0
LINE
  5
49B
100
AcDbEntity
  8
ASSI
100
AcDbLine
 62
250
  6
CONTINUOUS
 10
144.2407652563
 20
119.8023413019
 11
144.2363643091
 21
119.8046679214
  0
LINE
  5
49C
100
AcDbEntity
  8
ASSI
100
AcDbLine
 62
250
  6
CONTINUOUS
 10
135.0644224741
 20
125.1006466178
 11
135.0600215269
 21
125.1029732373
  0
LWPOLYLINE
  5
49D
100
AcDbEntity
  8
ASSI
100
AcDbPolyline
 62
250
  6
CONTINUOUS
 90
8
 70
0
 10
144.1432285673
 20
119.7938332707
 10
144.1288967757
 20
119.8015121992
 10
144.1146346626
 20
119.8073750344
 10
144.1005977942
 20
119.8113362564
 10
144.0869245408
 20
119.8133310121
 10
144.0737895562
 20
119.813307073
 10
144.0613931366
 20
119.8112528596
 10
144.0503047415
 20
119.8073453677
  0
LWPOLYLINE
  5
49E
100
AcDbEntity
  8
ASSI
100
AcDbPolyline
 62
250
  6
CONTINUOUS
 90
8
 70
0
 10
134.966885785
 20
125.0921385866
 10
134.9525539935
 20
125.099817515
 10
134.9382918804
 20
125.1056803503
 10
134.924255012
 20
125.1096415722
 10
134.9105817586
 20
125.111636328
 10
134.897446774
 20
125.1116123888
 10
134.8850503544
 20
125.1095581755
 10
134.8739619592
 20
125.1056506835
  0
LWPOLYLINE
  5
49F
100
AcDbEntity
  8
RACCORDO
100
AcDbPolyline
 62
7
  6
CONTINUOUS
 90
8
 70
0
 10
147.6149069574
 20
117.6373375686
 10
147.6270761898
 20
117.6304286301
 10
147.6381367974
 20
117.6234492381
 10
147.6480522501
 20
117.6163846535
 10
147.6567912852
 20
117.6092184132
 10
147.664228425
 20
117.6021154704
 10
147.6703413817
 20
117.5950670355
 10
147.6744037587
 20
117.5892357798
  0
LINE
  5
4A0
100
AcDbEntity
  8
SUPERFICI
100
AcDbLine
 62
7
  6
CONTINUOUS
 10
134.9989337648
 20
123.5702093459
 11
139.5951278425
 21
120.9164244893
  0
LINE
  5
4A1
100
AcDbEntity
  8
SUPERFICI
100
AcDbLine
 62
7
  6
CONTINUOUS
 10
135.5009067022
 20
123.4078477248
 11
139.7315207559
 21
120.9651441922
  0
LINE
  5
4A2
100
AcDbEntity
  8
SUPERFICI
100
AcDbLine
 62
7
  6
CONTINUOUS
 10
145.4781916226
 20
118.3321883646
 11
140.4645704741
 21
121.2269903803
  0
LINE
  5
4A3
100
AcDbEntity
  8
SUPERFICI
100
AcDbLine
 62
7
  6
CONTINUOUS
 10
135.5009067022
 20
124.0929476329
 11
130.4872855536
 21
126.9877496486
  0
LINE
  5
4A4
100
AcDbEntity
  8
ASSI
100
AcDbLine
 62
250
  6
CONTINUOUS
 10
138.5065179093
 20
123.0391892509
 11
142.3868287753
 21
120.7987463887
  0
LINE
  5
4A5
100
AcDbEntity
  8
ASSI
100
AcDbLine
 62
250
  6
CONTINUOUS
 10
145.670432433
 20
118.912044899
 11
144.1432285673
 21
119.7938332707
  0
LINE
  5
4A6
100
AcDbEntity
  8
ASSI
100
AcDbLine
 62
250
  6
CONTINUOUS
 10
136.4940896508
 20
124.2103502149
 11
134.966885785
 21
125.0921385866
  0
LINE
  5
4A7
100
AcDbEntity
  8
ASSI
100
AcDbLine
 62
7
  6
CONTINUOUS
 10
145.767969122
 20
118.9205529302
 11
144.2407652563
 21
119.8023413019
  0
LINE
  5
4A8
100
AcDbEntity
  8
ASSI
100
AcDbLine
 62
7
  6
CONTINUOUS
 10
136.5916263398
 20
124.218858246
 11
135.0644224741
 21
125.1006466178
  0
LINE
  5
4A9
100
AcDbEntity
  8
ASSI
100
AcDbLine
 62
250
  6
CONTINUOUS
 10
138.6456570943
 20
123.1819295249
 11
142.4926385646
 21
120.9607306379
  0
LINE
  5
4AA
100
AcDbEntity
  8
RACCORDO
100
AcDbLine
 62
7
  6
CONTINUOUS
 10
144.6639021002
 20
120.099878311
 11
144.5300045687
 21
120.1771890675
  0
LWPOLYLINE
  5
4AB
100
AcDbEntity
  8
ASSI
100
AcDbPolyline
 62
250
  6
CONTINUOUS
 90
16
 70
0
 10
136.4940896508
 20
124.2103502149
 10
136.5087915911
 20
124.2012766345
 10
136.5233885054
 20
124.1905107803
 10
136.5377216474
 20
124.1781419958
 10
136.551639931
 20
124.1642703032
 10
136.5649742092
 20
124.1490326719
 10
136.5775438946
 20
124.1326100867
 10
136.5892124372
 20
124.1151571793
 10
136.5998287262
 20
124.0968741665
 10
136.6092225035
 20
124.0780478634
 10
136.6172789245
 20
124.0589316866
 10
136.6239366263
 20
124.0396981919
 10
136.6291367677
 20
124.0205252089
 10
136.6328225272
 20
124.0016131347
 10
136.6349483537
 20
123.9831828323
 10
136.6354894679
 20
123.9654385477
  0
LWPOLYLINE
  5
4AC
100
AcDbEntity
  8
RACCORDO
100
AcDbPolyline
 62
250
  6
CONTINUOUS
 90
3
 70
0
 10
144.8949617582
 20
120.2821557917
 10
144.9058312068
 20
120.2747205166
 10
144.9083557319
 20
120.2722459535
  0
LWPOLYLINE
  5
4AD
100
AcDbEntity
  8
ASSI
100
AcDbPolyline
 62
250
  6
CONTINUOUS
 90
3
 70
0
 10
140.0957575847
 20
123.8241782119
 10
140.1167169236
 20
123.805725009
 10
140.1409166467
 20
123.787725387
  0
LWPOLYLINE
  5
4AE
100
AcDbEntity
  8
ASSI
100
AcDbPolyline
 62
250
  6
CONTINUOUS
 90
7
 70
0
 10
145.3514534313
 20
121.8028689324
 10
145.346182278
 20
121.8088064579
 10
145.3407287289
 20
121.8139763482
 10
145.3352245127
 20
121.8183035209
 10
145.3297548373
 20
121.8217960361
 10
145.3243665952
 20
121.8245401075
 10
145.3191154044
 20
121.8265835854
  0
LWPOLYLINE
  5
4AF
100
AcDbEntity
  8
RACCORDO
100
AcDbPolyline
 62
7
  6
CONTINUOUS
 90
12
 70
0
 10
149.8965245367
 20
119.3563963189
 10
149.8455200912
 20
119.4329533261
 10
149.7916409202
 20
119.5071453644
 10
149.7351243446
 20
119.5785874332
 10
149.6762025292
 20
119.6469148327
 10
149.6150881501
 20
119.7118407849
 10
149.5519831446
 20
119.7730855396
 10
149.4871203497
 20
119.830348614
 10
149.4207398328
 20
119.8833414579
 10
149.3530686938
 20
119.9317842057
 10
149.2843631119
 20
119.9754067625
 10
149.2693724083
 20
119.9841925426
  0
LWPOLYLINE
  5
4B0
100
AcDbEntity
  8
RACCORDO
100
AcDbPolyline
 62
250
  6
CONTINUOUS
 90
11
 70
0
 10
149.8480718523
 20
119.3186509491
 10
149.7937855222
 20
119.4011518659
 10
149.7380517055
 20
119.4787164122
 10
149.6813632511
 20
119.5512154112
 10
149.6241303463
 20
119.6186459411
 10
149.566812895
 20
119.6809349008
 10
149.5099352546
 20
119.7379627049
 10
149.4538511107
 20
119.7898480894
 10
149.3988650395
 20
119.8367556817
 10
149.3453859834
 20
119.8787509984
 10
149.2936943537
 20
119.9160455012
  0
LWPOLYLINE
  5
4B1
100
AcDbEntity
  8
ASSI
100
AcDbPolyline
 62
7
  6
CONTINUOUS
 90
10
 70
0
 10
147.8142645485
 20
123.2544068289
 10
147.8259675007
 20
123.2359323957
 10
147.836274119
 20
123.217042177
 10
147.8451762392
 20
123.1978161145
 10
147.8526570809
 20
123.1783826589
 10
147.8587467099
 20
123.1587775192
 10
147.8634881783
 20
123.1389403328
 10
147.8668796794
 20
123.118904915
 10
147.8689080392
 20
123.0988018088
 10
147.8695811042
 20
123.0787148128
  0
LWPOLYLINE
  5
4B2
100
AcDbEntity
  8
ASSI
100
AcDbPolyline
 62
250
  6
CONTINUOUS
 90
13
 70
0
 10
149.0296000945
 20
118.8568960971
 10
148.9849691954
 20
118.9274441802
 10
148.9381070855
 20
118.9959708666
 10
148.8891789509
 20
119.062229139
 10
148.8383546977
 20
119.1259786686
 10
148.7858164534
 20
119.1869910839
 10
148.7317579135
 20
119.2450507757
 10
148.6763713578
 20
119.2999474618
 10
148.6198515074
 20
119.3514841203
 10
148.5624027368
 20
119.3994814427
 10
148.5042297713
 20
119.4437677247
 10
148.4455371592
 20
119.4841801487
 10
148.3865329261
 20
119.5205720712
  0
LINE
  5
4B3
100
AcDbEntity
  8
RACCORDO
100
AcDbLine
 62
7
  6
CONTINUOUS
 10
149.9435392247
 20
119.2817052547
 11
149.8965245367
 21
119.3563963189
  0
LINE
  5
4B4
100
AcDbEntity
  8
RACCORDO
100
AcDbLine
 62
250
  6
CONTINUOUS
 10
149.9687465909
 20
119.1260586732
 11
149.848071848
 21
119.3186509467
  0
LINE
  5
4B5
100
AcDbEntity
  8
RACCORDO
100
AcDbLine
 62
7
  6
CONTINUOUS
 10
150.0237155467
 20
119.1535265153
 11
149.9435392247
 21
119.2817052547
  0
LWPOLYLINE
  5
4B6
100
AcDbEntity
  8
ASSI
100
AcDbPolyline
 62
250
  6
CONTINUOUS
 90
16
 70
0
 10
147.6488495256
 20
123.3052828457
 10
147.6387207516
 20
123.3220678435
 10
147.6308739088
 20
123.3390761515
 10
147.6253089971
 20
123.3563077698
 10
147.6220087966
 20
123.373867845
 10
147.6209905273
 20
123.3916512305
 10
147.6223058487
 20
123.4093424859
 10
147.6260157804
 20
123.4269565415
 10
147.6320593029
 20
123.4444784671
 10
147.6403050165
 20
123.4615480317
 10
147.6507996839
 20
123.4781372587
 10
147.6634965426
 20
123.4942741247
 10
147.6781239057
 20
123.5096823288
 10
147.694591211
 20
123.5242697706
 10
147.7129890209
 20
123.5381285505
 10
147.7333173352
 20
123.5512586685
  0
LWPOLYLINE
  5
4B7
100
AcDbEntity
  8
RACCORDO
100
AcDbPolyline
 62
250
  6
CONTINUOUS
 90
10
 70
0
 10
147.860790864
 20
126.5188407348
 10
147.8668444755
 20
126.5058311581
 10
147.8723308141
 20
126.4923483364
 10
147.8772261123
 20
126.4783846723
 10
147.8815191378
 20
126.4638227691
 10
147.8851197773
 20
126.4487668327
 10
147.8879573341
 20
126.4332665528
 10
147.8899724527
 20
126.4171332406
 10
147.8910337167
 20
126.400396866
 10
147.8909960645
 20
126.3833090721
  0
LWPOLYLINE
  5
4B8
100
AcDbEntity
  8
RACCORDO
100
AcDbPolyline
 62
250
  6
CONTINUOUS
 90
5
 70
0
 10
152.7830635097
 20
122.9795641872
 10
152.7768823569
 20
123.002770678
 10
152.7689831756
 20
123.0261050892
 10
152.759497518
 20
123.0492118932
 10
152.7486404292
 20
123.0716715848
  0
LWPOLYLINE
  5
4B9
100
AcDbEntity
  8
RACCORDO
100
AcDbPolyline
 62
250
  6
CONTINUOUS
 90
9
 70
0
 10
153.4204529215
 20
121.8402611942
 10
153.4178199328
 20
121.8515248914
 10
153.4147257832
 20
121.8629997073
 10
153.4111903967
 20
121.8745739169
 10
153.4072220216
 20
121.8862032558
 10
153.4028203642
 20
121.8978723532
 10
153.3980082782
 20
121.9095106176
 10
153.3927974337
 20
121.9210857699
 10
153.3871991598
 20
121.9325684542
  0
LWPOLYLINE
  5
4BA
100
AcDbEntity
  8
RACCORDO
100
AcDbPolyline
 62
7
  6
CONTINUOUS
 90
10
 70
0
 10
146.6296436948
 20
79.3312901679
 10
146.6594917414
 20
79.3509846007
 10
146.6874485674
 20
79.3746900482
 10
146.7129879492
 20
79.4023163991
 10
146.7355613186
 20
79.4336151099
 10
146.7547826858
 20
79.468399996
 10
146.7703963957
 20
79.50673622
 10
146.7820382148
 20
79.5486096248
 10
146.7892775547
 20
79.5937185923
 10
146.7917636491
 20
79.6418135171
  0
LINE
  5
4BB
100
AcDbEntity
  8
RACCORDO
100
AcDbLine
 62
250
  6
CONTINUOUS
 10
146.7331850053
 20
79.5601585984
 11
145.8316238593
 21
79.039608492
  0
LINE
  5
4BC
100
AcDbEntity
  8
RACCORDO
100
AcDbLine
 62
7
  6
CONTINUOUS
 10
146.6296436948
 20
79.3312901679
 11
145.8316238593
 21
78.8705235164
  0
LWPOLYLINE
  5
4BD
100
AcDbEntity
  8
ASSI
100
AcDbPolyline
 62
250
  6
CONTINUOUS
 90
12
 70
0
 10
144.8396998171
 20
126.1843566895
 10
144.8326649836
 20
126.1823638078
 10
144.8255644085
 20
126.1801796972
 10
144.8184008147
 20
126.1778035533
 10
144.8112131127
 20
126.1752476765
 10
144.8039682989
 20
126.1725003115
 10
144.7965601849
 20
126.1695162982
 10
144.7889815868
 20
126.166282234
 10
144.7812441335
 20
126.1627933
 10
144.7732686843
 20
126.1590025273
 10
144.7650307303
 20
126.1548812821
 10
144.7565610496
 20
126.1504263819
  0
LINE
  5
4BE
100
AcDbEntity
  8
RACCORDO
100
AcDbLine
 62
250
  6
CONTINUOUS
 10
139.3852474009
 20
125.3992094368
 11
139.4286650083
 21
125.4112804791
  0
LWPOLYLINE
  5
4BF
100
AcDbEntity
  8
ASSI
100
AcDbPolyline
 62
250
  6
CONTINUOUS
 90
13
 70
0
 10
145.2251208922
 20
125.9618193911
 10
145.2179803501
 20
125.9598637689
 10
145.2107965772
 20
125.9577112626
 10
145.2035724638
 20
125.9553618706
 10
145.1963504036
 20
125.9528301761
 10
145.1890941945
 20
125.9501039177
 10
145.1816876422
 20
125.9471337203
 10
145.1741207209
 20
125.9439056486
 10
145.1664078434
 20
125.9404152182
 10
145.1584681592
 20
125.9366113506
 10
145.1502765547
 20
125.9324635844
 10
145.1418643449
 20
125.9279695992
 10
145.1332357261
 20
125.9231137691
  0
LINE
  5
4C0
100
AcDbEntity
  8
ASSI
100
AcDbLine
 62
250
  6
CONTINUOUS
 10
146.3522155545
 20
126.5973211276
 11
144.8396998171
 21
126.1843566895
  0
LINE
  5
4C1
100
AcDbEntity
  8
ASSI
100
AcDbLine
 62
7
  6
CONTINUOUS
 10
146.2629349021
 20
126.6113951908
 11
144.7504191646
 21
126.1984307526
  0
LWPOLYLINE
  5
4C2
100
AcDbEntity
  8
ASSI
100
AcDbPolyline
 62
250
  6
CONTINUOUS
 90
13
 70
0
 10
145.329745895
 20
125.7099587348
 10
145.3254357195
 20
125.7087985042
 10
145.3211049674
 20
125.7075191635
 10
145.3167536388
 20
125.7061207129
 10
145.312403938
 20
125.7046147758
 10
145.3080336607
 20
125.7029897286
 10
145.3035761939
 20
125.7012107013
 10
145.2990242929
 20
125.6992812688
 10
145.2943852024
 20
125.697197856
 10
145.2896140427
 20
125.6949148674
 10
145.2846958541
 20
125.6924171044
 10
145.2796455963
 20
125.6897197655
 10
145.2744632693
 20
125.6868228508
  0
LINE
  5
4C3
100
AcDbEntity
  8
ASSI
100
AcDbLine
 62
250
  6
CONTINUOUS
 10
146.3573758023
 20
126.5986650184
 11
146.3522155545
 21
126.5973211276
  0
LINE
  5
4C4
100
AcDbEntity
  8
RACCORDO
100
AcDbLine
 62
250
  6
CONTINUOUS
 10
147.8897317761
 20
126.3660558507
 11
145.329745895
 21
125.7099587348
  0
LINE
  5
4C5
100
AcDbEntity
  8
RACCORDO
100
AcDbLine
 62
250
  6
CONTINUOUS
 10
147.7758276393
 20
126.6155383639
 11
145.2251208922
 21
125.9618193911
  0
LWPOLYLINE
  5
4C6
100
AcDbEntity
  8
ASSI
100
AcDbPolyline
 62
250
  6
CONTINUOUS
 90
6
 70
0
 10
148.0892416372
 20
124.2695653018
 10
148.1056480225
 20
124.2727454658
 10
148.124019081
 20
124.2731798445
 10
148.1426971518
 20
124.2704695041
 10
148.1613828685
 20
124.2646578849
 10
148.1797767425
 20
124.2558381337
  0
LWPOLYLINE
  5
4C7
100
AcDbEntity
  8
RACCORDO
100
AcDbPolyline
 62
250
  6
CONTINUOUS
 90
5
 70
0
 10
150.8367996845
 20
124.8481714679
 10
150.8513583825
 20
124.8507344425
 10
150.8650299543
 20
124.8504105326
 10
150.8775257009
 20
124.8472065781
 10
150.8843314883
 20
124.8439368336
  0
LWPOLYLINE
  5
4C8
100
AcDbEntity
  8
RACCORDO
100
AcDbPolyline
 62
250
  6
CONTINUOUS
 90
5
 70
0
 10
150.6598383111
 20
124.9503467471
 10
150.6743970089
 20
124.9529097218
 10
150.6880685805
 20
124.9525858119
 10
150.7005643271
 20
124.9493818575
 10
150.707301554
 20
124.9461515847
  0
LWPOLYLINE
  5
4C9
100
AcDbEntity
  8
ASSI
100
AcDbPolyline
 62
250
  6
CONTINUOUS
 90
3
 70
0
 10
139.4177049021
 20
124.2688567827
 10
139.4256690351
 20
124.2698618556
 10
139.4332506744
 20
124.2705786638
  0
LWPOLYLINE
  5
4CA
100
AcDbEntity
  8
ASSI
100
AcDbPolyline
 62
250
  6
CONTINUOUS
 90
7
 70
0
 10
141.3845340749
 20
124.3753522448
 10
141.4275999707
 20
124.3790690307
 10
141.4724058929
 20
124.3855834596
 10
141.5188907959
 20
124.3950111956
 10
141.5668565618
 20
124.4074386377
 10
141.6163464371
 20
124.4229781038
 10
141.6676572923
 20
124.4418369938
  0
LWPOLYLINE
  5
4CB
100
AcDbEntity
  8
ASSI
100
AcDbPolyline
 62
250
  6
CONTINUOUS
 90
9
 70
0
 10
144.7805204031
 20
122.4145523006
 10
144.8151196605
 20
122.4173826506
 10
144.8497185858
 20
122.4219105098
 10
144.8842436102
 20
122.4280353413
 10
144.9182313229
 20
122.4355616365
 10
144.9520044479
 20
122.4444487019
 10
144.9867105481
 20
122.4549909935
 10
145.0224483458
 20
122.4673044986
 10
145.059062446
 20
122.4814069775
  0
LWPOLYLINE
  5
4CC
100
AcDbEntity
  8
ASSI
100
AcDbPolyline
 62
7
  6
CONTINUOUS
 90
7
 70
0
 10
139.3697532544
 20
124.2882333021
 10
139.3532625163
 20
124.286936149
 10
139.3164357728
 20
124.281187537
 10
139.2782164399
 20
124.2711388977
 10
139.2403811987
 20
124.2571341177
 10
139.2034998212
 20
124.2395698226
 10
139.1937279758
 20
124.2342590138
  0
LINE
  5
4CD
100
AcDbEntity
  8
ASSI
100
AcDbLine
 62
250
  6
CONTINUOUS
 10
139.4332506744
 20
124.2705786638
 11
139.440454403
 21
124.2710360136
  0
LWPOLYLINE
  5
4CE
100
AcDbEntity
  8
ASSI
100
AcDbPolyline
 62
250
  6
CONTINUOUS
 90
16
 70
0
 10
143.2560422429
 20
121.8680310187
 10
143.2488915996
 20
121.8676196884
 10
143.2418885616
 20
121.8669263463
 10
143.2350331288
 20
121.8659509924
 10
143.2283170493
 20
121.8646659887
 10
143.2217485751
 20
121.8630989732
 10
143.2153524616
 20
121.8613328602
 10
143.2091309202
 20
121.8593706853
 10
143.2030817396
 20
121.8572094128
 10
143.1972230403
 20
121.8549228503
 10
143.1915565601
 20
121.8525136077
 10
143.1860805614
 20
121.8499790751
 10
143.1808079516
 20
121.847385231
 10
143.1757430331
 20
121.8447540679
 10
143.1708815036
 20
121.8420635933
 10
143.1662233629
 20
121.839313807
  0
LWPOLYLINE
  5
4CF
100
AcDbEntity
  8
ASSI
100
AcDbPolyline
 62
250
  6
CONTINUOUS
 90
16
 70
0
 10
143.1724795995
 20
122.1162114384
 10
143.1607018226
 20
122.1155507199
 10
143.14910244
 20
122.1143313843
 10
143.1377095148
 20
122.1126032072
 10
143.1265542287
 20
122.1104147636
 10
143.1156539526
 20
122.1078140162
 10
143.1050119948
 20
122.1048465075
 10
143.0946438748
 20
122.1015547619
 10
143.0845683067
 20
122.0979811552
 10
143.0747899323
 20
122.0941668301
 10
143.0653190791
 20
122.0901493111
 10
143.0561684806
 20
122.0859659207
 10
143.04734384
 20
122.0816547167
 10
143.0388517676
 20
122.0772502572
 10
143.0306998875
 20
122.0727835006
 10
143.0228934718
 20
122.0682847484
  0
LINE
  5
4D0
100
AcDbEntity
  8
ASSI
100
AcDbLine
 62
250
  6
CONTINUOUS
 10
143.274417671
 20
122.3326221248
 11
144.7805204031
 21
122.4145523006
  0
LINE
  5
4D1
100
AcDbEntity
  8
ASSI
100
AcDbLine
 62
7
  6
CONTINUOUS
 10
143.2033537799
 20
122.3497989974
 11
144.709889458
 21
122.4317534991
  0
LINE
  5
4D2
100
AcDbEntity
  8
ASSI
100
AcDbLine
 62
250
  6
CONTINUOUS
 10
139.440454403
 20
124.2710360136
 11
141.3845712264
 21
124.375330794
  0
LINE
  5
4D3
100
AcDbEntity
  8
ASSI
100
AcDbLine
 62
7
  6
CONTINUOUS
 10
139.3697532543
 20
124.2882333021
 11
141.3140851308
 21
124.3925398195
  0
LINE
  5
4D4
100
AcDbEntity
  8
ASSI
100
AcDbLine
 62
7
  6
CONTINUOUS
 10
141.3140851308
 20
124.3925398195
 11
141.3142255382
 21
124.3925472703
  0
LWPOLYLINE
  5
4D5
100
AcDbEntity
  8
ASSI
100
AcDbPolyline
 62
250
  6
CONTINUOUS
 90
16
 70
0
 10
140.2317425183
 20
124.0894246242
 10
140.1945601586
 20
124.0875498721
 10
140.1608541183
 20
124.0843627488
 10
140.1306243974
 20
124.0798632544
 10
140.1039522541
 20
124.0740114859
 10
140.0807564301
 20
124.0668473463
 10
140.0607931508
 20
124.0584905446
 10
140.0439308009
 20
124.0490254185
 10
140.0303009958
 20
124.0383676303
 10
140.0200548064
 20
124.0263838766
 10
140.0130591212
 20
124.0129761218
 10
140.0094470517
 20
123.9982424015
 10
140.0097690035
 20
123.9823435189
 10
140.0142084451
 20
123.9653330752
 10
140.022581908
 20
123.9471574692
 10
140.0348893922
 20
123.9278167009
  0
LWPOLYLINE
  5
4D6
100
AcDbEntity
  8
ASSI
100
AcDbPolyline
 62
250
  6
CONTINUOUS
 90
10
 70
0
 10
143.0228238338
 20
123.7950613721
 10
143.008139784
 20
123.7943415144
 10
142.9929237649
 20
123.7926661913
 10
142.9771892094
 20
123.7899809709
 10
142.9610329097
 20
123.7862580949
 10
142.9443993449
 20
123.7814311386
 10
142.9270715219
 20
123.7753439781
 10
142.9089933557
 20
123.767861707
 10
142.8902798352
 20
123.7589232675
 10
142.8709752891
 20
123.7484409733
  0
LWPOLYLINE
  5
4D7
100
AcDbEntity
  8
ASSI
100
AcDbPolyline
 62
250
  6
CONTINUOUS
 90
10
 70
0
 10
142.9413635384
 20
124.0505617688
 10
142.9209509837
 20
124.0495699709
 10
142.8998227166
 20
124.0471021814
 10
142.877978737
 20
124.0431584003
 10
142.8554981986
 20
124.037878183
 10
142.8323019478
 20
124.0311219741
 10
142.8081525232
 20
124.0224711071
 10
142.7829707711
 20
124.0117860266
 10
142.7568358454
 20
123.9992062881
 10
142.7297477459
 20
123.9847318916
  0
LWPOLYLINE
  5
4D8
100
AcDbEntity
  8
ASSI
100
AcDbPolyline
 62
7
  6
CONTINUOUS
 90
17
 70
0
 10
143.2033537799
 20
122.3497989974
 10
143.1864114162
 20
122.3491219342
 10
143.1553774128
 20
122.3489213169
 10
143.1211935973
 20
122.349974459
 10
143.0842883106
 20
122.3523517637
 10
143.0452197734
 20
122.3560644838
 10
143.0042631426
 20
122.3611087691
 10
142.961627526
 20
122.3674855483
 10
142.9176566421
 20
122.3751678182
 10
142.8726348375
 20
122.3841186625
 10
142.8268103074
 20
122.3943033825
 10
142.7804446958
 20
122.4056797547
 10
142.7338366264
 20
122.4181849346
 10
142.6872689517
 20
122.4317528257
 10
142.6410179646
 20
122.4463163549
 10
142.595444855
 20
122.4617688286
 10
142.5855194063
 20
122.4652846093
  0
LINE
  5
4D9
100
AcDbEntity
  8
ASSI
100
AcDbLine
 62
250
  6
CONTINUOUS
 10
143.2321413008
 20
122.331555292
 11
143.274417671
 21
122.3326221248
  0
LINE
  5
4DA
100
AcDbEntity
  8
ASSI
100
AcDbLine
 62
250
  6
CONTINUOUS
 10
144.9739765652
 20
121.9108763041
 11
143.2560422429
 21
121.8680310187
  0
LINE
  5
4DB
100
AcDbEntity
  8
ASSI
100
AcDbLine
 62
250
  6
CONTINUOUS
 10
145.2092511759
 20
122.1670085256
 11
143.1724795995
 21
122.1162114384
  0
LINE
  5
4DC
100
AcDbEntity
  8
ASSI
100
AcDbLine
 62
250
  6
CONTINUOUS
 10
144.0374678933
 20
123.8196726349
 11
143.0228238338
 21
123.7950613721
  0
LINE
  5
4DD
100
AcDbEntity
  8
ASSI
100
AcDbLine
 62
250
  6
CONTINUOUS
 10
141.8947622946
 20
123.8722866224
 11
140.3132028137
 21
123.8339242276
  0
LINE
  5
4DE
100
AcDbEntity
  8
ASSI
100
AcDbLine
 62
250
  6
CONTINUOUS
 10
144.2213286665
 20
124.0816086742
 11
142.9413635384
 21
124.0505617688
  0
LINE
  5
4DF
100
AcDbEntity
  8
ASSI
100
AcDbLine
 62
250
  6
CONTINUOUS
 10
141.8133019991
 20
124.1277870191
 11
140.2317425183
 21
124.0894246242
  0
LWPOLYLINE
  5
4E0
100
AcDbEntity
  8
ASSI
100
AcDbPolyline
 62
250
  6
CONTINUOUS
 90
5
 70
0
 10
143.2037867262
 20
122.3498233233
 10
143.2165276433
 20
122.3498488449
 10
143.2362764336
 20
122.347248145
 10
143.255677185
 20
122.3414749345
 10
143.274417671
 20
122.3326221248
  0
LWPOLYLINE
  5
4E1
100
AcDbEntity
  8
ASSI
100
AcDbPolyline
 62
250
  6
CONTINUOUS
 90
5
 70
0
 10
144.7100297186
 20
122.4317610479
 10
144.7226316213
 20
122.4317789581
 10
144.7423800535
 20
122.4291781309
 10
144.7617803813
 20
122.4234049322
 10
144.7805204031
 20
122.4145523006
  0
LWPOLYLINE
  5
4E2
100
AcDbEntity
  8
ASSI
100
AcDbPolyline
 62
250
  6
CONTINUOUS
 90
5
 70
0
 10
139.3699732888
 20
124.2882453064
 10
139.3841345307
 20
124.2881792848
 10
139.4033502461
 20
124.2854445898
 10
139.4222196504
 20
124.27970091
 10
139.440454403
 20
124.2710360136
  0
LWPOLYLINE
  5
4E3
100
AcDbEntity
  8
ASSI
100
AcDbPolyline
 62
250
  6
CONTINUOUS
 90
6
 70
0
 10
140.2197507063
 20
123.8471973023
 10
140.2026935296
 20
123.8476544992
 10
140.1879078977
 20
123.8469464778
 10
140.1754585028
 20
123.8452097334
 10
140.1653487854
 20
123.8424973075
 10
140.1578672485
 20
123.8387145013
  0
LWPOLYLINE
  5
4E4
100
AcDbEntity
  8
ASSI
100
AcDbPolyline
 62
250
  6
CONTINUOUS
 90
3
 70
0
 10
143.1434867266
 20
122.334344446
 10
143.1884976527
 20
122.3321293991
 10
143.2321413008
 20
122.331555292
  0
LWPOLYLINE
  5
4E5
100
AcDbEntity
  8
ASSI
100
AcDbPolyline
 62
7
  6
CONTINUOUS
 90
10
 70
0
 10
147.2997685478
 20
121.6728589169
 10
147.2782548148
 20
121.6741049888
 10
147.2571242133
 20
121.6741158877
 10
147.2363767434
 20
121.6728916136
 10
147.2157751374
 20
121.670382675
 10
147.1955566628
 20
121.6666385635
 10
147.176433123
 20
121.6618077537
 10
147.1586417856
 20
121.6559397373
 10
147.1419453828
 20
121.6489850227
 10
147.1263439148
 20
121.6409436099
  0
LWPOLYLINE
  5
4E6
100
AcDbEntity
  8
RACCORDO
100
AcDbPolyline
 62
7
  6
CONTINUOUS
 90
9
 70
0
 10
148.0980626683
 20
120.6118737781
 10
148.1249650241
 20
120.6089184322
 10
148.150901254
 20
120.6046460311
 10
148.1757486911
 20
120.5990940683
 10
148.1993761733
 20
120.59231008
 10
148.2217272922
 20
120.5843939856
 10
148.2427962074
 20
120.5754308867
 10
148.2625348173
 20
120.5654505163
 10
148.268123744
 20
120.5623010136
  0
LWPOLYLINE
  5
4E7
100
AcDbEntity
  8
ASSI
100
AcDbPolyline
 62
250
  6
CONTINUOUS
 90
24
 70
0
 10
147.297527221
 20
123.0738954545
 10
147.3253726209
 20
123.070695312
 10
147.3533733008
 20
123.069045608
 10
147.3817856167
 20
123.0689583341
 10
147.4103532127
 20
123.0704214987
 10
147.438307021
 20
123.0733991261
 10
147.4656254619
 20
123.0779305393
 10
147.4923301151
 20
123.0839764153
 10
147.5177166515
 20
123.0913828101
 10
147.5417580361
 20
123.1001888143
 10
147.564481304
 20
123.1103553372
 10
147.5852632314
 20
123.1216111628
 10
147.6040496878
 20
123.133989312
 10
147.6208948037
 20
123.1474567638
 10
147.6353377471
 20
123.1616432392
 10
147.6473073343
 20
123.176565076
 10
147.6568747489
 20
123.1922059364
 10
147.6637927098
 20
123.2081465277
 10
147.6679905625
 20
123.2243938636
 10
147.6695389613
 20
123.2409409304
 10
147.6684025889
 20
123.2573473953
 10
147.6645696725
 20
123.2734664807
 10
147.6580519847
 20
123.2894449641
 10
147.6488495256
 20
123.3052828457
  0
LWPOLYLINE
  5
4E8
100
AcDbEntity
  8
ASSI
100
AcDbPolyline
 62
250
  6
CONTINUOUS
 90
16
 70
0
 10
143.0298279369
 20
121.7577517994
 10
143.0160648644
 20
121.7594146488
 10
143.0009310338
 20
121.761754736
 10
142.9845865524
 20
121.7647473047
 10
142.9672040079
 20
121.7683607675
 10
142.9489675951
 20
121.7725568456
 10
142.9300713108
 20
121.7772908703
 10
142.9107158747
 20
121.7825124737
 10
142.8911053707
 20
121.7881665191
 10
142.8714461046
 20
121.7941934966
 10
142.8519383007
 20
121.8005322379
 10
142.8327962463
 20
121.8071133306
 10
142.8142432196
 20
121.8138593882
 10
142.7964794535
 20
121.8206961045
 10
142.7796819233
 20
121.8275538053
 10
142.7640235587
 20
121.8343604792
  0
LWPOLYLINE
  5
4E9
100
AcDbEntity
  8
ASSI
100
AcDbPolyline
 62
250
  6
CONTINUOUS
 90
13
 70
0
 10
142.7584429428
 20
120.8841219581
 10
142.7410332798
 20
120.8863050749
 10
142.7215463476
 20
120.8895356279
 10
142.7003036142
 20
120.8937603246
 10
142.6776555124
 20
120.8989094725
 10
142.6539756603
 20
120.9048981285
 10
142.6296546976
 20
120.9116274996
 10
142.6050938395
 20
120.9189865742
 10
142.5806982597
 20
120.926853952
 10
142.5568704075
 20
120.9350998466
 10
142.5340033654
 20
120.9435882277
 10
142.5124743647
 20
120.9521790651
 10
142.4926385646
 20
120.9607306379
  0
LWPOLYLINE
  5
4EA
100
AcDbEntity
  8
ASSI
100
AcDbPolyline
 62
250
  6
CONTINUOUS
 90
4
 70
0
 10
142.5854897523
 20
122.4652948365
 10
142.5848764405
 20
122.465381217
 10
142.5819528999
 20
122.4638513818
 10
142.5780446107
 20
122.459430751
  0
LWPOLYLINE
  5
4EB
100
AcDbEntity
  8
ASSI
100
AcDbPolyline
 62
250
  6
CONTINUOUS
 90
24
 70
0
 10
147.2033564365
 20
122.8064416575
 10
147.2437871986
 20
122.7993070651
 10
147.2851173108
 20
122.7941700519
 10
147.3270512904
 20
122.7910673452
 10
147.369289338
 20
122.7900211284
 10
147.4115294787
 20
122.7910388824
 10
147.4534697213
 20
122.7941133317
 10
147.4948102257
 20
122.7992224977
 10
147.5352554281
 20
122.8063298535
 10
147.5745161545
 20
122.8153845827
 10
147.6123117065
 20
122.8263219446
 10
147.648371884
 20
122.8390637448
 10
147.6824388972
 20
122.8535188934
 10
147.7142691901
 20
122.869584047
 10
147.7436351943
 20
122.8871443503
 10
147.7703269691
 20
122.9060742655
 10
147.7941536923
 20
122.9262384677
 10
147.8149450009
 20
122.9474927884
 10
147.8325522279
 20
122.9696852489
 10
147.8468494938
 20
122.9926571752
 10
147.8577345977
 20
123.0162443415
 10
147.8651297265
 20
123.0402781196
 10
147.8689820118
 20
123.0645866516
 10
147.8695811084
 20
123.0787148128
  0
LWPOLYLINE
  5
4EC
100
AcDbEntity
  8
ASSI
100
AcDbPolyline
 62
250
  6
CONTINUOUS
 90
27
 70
0
 10
145.3003705193
 20
121.9743826188
 10
145.292865931
 20
121.9758152577
 10
145.2854003415
 20
121.9770386518
 10
145.277977126
 20
121.9780525543
 10
145.2706487862
 20
121.9788495481
 10
145.2633681069
 20
121.9794367696
 10
145.2559879072
 20
121.9798359001
 10
145.2484745162
 20
121.9800575627
 10
145.2408636503
 20
121.980091077
 10
145.2331114237
 20
121.9799262023
 10
145.225218559
 20
121.9795655582
 10
145.217184036
 20
121.9790065312
 10
145.2089606622
 20
121.9782310478
 10
145.2005413141
 20
121.9772391823
 10
145.19192987
 20
121.9760309673
 10
145.1830946102
 20
121.9745883217
 10
145.1740261568
 20
121.9729079218
 10
145.1647268972
 20
121.9709935485
 10
145.1551815302
 20
121.9688379339
 10
145.1453835629
 20
121.9664366194
 10
145.1353284822
 20
121.963795391
 10
145.1250030812
 20
121.960922639
 10
145.1144043963
 20
121.9578154692
 10
145.1035211615
 20
121.9544796595
 10
145.092327781
 20
121.9509369789
 10
145.0808262032
 20
121.9471889627
 10
145.0567911187
 20
121.9391123929
  0
LWPOLYLINE
  5
4ED
100
AcDbEntity
  8
ASSI
100
AcDbPolyline
 62
250
  6
CONTINUOUS
 90
5
 70
0
 10
140.3132028137
 20
123.8339242276
 10
140.2860637292
 20
123.8392343697
 10
140.2614179421
 20
123.8431151852
 10
140.2392870962
 20
123.8457011933
 10
140.2197507063
 20
123.8471973023
  0
LWPOLYLINE
  5
4EE
100
AcDbEntity
  8
ASSI
100
AcDbPolyline
 62
250
  6
CONTINUOUS
 90
21
 70
0
 10
145.3156000883
 20
121.8275895899
 10
145.3121046902
 20
121.8283168756
 10
145.3086335027
 20
121.8287750149
 10
145.3052105576
 20
121.8289819177
 10
145.3018202984
 20
121.8289394044
 10
145.2983977511
 20
121.8286297295
 10
145.2949109902
 20
121.828068799
 10
145.2913761201
 20
121.8272530175
 10
145.2877855966
 20
121.8261335604
 10
145.2841204545
 20
121.8247271885
 10
145.2803713426
 20
121.823033656
 10
145.2765319429
 20
121.8209822925
 10
145.2725698334
 20
121.8185922059
 10
145.2684689426
 20
121.8158680755
 10
145.2642294351
 20
121.8127244101
 10
145.259804999
 20
121.8091833543
 10
145.2551661145
 20
121.805259074
 10
145.250314886
 20
121.8008640011
 10
145.2451885264
 20
121.7960260753
 10
145.2397383977
 20
121.7907710561
 10
145.2277624785
 20
121.7788069435
  0
LINE
  5
4EF
100
AcDbEntity
  8
ASSI
100
AcDbLine
 62
250
  6
CONTINUOUS
 10
142.5351733939
 20
122.4711086258
 11
142.5780446104
 21
122.4594307511
  0
LWPOLYLINE
  5
4F0
100
AcDbEntity
  8
ASSI
100
AcDbPolyline
 62
250
  6
CONTINUOUS
 90
3
 70
0
 10
142.4124932866
 20
122.5041283388
 10
142.4524123092
 20
122.4928947975
 10
142.5351733939
 20
122.4711086258
  0
LINE
  5
4F1
100
AcDbEntity
  8
ASSI
100
AcDbLine
 62
250
  6
CONTINUOUS
 10
145.3191154044
 20
121.8265835854
 11
145.3156000883
 21
121.8275895899
  0
LWPOLYLINE
  5
4F2
100
AcDbEntity
  8
ASSI
100
AcDbPolyline
 62
250
  6
CONTINUOUS
 90
11
 70
0
 10
142.667521946
 20
122.4294495014
 10
142.7133100707
 20
122.4156317039
 10
142.7598897198
 20
122.4025331721
 10
142.8071690068
 20
122.3902165253
 10
142.8548722723
 20
122.3788696214
 10
142.9031282733
 20
122.3684507861
 10
142.9518082528
 20
122.3590016938
 10
143.0002502809
 20
122.3508352256
 10
143.0486101564
 20
122.3439362364
 10
143.0967320805
 20
122.3383198713
 10
143.1434867266
 20
122.334344446
  0
LINE
  5
4F3
100
AcDbEntity
  8
SUPERFICI
100
AcDbLine
 62
7
  6
CONTINUOUS
 10
135.5009067022
 20
123.4078477248
 11
134.9989337648
 21
123.5702093459
  0
LINE
  5
4F4
100
AcDbEntity
  8
ASSI
100
AcDbLine
 62
250
  6
CONTINUOUS
 10
142.6224334593
 20
122.4440491838
 11
142.667521946
 21
122.4294495014
  0
LWPOLYLINE
  5
4F5
100
AcDbEntity
  8
ASSI
100
AcDbPolyline
 62
250
  6
CONTINUOUS
 90
3
 70
0
 10
142.3378698657
 20
122.5284296278
 10
142.3739308365
 20
122.5160150829
 10
142.4124932866
 20
122.5041283388
  0
LINE
  5
4F6
100
AcDbEntity
  8
ASSI
100
AcDbLine
 62
7
  6
CONTINUOUS
 10
142.5855194063
 20
122.4652846093
 11
142.5854897523
 21
122.4652948365
  0
LINE
  5
4F7
100
AcDbEntity
  8
ASSI
100
AcDbLine
 62
250
  6
CONTINUOUS
 10
142.5780446104
 20
122.4594307511
 11
142.6224334593
 21
122.4440491838
  0
LINE
  5
4F8
100
AcDbEntity
  8
ASSI
100
AcDbLine
 62
7
  6
CONTINUOUS
 10
142.585489753
 20
122.4652948362
 11
142.5190728545
 21
122.4885891053
  0
LWPOLYLINE
  5
4F9
100
AcDbEntity
  8
ASSI
100
AcDbPolyline
 62
7
  6
CONTINUOUS
 90
8
 70
0
 10
142.5190728545
 20
122.4885891053
 10
142.4843435675
 20
122.5008921684
 10
142.4516382067
 20
122.5129877406
 10
142.4210731662
 20
122.5250018789
 10
142.3925708433
 20
122.5370981059
 10
142.3664972084
 20
122.5492038799
 10
142.3429240801
 20
122.5612179299
 10
142.3261453017
 20
122.5705324834
  0
LWPOLYLINE
  5
4FA
100
AcDbEntity
  8
ASSI
100
AcDbPolyline
 62
250
  6
CONTINUOUS
 90
8
 70
0
 10
135.0600215269
 20
125.1029732373
 10
135.0487369451
 20
125.1072242374
 10
135.0365489086
 20
125.1095490179
 10
135.0235880061
 20
125.109922657
 10
135.0099931247
 20
125.1083411453
 10
134.995909933
 20
125.1048214288
 10
134.981489317
 20
125.0994012181
 10
134.966885785
 20
125.0921385866
  0
LWPOLYLINE
  5
4FB
100
AcDbEntity
  8
RACCORDO
100
AcDbPolyline
 62
250
  6
CONTINUOUS
 90
7
 70
0
 10
140.0689570039
 20
125.2963971302
 10
140.0593756353
 20
125.3006677386
 10
140.048051566
 20
125.3030739586
 10
140.0358222886
 20
125.3031948522
 10
140.0228924317
 20
125.3010283965
 10
140.0094783466
 20
125.2966108422
 10
139.995804487
 20
125.2900161068
  0
LWPOLYLINE
  5
4FC
100
AcDbEntity
  8
RACCORDO
100
AcDbPolyline
 62
250
  6
CONTINUOUS
 90
10
 70
0
 10
146.1318898574
 20
119.5679690096
 10
146.1190123217
 20
119.5742449312
 10
146.1044924837
 20
119.5791832163
 10
146.0887426797
 20
119.5826436368
 10
146.0722101737
 20
119.5845279333
 10
146.0553644462
 20
119.584782606
 10
146.0386838621
 20
119.5834004304
 10
146.0226420994
 20
119.580420662
 10
146.007694699
 20
119.5759279234
 10
145.9942661186
 20
119.5700498011
  0
LWPOLYLINE
  5
4FD
100
AcDbEntity
  8
ASSI
100
AcDbPolyline
 62
250
  6
CONTINUOUS
 90
7
 70
0
 10
142.3260622384
 20
122.5705805229
 10
142.3188612467
 20
122.5741784195
 10
142.3060428203
 20
122.5782280784
 10
142.2921739402
 20
122.5799026221
 10
142.2774367421
 20
122.5791800515
 10
142.262024772
 20
122.5760698483
 10
142.2461404362
 20
122.570612852
  0
LWPOLYLINE
  5
4FE
100
AcDbEntity
  8
ASSI
100
AcDbPolyline
 62
250
  6
CONTINUOUS
 90
7
 70
0
 10
140.248282265
 20
123.7702646374
 10
140.2410923151
 20
123.7738561438
 10
140.2282738564
 20
123.7779057933
 10
140.2144049473
 20
123.7795803324
 10
140.1996677288
 20
123.7788577693
 10
140.1842557456
 20
123.7757475933
 10
140.1683714039
 20
123.7702906507
  0
LWPOLYLINE
  5
4FF
100
AcDbEntity
  8
ASSI
100
AcDbPolyline
 62
250
  6
CONTINUOUS
 90
4
 70
0
 10
142.2461400622
 20
122.5706130679
 10
142.2741340385
 20
122.555512309
 10
142.3047151291
 20
122.5414859548
 10
142.3378698657
 20
122.5284296278
  0
LWPOLYLINE
  5
500
100
AcDbEntity
  8
RACCORDO
100
AcDbPolyline
 62
7
  6
CONTINUOUS
 90
13
 70
0
 10
140.0689705451
 20
125.2963893088
 10
140.0141427446
 20
125.3263015949
 10
139.9457530559
 20
125.3587581213
 10
139.8776086464
 20
125.3857216993
 10
139.8098518051
 20
125.4071053284
 10
139.742812413
 20
125.4227916755
 10
139.6770273912
 20
125.4326895351
 10
139.6126517027
 20
125.4368234817
 10
139.5499572047
 20
125.4352263102
 10
139.4896627553
 20
125.4280273276
 10
139.4321561715
 20
125.4154839313
 10
139.3775001822
 20
125.3978476686
 10
139.3525324312
 20
125.3877369085
  0
LWPOLYLINE
  5
501
100
AcDbEntity
  8
RACCORDO
100
AcDbPolyline
 62
250
  6
CONTINUOUS
 90
11
 70
0
 10
145.0397928757
 20
120.2842206606
 10
145.0274485203
 20
120.2910890295
 10
145.0151687365
 20
120.2965637999
 10
145.0030580265
 20
120.3006064283
 10
144.9911904827
 20
120.3031957412
 10
144.9796961192
 20
120.3043013688
 10
144.968746486
 20
120.3039206962
 10
144.9584014309
 20
120.3020856199
 10
144.9487431373
 20
120.2988495262
 10
144.9399273035
 20
120.2943316576
 10
144.9363403281
 20
120.2919781969
  0
LINE
  5
502
100
AcDbEntity
  8
RACCORDO
100
AcDbLine
 62
250
  6
CONTINUOUS
 10
145.8530385754
 20
119.8146630811
 11
145.0397931058
 21
120.2842208229
  0
LINE
  5
503
100
AcDbEntity
  8
RACCORDO
100
AcDbLine
 62
250
  6
CONTINUOUS
 10
145.9200485426
 20
119.9348889295
 11
145.1857404453
 21
120.3588692219
  0
LINE
  5
504
100
AcDbEntity
  8
ASSI
100
AcDbLine
 62
250
  6
CONTINUOUS
 10
139.0274693649
 20
123.9918000407
 11
142.7640235587
 21
121.8343604792
  0
LINE
  5
505
100
AcDbEntity
  8
ASSI
100
AcDbLine
 62
250
  6
CONTINUOUS
 10
139.1499438521
 20
124.1441623022
 11
142.8864980459
 21
121.9867227408
  0
LINE
  5
506
100
AcDbEntity
  8
ASSI
100
AcDbLine
 62
250
  6
CONTINUOUS
 10
145.4312189199
 20
120.6750140127
 11
145.5487811468
 21
120.6071350563
  0
LINE
  5
507
100
AcDbEntity
  8
ASSI
100
AcDbLine
 62
250
  6
CONTINUOUS
 10
143.0228934718
 20
122.0682847484
 11
139.291204292
 21
124.2229153118
  0
LINE
  5
508
100
AcDbEntity
  8
ASSI
100
AcDbLine
 62
250
  6
CONTINUOUS
 10
140.1683714039
 20
123.7702906507
 11
142.2461400622
 21
122.5706130679
  0
LINE
  5
509
100
AcDbEntity
  8
ASSI
100
AcDbLine
 62
7
  6
CONTINUOUS
 10
140.2482934207
 20
123.7702581977
 11
142.3260622384
 21
122.5705805229
  0
LINE
  5
50A
100
AcDbEntity
  8
ASSI
100
AcDbLine
 62
250
  6
CONTINUOUS
 10
143.1724795995
 20
122.1162114384
 11
142.5780446104
 21
122.4594307511
  0
LINE
  5
50B
100
AcDbEntity
  8
ASSI
100
AcDbLine
 62
250
  6
CONTINUOUS
 10
140.0348893922
 20
123.9278167009
 11
139.440454403
 21
124.2710360136
  0
LINE
  5
50C
100
AcDbEntity
  8
ASSI
100
AcDbLine
 62
7
  6
CONTINUOUS
 10
139.1754954616
 20
124.8389096618
 11
140.0646671077
 21
124.3255130973
  0
LINE
  5
50D
100
AcDbEntity
  8
ASSI
100
AcDbLine
 62
7
  6
CONTINUOUS
 10
145.9184704697
 20
120.9456004015
 11
148.3865329261
 21
119.5205720712
  0
LINE
  5
50E
100
AcDbEntity
  8
ASSI
100
AcDbLine
 62
250
  6
CONTINUOUS
 10
145.2092511759
 20
122.1670085256
 11
144.7805204031
 21
122.4145523006
  0
LINE
  5
50F
100
AcDbEntity
  8
ASSI
100
AcDbLine
 62
250
  6
CONTINUOUS
 10
141.8133019991
 20
124.1277870191
 11
141.3845712264
 21
124.375330794
  0
LINE
  5
510
100
AcDbEntity
  8
RACCORDO
100
AcDbLine
 62
250
  6
CONTINUOUS
 10
149.1962717119
 20
119.9777816401
 11
148.0980626683
 21
120.6118737781
  0
LINE
  5
511
100
AcDbEntity
  8
RACCORDO
100
AcDbLine
 62
250
  6
CONTINUOUS
 10
139.995804487
 20
125.2900161068
 11
141.0940135306
 21
124.6559239688
  0
LINE
  5
512
100
AcDbEntity
  8
RACCORDO
100
AcDbLine
 62
7
  6
CONTINUOUS
 10
149.2694242284
 20
119.9841626637
 11
148.2681258539
 21
120.5622997959
  0
LINE
  5
513
100
AcDbEntity
  8
RACCORDO
100
AcDbLine
 62
7
  6
CONTINUOUS
 10
140.0689570039
 20
125.2963971302
 11
141.0702553786
 21
124.7182599978
  0
LINE
  5
514
100
AcDbEntity
  8
ASSI
100
AcDbLine
 62
250
  6
CONTINUOUS
 10
145.0095229105
 20
122.513670379
 11
142.8709752891
 21
123.7484409733
  0
LINE
  5
515
100
AcDbEntity
  8
ASSI
100
AcDbLine
 62
250
  6
CONTINUOUS
 10
145.127415935
 20
122.5798962696
 11
143.0228238338
 21
123.7950613721
  0
LINE
  5
516
100
AcDbEntity
  8
ASSI
100
AcDbLine
 62
250
  6
CONTINUOUS
 10
145.6584575814
 20
122.3105299133
 11
145.2228722995
 21
122.5620313958
  0
LINE
  5
517
100
AcDbEntity
  8
ASSI
100
AcDbLine
 62
250
  6
CONTINUOUS
 10
142.2674588189
 20
124.2684500995
 11
141.8318735371
 21
124.519951582
  0
LINE
  5
518
100
AcDbEntity
  8
ASSI
100
AcDbLine
 62
7
  6
CONTINUOUS
 10
145.6606665436
 20
122.8824580777
 11
144.0374678933
 21
123.8196726349
  0
LINE
  5
519
100
AcDbEntity
  8
RACCORDO
100
AcDbLine
 62
250
  6
CONTINUOUS
 10
149.2439370924
 20
119.9489593592
 11
149.1962717119
 21
119.9777816401
  0
LWPOLYLINE
  5
51A
100
AcDbEntity
  8
ASSI
100
AcDbPolyline
 62
7
  6
CONTINUOUS
 90
11
 70
0
 10
140.2482822648
 20
123.7702646375
 10
140.2266922955
 20
123.7834264152
 10
140.2087034441
 20
123.7955855271
 10
140.1932787051
 20
123.807074909
 10
140.1799820298
 20
123.817967316
 10
140.1686881024
 20
123.8280750083
 10
140.1592526352
 20
123.8372520334
 10
140.1512914749
 20
123.8456561429
 10
140.1446120034
 20
123.853283228
 10
140.1392699918
 20
123.8598498165
 10
140.135843003
 20
123.8643459558
  0
LINE
  5
51B
100
AcDbEntity
  8
ASSI
100
AcDbLine
 62
250
  6
CONTINUOUS
 10
140.1409166467
 20
123.787725387
 11
140.1683714039
 21
123.7702906507
  0
LWPOLYLINE
  5
51C
100
AcDbEntity
  8
RACCORDO
100
AcDbPolyline
 62
7
  6
CONTINUOUS
 90
8
 70
0
 10
141.0702619099
 20
124.7182562266
 10
141.0712767202
 20
124.7175943634
 10
141.0746097966
 20
124.7142684627
 10
141.0778738942
 20
124.7091986563
 10
141.0811409989
 20
124.7023348791
 10
141.0843135204
 20
124.6936498905
 10
141.0874135453
 20
124.6830622857
 10
141.0906058784
 20
124.6705004515
  0
LINE
  5
51D
100
AcDbEntity
  8
RACCORDO
100
AcDbLine
 62
250
  6
CONTINUOUS
 10
149.2936943537
 20
119.9160455012
 11
149.2439370924
 21
119.9489593592
  0
LWPOLYLINE
  5
51E
100
AcDbEntity
  8
ASSI
100
AcDbPolyline
 62
250
  6
CONTINUOUS
 90
10
 70
0
 10
145.4035853776
 20
121.9292423162
 10
145.3933647711
 20
121.9368785619
 10
145.3826133509
 20
121.9439000278
 10
145.3714077084
 20
121.950260703
 10
145.359715067
 20
121.955884374
 10
145.3476972232
 20
121.9607965169
 10
145.3356979547
 20
121.9651079522
 10
145.3238454001
 20
121.968839724
 10
145.3120641909
 20
121.9719358528
 10
145.3003711366
 20
121.9743864185
  0
LWPOLYLINE
  5
51F
100
AcDbEntity
  8
RACCORDO
100
AcDbPolyline
 62
250
  6
CONTINUOUS
 90
5
 70
0
 10
147.8323839838
 20
126.5644188816
 10
147.8399893885
 20
126.5540747242
 10
147.8473007598
 20
126.5430061658
 10
147.8542512663
 20
126.531256026
 10
147.860790864
 20
126.5188407348
  0
LWPOLYLINE
  5
520
100
AcDbEntity
  8
ASSI
100
AcDbPolyline
 62
250
  6
CONTINUOUS
 90
12
 70
0
 10
147.8142645485
 20
123.2544068289
 10
147.8100855792
 20
123.2601661527
 10
147.7994718061
 20
123.272096207
 10
147.7872077859
 20
123.2826007747
 10
147.7734278879
 20
123.291564763
 10
147.7582830873
 20
123.2988899605
 10
147.7419393146
 20
123.3044961106
 10
147.7245756344
 20
123.3083217917
 10
147.7063822839
 20
123.310325089
 10
147.6875585914
 20
123.3104840529
 10
147.668310794
 20
123.3087969407
 10
147.6488497743
 20
123.305282236
  0
LINE
  5
521
100
AcDbEntity
  8
ASSI
100
AcDbLine
 62
7
  6
CONTINUOUS
 10
147.8143025968
 20
123.2543508086
 11
147.8142645485
 21
123.2544068289
  0
LWPOLYLINE
  5
522
100
AcDbEntity
  8
RACCORDO
100
AcDbPolyline
 62
250
  6
CONTINUOUS
 90
5
 70
0
 10
153.3871991598
 20
121.9325684542
 10
153.3812451737
 20
121.9438938898
 10
153.3749684827
 20
121.9550064278
 10
153.3683731862
 20
121.9659054591
 10
153.3614480798
 20
121.9766083022
  0
LWPOLYLINE
  5
523
100
AcDbEntity
  8
RACCORDO
100
AcDbPolyline
 62
250
  6
CONTINUOUS
 90
4
 70
0
 10
150.9583938552
 20
124.7141130735
 10
150.9535750327
 20
124.7258716363
 10
150.9480328041
 20
124.7376662434
 10
150.9417458939
 20
124.7494314407
  0
LINE
  5
524
100
AcDbEntity
  8
SUPERFICI
100
AcDbLine
 62
250
  6
CONTINUOUS
 10
143.4275705822
 20
74.1801901057
 11
145.8316238593
 21
75.4265856524
  0
LINE
  5
525
100
AcDbEntity
  8
SUPERFICI
100
AcDbLine
 62
7
  6
CONTINUOUS
 10
143.3135299618
 20
73.9457125128
 11
145.7215079719
 21
75.1941428604
  0
LWPOLYLINE
  5
526
100
AcDbEntity
  8
SUPERFICI
100
AcDbPolyline
 62
250
  6
CONTINUOUS
 90
16
 70
0
 10
143.4275705822
 20
74.1801901057
 10
143.3883436094
 20
74.1608177374
 10
143.3458666409
 20
74.1438837694
 10
143.3005924174
 20
74.1295686577
 10
143.2529980237
 20
74.1180238074
 10
143.2035957812
 20
74.1093740215
 10
143.1529295815
 20
74.1037128779
 10
143.101551303
 20
74.1010978426
 10
143.049997343
 20
74.1015520815
 10
142.998800118
 20
74.1050691934
 10
142.9484350803
 20
74.1116226354
 10
142.8995104681
 20
74.1211394961
 10
142.8527239263
 20
74.1334651085
 10
142.8086001604
 20
74.1484157225
 10
142.7675085625
 20
74.1658183644
 10
142.7298399038
 20
74.1854638444
  0
LWPOLYLINE
  5
527
100
AcDbEntity
  8
RACCORDO
100
AcDbPolyline
 62
250
  6
CONTINUOUS
 90
11
 70
0
 10
139.4286650083
 20
125.4112804791
 10
139.4741723477
 20
125.4196445925
 10
139.5212816482
 20
125.4241515445
 10
139.5702544528
 20
125.4247707469
 10
139.6222088388
 20
125.4212720209
 10
139.6774380208
 20
125.4131980585
 10
139.7355225045
 20
125.400171664
 10
139.7965663524
 20
125.3817524391
 10
139.8604845034
 20
125.3575003775
 10
139.9269865061
 20
125.3270411641
 10
139.9958044912
 20
125.2900161091
  0
LINE
  5
528
100
AcDbEntity
  8
ASSI
100
AcDbLine
 62
250
  6
CONTINUOUS
 10
146.2804155151
 20
126.614553703
 11
146.2629349021
 21
126.6113951908
  0
LWPOLYLINE
  5
529
100
AcDbEntity
  8
ASSI
100
AcDbPolyline
 62
250
  6
CONTINUOUS
 90
5
 70
0
 10
143.8179411752
 20
125.6629542175
 10
143.7806960284
 20
125.657547731
 10
143.7426719624
 20
125.6543043768
 10
143.7039026692
 20
125.6531314441
 10
143.6656026938
 20
125.6540320166
  0
LWPOLYLINE
  5
52A
100
AcDbEntity
  8
ASSI
100
AcDbPolyline
 62
7
  6
CONTINUOUS
 90
6
 70
0
 10
146.3582896758
 20
126.628226797
 10
146.3478680583
 20
126.6271770421
 10
146.3223310022
 20
126.6238518941
 10
146.2972655344
 20
126.6194617396
 10
146.272660515
 20
126.6139412089
 10
146.2628735873
 20
126.6113784292
  0
LWPOLYLINE
  5
52B
100
AcDbEntity
  8
ASSI
100
AcDbPolyline
 62
250
  6
CONTINUOUS
 90
12
 70
0
 10
146.4133021349
 20
126.607939711
 10
146.4080483909
 20
126.6074225089
 10
146.4028550451
 20
126.606847746
 10
146.3977220975
 20
126.6062154223
 10
146.392671576
 20
126.6055308038
 10
146.3876814526
 20
126.6047886245
 10
146.3826856435
 20
126.6039730866
 10
146.3776711455
 20
126.6030858352
 10
146.3726509619
 20
126.6021252252
 10
146.3675980183
 20
126.6010705228
 10
146.3625032902
 20
126.5999148168
 10
146.3573758023
 20
126.5986650184
  0
LINE
  5
52C
100
AcDbEntity
  8
RACCORDO
100
AcDbLine
 62
250
  6
CONTINUOUS
 10
147.5988662659
 20
126.717713643
 11
146.4133021349
 21
126.607939711
  0
LINE
  5
52D
100
AcDbEntity
  8
ASSI
100
AcDbLine
 62
7
  6
CONTINUOUS
 10
147.5401452276
 20
126.7376573513
 11
146.3582600413
 21
126.6282240606
  0
LINE
  5
52E
100
AcDbEntity
  8
RACCORDO
100
AcDbLine
 62
250
  6
CONTINUOUS
 10
147.5401414369
 20
126.7376570003
 11
147.544552074
 21
126.7379113824
  0
LWPOLYLINE
  5
52F
100
AcDbEntity
  8
ASSI
100
AcDbPolyline
 62
250
  6
CONTINUOUS
 90
7
 70
0
 10
143.597665964
 20
125.7011781398
 10
143.59125263
 20
125.7010505808
 10
143.5844390817
 20
125.6987847474
 10
143.5772999693
 20
125.6944054642
 10
143.5699135105
 20
125.6879607113
 10
143.5623606328
 20
125.6795210985
 10
143.5547240872
 20
125.6691790917
  0
LWPOLYLINE
  5
530
100
AcDbEntity
  8
ASSI
100
AcDbPolyline
 62
250
  6
CONTINUOUS
 90
6
 70
0
 10
141.3142255382
 20
124.3925472703
 10
141.3236872918
 20
124.3926748743
 10
141.3392694761
 20
124.3912797832
 10
141.3547118601
 20
124.3878990939
 10
141.3698586233
 20
124.3825652029
 10
141.3845578559
 20
124.3753300767
  0
LINE
  5
531
100
AcDbEntity
  8
RACCORDO
100
AcDbLine
 62
250
  6
CONTINUOUS
 10
147.544552074
 20
126.7379113824
 11
147.5527373234
 21
126.7375896026
  0
LWPOLYLINE
  5
532
100
AcDbEntity
  8
ASSI
100
AcDbPolyline
 62
250
  6
CONTINUOUS
 90
23
 70
0
 10
143.4997142002
 20
125.6782470336
 10
143.4718308041
 20
125.6804621076
 10
143.443441225
 20
125.6811240371
 10
143.4148023884
 20
125.6802396209
 10
143.3866850718
 20
125.6778292557
 10
143.3591084535
 20
125.6738532054
 10
143.332053355
 20
125.6683512061
 10
143.3062330188
 20
125.661462862
 10
143.2816720947
 20
125.6531485607
 10
143.2583459327
 20
125.6434479146
 10
143.2368938252
 20
125.6326193661
 10
143.217367864
 20
125.6206288195
 10
143.1997159573
 20
125.6075103704
 10
143.184421121
 20
125.5936247479
 10
143.1715535034
 20
125.5789541833
 10
143.1610429563
 20
125.5635164454
 10
143.1531620513
 20
125.5477255693
 10
143.147980975
 20
125.5315731175
 10
143.1454295408
 20
125.5150675275
 10
143.145569761
 20
125.4986481472
 10
143.1484223063
 20
125.4824614261
 10
143.1539665059
 20
125.4663609147
 10
143.1622023599
 20
125.4503466131
  0
LWPOLYLINE
  5
533
100
AcDbEntity
  8
ASSI
100
AcDbPolyline
 62
250
  6
CONTINUOUS
 90
3
 70
0
 10
143.6656026938
 20
125.6540320166
 10
143.6281768847
 20
125.6570071221
 10
143.5912203935
 20
125.6620557328
  0
LINE
  5
534
100
AcDbEntity
  8
ASSI
100
AcDbLine
 62
250
  6
CONTINUOUS
 10
143.5273483389
 20
125.6744856139
 11
143.4997142002
 21
125.6782470336
  0
LINE
  5
535
100
AcDbEntity
  8
ASSI
100
AcDbLine
 62
250
  6
CONTINUOUS
 10
143.5912203935
 20
125.6620557328
 11
143.5273483389
 21
125.6744856139
  0
LWPOLYLINE
  5
536
100
AcDbEntity
  8
ASSI
100
AcDbPolyline
 62
250
  6
CONTINUOUS
 90
5
 70
0
 10
144.7138632889
 20
126.1609881795
 10
144.6975127644
 20
126.1646287946
 10
144.6819308278
 20
126.1654866751
 10
144.6673553305
 20
126.1635487257
 10
144.6540087613
 20
126.1588445286
  0
LWPOLYLINE
  5
537
100
AcDbEntity
  8
ASSI
100
AcDbPolyline
 62
250
  6
CONTINUOUS
 90
6
 70
0
 10
144.8396998171
 20
126.1843566895
 10
144.8219040398
 20
126.1930271448
 10
144.8038217856
 20
126.1988409551
 10
144.7857284952
 20
126.2017095607
 10
144.7678997775
 20
126.2015892649
 10
144.750419575
 20
126.1984308647
  0
LINE
  5
538
100
AcDbEntity
  8
ASSI
100
AcDbLine
 62
250
  6
CONTINUOUS
 10
148.0708019775
 20
124.2256942877
 11
148.0886492067
 21
124.2166950654
  0
LWPOLYLINE
  5
539
100
AcDbEntity
  8
ASSI
100
AcDbPolyline
 62
250
  6
CONTINUOUS
 90
3
 70
0
 10
144.7478638434
 20
126.1456226643
 10
144.7307328172
 20
126.1546204023
 10
144.7138632889
 20
126.1609881795
  0
LINE
  5
53A
100
AcDbEntity
  8
ASSI
100
AcDbLine
 62
250
  6
CONTINUOUS
 10
148.4740210894
 20
123.9941861702
 11
148.0886492067
 21
124.2166950654
  0
LINE
  5
53B
100
AcDbEntity
  8
ASSI
100
AcDbLine
 62
250
  6
CONTINUOUS
 10
145.1332357261
 20
125.9231137691
 11
144.7478638434
 21
126.1456226643
  0
LINE
  5
53C
100
AcDbEntity
  8
ASSI
100
AcDbLine
 62
250
  6
CONTINUOUS
 10
148.5651978177
 20
124.0333008354
 11
148.1797767425
 21
124.2558381337
  0
LINE
  5
53D
100
AcDbEntity
  8
ASSI
100
AcDbLine
 62
250
  6
CONTINUOUS
 10
145.2251208922
 20
125.9618193911
 11
144.8396998171
 21
126.1843566895
  0
LWPOLYLINE
  5
53E
100
AcDbEntity
  8
ASSI
100
AcDbPolyline
 62
250
  6
CONTINUOUS
 90
13
 70
0
 10
148.4740210894
 20
123.9941861702
 10
148.4917631528
 20
123.9830486234
 10
148.5092343911
 20
123.9695884723
 10
148.5261681134
 20
123.9540111805
 10
148.5423058336
 20
123.9365545287
 10
148.5574012164
 20
123.9174849852
 10
148.571223837
 20
123.8970936384
 10
148.5835626992
 20
123.8756917535
 10
148.5942294555
 20
123.8536060212
 10
148.6030612822
 20
123.8311735708
 10
148.6099233655
 20
123.8087368241
 10
148.6147109585
 20
123.7866382684
 10
148.6173509805
 20
123.7652152288
  0
LWPOLYLINE
  5
53F
100
AcDbEntity
  8
ASSI
100
AcDbPolyline
 62
250
  6
CONTINUOUS
 90
13
 70
0
 10
148.5651978177
 20
124.0333008354
 10
148.5822435708
 20
124.0218542278
 10
148.5984721177
 20
124.0078574116
 10
148.6136362547
 20
123.9915235954
 10
148.6275049916
 20
123.9731015866
 10
148.6398670707
 20
123.9528720015
 10
148.6505341846
 20
123.9311429904
 10
148.6593438449
 20
123.9082455437
 10
148.666161857
 20
123.8845284507
 10
148.6708843646
 20
123.8603529854
 10
148.6734394312
 20
123.8360874047
 10
148.6737881363
 20
123.8121013376
 10
148.6719251684
 20
123.7887601559
  0
LWPOLYLINE
  5
540
100
AcDbEntity
  8
ASSI
100
AcDbPolyline
 62
250
  6
CONTINUOUS
 90
6
 70
0
 10
146.4133021349
 20
126.607939711
 10
146.4008272222
 20
126.6170858383
 10
146.3880155696
 20
126.6236079869
 10
146.3750459842
 20
126.6274151297
 10
146.3620994773
 20
126.6284541317
 10
146.3582896758
 20
126.628226797
  0
LINE
  5
541
100
AcDbEntity
  8
RACCORDO
100
AcDbLine
 62
250
  6
CONTINUOUS
 10
153.2811182587
 20
122.064108848
 11
152.936837147
 21
122.3329874962
  0
LINE
  5
542
100
AcDbEntity
  8
RACCORDO
100
AcDbLine
 62
7
  6
CONTINUOUS
 10
153.3531789933
 20
122.0713000827
 11
153.0088978815
 21
122.340178731
  0
LWPOLYLINE
  5
543
100
AcDbEntity
  8
RACCORDO
100
AcDbPolyline
 62
7
  6
CONTINUOUS
 90
18
 70
0
 10
153.0088710218
 20
122.3401996857
 10
153.003370837
 20
122.3445911279
 10
152.9867538824
 20
122.3590086319
 10
152.9695253859
 20
122.3758299102
 10
152.9520951397
 20
122.3949166537
 10
152.9350337042
 20
122.415825114
 10
152.9186122208
 20
122.4383348205
 10
152.9030762461
 20
122.4622048028
 10
152.8888445128
 20
122.4868143119
 10
152.8760998553
 20
122.5117763562
 10
152.8649282491
 20
122.5368135254
 10
152.8554747901
 20
122.5614207655
 10
152.8477594434
 20
122.5852595339
 10
152.8417418737
 20
122.6080826209
 10
152.8373785904
 20
122.6295397044
 10
152.8345542508
 20
122.6494358626
 10
152.8331332985
 20
122.6675105067
 10
152.8328786724
 20
122.6784980103
  0
LINE
  5
544
100
AcDbEntity
  8
RACCORDO
100
AcDbLine
 62
250
  6
CONTINUOUS
 10
153.292098888
 20
122.0552493051
 11
153.2811182587
 21
122.064108848
  0
LWPOLYLINE
  5
545
100
AcDbEntity
  8
RACCORDO
100
AcDbPolyline
 62
250
  6
CONTINUOUS
 90
16
 70
0
 10
152.936837023
 20
122.3329874243
 10
152.9204901872
 20
122.3468911037
 10
152.9046872821
 20
122.362195493
 10
152.8895597498
 20
122.3787271341
 10
152.8752128159
 20
122.3963251699
 10
152.8617682586
 20
122.4147928255
 10
152.8493553488
 20
122.4338898974
 10
152.8381257376
 20
122.4532799376
 10
152.8280362687
 20
122.4729245738
 10
152.8189597156
 20
122.4930570154
 10
152.810989099
 20
122.5135487844
 10
152.8042267428
 20
122.5342111955
 10
152.7986802246
 20
122.555197684
 10
152.794479457
 20
122.5764167199
 10
152.7918011812
 20
122.597534647
 10
152.7907795351
 20
122.6183051451
  0
LWPOLYLINE
  5
546
100
AcDbEntity
  8
RACCORDO
100
AcDbPolyline
 62
250
  6
CONTINUOUS
 90
3
 70
0
 10
153.312462555
 20
122.0365206616
 10
153.3025536666
 20
122.0460202444
 10
153.292098888
 20
122.0552493051
  0
LWPOLYLINE
  5
547
100
AcDbEntity
  8
RACCORDO
100
AcDbPolyline
 62
250
  6
CONTINUOUS
 90
4
 70
0
 10
152.7078212492
 20
123.1353764006
 10
152.691534403
 20
123.1549770779
 10
152.6738796084
 20
123.1735266757
 10
152.6549101172
 20
123.1907357016
  0
LWPOLYLINE
  5
548
100
AcDbEntity
  8
RACCORDO
100
AcDbPolyline
 62
250
  6
CONTINUOUS
 90
7
 70
0
 10
153.3614480798
 20
121.9766083022
 10
153.3542428936
 20
121.987037229
 10
153.346742907
 20
121.9972133031
 10
153.3388229772
 20
122.0072835281
 10
153.3304931742
 20
122.017194637
 10
153.321758369
 20
122.0269017984
 10
153.312462555
 20
122.0365206616
  0
LWPOLYLINE
  5
549
100
AcDbEntity
  8
RACCORDO
100
AcDbPolyline
 62
250
  6
CONTINUOUS
 90
9
 70
0
 10
150.9347351024
 20
124.7610551828
 10
150.9270343272
 20
124.77241503
 10
150.9186187874
 20
124.7834854852
 10
150.9094207679
 20
124.7942831742
 10
150.8994669148
 20
124.8046801792
 10
150.8887487994
 20
124.8145977401
 10
150.8771182252
 20
124.8240645714
 10
150.8645298
 20
124.8329598809
 10
150.8510718541
 20
124.8410568064
  0
LINE
  5
54A
100
AcDbEntity
  8
RACCORDO
100
AcDbLine
 62
250
  6
CONTINUOUS
 10
150.9417458939
 20
124.7494314407
 11
150.9347351024
 21
124.7610551828
  0
LWPOLYLINE
  5
54B
100
AcDbEntity
  8
RACCORDO
100
AcDbPolyline
 62
250
  6
CONTINUOUS
 90
4
 70
0
 10
152.7486404292
 20
123.0716715848
 10
152.7364694702
 20
123.0934549286
 10
152.7228444532
 20
123.1147651508
 10
152.7078212492
 20
123.1353764006
  0
LWPOLYLINE
  5
54C
100
AcDbEntity
  8
ASSI
100
AcDbPolyline
 62
250
  6
CONTINUOUS
 90
3
 70
0
 10
146.3163375232
 20
126.6118053932
 10
146.2982442328
 20
126.6146739988
 10
146.2804155151
 20
126.614553703
  0
LWPOLYLINE
  5
54D
100
AcDbEntity
  8
RACCORDO
100
AcDbPolyline
 62
250
  6
CONTINUOUS
 90
6
 70
0
 10
147.5527373234
 20
126.7375896026
 10
147.5612189012
 20
126.7362083608
 10
147.5701156671
 20
126.7336530324
 10
147.5794282203
 20
126.7297846835
 10
147.5890374755
 20
126.7245046299
 10
147.5988662659
 20
126.717713643
  0
LWPOLYLINE
  5
54E
100
AcDbEntity
  8
RACCORDO
100
AcDbPolyline
 62
250
  6
CONTINUOUS
 90
4
 70
0
 10
147.6395922822
 20
126.7167487532
 10
147.6270965356
 20
126.7199527077
 10
147.6134249639
 20
126.7202766176
 10
147.5988662659
 20
126.717713643
  0
LWPOLYLINE
  5
54F
100
AcDbEntity
  8
ASSI
100
AcDbPolyline
 62
250
  6
CONTINUOUS
 90
13
 70
0
 10
150.1432083853
 20
124.4543385887
 10
150.1630716155
 20
124.4448130773
 10
150.1821467756
 20
124.4329241793
 10
150.2001676411
 20
124.4188378232
 10
150.216882702
 20
124.4027506067
 10
150.232058673
 20
124.3848870526
 10
150.2454837491
 20
124.3654964755
 10
150.2569705618
 20
124.3448495018
 10
150.2663587944
 20
124.3232342931
 10
150.273517419
 20
124.3009525242
 10
150.2783465255
 20
124.2783151728
 10
150.2807787161
 20
124.2556381794
 10
150.2807800457
 20
124.2332380377
  0
LINE
  5
550
100
AcDbEntity
  8
RACCORDO
100
AcDbLine
 62
250
  6
CONTINUOUS
 10
147.6463296973
 20
126.7135183723
 11
147.6430600287
 21
126.7153625735
  0
LWPOLYLINE
  5
551
100
AcDbEntity
  8
RACCORDO
100
AcDbPolyline
 62
250
  6
CONTINUOUS
 90
5
 70
0
 10
147.8233793497
 20
126.6112922418
 10
147.8165536868
 20
126.6145734633
 10
147.8040579368
 20
126.6177774275
 10
147.7903863548
 20
126.6181013421
 10
147.7758276393
 20
126.6155383639
  0
LWPOLYLINE
  5
552
100
AcDbEntity
  8
ASSI
100
AcDbPolyline
 62
250
  6
CONTINUOUS
 90
3
 70
0
 10
146.3522155545
 20
126.5973211276
 10
146.3344197773
 20
126.6059915829
 10
146.3163375232
 20
126.6118053932
  0
LINE
  5
553
100
AcDbEntity
  8
RACCORDO
100
AcDbLine
 62
250
  6
CONTINUOUS
 10
150.8510718541
 20
124.8410568064
 11
150.8367996845
 21
124.8481714679
  0
LWPOLYLINE
  5
554
100
AcDbEntity
  8
RACCORDO
100
AcDbPolyline
 62
7
  6
CONTINUOUS
 90
8
 70
0
 10
150.707301554
 20
124.9461515847
 10
150.6875149373
 20
124.9560927582
 10
150.667771462
 20
124.9633114763
 10
150.6473572425
 20
124.9681912669
 10
150.6263758695
 20
124.9706209236
 10
150.6051321492
 20
124.9704682482
 10
150.5840167051
 20
124.9676634748
 10
150.5712828972
 20
124.9646275984
  0
LWPOLYLINE
  5
555
100
AcDbEntity
  8
RACCORDO
100
AcDbPolyline
 62
7
  6
CONTINUOUS
 90
10
 70
0
 10
145.843554594
 20
127.1771515304
 10
145.8234142388
 20
127.1875294731
 10
145.8003832071
 20
127.1965367228
 10
145.7769973326
 20
127.2027666561
 10
145.7535017732
 20
127.2061692296
 10
145.7301554508
 20
127.2067508795
 10
145.7073439812
 20
127.2045695477
 10
145.6854344079
 20
127.199762316
 10
145.6646844215
 20
127.1925184241
 10
145.648303626
 20
127.1847114089
  0
LWPOLYLINE
  5
556
100
AcDbEntity
  8
RACCORDO
100
AcDbPolyline
 62
250
  6
CONTINUOUS
 90
8
 70
0
 10
145.7704344744
 20
127.1707518175
 10
145.7516013317
 20
127.1806540724
 10
145.733322401
 20
127.187939863
 10
145.7157844619
 20
127.1926716535
 10
145.699258611
 20
127.1949361728
 10
145.6837564847
 20
127.194893752
 10
145.6690827546
 20
127.1926151463
 10
145.6556380903
 20
127.1882069823
  0
LWPOLYLINE
  5
557
100
AcDbEntity
  8
RACCORDO
100
AcDbPolyline
 62
250
  6
CONTINUOUS
 90
11
 70
0
 10
150.6598383111
 20
124.9503467471
 10
150.652125165
 20
124.9544559616
 10
150.6440761339
 20
124.9581667258
 10
150.6357083208
 20
124.9614071638
 10
150.6270353788
 20
124.9641040297
 10
150.6180948066
 20
124.9661787605
 10
150.6089483429
 20
124.967553566
 10
150.5996358688
 20
124.9681558951
 10
150.5902065931
 20
124.9679127897
 10
150.5807448349
 20
124.9667594094
 10
150.5712766805
 20
124.9646265604
  0
LWPOLYLINE
  5
558
100
AcDbEntity
  8
RACCORDO
100
AcDbPolyline
 62
7
  6
CONTINUOUS
 90
7
 70
0
 10
147.6463296973
 20
126.7135183723
 10
147.6430600287
 20
126.7153625735
 10
147.623473756
 20
126.7247706275
 10
147.6030664166
 20
126.7318195632
 10
147.5820358181
 20
126.73636941
 10
147.5606017025
 20
126.7383121256
 10
147.5397889326
 20
126.7376219623
  0
LINE
  5
559
100
AcDbEntity
  8
RACCORDO
100
AcDbLine
 62
250
  6
CONTINUOUS
 10
152.61402988
 20
123.2193456007
 11
150.987115999
 21
124.1587052855
  0
LINE
  5
55A
100
AcDbEntity
  8
RACCORDO
100
AcDbLine
 62
250
  6
CONTINUOUS
 10
146.6614403717
 20
126.6562961793
 11
145.7704344744
 21
127.1707518175
  0
LINE
  5
55B
100
AcDbEntity
  8
RACCORDO
100
AcDbLine
 62
7
  6
CONTINUOUS
 10
152.6871823967
 20
123.2257266241
 11
151.0281098073
 21
124.1836543442
  0
LINE
  5
55C
100
AcDbEntity
  8
RACCORDO
100
AcDbLine
 62
7
  6
CONTINUOUS
 10
146.7340073103
 20
126.6630153082
 11
145.8435869871
 21
127.1771328432
  0
LINE
  5
55D
100
AcDbEntity
  8
RACCORDO
100
AcDbLine
 62
250
  6
CONTINUOUS
 10
147.8969063454
 20
126.2038411602
 11
150.2156379254
 21
124.8650346064
  0
LINE
  5
55E
100
AcDbEntity
  8
RACCORDO
100
AcDbLine
 62
7
  6
CONTINUOUS
 10
147.9424259807
 20
126.2282960224
 11
150.2748120456
 21
124.8816055402
  0
LINE
  5
55F
100
AcDbEntity
  8
RACCORDO
100
AcDbLine
 62
250
  6
CONTINUOUS
 10
150.8367996845
 20
124.8481714679
 11
150.6598383111
 21
124.9503467471
  0
LINE
  5
560
100
AcDbEntity
  8
RACCORDO
100
AcDbLine
 62
250
  6
CONTINUOUS
 10
147.5988662659
 20
126.717713643
 11
147.7758276393
 21
126.6155383639
  0
LINE
  5
561
100
AcDbEntity
  8
RACCORDO
100
AcDbLine
 62
7
  6
CONTINUOUS
 10
150.8843514033
 20
124.843925341
 11
150.7073900296
 21
124.9461006204
  0
LINE
  5
562
100
AcDbEntity
  8
RACCORDO
100
AcDbLine
 62
7
  6
CONTINUOUS
 10
147.6463296973
 20
126.7135183723
 11
147.8233793497
 21
126.6112922418
  0
LWPOLYLINE
  5
563
100
AcDbEntity
  8
RACCORDO
100
AcDbPolyline
 62
250
  6
CONTINUOUS
 90
8
 70
0
 10
147.7758276393
 20
126.6155383639
 10
147.7842204117
 20
126.6102713783
 10
147.792555116
 20
126.6043277517
 10
147.800796498
 20
126.5977132709
 10
147.8088574757
 20
126.590483841
 10
147.8167556569
 20
126.5826126618
 10
147.8245959927
 20
126.5739544993
 10
147.8323839838
 20
126.5644188816
  0
LINE
  5
564
100
AcDbEntity
  8
RACCORDO
100
AcDbLine
 62
250
  6
CONTINUOUS
 10
152.6348843929
 20
123.2061380142
 11
152.61402988
 21
123.2193456007
  0
LWPOLYLINE
  5
565
100
AcDbEntity
  8
ASSI
100
AcDbPolyline
 62
250
  6
CONTINUOUS
 90
13
 70
0
 10
150.0957307657
 20
124.4358623619
 10
150.1127765189
 20
124.4244157542
 10
150.129005066
 20
124.4104189379
 10
150.144169203
 20
124.3940851215
 10
150.1580379399
 20
124.3756631127
 10
150.170400019
 20
124.3554335275
 10
150.1810671329
 20
124.3337045163
 10
150.1898767931
 20
124.3108070696
 10
150.1966948052
 20
124.2870899766
 10
150.2014173126
 20
124.2629145115
 10
150.2039723792
 20
124.2386489309
 10
150.2043210843
 20
124.214662864
 10
150.2024581164
 20
124.1913216825
  0
LINE
  5
566
100
AcDbEntity
  8
RACCORDO
100
AcDbLine
 62
250
  6
CONTINUOUS
 10
152.6549101172
 20
123.1907357016
 11
152.6348843929
 21
123.2061380142
  0
ARC
  5
567
100
AcDbEntity
  8
SUPERFICI
100
AcDbCircle
 62
7
  6
CONTINUOUS
 10
143.0833932944
 20
74.389601141
 40
0.5
100
AcDbArc
 50
239.9984015654
 51
297.4194204711
  0
ARC
  5
568
100
AcDbEntity
  8
SUPERFICI
100
AcDbCircle
 62
7
  6
CONTINUOUS
 10
128.215179126
 20
82.9743216593
 40
0.5
100
AcDbArc
 50
179.9840060021
 51
239.998401565
  0
ARC
  5
569
100
AcDbEntity
  8
SUPERFICI
100
AcDbCircle
 62
7
  6
CONTINUOUS
 10
128.215179126
 20
125.1260939416
 40
0.5
100
AcDbArc
 50
122.5992954234
 51
180.0013071251
  0
ARC
  5
56A
100
AcDbEntity
  8
ASSI
100
AcDbCircle
 62
7
  6
CONTINUOUS
 10
139.1499438521
 20
123.9808682469
 40
0.2
100
AcDbArc
 50
119.0851069684
 51
154.7491247989
  0
ARC
  5
56B
100
AcDbEntity
  8
ASSI
100
AcDbCircle
 62
7
  6
CONTINUOUS
 10
134.9644176421
 20
124.9274443269
 40
0.2
100
AcDbArc
 50
59.9984015652
 51
118.2824903446
  0
ARC
  5
56C
100
AcDbEntity
  8
ASSI
100
AcDbCircle
 62
7
  6
CONTINUOUS
 10
145.66796429
 20
118.3780396497
 40
0.2
100
AcDbArc
 50
315.731226065
 51
0.0244884549
  0
ARC
  5
56D
100
AcDbEntity
  8
ASSI
100
AcDbCircle
 62
7
  6
CONTINUOUS
 10
145.66796429
 20
118.7473506393
 40
0.2
100
AcDbArc
 50
359.9837886302
 51
59.9984015652
  0
ARC
  5
56E
100
AcDbEntity
  8
ASSI
100
AcDbCircle
 62
7
  6
CONTINUOUS
 10
136.4916215078
 20
124.0456559551
 40
0.2
100
AcDbArc
 50
359.9895357921
 51
59.9984015652
  0
ARC
  5
56F
100
AcDbEntity
  8
ASSI
100
AcDbCircle
 62
7
  6
CONTINUOUS
 10
136.4916215078
 20
123.6763449656
 40
0.2
100
AcDbArc
 50
315.7300112913
 51
0.0272094451
  0
ARC
  5
570
100
AcDbEntity
  8
ASSI
100
AcDbCircle
 62
7
  6
CONTINUOUS
 10
144.1407604243
 20
119.629139011
 40
0.2
100
AcDbArc
 50
59.9984015652
 51
118.2824903446
  0
ARC
  5
571
100
AcDbEntity
  8
RACCORDO
100
AcDbCircle
 62
7
  6
CONTINUOUS
 10
153.3192747843
 20
120.5951271616
 40
0.15
100
AcDbArc
 50
312.3895075081
 51
0.0060942152
  0
ARC
  5
572
100
AcDbEntity
  8
RACCORDO
100
AcDbCircle
 62
7
  6
CONTINUOUS
 10
153.3192747843
 20
89.7895418784
 40
0.15
100
AcDbArc
 50
359.9964341334
 51
60.0680420766
  0
ARC
  5
573
100
AcDbEntity
  8
RACCORDO
100
AcDbCircle
 62
7
  6
CONTINUOUS
 10
153.0159763833
 20
89.9646625739
 40
0.15
100
AcDbArc
 50
59.999103452
 51
104.2244647694
  0
ARC
  5
574
100
AcDbEntity
  8
RACCORDO
100
AcDbCircle
 62
7
  6
CONTINUOUS
 10
149.7899121758
 20
113.465719144
 40
0.15
100
AcDbArc
 50
359.976509972
 51
26.2952803473
  0
ARC
  5
575
100
AcDbEntity
  8
RACCORDO
100
AcDbCircle
 62
7
  6
CONTINUOUS
 10
149.7899121758
 20
84.6635856367
 40
0.15
100
AcDbArc
 50
310.9839955282
 51
0.0805453641
  0
ARC
  5
576
100
AcDbEntity
  8
RACCORDO
100
AcDbCircle
 62
7
  6
CONTINUOUS
 10
149.8964216524
 20
84.6479771023
 40
0.15
100
AcDbArc
 50
301.3163748001
 51
30.0000005227
  0
ARC
  5
577
100
AcDbEntity
  8
RACCORDO
100
AcDbCircle
 62
7
  6
CONTINUOUS
 10
139.2919523321
 20
125.1970651915
 40
0.15
100
AcDbArc
 50
114.2016497379
 51
118.7188678751
  0
ARC
  5
578
100
AcDbEntity
  8
RACCORDO
100
AcDbCircle
 62
7
  6
CONTINUOUS
 10
149.8964216524
 20
119.0741775112
 40
0.15
100
AcDbArc
 50
301.2934183823
 51
31.938527151
  0
ELLIPSE
  5
579
100
AcDbEntity
  8
SUPERFICI
100
AcDbEllipse
 62
7
  6
CONTINUOUS
 10
145.4779492733
 20
75.6310727577
 30
0.0
 11
-0.2501834304
 21
0.4333025529
 31
0.0
 40
0.5769361983
 41
-3.1677535987
 42
-2.3565853618
  0
ELLIPSE
  5
57A
100
AcDbEntity
  8
SUPERFICI
100
AcDbEllipse
 62
7
  6
CONTINUOUS
 10
145.4779492733
 20
117.9239532157
 30
0.0
 11
-0.2500121049
 21
0.4330057129
 31
0.0
 40
0.5777274115
 41
-2.3559002616
 42
-0.7857891675
  0
ELLIPSE
  5
57B
100
AcDbEntity
  8
RACCORDO
100
AcDbEllipse
 62
7
  6
CONTINUOUS
 10
146.5917636491
 20
113.2858364188
 30
0.0
 11
0.143107575
 21
0.2366201515
 31
0.0
 40
0.5904602253
 41
-1.5588007257
 42
-0.7734027153
  0
ELLIPSE
  5
57C
100
AcDbEntity
  8
SUPERFICI
100
AcDbEllipse
 62
7
  6
CONTINUOUS
 10
130.487527903
 20
126.5792346408
 30
0.0
 11
-0.2501834304
 21
0.4333025529
 31
0.0
 40
0.5769361983
 41
-0.7851038024
 42
0.0261609458
  0
ELLIPSE
  5
57D
100
AcDbEntity
  8
SUPERFICI
100
AcDbEllipse
 62
7
  6
CONTINUOUS
 10
145.6232885929
 20
81.299948616
 30
0.0
 11
0.3037200246
 21
0.1710449014
 31
0.0
 40
0.0105151745
 41
0.6673087948
 42
0.7742146559
  0
ELLIPSE
  5
57E
100
AcDbEntity
  8
SUPERFICI
100
AcDbEllipse
 62
7
  6
CONTINUOUS
 10
145.5467535548
 20
81.3441389877
 30
0.0
 11
0.4568380168
 21
0.0702030008
 31
0.0
 40
0.2209951355
 41
0.2918164413
 42
0.3503969549
  0
ELLIPSE
  5
57F
100
AcDbEntity
  8
RACCORDO
100
AcDbEllipse
 62
7
  6
CONTINUOUS
 10
146.5917636491
 20
81.1060125176
 30
0.0
 11
0.1999879242
 21
-0.1103320873
 31
0.0
 40
0.0199195284
 41
-0.7744091265
 42
0.7963872003
  0
ELLIPSE
  5
580
100
AcDbEntity
  8
ASSI
100
AcDbEllipse
 62
7
  6
CONTINUOUS
 10
145.8878015866
 20
120.1752708139
 30
0.0
 11
0.999867518
 21
-0.0292282715
 31
0.0
 40
0.5568983954
 41
5.6013315027
 42
7.0848613669
  0
ELLIPSE
  5
581
100
AcDbEntity
  8
ASSI
100
AcDbEllipse
 62
7
  6
CONTINUOUS
 10
144.3788165023
 20
124.0090062218
 30
0.0
 11
0.3652263551
 21
0.1644105368
 31
0.0
 40
0.3407407308
 41
1.8589059539
 42
3.382251992
  0
ELLIPSE
  5
582
100
AcDbEntity
  8
ASSI
100
AcDbEllipse
 62
7
  6
CONTINUOUS
 10
149.8957479304
 20
123.644510691
 30
0.0
 11
0.5013109713
 21
-0.0090323087
 31
0.0
 40
0.5663187271
 41
-0.7565983455
 42
-0.4971873728
  0
ELLIPSE
  5
583
100
AcDbEntity
  8
RACCORDO
100
AcDbEllipse
 62
7
  6
CONTINUOUS
 10
-842.7571130397
 20
-434.7170120509
 30
0.0
 11
1091.3872670356
 21
588.1465940607
 31
0.0
 40
0.0261556157
 41
-0.4518169214
 42
-0.4516636956
  0
ELLIPSE
  5
584
100
AcDbEntity
  8
RACCORDO
100
AcDbEllipse
 62
7
  6
CONTINUOUS
 10
150.9950710768
 20
124.0295226224
 30
0.0
 11
0.0396625333
 21
0.1491105824
 31
0.0
 40
0.4377348049
 41
0.3909671288
 42
0.6503781016
  0
ENDSEC
  0
SECTION
  2
OBJECTS
  0
DICTIONARY
  5
C
100
AcDbDictionary
280
0
281
1
  3
ACAD_GROUP
350
D
  3
ACAD_MLINESTYLE
350
17
  3
ACAD_LAYOUT
350
1A
  3
ACAD_PLOTSETTINGS
350
19
  3
ACAD_PLOTSTYLENAME
350
E
  0
DICTIONARY
  5
D
102
{ACAD_REACTORS
330
C
102
}
100
AcDbDictionary
280
0
281
1
  0
ACDBDICTIONARYWDFLT
  5
E
102
{ACAD_REACTORS
330
C
102
}
100
AcDbDictionary
281
1
  3
Normal
350
F
100
AcDbDictionaryWithDefault
340
F
  0
DICTIONARY
  5
17
102
{ACAD_REACTORS
330
C
102
}
100
AcDbDictionary
280
0
281
1
  3
Standard
350
18
  0
DICTIONARY
  5
19
102
{ACAD_REACTORS
330
C
102
}
100
AcDbDictionary
281
1
  0
DICTIONARY
  5
1A
102
{ACAD_REACTORS
330
C
102
}
100
AcDbDictionary
281
1
  3
Model
350
585
  3
Layout1
350
586
  0
ACDBPLACEHOLDER
  5
F
102
{ACAD_REACTORS
330
E
102
}
  0
MLINESTYLE
  5
18
102
{ACAD_REACTORS
330
17
102
}
100
AcDbMlineStyle
  2
STANDARD
 70
0
  3

 62
256
 51
90.0
 52
90.0
 71
2
 49
0.5
 62
256
  6
BYLAYER
 49
-0.5
 62
256
  6
BYLAYER
  0
LAYOUT
  5
585
102
{ACAD_REACTORS
330
1A
102
}
100
AcDbPlotSettings
  1

  2
none_device
  4
ISO_A4_(297.00_x_210.00_MM)
  6

 40
0.0
 41
0.0
 42
0.0
 43
0.0
 44
297.0
 45
210.0
 46
0.0
 47
0.0
 48
0.0
 49
0.0
140
0.0
141
0.0
142
1.0
143
1.0
 70
1024
 72
1
 73
0
 74
0
  7

 75
0
147
1.0
148
0.0
149
0.0
100
AcDbLayout
  1
Model
 70
0
 71
0
 10
0.0
 20
0.0
 11
297.0
 21
210.0
 12
0.0
 22
0.0
 32
0.0
 14
0.0
 24
0.0
 34
0.0
 15
0.0
 25
0.0
 35
0.0
146
0.0
 13
0.0
 23
0.0
 33
0.0
 16
1.0
 26
0.0
 36
0.0
 17
0.0
 27
1.0
 37
0.0
 76
0
330
215
345
0
346
0
  0
LAYOUT
  5
586
102
{ACAD_REACTORS
330
1A
102
}
100
AcDbPlotSettings
  1

  2
none_device
  4
ISO_A4_(297.00_x_210.00_MM)
  6

 40
0.0
 41
0.0
 42
0.0
 43
0.0
 44
297.0
 45
210.0
 46
0.0
 47
0.0
 48
0.0
 49
0.0
140
0.0
141
0.0
142
1.0
143
1.0
 70
0
 72
1
 73
0
 74
0
  7

 75
0
147
1.0
148
0.0
149
0.0
100
AcDbLayout
  1
Layout1
 70
0
 71
1
 10
0.0
 20
0.0
 11
297.0
 21
210.0
 12
0.0
 22
0.0
 32
0.0
 14
0.0
 24
0.0
 34
0.0
 15
0.0
 25
0.0
 35
0.0
146
0.0
 13
0.0
 23
0.0
 33
0.0
 16
1.0
 26
0.0
 36
0.0
 17
0.0
 27
1.0
 37
0.0
 76
0
330
216
345
0
346
0
  0
ENDSEC
  0
EOF
