  0
SECTION
  2
HEADER
  9
$ACADVER
  1
AC1024
  9
$DWGCODEPAGE
  3
ANSI_1252
  9
$EXTMAX
 10
210.0
 20
297.0
 30
0.0
  9
$EXTMIN
 10
0.0
 20
0.0
 30
0.0
  9
$LIMMIN
 10
0.0
 20
0.0
  9
$LIMMAX
 10
210.0
 20
297.0
  9
$VIEWCTR
 10
105.0
 20
148.5
  9
$VIEWSIZE
 40
297.0
  9
$CLAYER
  8
0
  9
$LTSCALE
 40
19.36
  9
$CELTYPE
  6
BYLAYER
  9
$DIMSCALE
 40
1.0
  9
$DIMASZ
 40
3.0
  9
$DIMEXO
 40
0.5
  9
$DIMDLI
 40
13.376
  9
$DIMEXE
 40
1.5
  9
$DIMCEN
 40
3.168
  9
$DIMLFAC
 40
1.0
  9
$DIMBLK
  1
_FILLED
  9
$DIMALT
 70
0
  9
$DIMALTF
 40
0.0393700787
  9
$DIMTXT
 40
3.0
  9
$DIMTOL
 70
1
  9
$DIMLIM
 70
0
  9
$DIMTFAC
 40
1.0
  9
$DIMTP
 40
0.01
  9
$DIMTM
 40
0.01
  9
$DIMGAP
 40
0.625
  9
$DIMDSEP
 70
44
  9
$AUNITS
 70
0
  9
$PDMODE
 70
3
  9
$PDSIZE
 40
3.0
  9
$HANDSEED
  5
637
  9
$TILEMODE
 70
1
  9
$MEASUREMENT
 70
1
  9
$INSUNITS
 70
4
  0
ENDSEC
  0
SECTION
  2
CLASSES
  0
CLASS
  1
ACDBDICTIONARYWDFLT
  2
AcDbDictionaryWithDefault
  3
AutoCAD 2000
 90
0
 91
1
280
0
281
0
  0
CLASS
  1
ACDBPLACEHOLDER
  2
AcDbPlaceHolder
  3
AutoCAD 2000
 90
0
 91
1
280
0
281
0
  0
CLASS
  1
LAYOUT
  2
AcDbLayout
  3
AutoCAD 2000
 90
0
 91
0
280
0
281
0
  0
ENDSEC
  0
SECTION
  2
TABLES
  0
TABLE
  2
VPORT
  5
8
100
AcDbSymbolTable
 70
2
  0
VPORT
  5
1F4
100
AcDbSymbolTableRecord
100
AcDbViewportTableRecord
  2
*ACTIVE
 70
0
 10
0.0
 20
0.0
 11
1.0
 21
1.0
 12
105.0
 22
148.5
 13
0.0
 23
0.0
 14
1.0
 24
1.0
 15
0.0
 25
0.0
 16
0.0
 26
0.0
 36
1.0
 17
0.0
 27
0.0
 37
0.0
 40
297.0
 41
0.7070707071
 42
50.0
 43
0.0
 44
0.0
 50
0.0
 51
0.0
 71
0
 72
100
 73
1
 74
1
 75
0
 76
0
 77
0
 78
0
  0
ENDTAB
  0
TABLE
  2
LTYPE
  5
5
100
AcDbSymbolTable
 70
6
  0
LTYPE
  5
14
100
AcDbSymbolTableRecord
100
AcDbLinetypeTableRecord
  2
BYBLOCK
 70
0
  3

 72
65
 73
0
 40
0.0
  0
LTYPE
  5
15
100
AcDbSymbolTableRecord
100
AcDbLinetypeTableRecord
  2
BYLAYER
 70
0
  3

 72
65
 73
0
 40
0.0
  0
LTYPE
  5
16
100
AcDbSymbolTableRecord
100
AcDbLinetypeTableRecord
  2
CONTINUOUS
 70
64
  3
Solid line
 72
65
 73
0
 40
0.0
  0
LTYPE
  5
1F5
100
AcDbSymbolTableRecord
100
AcDbLinetypeTableRecord
  2
CENTER
 70
64
  3
____ _ ____ _ ____ _ ____ _ ____ _ ____ _ ____
 72
65
 73
4
 40
0.6
 49
0.375
 74
0
 49
-0.075
 74
0
 49
0.075
 74
0
 49
-0.075
 74
0
  0
LTYPE
  5
1F6
100
AcDbSymbolTableRecord
100
AcDbLinetypeTableRecord
  2
HIDDEN
 70
64
  3
- - - - - - - - - - - - - - - - - - - -
 72
65
 73
2
 40
0.2
 49
0.1
 74
0
 49
-0.1
 74
0
  0
LTYPE
  5
1F7
100
AcDbSymbolTableRecord
100
AcDbLinetypeTableRecord
  2
PHANTOM
 70
64
  3
_____ _ _ _____ _ _ _____ _ _ _____
 72
65
 73
6
 40
0.8
 49
0.45
 74
0
 49
-0.05
 74
0
 49
0.1
 74
0
 49
-0.05
 74
0
 49
0.1
 74
0
 49
-0.05
 74
0
  0
LTYPE
  5
1F8
100
AcDbSymbolTableRecord
100
AcDbLinetypeTableRecord
  2
DOT
 70
64
  3
. . . . . . . . . . . . . . . . . . . .
 72
65
 73
2
 40
0.2
 49
0.1
 74
0
 49
-0.1
 74
0
  0
LTYPE
  5
1F9
100
AcDbSymbolTableRecord
100
AcDbLinetypeTableRecord
  2
DASHED
 70
64
  3
- - - - - - - - - - - - - - - - - - - -
 72
65
 73
2
 40
0.2
 49
0.1
 74
0
 49
-0.1
 74
0
  0
ENDTAB
  0
TABLE
  2
LAYER
  5
2
100
AcDbSymbolTable
 70
36
  0
LAYER
  5
10
100
AcDbSymbolTableRecord
100
AcDbLayerTableRecord
  2
0
 70
0
 62
7
  6
CONTINUOUS
370
-3
390
F
  0
LAYER
  5
1FA
100
AcDbSymbolTableRecord
100
AcDbLayerTableRecord
  2
DEFAULT_1
 70
0
 62
7
  6
CENTER
370
-3
390
F
  0
LAYER
  5
1FB
100
AcDbSymbolTableRecord
100
AcDbLayerTableRecord
  2
DEFAULT_2
 70
0
 62
7
  6
HIDDEN
370
-3
390
F
  0
LAYER
  5
1FC
100
AcDbSymbolTableRecord
100
AcDbLayerTableRecord
  2
DEFAULT_3
 70
0
 62
7
  6
PHANTOM
370
-3
390
F
  0
LAYER
  5
1FD
100
AcDbSymbolTableRecord
100
AcDbLayerTableRecord
  2
ASSI
 70
0
 62
7
  6
CONTINUOUS
370
-3
390
F
  0
LAYER
  5
1FE
100
AcDbSymbolTableRecord
100
AcDbLayerTableRecord
  2
COORDINATE
 70
0
 62
7
  6
CONTINUOUS
370
-3
390
F
  0
LAYER
  5
1FF
100
AcDbSymbolTableRecord
100
AcDbLayerTableRecord
  2
COORD_ORIGINE
 70
0
 62
7
  6
CONTINUOUS
370
-3
390
F
  0
LAYER
  5
200
100
AcDbSymbolTableRecord
100
AcDbLayerTableRecord
  2
COPY_PUBLISH
 70
0
 62
7
  6
CONTINUOUS
370
-3
390
F
  0
LAYER
  5
201
100
AcDbSymbolTableRecord
100
AcDbLayerTableRecord
  2
COSMETICHE
 70
0
 62
7
  6
CONTINUOUS
370
-3
390
F
  0
LAYER
  5
202
100
AcDbSymbolTableRecord
100
AcDbLayerTableRecord
  2
COSMETICI
 70
0
 62
7
  6
CONTINUOUS
370
-3
390
F
  0
LAYER
  5
203
100
AcDbSymbolTableRecord
100
AcDbLayerTableRecord
  2
CURVE
 70
0
 62
7
  6
CONTINUOUS
370
-3
390
F
  0
LAYER
  5
204
100
AcDbSymbolTableRecord
100
AcDbLayerTableRecord
  2
DRAFT
 70
0
 62
7
  6
CONTINUOUS
370
-3
390
F
  0
LAYER
  5
205
100
AcDbSymbolTableRecord
100
AcDbLayerTableRecord
  2
IMPORT_IGES
 70
0
 62
7
  6
CONTINUOUS
370
-3
390
F
  0
LAYER
  5
206
100
AcDbSymbolTableRecord
100
AcDbLayerTableRecord
  2
INTF_1
 70
0
 62
7
  6
CONTINUOUS
370
-3
390
F
  0
LAYER
  5
207
100
AcDbSymbolTableRecord
100
AcDbLayerTableRecord
  2
INTF_11
 70
0
 62
7
  6
CONTINUOUS
370
-3
390
F
  0
LAYER
  5
208
100
AcDbSymbolTableRecord
100
AcDbLayerTableRecord
  2
INTF_2
 70
0
 62
7
  6
CONTINUOUS
370
-3
390
F
  0
LAYER
  5
209
100
AcDbSymbolTableRecord
100
AcDbLayerTableRecord
  2
INTF_8
 70
0
 62
7
  6
CONTINUOUS
370
-3
390
F
  0
LAYER
  5
20A
100
AcDbSymbolTableRecord
100
AcDbLayerTableRecord
  2
INTF_9
 70
0
 62
7
  6
CONTINUOUS
370
-3
390
F
  0
LAYER
  5
20B
100
AcDbSymbolTableRecord
100
AcDbLayerTableRecord
  2
NOTE
 70
0
 62
7
  6
CONTINUOUS
370
-3
390
F
  0
LAYER
  5
20C
100
AcDbSymbolTableRecord
100
AcDbLayerTableRecord
  2
PIANI
 70
0
 62
7
  6
CONTINUOUS
370
-3
390
F
  0
LAYER
  5
20D
100
AcDbSymbolTableRecord
100
AcDbLayerTableRecord
  2
PIANI_ORIGINE
 70
0
 62
7
  6
CONTINUOUS
370
-3
390
F
  0
LAYER
  5
20E
100
AcDbSymbolTableRecord
100
AcDbLayerTableRecord
  2
PUNTI
 70
0
 62
7
  6
CONTINUOUS
370
-3
390
F
  0
LAYER
  5
20F
100
AcDbSymbolTableRecord
100
AcDbLayerTableRecord
  2
RACCORDO
 70
0
 62
7
  6
CONTINUOUS
370
-3
390
F
  0
LAYER
  5
210
100
AcDbSymbolTableRecord
100
AcDbLayerTableRecord
  2
RGB__255__255__255__
 70
0
 62
7
  6
CONTINUOUS
370
-3
390
F
  0
LAYER
  5
211
100
AcDbSymbolTableRecord
100
AcDbLayerTableRecord
  2
SCRITTE_HIDE
 70
0
 62
7
  6
CONTINUOUS
370
-3
390
F
  0
LAYER
  5
212
100
AcDbSymbolTableRecord
100
AcDbLayerTableRecord
  2
SIMBOLI
 70
0
 62
7
  6
CONTINUOUS
370
-3
390
F
  0
LAYER
  5
213
100
AcDbSymbolTableRecord
100
AcDbLayerTableRecord
  2
SMUSSO
 70
0
 62
7
  6
CONTINUOUS
370
-3
390
F
  0
LAYER
  5
214
100
AcDbSymbolTableRecord
100
AcDbLayerTableRecord
  2
SUPERFICI
 70
0
 62
7
  6
CONTINUOUS
370
-3
390
F
  0
LAYER
  5
215
100
AcDbSymbolTableRecord
100
AcDbLayerTableRecord
  2
TRASH
 70
0
 62
7
  6
CONTINUOUS
370
-3
390
F
  0
LAYER
  5
216
100
AcDbSymbolTableRecord
100
AcDbLayerTableRecord
  2
XSEC_DATUMS
 70
0
 62
7
  6
CONTINUOUS
370
-3
390
F
  0
ENDTAB
  0
TABLE
  2
STYLE
  5
3
100
AcDbSymbolTable
 70
1
  0
STYLE
  5
11
100
AcDbSymbolTableRecord
100
AcDbTextStyleTableRecord
  2
STANDARD
 70
0
 40
0.0
 41
0.8
 50
0.0
 71
0
 42
0.2
  3
txt
  4

  0
STYLE
  5
217
100
AcDbSymbolTableRecord
100
AcDbTextStyleTableRecord
  2
TEXTSTYLE_1
 70
0
 40
0.0
 41
0.8
 50
0.0
 71
0
 42
0.2
  3
gdt
  4

  0
ENDTAB
  0
TABLE
  2
VIEW
  5
6
100
AcDbSymbolTable
 70
0
  0
ENDTAB
  0
TABLE
  2
UCS
  5
7
100
AcDbSymbolTable
 70
0
  0
ENDTAB
  0
TABLE
  2
APPID
  5
9
100
AcDbSymbolTable
 70
1
  0
APPID
  5
218
100
AcDbSymbolTableRecord
100
AcDbRegAppTableRecord
  2
ACAD
 70
0
  0
ENDTAB
  0
TABLE
  2
BLOCK_RECORD
  5
1
100
AcDbSymbolTable
 70
0
  0
BLOCK_RECORD
  5
219
100
AcDbSymbolTableRecord
100
AcDbBlockTableRecord
  2
*Model_Space
  0
BLOCK_RECORD
  5
21A
100
AcDbSymbolTableRecord
100
AcDbBlockTableRecord
  2
*Paper_Space
  0
BLOCK_RECORD
  5
21B
100
AcDbSymbolTableRecord
100
AcDbBlockTableRecord
  2
_FILLED
  0
ENDTAB
  0
TABLE
  2
DIMSTYLE
  5
A
100
AcDbSymbolTable
 70
1
100
AcDbDimStyleTable
 71
0
  0
DIMSTYLE
105
21C
100
AcDbSymbolTableRecord
100
AcDbDimStyleTableRecord
  2
STANDARD
 70
0
  3

  4

 40
1.0
 41
3.0
 42
0.5
 43
0.38
 44
1.5
 45
0.0
 46
0.0
 47
0.01
 48
0.01
140
3.0
141
0.09
142
0.0
143
25.4
144
1.0
145
0.0
146
1.0
147
0.625
 71
1
 72
0
 73
0
 74
0
 75
0
 76
0
 77
1
 78
8
 79
2
170
0
171
1
172
0
173
0
174
0
175
0
176
0
177
0
178
0
270
2
179
2
271
2
272
2
273
2
274
2
275
0
280
0
281
0
282
0
283
1
284
8
285
0
286
0
287
3
288
0
340
11
278
44
341
21B
342
21B
343
21B
344
21B
  0
ENDTAB
  0
ENDSEC
  0
SECTION
  2
BLOCKS
  0
BLOCK
  5
20
100
AcDbEntity
  8
0
100
AcDbBlockBegin
  2
*Model_Space
 70
0
 10
0.0
 20
0.0
 30
0.0
  3
*Model_Space
  1

  0
ENDBLK
  5
21
100
AcDbEntity
  8
0
100
AcDbBlockEnd
  0
BLOCK
  5
1C
100
AcDbEntity
  8
0
100
AcDbBlockBegin
  2
*Paper_Space
 70
0
 10
0.0
 20
0.0
 30
0.0
  3
*Paper_Space
  1

  0
ENDBLK
  5
1D
100
AcDbEntity
  8
0
100
AcDbBlockEnd
  0
BLOCK
  5
21D
100
AcDbEntity
  8
0
100
AcDbBlockBegin
  2
_FILLED
 70
64
 10
0.0
 20
0.0
  3
_FILLED
  1

  0
SOLID
  5
21E
100
AcDbEntity
  8
0
  6
BYBLOCK
 62
0
100
AcDbTrace
 10
0.0
 20
0.0
 11
-1.0
 21
0.3166666667
 12
-1.0
 22
-0.3166666667
 13
-1.0
 23
-0.3166666667
  0
ENDBLK
  5
21F
100
AcDbEntity
  8
0
  6
BYBLOCK
 62
0
100
AcDbBlockEnd
  0
ENDSEC
  0
SECTION
  2
ENTITIES
  0
LINE
  5
220
100
AcDbEntity
  8
0
100
AcDbLine
 62
7
  6
CONTINUOUS
 10
-31.7267029414
 20
-27.8003009656
 11
-16.8584887731
 21
-36.3850214839
  0
LINE
  5
221
100
AcDbEntity
  8
0
100
AcDbLine
 62
250
  6
CONTINUOUS
 10
-31.8302442519
 20
-27.571432535
 11
-16.9620300836
 21
-36.1561530534
  0
LWPOLYLINE
  5
222
100
AcDbEntity
  8
0
100
AcDbPolyline
 62
250
  6
CONTINUOUS
 90
9
 70
0
 10
-31.7267029414
 20
-27.8003009656
 10
-31.7423028437
 20
-27.7900921394
 10
-31.7648820579
 20
-27.7701761519
 10
-31.7844080692
 20
-27.7459918967
 10
-31.8006740119
 20
-27.7177955904
 10
-31.8135075585
 20
-27.6858859553
 10
-31.8227727458
 20
-27.6506010539
 10
-31.828371415
 20
-27.6123147073
 10
-31.8302442519
 20
-27.571432535
  0
LWPOLYLINE
  5
223
100
AcDbEntity
  8
0
100
AcDbPolyline
 62
250
  6
CONTINUOUS
 90
9
 70
0
 10
-31.9766908613
 20
-27.3672952384
 10
-31.9755761762
 20
-27.3865616691
 10
-31.9694881145
 20
-27.4161207397
 10
-31.9581412084
 20
-27.4452009704
 10
-31.9416611627
 20
-27.4734507449
 10
-31.9203150297
 20
-27.5004673731
 10
-31.8944203078
 20
-27.5259477295
 10
-31.8642760927
 20
-27.5496781195
 10
-31.8302442519
 20
-27.571432535
  0
LINE
  5
224
100
AcDbEntity
  8
0
100
AcDbLine
 62
7
  6
CONTINUOUS
 10
-31.9766908613
 20
-27.3672952384
 11
-31.9766908613
 21
14.7844770438
  0
LWPOLYLINE
  5
225
100
AcDbEntity
  8
0
100
AcDbPolyline
 62
250
  6
CONTINUOUS
 90
16
 70
0
 10
-31.8302442519
 20
14.5803397472
 10
-31.828371415
 20
14.6233846245
 10
-31.8227727458
 20
14.6681361741
 10
-31.8135075585
 20
14.7141202815
 10
-31.8006740119
 20
14.7608497745
 10
-31.7844080692
 20
14.8078295836
 10
-31.7648820579
 20
14.8545619874
 10
-31.7423028437
 20
14.9005518854
 10
-31.7169096391
 20
14.9453120439
 10
-31.6889714689
 20
14.9883682579
 10
-31.65878432
 20
15.0292643739
 10
-31.6266680063
 20
15.0675671236
 10
-31.5929627799
 20
15.1028707133
 10
-31.5580257263
 20
15.1348011239
 10
-31.5222269814
 20
15.163020073
 10
-31.4859458102
 20
15.1872285988
  0
LWPOLYLINE
  5
226
100
AcDbEntity
  8
0
100
AcDbPolyline
 62
250
  6
CONTINUOUS
 90
9
 70
0
 10
-31.9766908609
 20
14.784465637
 10
-31.9755743251
 20
14.7651946401
 10
-31.9694829012
 20
14.735634004
 10
-31.9581327378
 20
14.7065538625
 10
-31.9416501135
 20
14.6783054045
 10
-31.920302902
 20
14.6512914417
 10
-31.8944093473
 20
14.6258149322
 10
-31.8642690291
 20
14.6020891586
 10
-31.8302442519
 20
14.5803397472
  0
LINE
  5
227
100
AcDbEntity
  8
0
100
AcDbLine
 62
250
  6
CONTINUOUS
 10
-31.8302442519
 20
-27.571432535
 11
-31.8302442519
 21
14.5803397472
  0
LINE
  5
228
100
AcDbEntity
  8
RACCORDO
100
AcDbLine
 62
250
  6
CONTINUOUS
 10
-29.884886852
 20
-6.5673734064
 11
-29.884886852
 21
1.045826949
  0
LINE
  5
229
100
AcDbEntity
  8
RACCORDO
100
AcDbLine
 62
250
  6
CONTINUOUS
 10
-29.4643573065
 20
-6.3245885866
 11
-29.4643573065
 21
0.7015674745
  0
LINE
  5
22A
100
AcDbEntity
  8
DRAFT
100
AcDbLine
 62
7
  6
CONTINUOUS
 10
-28.9569759064
 20
0.4086118131
 11
-28.9569759064
 21
-6.0316338966
  0
LINE
  5
22B
100
AcDbEntity
  8
RACCORDO
100
AcDbLine
 62
250
  6
CONTINUOUS
 10
-28.7547606535
 20
-5.9148765127
 11
-28.7547606535
 21
0.2918552605
  0
LINE
  5
22C
100
AcDbEntity
  8
0
100
AcDbLine
 62
7
  6
CONTINUOUS
 10
-31.7460648114
 20
15.2057105599
 11
-29.4609790346
 21
16.6669964229
  0
LINE
  5
22D
100
AcDbEntity
  8
0
100
AcDbLine
 62
250
  6
CONTINUOUS
 10
-31.4859458102
 20
15.1872285988
 11
-29.2045844337
 21
16.6461327509
  0
LWPOLYLINE
  5
22E
100
AcDbEntity
  8
SUPERFICI
100
AcDbPolyline
 62
7
  6
CONTINUOUS
 90
3
 70
0
 10
-13.7213631619
 20
-28.5907080773
 10
-13.7384624336
 20
-28.5850904369
 10
-13.7562419836
 20
-28.5822234942
  0
LINE
  5
22F
100
AcDbEntity
  8
SUPERFICI
100
AcDbLine
 62
7
  6
CONTINUOUS
 10
-13.7120556208
 20
-28.5950214105
 11
-13.2298562302
 21
-28.8471640325
  0
LINE
  5
230
100
AcDbEntity
  8
RACCORDO
100
AcDbLine
 62
7
  6
CONTINUOUS
 10
-13.3229228571
 20
-28.8197017912
 11
-12.9586849821
 21
-29.011082945
  0
LINE
  5
231
100
AcDbEntity
  8
SUPERFICI
100
AcDbLine
 62
250
  6
CONTINUOUS
 10
-13.4657370028
 20
-28.8343877225
 11
-13.8526880645
 21
-28.6109670291
  0
LINE
  5
232
100
AcDbEntity
  8
SUPERFICI
100
AcDbLine
 62
250
  6
CONTINUOUS
 10
-13.3229228571
 20
-28.8197017912
 11
-13.7120556208
 21
-28.5950214105
  0
LINE
  5
233
100
AcDbEntity
  8
RACCORDO
100
AcDbLine
 62
7
  6
CONTINUOUS
 10
-13.2298562302
 20
-28.8471640325
 11
-12.9586849821
 21
-29.0037349126
  0
LINE
  5
234
100
AcDbEntity
  8
RACCORDO
100
AcDbLine
 62
250
  6
CONTINUOUS
 10
-25.2241637855
 20
-14.4142966734
 11
-25.2385787655
 21
-13.9538764337
  0
LWPOLYLINE
  5
235
100
AcDbEntity
  8
RACCORDO
100
AcDbPolyline
 62
7
  6
CONTINUOUS
 90
10
 70
0
 10
-27.9755115698
 20
-7.4248649852
 10
-27.9749222514
 20
-7.446880604
 10
-27.9722375117
 20
-7.4778328238
 10
-27.9673190773
 20
-7.5100079739
 10
-27.9601050172
 20
-7.5433378365
 10
-27.9505657549
 20
-7.5776437705
 10
-27.9385882874
 20
-7.6126902188
 10
-27.924095015
 20
-7.6482861561
 10
-27.9071052493
 20
-7.6842992086
 10
-27.8876436046
 20
-7.720556626
  0
LINE
  5
236
100
AcDbEntity
  8
DRAFT
100
AcDbLine
 62
7
  6
CONTINUOUS
 10
-25.4730185955
 20
-14.102805518
 11
-25.4230933117
 21
-16.2386472924
  0
LINE
  5
237
100
AcDbEntity
  8
DRAFT
100
AcDbLine
 62
7
  6
CONTINUOUS
 10
-28.3205798033
 20
0.0411646791
 11
-28.3205798033
 21
-5.6641867626
  0
LINE
  5
238
100
AcDbEntity
  8
RACCORDO
100
AcDbLine
 62
7
  6
CONTINUOUS
 10
-27.9755115703
 20
-0.1580733935
 11
-27.9755115703
 21
-7.4248747472
  0
LINE
  5
239
100
AcDbEntity
  8
RACCORDO
100
AcDbLine
 62
250
  6
CONTINUOUS
 10
-27.8876436046
 20
-0.1073562707
 11
-27.8876436046
 21
-7.720556626
  0
LINE
  5
23A
100
AcDbEntity
  8
RACCORDO
100
AcDbLine
 62
250
  6
CONTINUOUS
 10
-26.4932428212
 20
-16.8565132941
 11
-26.4932428212
 21
-14.4350622786
  0
LINE
  5
23B
100
AcDbEntity
  8
RACCORDO
100
AcDbLine
 62
250
  6
CONTINUOUS
 10
-26.0727132757
 20
-16.6137284743
 11
-26.0727132757
 21
-14.4371812362
  0
LWPOLYLINE
  5
23C
100
AcDbEntity
  8
RACCORDO
100
AcDbPolyline
 62
250
  6
CONTINUOUS
 90
20
 70
0
 10
-26.4932428212
 20
-14.4350622786
 10
-26.4888019249
 20
-14.279631463
 10
-26.4755496806
 20
-14.1308616332
 10
-26.4534860884
 20
-13.9887527891
 10
-26.4224324167
 20
-13.8525975762
 10
-26.3825673971
 20
-13.7231033491
 10
-26.3344272245
 20
-13.6023921717
 10
-26.2779236936
 20
-13.4907531628
 10
-26.2131450097
 20
-13.3878972036
 10
-26.1408919832
 20
-13.2950790013
 10
-26.0610551264
 20
-13.2124002445
 10
-25.973743927
 20
-13.1397592447
 10
-25.8800876579
 20
-13.0781056429
 10
-25.7800106121
 20
-13.027588652
 10
-25.6735884967
 20
-12.9880590593
 10
-25.5621777058
 20
-12.9600188678
 10
-25.4457128188
 20
-12.943614374
 10
-25.3242592564
 20
-12.9386992816
 10
-25.1993696742
 20
-12.9453367047
 10
-25.0710001902
 20
-12.9636750159
  0
LWPOLYLINE
  5
23D
100
AcDbEntity
  8
RACCORDO
100
AcDbPolyline
 62
250
  6
CONTINUOUS
 90
13
 70
0
 10
-26.0727132757
 20
-14.4371812362
 10
-26.0681214882
 20
-14.2880040867
 10
-26.0543684969
 20
-14.144856201
 10
-26.0315213064
 20
-14.0084349816
 10
-25.999691221
 20
-13.8794050391
 10
-25.9590333182
 20
-13.7583950171
 10
-25.9097457064
 20
-13.645994517
 10
-25.8520685494
 20
-13.5427511704
 10
-25.7862828383
 20
-13.4491679042
 10
-25.7127090263
 20
-13.3657005693
 10
-25.631705523
 20
-13.2927557947
 10
-25.5436669869
 20
-13.2306889973
 10
-25.5041208419
 20
-13.2076237708
  0
LWPOLYLINE
  5
23E
100
AcDbEntity
  8
ASSI
100
AcDbPolyline
 62
7
  6
CONTINUOUS
 90
12
 70
0
 10
-23.4812693822
 20
12.656462462
 10
-23.4776876825
 20
12.6730133902
 10
-23.4718775043
 20
12.6940812645
 10
-23.4644859962
 20
12.7161410174
 10
-23.4555160716
 20
12.7388590641
 10
-23.445008537
 20
12.7618940801
 10
-23.4331768133
 20
12.7846675803
 10
-23.4201645094
 20
12.8068699605
 10
-23.4061728759
 20
12.8281616248
 10
-23.3916230841
 20
12.8479882617
 10
-23.376768535
 20
12.8661424583
 10
-23.3605259755
 20
12.8838519781
  0
LINE
  5
23F
100
AcDbEntity
  8
ASSI
100
AcDbLine
 62
250
  6
CONTINUOUS
 10
-23.5123451943
 20
12.6936423254
 11
-23.5175934169
 21
12.6774355044
  0
LWPOLYLINE
  5
240
100
AcDbEntity
  8
ASSI
100
AcDbPolyline
 62
250
  6
CONTINUOUS
 90
6
 70
0
 10
-23.4455441927
 20
12.833284304
 10
-23.4625155935
 20
12.8043702652
 10
-23.4776835319
 20
12.7758605881
 10
-23.4909174992
 20
12.74813273
 10
-23.5023480039
 20
12.7208092337
 10
-23.5123451943
 20
12.6936423254
  0
LWPOLYLINE
  5
241
100
AcDbEntity
  8
ASSI
100
AcDbPolyline
 62
250
  6
CONTINUOUS
 90
6
 70
0
 10
-23.3605259755
 20
12.8838519781
 10
-23.3553173101
 20
12.89161545
 10
-23.352612244
 20
12.9016348343
 10
-23.3524732151
 20
12.9137230879
 10
-23.354902588
 20
12.9276749464
 10
-23.3598591141
 20
12.9432534997
  0
LWPOLYLINE
  5
242
100
AcDbEntity
  8
ASSI
100
AcDbPolyline
 62
250
  6
CONTINUOUS
 90
3
 70
0
 10
-23.406262261
 20
12.8893768072
 10
-23.4267907066
 20
12.8617181067
 10
-23.4455441927
 20
12.833284304
  0
LWPOLYLINE
  5
243
100
AcDbEntity
  8
ASSI
100
AcDbPolyline
 62
250
  6
CONTINUOUS
 90
3
 70
0
 10
-23.3598591141
 20
12.9432534997
 10
-23.3839517302
 20
12.9165552716
 10
-23.406262261
 20
12.8893768072
  0
LWPOLYLINE
  5
244
100
AcDbEntity
  8
ASSI
100
AcDbPolyline
 62
250
  6
CONTINUOUS
 90
8
 70
0
 10
-23.0570367909
 20
13.1951200091
 10
-23.0558572316
 20
13.1964192408
 10
-23.0518590938
 20
13.2028269741
 10
-23.0494781503
 20
13.2106731838
 10
-23.0487408284
 20
13.2198717687
 10
-23.0496551045
 20
13.2303220822
 10
-23.0522109564
 20
13.2419104877
 10
-23.0563805195
 20
13.2545106605
  0
LINE
  5
245
100
AcDbEntity
  8
0
100
AcDbLine
 62
7
  6
CONTINUOUS
 10
-24.1909632852
 20
13.7513307352
 11
-24.6929362226
 21
13.2285924482
  0
LINE
  5
246
100
AcDbEntity
  8
ASSI
100
AcDbLine
 62
250
  6
CONTINUOUS
 10
-23.0563805195
 20
13.2545106605
 11
-23.3598591141
 21
12.9432534997
  0
LINE
  5
247
100
AcDbEntity
  8
ASSI
100
AcDbLine
 62
7
  6
CONTINUOUS
 10
-23.05704911
 20
13.1951073654
 11
-23.3605277047
 21
12.8838502045
  0
LWPOLYLINE
  5
248
100
AcDbEntity
  8
0
100
AcDbPolyline
 62
250
  6
CONTINUOUS
 90
9
 70
0
 10
-31.7460648114
 20
15.2057105599
 10
-31.7255628641
 20
15.2168835429
 10
-31.6965654388
 20
15.2271620004
 10
-31.6651061586
 20
15.2325815053
 10
-31.6315709231
 20
15.2330642437
 10
-31.5964691203
 20
15.2286317036
 10
-31.5602501129
 20
15.2194045376
 10
-31.5232739641
 20
15.2055358258
 10
-31.4859458102
 20
15.1872285988
  0
LWPOLYLINE
  5
249
100
AcDbEntity
  8
SUPERFICI
100
AcDbPolyline
 62
7
  6
CONTINUOUS
 90
5
 70
0
 10
-13.7562419836
 20
-28.5822234942
 10
-13.7745600086
 20
-28.5821695694
 10
-13.7932608296
 20
-28.5849682762
 10
-13.8121759719
 20
-28.5906353008
 10
-13.8311254314
 20
-28.5991613842
  0
LINE
  5
24A
100
AcDbEntity
  8
RACCORDO
100
AcDbLine
 62
250
  6
CONTINUOUS
 10
-22.2990315143
 20
-19.2781983369
 11
-26.4932428212
 21
-16.8565132941
  0
LINE
  5
24B
100
AcDbEntity
  8
RACCORDO
100
AcDbLine
 62
250
  6
CONTINUOUS
 10
-22.3868994799
 20
-18.7418711659
 11
-26.0727132757
 21
-16.6137284743
  0
LINE
  5
24C
100
AcDbEntity
  8
DRAFT
100
AcDbLine
 62
7
  6
CONTINUOUS
 10
-25.4230933117
 20
-16.2386472924
 11
-22.3868994799
 21
-17.9917075584
  0
LINE
  5
24D
100
AcDbEntity
  8
RACCORDO
100
AcDbLine
 62
250
  6
CONTINUOUS
 10
-22.3868994799
 20
-17.7619873489
 11
-25.2241637855
 21
-16.1237864982
  0
LINE
  5
24E
100
AcDbEntity
  8
DRAFT
100
AcDbLine
 62
7
  6
CONTINUOUS
 10
-24.5022031849
 20
-15.7069368779
 11
-22.3868994799
 21
-16.9282867262
  0
LWPOLYLINE
  5
24F
100
AcDbEntity
  8
RACCORDO
100
AcDbPolyline
 62
250
  6
CONTINUOUS
 90
9
 70
0
 10
-22.2990315143
 20
-16.8567473214
 10
-22.3198234364
 20
-16.8434300124
 10
-22.3381197396
 20
-16.8289430753
 10
-22.3537243919
 20
-16.8134417277
 10
-22.3664702002
 20
-16.7970920557
 10
-22.376220602
 20
-16.7800692347
 10
-22.3828711284
 20
-16.7625556525
 10
-22.3863505238
 20
-16.7447389549
 10
-22.3868994799
 20
-16.7342649434
  0
LWPOLYLINE
  5
250
100
AcDbEntity
  8
RACCORDO
100
AcDbPolyline
 62
7
  6
CONTINUOUS
 90
37
 70
0
 10
-22.3868994799
 20
-16.7342649434
 10
-22.390665047
 20
-16.5948048631
 10
-22.4020374297
 20
-16.4502173537
 10
-22.4210933283
 20
-16.3011568579
 10
-22.4478535667
 20
-16.148341046
 10
-22.4822943768
 20
-15.9924683469
 10
-22.5243689813
 20
-15.8341742696
 10
-22.573994899
 20
-15.6741219497
 10
-22.6310061714
 20
-15.5131197895
 10
-22.6951760438
 20
-15.3519961973
 10
-22.766270197
 20
-15.1914776474
 10
-22.8439961236
 20
-15.0323324095
 10
-22.927960672
 20
-14.8754275634
 10
-23.0177868517
 20
-14.7214931344
 10
-23.1130723125
 20
-14.5712294141
 10
-23.2133107417
 20
-14.4254211116
 10
-23.3180260377
 20
-14.2847240501
 10
-23.4267166155
 20
-14.1497654284
 10
-23.5387718768
 20
-14.0212350928
 10
-23.6536214658
 20
-13.8996960274
 10
-23.7707085725
 20
-13.7856370075
 10
-23.8893824757
 20
-13.6795760581
 10
-24.0089932615
 20
-13.5819548428
 10
-24.1289721497
 20
-13.4930869344
 10
-24.248729022
 20
-13.4132545552
 10
-24.3674720707
 20
-13.3428012916
 10
-24.4847349454
 20
-13.2818028394
 10
-24.6003224042
 20
-13.2302067989
 10
-24.7132336257
 20
-13.1882920183
 10
-24.8231824559
 20
-13.1559703401
 10
-24.9308161078
 20
-13.1330246301
 10
-25.0351705891
 20
-13.119734042
 10
-25.1357442794
 20
-13.1162015472
 10
-25.2335105115
 20
-13.1226792785
 10
-25.3281819793
 20
-13.1397775599
 10
-25.4185454881
 20
-13.1679373839
 10
-25.5041208419
 20
-13.2076237708
  0
LWPOLYLINE
  5
251
100
AcDbEntity
  8
RACCORDO
100
AcDbPolyline
 62
7
  6
CONTINUOUS
 90
10
 70
0
 10
-22.3868994795
 20
-18.982506696
 10
-22.3863101611
 20
-19.0045223148
 10
-22.3836254214
 20
-19.0354745347
 10
-22.378706987
 20
-19.0676496847
 10
-22.3714929269
 20
-19.1009795473
 10
-22.3619536646
 20
-19.1352854814
 10
-22.3499761971
 20
-19.1703319296
 10
-22.3354829246
 20
-19.205927867
 10
-22.318493159
 20
-19.2419409194
 10
-22.2990315143
 20
-19.2781983369
  0
LWPOLYLINE
  5
252
100
AcDbEntity
  8
RACCORDO
100
AcDbPolyline
 62
250
  6
CONTINUOUS
 90
9
 70
0
 10
-25.2385787655
 20
-13.9538764337
 10
-25.2394268986
 20
-13.8225946016
 10
-25.2328950026
 20
-13.6961687813
 10
-25.2190476754
 20
-13.5750856316
 10
-25.1980005862
 20
-13.4598478893
 10
-25.1698542414
 20
-13.3508508677
 10
-25.1346744106
 20
-13.2483983227
 10
-25.0926057743
 20
-13.1528697254
 10
-25.0735408231
 20
-13.118386347
  0
LINE
  5
253
100
AcDbEntity
  8
RACCORDO
100
AcDbLine
 62
250
  6
CONTINUOUS
 10
-25.2241637855
 20
-16.1237864982
 11
-25.2241637855
 21
-14.4142966734
  0
LINE
  5
254
100
AcDbEntity
  8
DRAFT
100
AcDbLine
 62
7
  6
CONTINUOUS
 10
-24.5022031849
 20
-13.5432906444
 11
-24.5022031849
 21
-15.7069368779
  0
LINE
  5
255
100
AcDbEntity
  8
0
100
AcDbLine
 62
7
  6
CONTINUOUS
 10
-24.1909632852
 20
13.7513307352
 11
-24.1909632852
 21
13.066230827
  0
LINE
  5
256
100
AcDbEntity
  8
ASSI
100
AcDbLine
 62
250
  6
CONTINUOUS
 10
-23.0563805195
 20
13.62382165
 11
-23.0563805195
 21
13.2545106605
  0
LINE
  5
257
100
AcDbEntity
  8
ASSI
100
AcDbLine
 62
7
  6
CONTINUOUS
 10
-23.0002484796
 20
13.7040390574
 11
-23.0002484796
 21
13.3347280679
  0
LINE
  5
258
100
AcDbEntity
  8
RACCORDO
100
AcDbLine
 62
7
  6
CONTINUOUS
 10
-22.3868994799
 20
-16.7342649434
 11
-22.3868994799
 21
-18.9825164581
  0
LINE
  5
259
100
AcDbEntity
  8
RACCORDO
100
AcDbLine
 62
250
  6
CONTINUOUS
 10
-22.2990315143
 20
-16.8567473214
 11
-22.2990315143
 21
-19.2781983369
  0
LWPOLYLINE
  5
25A
100
AcDbEntity
  8
ASSI
100
AcDbPolyline
 62
250
  6
CONTINUOUS
 90
9
 70
0
 10
-23.0002484796
 20
13.3347280679
 10
-23.0004162351
 20
13.3299993359
 10
-23.0023447658
 20
13.3180524614
 10
-23.0064019691
 20
13.3063036496
 10
-23.0125415303
 20
13.2948669952
 10
-23.0207032703
 20
13.2838539807
 10
-23.03080577
 20
13.2733803624
 10
-23.0427403
 20
13.2635636317
 10
-23.0563805195
 20
13.2545106605
  0
LWPOLYLINE
  5
25B
100
AcDbEntity
  8
ASSI
100
AcDbPolyline
 62
250
  6
CONTINUOUS
 90
9
 70
0
 10
-23.0002484896
 20
13.7040025304
 10
-23.0004163916
 20
13.6993081211
 10
-23.0023402756
 20
13.6873812256
 10
-23.0063967549
 20
13.6756264962
 10
-23.012544196
 20
13.6641738001
 10
-23.02071523
 20
13.6531509014
 10
-23.0308204257
 20
13.6426778592
 10
-23.0427517239
 20
13.6328661928
 10
-23.0563805195
 20
13.62382165
  0
LWPOLYLINE
  5
25C
100
AcDbEntity
  8
DRAFT
100
AcDbPolyline
 62
7
  6
CONTINUOUS
 90
3
 70
0
 10
-24.4870654577
 20
-13.2807625431
 10
-24.4980488648
 20
-13.4031847954
 10
-24.5022031849
 20
-13.5432906444
  0
LWPOLYLINE
  5
25D
100
AcDbEntity
  8
ASSI
100
AcDbPolyline
 62
250
  6
CONTINUOUS
 90
9
 70
0
 10
-21.1046421413
 20
12.914667635
 10
-21.1055935784
 20
12.9119197673
 10
-21.1056301108
 20
12.9046276145
 10
-21.1026660291
 20
12.8960941377
 10
-21.0967502308
 20
12.8864601109
 10
-21.087980307
 20
12.8758844641
 10
-21.0765009328
 20
12.8645416604
 10
-21.0625014798
 20
12.8526188189
 10
-21.0462128931
 20
12.8403126272
  0
LWPOLYLINE
  5
25E
100
AcDbEntity
  8
ASSI
100
AcDbPolyline
 62
250
  6
CONTINUOUS
 90
11
 70
0
 10
-20.7228298707
 20
13.7245381507
 10
-20.7234301164
 20
13.7230379707
 10
-20.7241616275
 20
13.7174979273
 10
-20.722958462
 20
13.7111252278
 10
-20.7198363478
 20
13.7039957375
 10
-20.7148341526
 20
13.696188068
 10
-20.7080093014
 20
13.6877855313
 10
-20.699445838
 20
13.6788854132
 10
-20.6892451584
 20
13.6695861528
 10
-20.6775201309
 20
13.6599848372
 10
-20.6644006225
 20
13.6501831429
  0
LWPOLYLINE
  5
25F
100
AcDbEntity
  8
ASSI
100
AcDbPolyline
 62
250
  6
CONTINUOUS
 90
10
 70
0
 10
-20.6644006225
 20
13.6501831429
 10
-20.6553634868
 20
13.6712664897
 10
-20.6447923055
 20
13.6919168877
 10
-20.6328300355
 20
13.7118550756
 10
-20.6196384458
 20
13.7308114238
 10
-20.6053959298
 20
13.7485295798
 10
-20.5902950932
 20
13.7647699357
 10
-20.5745401488
 20
13.7793128684
 10
-20.5583441551
 20
13.7919617093
 10
-20.5419261353
 20
13.8025454045
  0
LINE
  5
260
100
AcDbEntity
  8
ASSI
100
AcDbLine
 62
7
  6
CONTINUOUS
 10
-21.1046421413
 20
12.914667635
 11
-20.7228298707
 21
13.7245381507
  0
LINE
  5
261
100
AcDbEntity
  8
ASSI
100
AcDbLine
 62
250
  6
CONTINUOUS
 10
-21.0462128931
 20
12.8403126272
 11
-20.6644006225
 21
13.6501831429
  0
LWPOLYLINE
  5
262
100
AcDbEntity
  8
ASSI
100
AcDbPolyline
 62
7
  6
CONTINUOUS
 90
13
 70
0
 10
-21.1046412065
 20
12.9146696175
 10
-21.1148079635
 20
12.8943373119
 10
-21.1271349857
 20
12.8723339231
 10
-21.1407259461
 20
12.8505775914
 10
-21.1553949788
 20
12.8293752036
 10
-21.1709314055
 20
12.8090250951
 10
-21.187162939
 20
12.7897318012
 10
-21.2038589784
 20
12.7717300866
 10
-21.2207442603
 20
12.7552622927
 10
-21.2375034445
 20
12.7405518067
 10
-21.2537745241
 20
12.7277949534
 10
-21.2692103613
 20
12.7171145591
 10
-21.28273243
 20
12.7089696454
  0
LWPOLYLINE
  5
263
100
AcDbEntity
  8
ASSI
100
AcDbPolyline
 62
7
  6
CONTINUOUS
 90
6
 70
0
 10
-18.5883001933
 20
14.4621261054
 10
-18.5938151828
 20
14.454838333
 10
-18.5994311359
 20
14.4475927328
 10
-18.6051486764
 20
14.4403924559
 10
-18.6109691758
 20
14.4332413151
 10
-18.6118437826
 20
14.4321930055
  0
LINE
  5
264
100
AcDbEntity
  8
ASSI
100
AcDbLine
 62
250
  6
CONTINUOUS
 10
-24.1909632852
 20
13.2952799611
 11
-23.1977803366
 21
13.8687333171
  0
LINE
  5
265
100
AcDbEntity
  8
ASSI
100
AcDbLine
 62
250
  6
CONTINUOUS
 10
-24.1065268073
 20
13.0174782629
 11
-23.0563805195
 21
13.62382165
  0
LINE
  5
266
100
AcDbEntity
  8
RACCORDO
100
AcDbLine
 62
250
  6
CONTINUOUS
 10
-18.0433435771
 20
16.2897196001
 11
-20.1160752524
 21
15.1394777455
  0
LINE
  5
267
100
AcDbEntity
  8
RACCORDO
100
AcDbLine
 62
250
  6
CONTINUOUS
 10
-17.337198912
 20
16.1928215226
 11
-19.4188508753
 21
15.0382582431
  0
LINE
  5
268
100
AcDbEntity
  8
RACCORDO
100
AcDbLine
 62
250
  6
CONTINUOUS
 10
-15.9524493968
 20
17.4484647378
 11
-18.0433435771
 21
16.2897196001
  0
LINE
  5
269
100
AcDbEntity
  8
RACCORDO
100
AcDbLine
 62
250
  6
CONTINUOUS
 10
-15.2373321209
 20
17.3559850935
 11
-17.337198912
 21
16.1928215226
  0
LINE
  5
26A
100
AcDbEntity
  8
ASSI
100
AcDbLine
 62
250
  6
CONTINUOUS
 10
-21.1767173793
 20
14.586189401
 11
-23.0002484796
 21
13.5787327274
  0
LINE
  5
26B
100
AcDbEntity
  8
ASSI
100
AcDbLine
 62
250
  6
CONTINUOUS
 10
-20.5163745258
 20
14.4972927641
 11
-23.2708525495
 21
12.9758238551
  0
LINE
  5
26C
100
AcDbEntity
  8
RACCORDO
100
AcDbLine
 62
250
  6
CONTINUOUS
 10
-20.3828228731
 20
15.0227290575
 11
-21.1767173793
 21
14.586189401
  0
LINE
  5
26D
100
AcDbEntity
  8
RACCORDO
100
AcDbLine
 62
250
  6
CONTINUOUS
 10
-19.7310316382
 20
14.9291734378
 11
-20.5164337301
 21
14.4973269479
  0
LINE
  5
26E
100
AcDbEntity
  8
SUPERFICI
100
AcDbLine
 62
7
  6
CONTINUOUS
 10
-16.5896030215
 20
17.1292348216
 11
-22.9902847243
 21
13.6137984343
  0
LINE
  5
26F
100
AcDbEntity
  8
RACCORDO
100
AcDbLine
 62
7
  6
CONTINUOUS
 10
-20.5112478716
 20
14.9657920102
 11
-22.9066525941
 21
13.6532313006
  0
LINE
  5
270
100
AcDbEntity
  8
RACCORDO
100
AcDbLine
 62
250
  6
CONTINUOUS
 10
-20.506662607
 20
14.968068828
 11
-20.5111486263
 21
14.965610877
  0
LINE
  5
271
100
AcDbEntity
  8
ASSI
100
AcDbLine
 62
7
  6
CONTINUOUS
 10
-24.8221775421
 20
14.761972645
 11
-25.4016365838
 21
14.4503583245
  0
LINE
  5
272
100
AcDbEntity
  8
ASSI
100
AcDbLine
 62
250
  6
CONTINUOUS
 10
-24.7249842023
 20
14.7505216889
 11
-25.344497995
 21
14.4173672194
  0
LINE
  5
273
100
AcDbEntity
  8
RACCORDO
100
AcDbLine
 62
250
  6
CONTINUOUS
 10
-16.5896030213
 20
17.1292348216
 11
-16.428945655
 21
17.2154268677
  0
LWPOLYLINE
  5
274
100
AcDbEntity
  8
RACCORDO
100
AcDbPolyline
 62
250
  6
CONTINUOUS
 90
3
 70
0
 10
-16.4241063908
 20
17.2179539575
 10
-16.1911880177
 20
17.3358626188
 10
-15.9524493968
 20
17.4484647378
  0
LINE
  5
275
100
AcDbEntity
  8
RACCORDO
100
AcDbLine
 62
250
  6
CONTINUOUS
 10
-15.9389863692
 20
17.4552114719
 11
-15.9524493967
 21
17.4484647378
  0
LWPOLYLINE
  5
276
100
AcDbEntity
  8
ASSI
100
AcDbPolyline
 62
250
  6
CONTINUOUS
 90
9
 70
0
 10
-23.1977803366
 20
13.8687333171
 10
-23.1831769541
 20
13.8759958834
 10
-23.1687564831
 20
13.881416067
 10
-23.1546734271
 20
13.8849357965
 10
-23.141078685
 20
13.8865173617
 10
-23.1281179017
 20
13.8861438223
 10
-23.1159299129
 20
13.8838191742
 10
-23.1046452972
 20
13.8795683064
 10
-23.1002436475
 20
13.8772413483
  0
LINE
  5
277
100
AcDbEntity
  8
RACCORDO
100
AcDbLine
 62
250
  6
CONTINUOUS
 10
-20.5112478716
 20
14.9657920102
 11
-20.4971970038
 21
14.9727883939
  0
LINE
  5
278
100
AcDbEntity
  8
RACCORDO
100
AcDbLine
 62
250
  6
CONTINUOUS
 10
-20.3716409284
 20
15.0282061913
 11
-20.3828228731
 21
15.0227290575
  0
LWPOLYLINE
  5
279
100
AcDbEntity
  8
RACCORDO
100
AcDbPolyline
 62
7
  6
CONTINUOUS
 90
10
 70
0
 10
-15.9389863692
 20
17.4552114719
 10
-16.0125876248
 20
17.4213694776
 10
-16.0858651961
 20
17.3869309559
 10
-16.158817255
 20
17.3518968591
 10
-16.2314415956
 20
17.3162683472
 10
-16.3037368041
 20
17.2800462159
 10
-16.3757022404
 20
17.2432308652
 10
-16.447336482
 20
17.2058230789
 10
-16.5186373429
 20
17.1678240559
 10
-16.5896030215
 20
17.1292348216
  0
LINE
  5
27A
100
AcDbEntity
  8
RACCORDO
100
AcDbLine
 62
7
  6
CONTINUOUS
 10
-15.9386991571
 20
17.4553418073
 11
-15.9389863692
 21
17.4552114719
  0
LWPOLYLINE
  5
27B
100
AcDbEntity
  8
RACCORDO
100
AcDbPolyline
 62
250
  6
CONTINUOUS
 90
16
 70
0
 10
-26.4932428212
 20
-14.4350622786
 10
-26.4701780514
 20
-14.4470672738
 10
-26.4450875569
 20
-14.4576313301
 10
-26.4182401649
 20
-14.4666412607
 10
-26.3899235266
 20
-14.4740005307
 10
-26.3604410352
 20
-14.4796302905
 10
-26.3301085752
 20
-14.4834702211
 10
-26.2992511379
 20
-14.4854791803
 10
-26.2681993393
 20
-14.4856356436
 10
-26.237285878
 20
-14.4839379346
 10
-26.2068419702
 20
-14.4804042429
 10
-26.1771938013
 20
-14.4750724297
 10
-26.1486590309
 20
-14.4679996218
 10
-26.1215433893
 20
-14.4592615995
 10
-26.0961374017
 20
-14.4489519847
 10
-26.0727132757
 20
-14.4371812376
  0
LINE
  5
27C
100
AcDbEntity
  8
RACCORDO
100
AcDbLine
 62
250
  6
CONTINUOUS
 10
-13.1164022307
 20
-27.8421804957
 11
-13.1085331144
 21
-27.855810205
  0
LWPOLYLINE
  5
27D
100
AcDbEntity
  8
RACCORDO
100
AcDbPolyline
 62
7
  6
CONTINUOUS
 90
10
 70
0
 10
-18.9952554487
 20
-11.9159525852
 10
-18.9946661304
 20
-11.937968204
 10
-18.9919813906
 20
-11.9689204238
 10
-18.9870629563
 20
-12.0010955738
 10
-18.9798488961
 20
-12.0344254365
 10
-18.9703096338
 20
-12.0687313705
 10
-18.9583321663
 20
-12.1037778188
 10
-18.9438388939
 20
-12.1393737561
 10
-18.9268491282
 20
-12.1753868086
 10
-18.9073874836
 20
-12.211644226
  0
LINE
  5
27E
100
AcDbEntity
  8
DRAFT
100
AcDbLine
 62
7
  6
CONTINUOUS
 10
-21.064429293
 20
13.080050402
 11
-21.064429293
 21
12.9999640038
  0
LINE
  5
27F
100
AcDbEntity
  8
RACCORDO
100
AcDbLine
 62
250
  6
CONTINUOUS
 10
-20.9046307309
 20
-11.0584610064
 11
-20.9046307309
 21
-4.8332601216
  0
LINE
  5
280
100
AcDbEntity
  8
RACCORDO
100
AcDbLine
 62
250
  6
CONTINUOUS
 10
-20.4841011854
 20
-10.8156761866
 11
-20.4841011854
 21
-5.177519596
  0
LINE
  5
281
100
AcDbEntity
  8
DRAFT
100
AcDbLine
 62
7
  6
CONTINUOUS
 10
-19.9767197853
 20
-5.4704752574
 11
-19.9767197853
 21
-10.5227214966
  0
LINE
  5
282
100
AcDbEntity
  8
RACCORDO
100
AcDbLine
 62
250
  6
CONTINUOUS
 10
-19.7745045324
 20
-10.4059641127
 11
-19.7745045324
 21
-5.5872318101
  0
LINE
  5
283
100
AcDbEntity
  8
DRAFT
100
AcDbLine
 62
7
  6
CONTINUOUS
 10
-19.3403236823
 20
-5.8379223914
 11
-19.3403236823
 21
-10.1552743626
  0
LINE
  5
284
100
AcDbEntity
  8
0
100
AcDbLine
 62
250
  6
CONTINUOUS
 10
-19.1387951483
 20
14.6520480041
 11
-19.1387951483
 21
14.8765575763
  0
LINE
  5
285
100
AcDbEntity
  8
RACCORDO
100
AcDbLine
 62
7
  6
CONTINUOUS
 10
-18.9952554492
 20
-6.0371604641
 11
-18.9952554492
 21
-11.9159623472
  0
LINE
  5
286
100
AcDbEntity
  8
ASSI
100
AcDbLine
 62
250
  6
CONTINUOUS
 10
-19.5427491281
 20
13.4855424676
 11
-19.5430741737
 21
13.4796843443
  0
LINE
  5
287
100
AcDbEntity
  8
ASSI
100
AcDbLine
 62
250
  6
CONTINUOUS
 10
-16.7172587474
 20
14.9243250661
 11
-16.7141701492
 21
14.9418355749
  0
LWPOLYLINE
  5
288
100
AcDbEntity
  8
ASSI
100
AcDbPolyline
 62
250
  6
CONTINUOUS
 90
13
 70
0
 10
-19.3786671737
 20
13.4923073299
 10
-19.3730773371
 20
13.5164652333
 10
-19.3698502705
 20
13.5414091378
 10
-19.3690379143
 20
13.5667376151
 10
-19.3706533473
 20
13.5920430366
 10
-19.3746705775
 20
13.6169181627
 10
-19.3810249693
 20
13.6409626945
 10
-19.3896142737
 20
13.6637896687
 10
-19.4003002715
 20
13.6850317083
 10
-19.412911011
 20
13.7043469579
 10
-19.4272435595
 20
13.7214245508
 10
-19.4430672631
 20
13.7359896175
 10
-19.4601274691
 20
13.7478077265
  0
LWPOLYLINE
  5
289
100
AcDbEntity
  8
ASSI
100
AcDbPolyline
 62
250
  6
CONTINUOUS
 90
13
 70
0
 10
-17.7971076928
 20
13.5306697247
 10
-17.7915178222
 20
13.5548278299
 10
-17.7882907623
 20
13.5797719231
 10
-17.7874784477
 20
13.6051005658
 10
-17.7890939515
 20
13.6304061308
 10
-17.7931112745
 20
13.6552813621
 10
-17.7994657638
 20
13.6793259294
 10
-17.8080551532
 20
13.7021528708
 10
-17.8187412092
 20
13.7233948201
 10
-17.8313519553
 20
13.7427099194
 10
-17.8456844402
 20
13.7597873206
 10
-17.8615080035
 20
13.774352188
 10
-17.8785679882
 20
13.7861701213
  0
LWPOLYLINE
  5
28A
100
AcDbEntity
  8
ASSI
100
AcDbPolyline
 62
250
  6
CONTINUOUS
 90
13
 70
0
 10
-16.750506449
 20
13.708944871
 10
-16.7560964962
 20
13.6847857847
 10
-16.7593235252
 20
13.6598408698
 10
-16.760135657
 20
13.6345116179
 10
-16.7585198815
 20
13.609205702
 10
-16.7545022633
 20
13.5843303778
 10
-16.7481475078
 20
13.560285932
 10
-16.7395579345
 20
13.5374593111
 10
-16.7288718198
 20
13.5162178349
 10
-16.7162611432
 20
13.4969032647
 10
-16.7019288588
 20
13.4798263892
 10
-16.6861056437
 20
13.4652620102
 10
-16.6690461535
 20
13.4534444744
  0
LWPOLYLINE
  5
28B
100
AcDbEntity
  8
ASSI
100
AcDbPolyline
 62
250
  6
CONTINUOUS
 90
16
 70
0
 10
-17.199232146
 20
10.6191141578
 10
-17.2031908697
 20
10.604147403
 10
-17.2077814718
 20
10.589710858
 10
-17.2129226701
 20
10.5758670598
 10
-17.2185266956
 20
10.5626844408
 10
-17.2245271067
 20
10.5501852834
 10
-17.2308856162
 20
10.5383511136
 10
-17.2374847243
 20
10.5272924502
 10
-17.2443181719
 20
10.516936598
 10
-17.251550662
 20
10.507019497
 10
-17.2591202705
 20
10.4976068373
 10
-17.2670254629
 20
10.4887218595
 10
-17.2755644611
 20
10.4801327455
 10
-17.2848266681
 20
10.4718697764
 10
-17.2946680373
 20
10.4641575102
 10
-17.3050410845
 20
10.4571294173
  0
LWPOLYLINE
  5
28C
100
AcDbEntity
  8
ASSI
100
AcDbPolyline
 62
250
  6
CONTINUOUS
 90
14
 70
0
 10
-16.7141701492
 20
14.9418355749
 10
-16.709060103
 20
14.9593855224
 10
-16.7019846012
 20
14.9767826237
 10
-16.6930211673
 20
14.993836277
 10
-16.6822680026
 20
15.0103596504
 10
-16.6698429181
 20
15.0261717139
 10
-16.6558820475
 20
15.0410992238
 10
-16.640538349
 20
15.0549786314
 10
-16.6239799321
 20
15.0676578706
 10
-16.6063882133
 20
15.0789980259
 10
-16.5879559279
 20
15.088874854
 10
-16.5688850223
 20
15.097180142
 10
-16.5493844419
 20
15.103822894
 10
-16.529667839
 20
15.1087303298
  0
LINE
  5
28D
100
AcDbEntity
  8
ASSI
100
AcDbLine
 62
250
  6
CONTINUOUS
 10
-16.9278464287
 20
11.4927435815
 11
-17.1992314228
 21
10.6191137402
  0
LINE
  5
28E
100
AcDbEntity
  8
ASSI
100
AcDbLine
 62
250
  6
CONTINUOUS
 10
-16.6620420504
 20
11.4161349017
 11
-16.9334270445
 21
10.5425050604
  0
LWPOLYLINE
  5
28F
100
AcDbEntity
  8
ASSI
100
AcDbPolyline
 62
250
  6
CONTINUOUS
 90
16
 70
0
 10
-16.9334270445
 20
10.5425050604
 10
-16.9434198311
 20
10.5134477482
 10
-16.9542546273
 20
10.4856021773
 10
-16.965931433
 20
10.4589683479
 10
-16.9785655802
 20
10.4335122263
 10
-16.992041737
 20
10.4092678461
 10
-17.0060139073
 20
10.386337308
 10
-17.0203118145
 20
10.3648793489
 10
-17.0351057353
 20
10.3447352318
 10
-17.0505605041
 20
10.3255308467
 10
-17.0665749647
 20
10.3071834209
 10
-17.0832502733
 20
10.289775727
 10
-17.101054733
 20
10.2731819722
 10
-17.1201444446
 20
10.2573602255
 10
-17.1403633073
 20
10.242352418
 10
-17.161711321
 20
10.2281585496
  0
LWPOLYLINE
  5
290
100
AcDbEntity
  8
ASSI
100
AcDbPolyline
 62
7
  6
CONTINUOUS
 90
7
 70
0
 10
-16.700266576
 20
14.8949977678
 10
-16.6999111977
 20
14.8955525579
 10
-16.7004490693
 20
14.8949288008
 10
-16.7031931665
 20
14.8921464901
 10
-16.7083662989
 20
14.88776025
 10
-16.7158190626
 20
14.8824191242
 10
-16.726271185
 20
14.876075906
  0
LINE
  5
291
100
AcDbEntity
  8
ASSI
100
AcDbLine
 62
7
  6
CONTINUOUS
 10
-14.2418012845
 20
13.1010849261
 11
-13.7011208814
 21
13.7912042403
  0
LINE
  5
292
100
AcDbEntity
  8
ASSI
100
AcDbLine
 62
250
  6
CONTINUOUS
 10
-14.1518156571
 20
13.0491283527
 11
-13.5927142517
 21
13.7627600588
  0
LWPOLYLINE
  5
293
100
AcDbEntity
  8
ASSI
100
AcDbPolyline
 62
250
  6
CONTINUOUS
 90
10
 70
0
 10
-13.7011186183
 20
13.7912071281
 10
-13.6963853435
 20
13.7949400475
 10
-13.6896189595
 20
13.7968565941
 10
-13.6808285966
 20
13.7970237626
 10
-13.6701140977
 20
13.795442313
 10
-13.6575943823
 20
13.7921319763
 10
-13.6434239979
 20
13.7871372557
 10
-13.6277699393
 20
13.7805224988
 10
-13.6108036941
 20
13.7723651181
 10
-13.5927142517
 20
13.7627600588
  0
LWPOLYLINE
  5
294
100
AcDbEntity
  8
RACCORDO
100
AcDbPolyline
 62
250
  6
CONTINUOUS
 90
8
 70
0
 10
-15.0631010291
 20
13.7309546705
 10
-15.0839891365
 20
13.7162247673
 10
-15.1023362709
 20
13.7004602102
 10
-15.1179421189
 20
13.6838331191
 10
-15.1306362971
 20
13.6665250314
 10
-15.1402802126
 20
13.6487249187
 10
-15.1467685755
 20
13.6306271247
 10
-15.1477685034
 20
13.6250487306
  0
LWPOLYLINE
  5
295
100
AcDbEntity
  8
RACCORDO
100
AcDbPolyline
 62
250
  6
CONTINUOUS
 90
9
 70
0
 10
-11.499291494
 20
15.8139892479
 10
-11.5314746979
 20
15.7927590297
 10
-11.5648828573
 20
15.7710928382
 10
-11.5995159721
 20
15.7489906734
 10
-11.6353755556
 20
15.7264311036
 10
-11.6724600946
 20
15.7034355606
 10
-11.7107650499
 20
15.6800683392
 10
-11.7502889083
 20
15.6563508712
 10
-11.791033183
 20
15.6322617248
  0
LWPOLYLINE
  5
296
100
AcDbEntity
  8
RACCORDO
100
AcDbPolyline
 62
250
  6
CONTINUOUS
 90
19
 70
0
 10
-12.6996284294
 20
15.1074192867
 10
-12.7184061545
 20
15.0954968469
 10
-12.7368597006
 20
15.0816333623
 10
-12.7548409451
 20
15.0659392178
 10
-12.7722338726
 20
15.048494135
 10
-12.788864457
 20
15.0294726434
 10
-12.8045160958
 20
15.0091737319
 10
-12.8191453538
 20
14.9876475784
 10
-12.8325684123
 20
14.9651972339
 10
-12.8444598117
 20
14.9425960176
 10
-12.8546696624
 20
14.9204216793
 10
-12.8634110797
 20
14.8985273816
 10
-12.8709354
 20
14.8766020128
 10
-12.877179142
 20
14.8550028804
 10
-12.8822063948
 20
14.8336299124
 10
-12.8862260983
 20
14.8114616396
 10
-12.8891029044
 20
14.7882786162
 10
-12.8905574984
 20
14.7646546397
 10
-12.8903977561
 20
14.7408162075
  0
LWPOLYLINE
  5
297
100
AcDbEntity
  8
RACCORDO
100
AcDbPolyline
 62
250
  6
CONTINUOUS
 90
12
 70
0
 10
-12.9114697373
 20
15.4618556601
 10
-12.9496035178
 20
15.437653806
 10
-12.9866751671
 20
15.410152441
 10
-13.0226846854
 20
15.3793515652
 10
-13.0579517892
 20
15.3448509968
 10
-13.0921567618
 20
15.3070509176
 10
-13.1243404538
 20
15.2671518727
 10
-13.1544851532
 20
15.2247985208
 10
-13.182608572
 20
15.1803462033
 10
-13.2078046959
 20
15.1360614887
 10
-13.2296075016
 20
15.0926828073
 10
-13.2484830125
 20
15.0494717288
  0
LWPOLYLINE
  5
298
100
AcDbEntity
  8
RACCORDO
100
AcDbPolyline
 62
250
  6
CONTINUOUS
 90
18
 70
0
 10
-9.8379609641
 20
17.1503409333
 10
-9.9158158281
 20
17.1017336272
 10
-9.9909984634
 20
17.0506354727
 10
-10.0633200971
 20
16.9969494245
 10
-10.1319409269
 20
16.9411600915
 10
-10.1973719734
 20
16.8826380195
 10
-10.2609376854
 20
16.8195697489
 10
-10.3222946209
 20
16.7512400265
 10
-10.3798277031
 20
16.6783283131
 10
-10.4324549836
 20
16.6010651264
 10
-10.4794294793
 20
16.5192939235
 10
-10.5196372364
 20
16.4334087861
 10
-10.551821776
 20
16.3445663227
 10
-10.575380984
 20
16.2527887165
 10
-10.5896176272
 20
16.1584399054
 10
-10.5939030632
 20
16.0632656315
 10
-10.5881577499
 20
15.9679549804
 10
-10.5723367714
 20
15.8725179246
  0
LWPOLYLINE
  5
299
100
AcDbEntity
  8
RACCORDO
100
AcDbPolyline
 62
250
  6
CONTINUOUS
 90
16
 70
0
 10
-9.7903504893
 20
16.9189889517
 10
-9.8668692651
 20
16.8714962724
 10
-9.9408019906
 20
16.8214731896
 10
-10.0118490267
 20
16.7689338531
 10
-10.0789964605
 20
16.714531204
 10
-10.1427358214
 20
16.6577075956
 10
-10.2045834689
 20
16.5965217855
 10
-10.2643875178
 20
16.5300997182
 10
-10.3205173436
 20
16.4591439381
 10
-10.3718479064
 20
16.3839934199
 10
-10.4176272227
 20
16.3045109055
 10
-10.4568129089
 20
16.2209747105
 10
-10.4881755068
 20
16.1344804194
 10
-10.5111134759
 20
16.0451222329
 10
-10.5249527066
 20
15.9532957144
 10
-10.5291231406
 20
15.8705897076
  0
LINE
  5
29A
100
AcDbEntity
  8
RACCORDO
100
AcDbLine
 62
7
  6
CONTINUOUS
 10
-6.3759784622
 20
18.7824164944
 11
-8.9107121684
 21
17.2129797142
  0
LINE
  5
29B
100
AcDbEntity
  8
DRAFT
100
AcDbLine
 62
7
  6
CONTINUOUS
 10
-9.7903504893
 20
16.6761411351
 11
-8.9107121684
 21
17.2116042884
  0
LINE
  5
29C
100
AcDbEntity
  8
RACCORDO
100
AcDbLine
 62
250
  6
CONTINUOUS
 10
-10.2476888201
 20
17.7729485135
 11
-7.2292303033
 21
19.578856736
  0
LINE
  5
29D
100
AcDbEntity
  8
RACCORDO
100
AcDbLine
 62
250
  6
CONTINUOUS
 10
-9.9341324121
 20
17.3966705335
 11
-6.9157414024
 21
19.202538335
  0
LINE
  5
29E
100
AcDbEntity
  8
RACCORDO
100
AcDbLine
 62
250
  6
CONTINUOUS
 10
-6.5745642534
 20
19.1027957193
 11
-9.8379618922
 21
17.1503433107
  0
LINE
  5
29F
100
AcDbEntity
  8
RACCORDO
100
AcDbLine
 62
250
  6
CONTINUOUS
 10
-6.5285461882
 20
18.8704895453
 11
-9.7903504893
 21
16.9189903776
  0
LINE
  5
2A0
100
AcDbEntity
  8
ASSI
100
AcDbLine
 62
250
  6
CONTINUOUS
 10
-14.5586342612
 20
15.5814968714
 11
-17.4244111684
 21
13.9268332018
  0
LINE
  5
2A1
100
AcDbEntity
  8
ASSI
100
AcDbLine
 62
250
  6
CONTINUOUS
 10
-14.417406718
 20
15.3452059531
 11
-17.2831836253
 21
13.6905422835
  0
LINE
  5
2A2
100
AcDbEntity
  8
ASSI
100
AcDbLine
 62
250
  6
CONTINUOUS
 10
-16.9621222415
 20
13.6431149939
 11
-18.3885771053
 21
12.8194978332
  0
LINE
  5
2A3
100
AcDbEntity
  8
ASSI
100
AcDbLine
 62
250
  6
CONTINUOUS
 10
-16.8208946983
 20
13.4068240756
 11
-18.1133425792
 21
12.6605808674
  0
LINE
  5
2A4
100
AcDbEntity
  8
RACCORDO
100
AcDbLine
 62
250
  6
CONTINUOUS
 10
-12.0448391887
 20
15.9622372774
 11
-12.9114697373
 21
15.4618556601
  0
LINE
  5
2A5
100
AcDbEntity
  8
RACCORDO
100
AcDbLine
 62
250
  6
CONTINUOUS
 10
-15.5078547201
 20
13.9627355114
 11
-15.9121868665
 21
13.7292791975
  0
LINE
  5
2A6
100
AcDbEntity
  8
RACCORDO
100
AcDbLine
 62
250
  6
CONTINUOUS
 10
-11.791033183
 20
15.6322617248
 11
-12.6996284225
 21
15.1074192827
  0
LINE
  5
2A7
100
AcDbEntity
  8
RACCORDO
100
AcDbLine
 62
250
  6
CONTINUOUS
 10
-15.2960134053
 20
13.608299134
 11
-15.5409660335
 21
13.4668665565
  0
LWPOLYLINE
  5
2A8
100
AcDbEntity
  8
ASSI
100
AcDbPolyline
 62
250
  6
CONTINUOUS
 90
13
 70
0
 10
-21.185352427
 20
12.6975725547
 10
-21.172682694
 20
12.7048744338
 10
-21.1600325011
 20
12.7131706781
 10
-21.1474860922
 20
12.7223747143
 10
-21.1352320051
 20
12.7322956984
 10
-21.1232283368
 20
12.7429225137
 10
-21.1112365046
 20
12.7545032976
 10
-21.0992206432
 20
12.7671552621
 10
-21.0874465766
 20
12.7806806339
 10
-21.0761500963
 20
12.794883721
 10
-21.0654678704
 20
12.8096172608
 10
-21.0554564849
 20
12.8248024805
 10
-21.0462108784
 20
12.8403114639
  0
LWPOLYLINE
  5
2A9
100
AcDbEntity
  8
ASSI
100
AcDbPolyline
 62
250
  6
CONTINUOUS
 90
16
 70
0
 10
-17.4244111684
 20
13.9268332018
 10
-17.4567868837
 20
13.9087511481
 10
-17.488390109
 20
13.8922526711
 10
-17.5191961267
 20
13.8772691592
 10
-17.548941138
 20
13.863838752
 10
-17.5778531039
 20
13.8517672925
 10
-17.606642718
 20
13.8407106095
 10
-17.6353184139
 20
13.8306577691
 10
-17.6638308654
 20
13.8216266292
 10
-17.692785809
 20
13.8134536439
 10
-17.7222141585
 20
13.8061883528
 10
-17.7520144273
 20
13.7999215036
 10
-17.7825678719
 20
13.7946650633
 10
-17.8139576048
 20
13.7905255996
 10
-17.8459803261
 20
13.7876516058
 10
-17.8785679882
 20
13.7861701213
  0
LINE
  5
2AA
100
AcDbEntity
  8
ASSI
100
AcDbLine
 62
7
  6
CONTINUOUS
 10
-20.6393144696
 20
13.8139382472
 11
-20.4980539899
 21
13.8926912789
  0
LINE
  5
2AB
100
AcDbEntity
  8
ASSI
100
AcDbLine
 62
250
  6
CONTINUOUS
 10
-20.5419261353
 20
13.8025454045
 11
-20.4006656953
 21
13.881298414
  0
LINE
  5
2AC
100
AcDbEntity
  8
ASSI
100
AcDbLine
 62
7
  6
CONTINUOUS
 10
-22.4475283357
 20
12.0595933376
 11
-21.2827404132
 21
12.7089651954
  0
LINE
  5
2AD
100
AcDbEntity
  8
ASSI
100
AcDbLine
 62
250
  6
CONTINUOUS
 10
-22.3896486526
 20
12.026174334
 11
-21.185352078
 21
12.6975723532
  0
LINE
  5
2AE
100
AcDbEntity
  8
ASSI
100
AcDbLine
 62
7
  6
CONTINUOUS
 10
-17.9574450567
 20
14.1897035575
 11
-16.7263964274
 21
14.8760062744
  0
LINE
  5
2AF
100
AcDbEntity
  8
ASSI
100
AcDbLine
 62
250
  6
CONTINUOUS
 10
-17.8599964503
 20
14.1783346843
 11
-16.6290080604
 21
14.8646134499
  0
LINE
  5
2B0
100
AcDbEntity
  8
ASSI
100
AcDbLine
 62
7
  6
CONTINUOUS
 10
-16.7263964274
 20
14.8760062744
 11
-16.7262711887
 21
14.8760759125
  0
LINE
  5
2B1
100
AcDbEntity
  8
ASSI
100
AcDbLine
 62
250
  6
CONTINUOUS
 10
-20.6393144696
 20
13.8139382472
 11
-20.6391476905
 21
13.814030903
  0
LWPOLYLINE
  5
2B2
100
AcDbEntity
  8
ASSI
100
AcDbPolyline
 62
250
  6
CONTINUOUS
 90
16
 70
0
 10
-17.2831836253
 20
13.6905422835
 10
-17.3199105306
 20
13.6701775689
 10
-17.3557070381
 20
13.6514469411
 10
-17.3905731478
 20
13.6343504003
 10
-17.4242554918
 20
13.6190433888
 10
-17.4570074381
 20
13.6053704643
 10
-17.4895890897
 20
13.5928652993
 10
-17.5220468368
 20
13.5814077048
 10
-17.5543342893
 20
13.57111787
 10
-17.5870723806
 20
13.5618900352
 10
-17.6203606261
 20
13.553612791
 10
-17.6540995103
 20
13.5463975469
 10
-17.6886114203
 20
13.5404727713
 10
-17.7240038186
 20
13.5359146205
 10
-17.7601692428
 20
13.5326469383
 10
-17.7971076928
 20
13.5306697247
  0
LWPOLYLINE
  5
2B3
100
AcDbEntity
  8
ASSI
100
AcDbPolyline
 62
7
  6
CONTINUOUS
 90
16
 70
0
 10
-15.0413944782
 20
15.8153986093
 10
-15.8096941403
 20
15.3870754972
 10
-15.8219752869
 20
15.3808665367
 10
-15.8365812202
 20
15.3745935688
 10
-15.8533623999
 20
15.3685400043
 10
-15.8722670058
 20
15.3629118645
 10
-15.8930265879
 20
15.3579514029
 10
-15.9154581729
 20
15.3538415578
 10
-15.9392744831
 20
15.3507534838
 10
-15.9639821477
 20
15.3488339894
 10
-15.9893110297
 20
15.3481646349
 10
-16.0148516562
 20
15.348798107
 10
-16.0398571082
 20
15.3507055599
 10
-16.0639947705
 20
15.3538129905
 10
-16.0869008844
 20
15.3580011175
 10
-16.0929529885
 20
15.3593245132
  0
LINE
  5
2B4
100
AcDbEntity
  8
ASSI
100
AcDbLine
 62
250
  6
CONTINUOUS
 10
-14.9353089378
 20
15.8088094842
 11
-15.7111296509
 21
15.376332705
  0
LWPOLYLINE
  5
2B5
100
AcDbEntity
  8
ASSI
100
AcDbPolyline
 62
7
  6
CONTINUOUS
 90
10
 70
0
 10
-17.9574450567
 20
14.1897035575
 10
-17.9697218141
 20
14.1829342497
 10
-18.0325473406
 20
14.1505737142
 10
-18.0939456616
 20
14.1227381417
 10
-18.1534332821
 20
14.0995344161
 10
-18.2108370511
 20
14.0808941429
 10
-18.2662059887
 20
14.0666797307
 10
-18.3193055653
 20
14.0568640113
 10
-18.3697253859
 20
14.0514163357
 10
-18.3776423879
 20
14.0509362351
  0
LWPOLYLINE
  5
2B6
100
AcDbEntity
  8
ASSI
100
AcDbPolyline
 62
250
  6
CONTINUOUS
 90
13
 70
0
 10
-20.4006656953
 20
13.881298414
 10
-20.3879283608
 20
13.8882565113
 10
-20.3755721451
 20
13.8945288081
 10
-20.3636099564
 20
13.9001499834
 10
-20.3520587515
 20
13.9051543045
 10
-20.3409203879
 20
13.9095787599
 10
-20.3301820181
 20
13.9134609821
 10
-20.3198458352
 20
13.9168356683
 10
-20.3099173343
 20
13.9197359735
 10
-20.3003864746
 20
13.9221945367
 10
-20.291251585
 20
13.9242440901
 10
-20.282513678
 20
13.9259161647
 10
-20.2741650852
 20
13.9272398849
  0
LINE
  5
2B7
100
AcDbEntity
  8
RACCORDO
100
AcDbLine
 62
7
  6
CONTINUOUS
 10
-14.0786355922
 20
16.8242456955
 11
-14.0785315735
 21
16.8243017286
  0
LINE
  5
2B8
100
AcDbEntity
  8
ASSI
100
AcDbLine
 62
7
  6
CONTINUOUS
 10
-14.0785313309
 20
16.824301859
 11
-18.471936208
 21
14.4616708923
  0
LINE
  5
2B9
100
AcDbEntity
  8
RACCORDO
100
AcDbLine
 62
7
  6
CONTINUOUS
 10
-8.1850272813
 20
19.9520528918
 11
-13.9549826479
 21
16.8491576187
  0
LINE
  5
2BA
100
AcDbEntity
  8
RACCORDO
100
AcDbLine
 62
250
  6
CONTINUOUS
 10
-13.9567801756
 20
16.810127704
 11
-18.3504438182
 21
14.4473575816
  0
LINE
  5
2BB
100
AcDbEntity
  8
RACCORDO
100
AcDbLine
 62
250
  6
CONTINUOUS
 10
-7.7962539221
 20
19.906249067
 11
-13.7042280551
 21
16.7291317678
  0
LWPOLYLINE
  5
2BC
100
AcDbEntity
  8
RACCORDO
100
AcDbPolyline
 62
250
  6
CONTINUOUS
 90
22
 70
0
 10
-18.3504438182
 20
14.4473575816
 10
-18.3583011188
 20
14.4432715796
 10
-18.3664034405
 20
14.4393256755
 10
-18.3747507831
 20
14.4355198693
 10
-18.383344222
 20
14.4318535682
 10
-18.3921826819
 20
14.4283273651
 10
-18.4012629374
 20
14.4249430383
 10
-18.4105784531
 20
14.4217005966
 10
-18.4201357645
 20
14.4186000313
 10
-18.4299512525
 20
14.4156430952
 10
-18.440044667
 20
14.4128235669
 10
-18.450396258
 20
14.4101476677
 10
-18.4609631561
 20
14.4076358145
 10
-18.4717452223
 20
14.4052897569
 10
-18.4827425956
 20
14.4031077452
 10
-18.4939128237
 20
14.4011049467
 10
-18.5052542109
 20
14.3992828252
 10
-18.5167684529
 20
14.3976399169
 10
-18.5284181837
 20
14.3961869982
 10
-18.5402033142
 20
14.3949249302
 10
-18.5521239335
 20
14.3938528518
 10
-18.5641429435
 20
14.392978956
  0
LWPOLYLINE
  5
2BD
100
AcDbEntity
  8
RACCORDO
100
AcDbPolyline
 62
250
  6
CONTINUOUS
 90
13
 70
0
 10
-7.2292303033
 20
19.578856736
 10
-7.1895228947
 20
19.5994871801
 10
-7.1509588316
 20
19.6159393396
 10
-7.113681327
 20
19.6284770781
 10
-7.0781927416
 20
19.637273671
 10
-7.0441545959
 20
19.6427919852
 10
-7.0104708312
 20
19.6454498926
 10
-6.9773259251
 20
19.6452909906
 10
-6.9447432201
 20
19.6422988951
 10
-6.9115629436
 20
19.6362106365
 10
-6.8776166354
 20
19.6266135829
 10
-6.8436013125
 20
19.613293079
 10
-6.8098049346
 20
19.5959837557
  0
LWPOLYLINE
  5
2BE
100
AcDbEntity
  8
ASSI
100
AcDbPolyline
 62
250
  6
CONTINUOUS
 90
8
 70
0
 10
-20.4980539899
 20
13.8926912789
 10
-20.4945222755
 20
13.8945195637
 10
-20.4811757857
 20
13.8992241125
 10
-20.4666002252
 20
13.901162389
 10
-20.451018094
 20
13.900304751
 10
-20.434667251
 20
13.8966642498
 10
-20.4177972776
 20
13.8902964156
 10
-20.4006656953
 20
13.881298414
  0
LINE
  5
2BF
100
AcDbEntity
  8
ASSI
100
AcDbLine
 62
250
  6
CONTINUOUS
 10
-15.0378612261
 20
15.8172276308
 11
-15.0413944782
 21
15.8153986093
  0
LWPOLYLINE
  5
2C0
100
AcDbEntity
  8
ASSI
100
AcDbPolyline
 62
250
  6
CONTINUOUS
 90
8
 70
0
 10
-21.2827324299
 20
12.7089696454
 10
-21.2792068938
 20
12.710794345
 10
-21.2658603116
 20
12.7154984808
 10
-21.2512848265
 20
12.7174363731
 10
-21.2357029249
 20
12.7165784504
 10
-21.2193524569
 20
12.7129378151
 10
-21.2024830068
 20
12.7065700469
 10
-21.185352078
 20
12.6975723532
  0
LWPOLYLINE
  5
2C1
100
AcDbEntity
  8
ASSI
100
AcDbPolyline
 62
250
  6
CONTINUOUS
 90
8
 70
0
 10
-15.8084893016
 20
15.3877415293
 10
-15.8049847333
 20
15.3895545692
 10
-15.7916381641
 20
15.3942587664
 10
-15.7770626668
 20
15.3961967158
 10
-15.76148073
 20
15.3953388353
 10
-15.7451302056
 20
15.3916982203
 10
-15.7282606771
 20
15.3853304431
 10
-15.7111296509
 20
15.376332705
  0
LINE
  5
2C2
100
AcDbEntity
  8
RACCORDO
100
AcDbLine
 62
250
  6
CONTINUOUS
 10
-14.0785315735
 20
16.8243017286
 11
-14.0761404153
 21
16.8255382412
  0
LWPOLYLINE
  5
2C3
100
AcDbEntity
  8
ASSI
100
AcDbPolyline
 62
250
  6
CONTINUOUS
 90
8
 70
0
 10
-16.7262711887
 20
14.8760759125
 10
-16.7228631847
 20
14.8778352914
 10
-16.7095166143
 20
14.8825394911
 10
-16.6949411153
 20
14.8844774421
 10
-16.6793591768
 20
14.8836195623
 10
-16.6630086508
 20
14.8799789474
 10
-16.6461391211
 20
14.8736111698
 10
-16.629008094
 20
14.8646134312
  0
LWPOLYLINE
  5
2C4
100
AcDbEntity
  8
ASSI
100
AcDbPolyline
 62
250
  6
CONTINUOUS
 90
8
 70
0
 10
-17.9573888963
 20
14.1897349129
 10
-17.953851532
 20
14.1915565489
 10
-17.9405049624
 20
14.1962607463
 10
-17.9259294648
 20
14.1981986959
 10
-17.9103475279
 20
14.1973408156
 10
-17.8939970037
 20
14.1937002004
 10
-17.8771274758
 20
14.1873324229
 10
-17.8599964503
 20
14.1783346843
  0
LWPOLYLINE
  5
2C5
100
AcDbEntity
  8
ASSI
100
AcDbPolyline
 62
250
  6
CONTINUOUS
 90
8
 70
0
 10
-20.6391476905
 20
13.814030903
 10
-20.6356798966
 20
13.8158157055
 10
-20.6222930543
 20
13.820504992
 10
-20.6076721521
 20
13.8224158958
 10
-20.5920740684
 20
13.821522701
 10
-20.5757536623
 20
13.8178586518
 10
-20.5589521713
 20
13.8114956477
 10
-20.5419261353
 20
13.8025454045
  0
LWPOLYLINE
  5
2C6
100
AcDbEntity
  8
RACCORDO
100
AcDbPolyline
 62
250
  6
CONTINUOUS
 90
13
 70
0
 10
-6.9157414024
 20
19.202538335
 10
-6.9008552084
 20
19.2101425078
 10
-6.8861935997
 20
19.2162191981
 10
-6.8717565762
 20
19.2207684059
 10
-6.8576465448
 20
19.2236954353
 10
-6.8437610987
 20
19.2250949823
 10
-6.8297930174
 20
19.2252511342
 10
-6.8157691186
 20
19.2243421656
 10
-6.8016625846
 20
19.222189802
 10
-6.7870857408
 20
19.2185433074
 10
-6.7719093623
 20
19.2133191034
 10
-6.7562626742
 20
19.2066007684
 10
-6.7401456762
 20
19.1983883026
  0
LWPOLYLINE
  5
2C7
100
AcDbEntity
  8
RACCORDO
100
AcDbPolyline
 62
250
  6
CONTINUOUS
 90
10
 70
0
 10
-7.7962539221
 20
19.906249067
 10
-7.748087375
 20
19.9307123239
 10
-7.7003431388
 20
19.9502041085
 10
-7.6533686158
 20
19.9645825923
 10
-7.6075056074
 20
19.973743153
 10
-7.5630878274
 20
19.9776191355
 10
-7.5204384735
 20
19.9761823369
 10
-7.4798678759
 20
19.9694432117
 10
-7.4416712392
 20
19.9574507961
 10
-7.406126494
 20
19.9402923505
  0
LWPOLYLINE
  5
2C8
100
AcDbEntity
  8
ASSI
100
AcDbPolyline
 62
250
  6
CONTINUOUS
 90
6
 70
0
 10
-15.7111296509
 20
15.376332705
 10
-15.7398236272
 20
15.3617927113
 10
-15.7703763002
 20
15.3490419235
 10
-15.8027876699
 20
15.3380803419
 10
-15.8374288927
 20
15.3288142278
 10
-15.8739288122
 20
15.3213373197
  0
LWPOLYLINE
  5
2C9
100
AcDbEntity
  8
ASSI
100
AcDbPolyline
 62
250
  6
CONTINUOUS
 90
4
 70
0
 10
-19.526521202
 20
13.5008804098
 10
-19.534377773
 20
13.4969079792
 10
-19.539863021
 20
13.4917574367
 10
-19.5427491281
 20
13.4855424676
  0
LWPOLYLINE
  5
2CA
100
AcDbEntity
  8
RACCORDO
100
AcDbPolyline
 62
7
  6
CONTINUOUS
 90
21
 70
0
 10
-18.4719489015
 20
14.4616640877
 10
-18.4772905165
 20
14.4589668763
 10
-18.4865783057
 20
14.4549112319
 10
-18.4983661558
 20
14.4505744048
 10
-18.5126465837
 20
14.4462056008
 10
-18.5292421532
 20
14.4420727923
 10
-18.5478574873
 20
14.4384229177
 10
-18.5682441071
 20
14.4354457491
 10
-18.5901876977
 20
14.4332964845
 10
-18.6134321159
 20
14.4321120725
 10
-18.6377920839
 20
14.4320081635
 10
-18.6628794137
 20
14.4330815787
 10
-18.6881067579
 20
14.4353655452
 10
-18.7131665291
 20
14.438859749
 10
-18.7377246428
 20
14.4435311782
 10
-18.7611719967
 20
14.4492365601
 10
-18.7832863338
 20
14.4558541199
 10
-18.8038209337
 20
14.4632215117
 10
-18.8222939571
 20
14.4710199775
 10
-18.8386422695
 20
14.4790198779
 10
-18.8490690411
 20
14.4847636344
  0
LINE
  5
2CB
100
AcDbEntity
  8
ASSI
100
AcDbLine
 62
7
  6
CONTINUOUS
 10
-21.064429293
 20
13.080050402
 11
-22.7536553905
 21
12.2363472624
  0
LWPOLYLINE
  5
2CC
100
AcDbEntity
  8
RACCORDO
100
AcDbPolyline
 62
250
  6
CONTINUOUS
 90
9
 70
0
 10
-18.471936208
 20
14.4616708923
 10
-18.4674232589
 20
14.463924453
 10
-18.4530944184
 20
14.4690399736
 10
-18.4376751216
 20
14.4716633825
 10
-18.4213342405
 20
14.4717659481
 10
-18.4042507422
 20
14.4693465466
 10
-18.3866117246
 20
14.4644316755
 10
-18.368610367
 20
14.457075164
 10
-18.3504438182
 20
14.4473575816
  0
LINE
  5
2CD
100
AcDbEntity
  8
RACCORDO
100
AcDbLine
 62
7
  6
CONTINUOUS
 10
-22.9021739038
 20
13.6554716332
 11
-23.0002484796
 21
13.6090859421
  0
LINE
  5
2CE
100
AcDbEntity
  8
ASSI
100
AcDbLine
 62
250
  6
CONTINUOUS
 10
-17.6750231291
 20
14.890224957
 11
-18.5883001933
 21
14.4621261054
  0
LINE
  5
2CF
100
AcDbEntity
  8
RACCORDO
100
AcDbLine
 62
7
  6
CONTINUOUS
 10
-18.5883001933
 20
14.8520144222
 11
-14.3192989337
 21
16.8259242369
  0
LWPOLYLINE
  5
2D0
100
AcDbEntity
  8
RACCORDO
100
AcDbPolyline
 62
250
  6
CONTINUOUS
 90
10
 70
0
 10
-8.1850272813
 20
19.9520528918
 10
-8.155668636
 20
19.9656182272
 10
-8.1166768743
 20
19.9776044827
 10
-8.0753219383
 20
19.9840347282
 10
-8.031914244
 20
19.9848598359
 10
-7.9867880503
 20
19.9800726315
 10
-7.9402996724
 20
19.9697131317
 10
-7.8928080857
 20
19.9538663561
 10
-7.8446708023
 20
19.9326565139
 10
-7.7962539221
 20
19.906249067
  0
LINE
  5
2D1
100
AcDbEntity
  8
0
100
AcDbLine
 62
7
  6
CONTINUOUS
 10
-20.2822719543
 20
15.0666515512
 11
-20.3394457525
 21
15.040713615
  0
LINE
  5
2D2
100
AcDbEntity
  8
ASSI
100
AcDbLine
 62
7
  6
CONTINUOUS
 10
-21.064429293
 20
13.080050402
 11
-21.0165797956
 21
13.1014586389
  0
LINE
  5
2D3
100
AcDbEntity
  8
RACCORDO
100
AcDbLine
 62
7
  6
CONTINUOUS
 10
-20.4554470854
 20
14.9914518239
 11
-20.4971970038
 21
14.9727883939
  0
LINE
  5
2D4
100
AcDbEntity
  8
RACCORDO
100
AcDbLine
 62
250
  6
CONTINUOUS
 10
-20.506662607
 20
14.968068828
 11
-20.4517338228
 21
14.992571757
  0
LINE
  5
2D5
100
AcDbEntity
  8
RACCORDO
100
AcDbLine
 62
7
  6
CONTINUOUS
 10
-20.4135949679
 20
15.0099244695
 11
-20.4554470854
 21
14.9914518239
  0
LINE
  5
2D6
100
AcDbEntity
  8
RACCORDO
100
AcDbLine
 62
250
  6
CONTINUOUS
 10
-20.4517338228
 20
14.992571757
 11
-20.3828228731
 21
15.0227290575
  0
LINE
  5
2D7
100
AcDbEntity
  8
RACCORDO
100
AcDbLine
 62
7
  6
CONTINUOUS
 10
-20.3716409284
 20
15.0282061913
 11
-20.4135949679
 21
15.0099244695
  0
LINE
  5
2D8
100
AcDbEntity
  8
RACCORDO
100
AcDbLine
 62
7
  6
CONTINUOUS
 10
-20.3714513658
 20
15.0282880883
 11
-20.3716409284
 21
15.0282061913
  0
LWPOLYLINE
  5
2D9
100
AcDbEntity
  8
0
100
AcDbPolyline
 62
7
  6
CONTINUOUS
 90
4
 70
0
 10
-20.1160771654
 20
15.1394815194
 10
-20.171654936
 20
15.1155434492
 10
-20.2270531989
 20
15.0912667931
 10
-20.2822719543
 20
15.0666515512
  0
LWPOLYLINE
  5
2DA
100
AcDbEntity
  8
ASSI
100
AcDbPolyline
 62
250
  6
CONTINUOUS
 90
4
 70
0
 10
-18.024212695
 20
14.1002200961
 10
-17.9710460841
 20
14.1225927211
 10
-17.9162643153
 20
14.1485883765
 10
-17.8599964503
 20
14.1783346843
  0
LINE
  5
2DB
100
AcDbEntity
  8
RACCORDO
100
AcDbLine
 62
250
  6
CONTINUOUS
 10
-11.7016953987
 20
16.1006649435
 11
-11.7699149194
 21
16.0723115637
  0
LINE
  5
2DC
100
AcDbEntity
  8
RACCORDO
100
AcDbLine
 62
250
  6
CONTINUOUS
 10
-11.7699149194
 20
16.0723115637
 11
-11.8427665643
 21
16.0425094175
  0
LINE
  5
2DD
100
AcDbEntity
  8
RACCORDO
100
AcDbLine
 62
250
  6
CONTINUOUS
 10
-11.8427665643
 20
16.0425094175
 11
-11.9202495266
 21
16.0113290496
  0
LINE
  5
2DE
100
AcDbEntity
  8
RACCORDO
100
AcDbLine
 62
250
  6
CONTINUOUS
 10
-15.9524531182
 20
17.4484720666
 11
-15.9031127883
 21
17.4680380979
  0
LWPOLYLINE
  5
2DF
100
AcDbEntity
  8
RACCORDO
100
AcDbPolyline
 62
250
  6
CONTINUOUS
 90
3
 70
0
 10
-11.9202495266
 20
16.0113290496
 10
-12.0021752402
 20
15.9789005751
 10
-12.0448391887
 20
15.9622372774
  0
LWPOLYLINE
  5
2E0
100
AcDbEntity
  8
RACCORDO
100
AcDbPolyline
 62
250
  6
CONTINUOUS
 90
8
 70
0
 10
-14.0761404153
 20
16.8255382412
 10
-14.0622173623
 20
16.8309748572
 10
-14.0469688459
 20
16.8340358674
 10
-14.0305659839
 20
16.8345797238
 10
-14.0131608154
 20
16.8325109525
 10
-13.9949276969
 20
16.8277629643
 10
-13.9760624229
 20
16.8203015126
 10
-13.9567801756
 20
16.810127704
  0
LWPOLYLINE
  5
2E1
100
AcDbEntity
  8
ASSI
100
AcDbPolyline
 62
250
  6
CONTINUOUS
 90
13
 70
0
 10
-21.1767173793
 20
14.586189401
 10
-21.1298014148
 20
14.6038898858
 10
-21.0807862582
 20
14.6170561361
 10
-21.0298448253
 20
14.6256426551
 10
-20.9771542688
 20
14.6296218407
 10
-20.9229033991
 20
14.6289796076
 10
-20.8672920079
 20
14.6237154025
 10
-20.8105158608
 20
14.6138493522
 10
-20.7527766841
 20
14.599418528
 10
-20.6942896624
 20
14.5804731293
 10
-20.6352656353
 20
14.5570823076
 10
-20.5759101952
 20
14.5293330903
 10
-20.5164337301
 20
14.4973269479
  0
LINE
  5
2E2
100
AcDbEntity
  8
RACCORDO
100
AcDbLine
 62
250
  6
CONTINUOUS
 10
-20.3828228731
 20
15.0227290576
 11
-20.3360833062
 21
15.0401389575
  0
LWPOLYLINE
  5
2E3
100
AcDbEntity
  8
ASSI
100
AcDbPolyline
 62
250
  6
CONTINUOUS
 90
3
 70
0
 10
-24.806819633
 20
14.7679412777
 10
-24.8183248203
 20
14.7638869104
 10
-24.8221775421
 20
14.761972645
  0
LWPOLYLINE
  5
2E4
100
AcDbEntity
  8
ASSI
100
AcDbPolyline
 62
7
  6
CONTINUOUS
 90
5
 70
0
 10
-14.9414504124
 20
15.856813967
 10
-14.9657299705
 20
15.8493542539
 10
-14.9924367882
 20
15.8392298833
 10
-15.0191519421
 20
15.8270792359
 10
-15.0414130321
 20
15.8153882614
  0
LINE
  5
2E5
100
AcDbEntity
  8
RACCORDO
100
AcDbLine
 62
250
  6
CONTINUOUS
 10
-15.9031127883
 20
17.4680380979
 11
-15.8513971123
 21
17.4828101068
  0
LWPOLYLINE
  5
2E6
100
AcDbEntity
  8
RACCORDO
100
AcDbPolyline
 62
250
  6
CONTINUOUS
 90
11
 70
0
 10
-25.4719885757
 20
-13.9777280818
 10
-25.4547717323
 20
-13.9824943803
 10
-25.4303210425
 20
-13.9870365089
 10
-25.404986831
 20
-13.9896337548
 10
-25.379192992
 20
-13.9902426977
 10
-25.3533711414
 20
-13.9888531802
 10
-25.3279533393
 20
-13.9854884847
 10
-25.3033648251
 20
-13.9802049275
 10
-25.280016998
 20
-13.9730909263
 10
-25.2583005283
 20
-13.9642655342
 10
-25.2385787654
 20
-13.9538764346
  0
LWPOLYLINE
  5
2E7
100
AcDbEntity
  8
RACCORDO
100
AcDbPolyline
 62
250
  6
CONTINUOUS
 90
29
 70
0
 10
-24.9391946864
 20
-12.9935658427
 10
-24.8056374642
 20
-13.0346271819
 10
-24.6703060574
 20
-13.0870023738
 10
-24.5332229323
 20
-13.1505480782
 10
-24.3961397896
 20
-13.2244522707
 10
-24.2590566018
 20
-13.3088478999
 10
-24.1219733965
 20
-13.4036020173
 10
-23.9866419573
 20
-13.5075037539
 10
-23.8530848407
 20
-13.620670416
 10
-23.7212794903
 20
-13.7429846973
 10
-23.5929100201
 20
-13.8728838097
 10
-23.468020135
 20
-14.010465675
 10
-23.3465661301
 20
-14.1556323714
 10
-23.230101006
 20
-14.3065273461
 10
-23.1186905047
 20
-14.4632208324
 10
-23.0122688841
 20
-14.6256425969
 10
-22.9121919183
 20
-14.7917253865
 10
-22.8185348344
 20
-14.9615319251
 10
-22.7312224052
 20
-15.1349994887
 10
-22.6513847241
 20
-15.309872652
 10
-22.5791317162
 20
-15.4861259335
 10
-22.5143534563
 20
-15.6637848148
 10
-22.4578502622
 20
-15.8406703151
 10
-22.4097102622
 20
-16.0169685904
 10
-22.369845328
 20
-16.1924934848
 10
-22.3387913928
 20
-16.3645075499
 10
-22.316727101
 20
-16.532098303
 10
-22.3034738082
 20
-16.6961782268
 10
-22.2990315143
 20
-16.8567473214
  0
LINE
  5
2E8
100
AcDbEntity
  8
RACCORDO
100
AcDbLine
 62
250
  6
CONTINUOUS
 10
-27.8876436046
 20
-7.720556626
 11
-29.884886852
 21
-6.5673734064
  0
LINE
  5
2E9
100
AcDbEntity
  8
RACCORDO
100
AcDbLine
 62
250
  6
CONTINUOUS
 10
-27.9755115703
 20
-7.1842294551
 11
-29.4643573065
 21
-6.3245885866
  0
LINE
  5
2EA
100
AcDbEntity
  8
RACCORDO
100
AcDbLine
 62
250
  6
CONTINUOUS
 10
-18.9073874836
 20
-12.211644226
 11
-20.9046307309
 21
-11.0584610064
  0
LINE
  5
2EB
100
AcDbEntity
  8
DRAFT
100
AcDbLine
 62
7
  6
CONTINUOUS
 10
-28.9569759064
 20
-6.0316338966
 11
-27.9755115703
 21
-6.5983191037
  0
LINE
  5
2EC
100
AcDbEntity
  8
RACCORDO
100
AcDbLine
 62
250
  6
CONTINUOUS
 10
-18.9952554492
 20
-11.6753170551
 11
-20.4841011854
 21
-10.8156761866
  0
LINE
  5
2ED
100
AcDbEntity
  8
RACCORDO
100
AcDbLine
 62
250
  6
CONTINUOUS
 10
-27.9755115703
 20
-6.3648051671
 11
-28.7547606535
 21
-5.9148765127
  0
LINE
  5
2EE
100
AcDbEntity
  8
DRAFT
100
AcDbLine
 62
7
  6
CONTINUOUS
 10
-19.9767197853
 20
-10.5227214966
 11
-18.9952554492
 21
-11.0894067036
  0
LINE
  5
2EF
100
AcDbEntity
  8
DRAFT
100
AcDbLine
 62
7
  6
CONTINUOUS
 10
-28.3205798033
 20
-5.6641867626
 11
-27.9755115703
 21
-5.8634248357
  0
LWPOLYLINE
  5
2F0
100
AcDbEntity
  8
0
100
AcDbPolyline
 62
7
  6
CONTINUOUS
 90
9
 70
0
 10
-19.3403236823
 20
-6.5865443063
 10
-19.3054292512
 20
-6.647821348
 10
-19.2658092519
 20
-6.7067276932
 10
-19.2227208085
 20
-6.76120577
 10
-19.1763512623
 20
-6.8111301032
 10
-19.1268924219
 20
-6.8563975095
 10
-19.0747117299
 20
-6.8967995319
 10
-19.0201157519
 20
-6.9322616153
 10
-19.0127751365
 20
-6.9365542495
  0
LWPOLYLINE
  5
2F1
100
AcDbEntity
  8
ASSI
100
AcDbPolyline
 62
250
  6
CONTINUOUS
 90
13
 70
0
 10
-17.2831836253
 20
13.6905422835
 10
-17.2852468715
 20
13.7122450157
 10
-17.2895354453
 20
13.7347678748
 10
-17.2959807379
 20
13.7577506957
 10
-17.3044796527
 20
13.7808259596
 10
-17.3148962621
 20
13.8036246933
 10
-17.3270639887
 20
13.8257823679
 10
-17.3407882481
 20
13.8469446857
 10
-17.3558495753
 20
13.8667732793
 10
-17.3720071536
 20
13.8849511359
 10
-17.3890026291
 20
13.9011876156
 10
-17.4065642362
 20
13.9152231064
 10
-17.4244111684
 20
13.9268332018
  0
LINE
  5
2F2
100
AcDbEntity
  8
ASSI
100
AcDbLine
 62
7
  6
CONTINUOUS
 10
-19.5430741737
 20
13.4796843443
 11
-19.5430683582
 21
13.4796211845
  0
LINE
  5
2F3
100
AcDbEntity
  8
ASSI
100
AcDbLine
 62
250
  6
CONTINUOUS
 10
-19.3689779071
 20
13.3855689688
 11
-19.3786671737
 21
13.4923073299
  0
LWPOLYLINE
  5
2F4
100
AcDbEntity
  8
0
100
AcDbPolyline
 62
250
  6
CONTINUOUS
 90
16
 70
0
 10
-16.2642994051
 20
5.9903454902
 10
-16.2671893528
 20
6.0337224122
 10
-16.2738380537
 20
6.0789278078
 10
-16.2841722465
 20
6.1254637934
 10
-16.2980798979
 20
6.1728233662
 10
-16.3154067811
 20
6.2204794765
 10
-16.3359542967
 20
6.2678907321
 10
-16.3594874236
 20
6.3145254822
 10
-16.3857486033
 20
6.3598826094
 10
-16.4144560759
 20
6.4034789204
 10
-16.4453389824
 20
6.4448920666
 10
-16.478018114
 20
6.4836032837
 10
-16.5119979306
 20
6.519054201
 10
-16.5468461115
 20
6.5508569976
 10
-16.5822190798
 20
6.5787591736
 10
-16.6177316466
 20
6.6025080777
  0
LWPOLYLINE
  5
2F5
100
AcDbEntity
  8
0
100
AcDbPolyline
 62
250
  6
CONTINUOUS
 90
9
 70
0
 10
-16.9620300836
 20
-36.1561530534
 10
-16.9601572467
 20
-36.1970352256
 10
-16.9545585774
 20
-36.2353215722
 10
-16.9452933902
 20
-36.2706064736
 10
-16.9324598436
 20
-36.3025161087
 10
-16.9161939009
 20
-36.330712415
 10
-16.8966678896
 20
-36.3548966703
 10
-16.8740886754
 20
-36.3748126577
 10
-16.8584887731
 20
-36.3850214839
  0
LINE
  5
2F6
100
AcDbEntity
  8
RACCORDO
100
AcDbLine
 62
250
  6
CONTINUOUS
 10
-18.9073874836
 20
-5.9864433412
 11
-18.9073874836
 21
-12.211644226
  0
LINE
  5
2F7
100
AcDbEntity
  8
0
100
AcDbLine
 62
250
  6
CONTINUOUS
 10
-18.5883001933
 20
14.4621261054
 11
-18.5883001933
 21
14.8520144222
  0
LINE
  5
2F8
100
AcDbEntity
  8
0
100
AcDbLine
 62
250
  6
CONTINUOUS
 10
-16.9620300836
 20
5.9956192289
 11
-16.9620300836
 21
-36.1561530534
  0
LINE
  5
2F9
100
AcDbEntity
  8
ASSI
100
AcDbLine
 62
7
  6
CONTINUOUS
 10
-16.7467315146
 20
15.0030219081
 11
-16.7467315146
 21
14.8707537015
  0
LINE
  5
2FA
100
AcDbEntity
  8
0
100
AcDbLine
 62
250
  6
CONTINUOUS
 10
-16.2642994051
 20
5.9903454902
 11
-16.2642994051
 21
-36.1614267921
  0
LINE
  5
2FB
100
AcDbEntity
  8
ASSI
100
AcDbLine
 62
250
  6
CONTINUOUS
 10
-16.7190554303
 20
14.8804550269
 11
-16.7182920711
 21
14.9070458658
  0
LWPOLYLINE
  5
2FC
100
AcDbEntity
  8
ASSI
100
AcDbPolyline
 62
7
  6
CONTINUOUS
 90
22
 70
0
 10
-16.7467315104
 20
15.0030219081
 10
-16.745094181
 20
15.0343269585
 10
-16.7400490992
 20
15.0660675638
 10
-16.7314284442
 20
15.0978969648
 10
-16.719136391
 20
15.1294041176
 10
-16.7031065813
 20
15.1602587368
 10
-16.6832162372
 20
15.1902605341
 10
-16.6592346292
 20
15.2192823215
 10
-16.631288136
 20
15.2467705466
 10
-16.59983429
 20
15.2720994199
 10
-16.5646889016
 20
15.2952910959
 10
-16.5261304232
 20
15.3160107431
 10
-16.485650441
 20
15.3335407105
 10
-16.4438679384
 20
15.3478875181
 10
-16.4006619072
 20
15.3592900784
 10
-16.3567635782
 20
15.3677023432
 10
-16.3126622312
 20
15.3732020899
 10
-16.2683691251
 20
15.3759126405
 10
-16.2240324138
 20
15.375879908
 10
-16.1798596862
 20
15.3731143464
 10
-16.1360890748
 20
15.3676059503
 10
-16.0929523861
 20
15.3593243698
  0
LINE
  5
2FD
100
AcDbEntity
  8
ASSI
100
AcDbLine
 62
250
  6
CONTINUOUS
 10
-16.7182920543
 20
14.9070458456
 11
-16.7172587474
 21
14.9243250661
  0
LWPOLYLINE
  5
2FE
100
AcDbEntity
  8
RACCORDO
100
AcDbPolyline
 62
250
  6
CONTINUOUS
 90
10
 70
0
 10
-15.6604989503
 20
13.5243233951
 10
-15.6616243444
 20
13.5140324098
 10
-15.6624729233
 20
13.5043041203
 10
-15.6630408277
 20
13.4951827548
 10
-15.663325473
 20
13.4867097807
 10
-15.6633255644
 20
13.4789237223
 10
-15.6630411025
 20
13.471859984
 10
-15.6624733796
 20
13.4655506815
 10
-15.6616249736
 20
13.4600244974
 10
-15.6604997396
 20
13.4553065563
  0
LWPOLYLINE
  5
2FF
100
AcDbEntity
  8
ASSI
100
AcDbPolyline
 62
250
  6
CONTINUOUS
 90
13
 70
0
 10
-14.3621240923
 20
15.3683418371
 10
-14.3595285379
 20
15.3920214202
 10
-14.3592381338
 20
15.4164914454
 10
-14.3612575346
 20
15.4413597148
 10
-14.3655543742
 20
15.4662276478
 10
-14.3720597842
 20
15.4906966693
 10
-14.3806694982
 20
15.5143745974
 10
-14.3912455226
 20
15.5368819299
 10
-14.4036183482
 20
15.5578579263
 10
-14.4175896675
 20
15.5769663898
 10
-14.4329355525
 20
15.593901056
 10
-14.4494100443
 20
15.6083905013
 10
-14.4667490951
 20
15.6202024934
  0
LWPOLYLINE
  5
300
100
AcDbEntity
  8
ASSI
100
AcDbPolyline
 62
250
  6
CONTINUOUS
 90
10
 70
0
 10
-14.3914990175
 20
11.6327656719
 10
-14.3949246556
 20
11.6145970007
 10
-14.3969723131
 20
11.5965001642
 10
-14.3976237065
 20
11.5786367324
 10
-14.3968730175
 20
11.5611661914
 10
-14.394726948
 20
11.5442445204
 10
-14.3912046597
 20
11.5280227987
 10
-14.3863375989
 20
11.512645856
 10
-14.3801692164
 20
11.4982509791
 10
-14.372754583
 20
11.4849666877
  0
LWPOLYLINE
  5
301
100
AcDbEntity
  8
ASSI
100
AcDbPolyline
 62
250
  6
CONTINUOUS
 90
13
 70
0
 10
-16.4358277445
 20
11.5264141209
 10
-16.4310540327
 20
11.5502193729
 10
-16.4285433676
 20
11.5746645344
 10
-16.4283341417
 20
11.599376081
 10
-16.4304295811
 20
11.6239764133
 10
-16.4347976949
 20
11.6480896165
 10
-16.4413717599
 20
11.6713472055
 10
-16.4500513444
 20
11.6933937771
 10
-16.4607038381
 20
11.7138924194
 10
-16.4731664682
 20
11.7325298559
 10
-16.4872488012
 20
11.7490212635
 10
-16.5027356579
 20
11.7631146204
 10
-16.5193903896
 20
11.7745945407
  0
LWPOLYLINE
  5
302
100
AcDbEntity
  8
RACCORDO
100
AcDbPolyline
 62
250
  6
CONTINUOUS
 90
16
 70
0
 10
-15.9121868665
 20
13.7292791975
 10
-15.9168454492
 20
13.7100282675
 10
-15.9200007001
 20
13.690223493
 10
-15.9216201045
 20
13.6700689588
 10
-15.9216869744
 20
13.6497723541
 10
-15.9202006202
 20
13.6295428318
 10
-15.9171763581
 20
13.6095888534
 10
-15.912645352
 20
13.5901160412
 10
-15.9066542927
 20
13.57132506
 10
-15.8992649171
 20
13.5534095494
 10
-15.8905533715
 20
13.5365541262
 10
-15.8806094267
 20
13.5209324829
 10
-15.8695355541
 20
13.5067055993
 10
-15.8574458685
 20
13.4940200815
 10
-15.8444649521
 20
13.4830066514
 10
-15.8307265711
 20
13.4737788009
  0
LWPOLYLINE
  5
303
100
AcDbEntity
  8
RACCORDO
100
AcDbPolyline
 62
250
  6
CONTINUOUS
 90
8
 70
0
 10
-13.2484830125
 20
15.0494717288
 10
-13.2649232846
 20
15.0064795311
 10
-13.2790674367
 20
14.964182887
 10
-13.29077635
 20
14.9221051236
 10
-13.3001247236
 20
14.8788675011
 10
-13.3071374573
 20
14.8340104394
 10
-13.3117896512
 20
14.7879935186
 10
-13.3140813054
 20
14.7408167385
  0
LWPOLYLINE
  5
304
100
AcDbEntity
  8
ASSI
100
AcDbPolyline
 62
250
  6
CONTINUOUS
 90
4
 70
0
 10
-11.8671553415
 20
12.8962932709
 10
-11.8635082079
 20
12.9053095827
 10
-11.8553675166
 20
12.9175361943
 10
-11.8442696673
 20
12.9292634124
  0
LWPOLYLINE
  5
305
100
AcDbEntity
  8
ASSI
100
AcDbPolyline
 62
250
  6
CONTINUOUS
 90
10
 70
0
 10
-14.2882845431
 20
11.5876253895
 10
-14.3020293621
 20
11.5716075229
 10
-14.3136593017
 20
11.5549209834
 10
-14.3230177536
 20
11.5377904426
 10
-14.3299786937
 20
11.5204465495
 10
-14.3344483753
 20
11.503122837
 10
-14.3363665969
 20
11.4860525775
 10
-14.3357075171
 20
11.4694656242
 10
-14.3324799976
 20
11.453585317
 10
-14.3283693516
 20
11.4422003571
  0
LINE
  5
306
100
AcDbEntity
  8
RACCORDO
100
AcDbLine
 62
7
  6
CONTINUOUS
 10
-8.7296363164
 20
13.7920403512
 11
-9.3579457466
 21
13.1595465752
  0
LWPOLYLINE
  5
307
100
AcDbEntity
  8
ASSI
100
AcDbPolyline
 62
250
  6
CONTINUOUS
 90
11
 70
0
 10
-14.4641075088
 20
11.4371900458
 10
-14.4779767415
 20
11.4234424761
 10
-14.4857862123
 20
11.4158894239
 10
-14.4943112553
 20
11.4079568968
 10
-14.5035663066
 20
11.3996214599
 10
-14.5137081659
 20
11.3909329484
 10
-14.524849434
 20
11.3819674527
 10
-14.5369743055
 20
11.3727358882
 10
-14.5501932419
 20
11.3632827949
 10
-14.5647258861
 20
11.353701778
 10
-14.5807414476
 20
11.344078024
  0
LINE
  5
308
100
AcDbEntity
  8
RACCORDO
100
AcDbLine
 62
7
  6
CONTINUOUS
 10
-6.2417586593
 20
17.0660367335
 11
-6.8033756579
 21
16.5384963032
  0
LWPOLYLINE
  5
309
100
AcDbEntity
  8
ASSI
100
AcDbPolyline
 62
250
  6
CONTINUOUS
 90
3
 70
0
 10
-11.8385204703
 20
12.9622445514
 10
-11.8275164512
 20
12.9718695896
 10
-11.8152227349
 20
12.9806708157
  0
LINE
  5
30A
100
AcDbEntity
  8
ASSI
100
AcDbLine
 62
250
  6
CONTINUOUS
 10
-11.8442696673
 20
12.9292634124
 11
-11.8304041026
 21
12.9402807758
  0
LWPOLYLINE
  5
30B
100
AcDbEntity
  8
ASSI
100
AcDbPolyline
 62
7
  6
CONTINUOUS
 90
7
 70
0
 10
-14.2549159953
 20
10.3367623727
 10
-14.2658808139
 20
10.3286165369
 10
-14.2753281834
 20
10.319970876
 10
-14.2833200307
 20
10.3107529021
 10
-14.2897944288
 20
10.3010351032
 10
-14.2945655972
 20
10.2910349434
 10
-14.2971626131
 20
10.2822140801
  0
LINE
  5
30C
100
AcDbEntity
  8
ASSI
100
AcDbLine
 62
7
  6
CONTINUOUS
 10
-15.4507172999
 20
9.4601749452
 11
-14.7240368819
 21
9.9725673759
  0
LINE
  5
30D
100
AcDbEntity
  8
RACCORDO
100
AcDbLine
 62
250
  6
CONTINUOUS
 10
-15.3875366984
 20
9.4240210188
 11
-14.588578758
 21
9.9873773318
  0
LWPOLYLINE
  5
30E
100
AcDbEntity
  8
ASSI
100
AcDbPolyline
 62
250
  6
CONTINUOUS
 90
10
 70
0
 10
-16.8053719415
 20
11.6451058431
 10
-16.8217899548
 20
11.6345221525
 10
-16.8379859439
 20
11.6218733163
 10
-16.8537408857
 20
11.6073303878
 10
-16.8688417219
 20
11.5910900347
 10
-16.8830842391
 20
11.5733718795
 10
-16.8962758313
 20
11.5544155303
 10
-16.9082381045
 20
11.5344773392
 10
-16.9188092894
 20
11.5138269358
 10
-16.9278464287
 20
11.4927435815
  0
LWPOLYLINE
  5
30F
100
AcDbEntity
  8
ASSI
100
AcDbPolyline
 62
7
  6
CONTINUOUS
 90
6
 70
0
 10
-11.7763345776
 20
11.753644967
 10
-11.7902120402
 20
11.7447215555
 10
-11.8021663117
 20
11.7351958184
 10
-11.812197392
 20
11.7250677556
 10
-11.820388592
 20
11.7142035568
 10
-11.822288879
 20
11.7107272235
  0
LWPOLYLINE
  5
310
100
AcDbEntity
  8
ASSI
100
AcDbPolyline
 62
250
  6
CONTINUOUS
 90
10
 70
0
 10
-13.5074110827
 20
13.8393285202
 10
-13.5172561972
 20
13.8331283996
 10
-13.5270892617
 20
13.8262983174
 10
-13.5368790583
 20
13.8188544402
 10
-13.5466032458
 20
13.8108072507
 10
-13.5562206254
 20
13.8021842479
 10
-13.5656726666
 20
13.7930350385
 10
-13.574920584
 20
13.7833981402
 10
-13.5839440104
 20
13.7732957718
 10
-13.5927142517
 20
13.7627600588
  0
LWPOLYLINE
  5
311
100
AcDbEntity
  8
ASSI
100
AcDbPolyline
 62
250
  6
CONTINUOUS
 90
35
 70
0
 10
-14.7668572002
 20
11.5395089742
 10
-14.776779773
 20
11.5333228745
 10
-14.7867866032
 20
11.5270103318
 10
-14.7968552493
 20
11.5205799352
 10
-14.8069436744
 20
11.5140040218
 10
-14.8170046501
 20
11.5073205653
 10
-14.8270854047
 20
11.5004915919
 10
-14.8372855858
 20
11.4933755163
 10
-14.8475655329
 20
11.4860226567
 10
-14.8579649065
 20
11.4783826949
 10
-14.8687023352
 20
11.4701630909
 10
-14.8798205025
 20
11.4613711097
 10
-14.8912767249
 20
11.4519994863
 10
-14.9031615799
 20
11.4417338851
 10
-14.9155365337
 20
11.4305657827
 10
-14.9283401202
 20
11.4185037026
 10
-14.9414785183
 20
11.4052588795
 10
-14.9549821481
 20
11.3908547471
 10
-14.9688205896
 20
11.3752678716
 10
-14.9828087617
 20
11.3581391868
 10
-14.9970208215
 20
11.3394523749
 10
-15.011382612
 20
11.3192237536
 10
-15.0254865803
 20
11.2971432107
 10
-15.0395079382
 20
11.2728594825
 10
-15.0532714739
 20
11.2467238326
 10
-15.065844
 20
11.2194799394
 10
-15.07713151
 20
11.1908234497
 10
-15.0872280104
 20
11.1610587166
 10
-15.0954823338
 20
11.1318424778
 10
-15.1016036042
 20
11.1033614904
 10
-15.1058826976
 20
11.0754289973
 10
-15.1085410744
 20
11.0491414653
 10
-15.1096525548
 20
11.0248643833
 10
-15.1091433185
 20
11.0022322624
 10
-15.1070133657
 20
10.9812451026
  0
LINE
  5
312
100
AcDbEntity
  8
ASSI
100
AcDbLine
 62
7
  6
CONTINUOUS
 10
-13.6358172987
 20
13.8496498465
 11
-12.8914094492
 21
14.310002827
  0
LINE
  5
313
100
AcDbEntity
  8
ASSI
100
AcDbLine
 62
250
  6
CONTINUOUS
 10
-13.5074110827
 20
13.8393285202
 11
-12.7642575412
 21
14.2989058179
  0
LINE
  5
314
100
AcDbEntity
  8
ASSI
100
AcDbLine
 62
250
  6
CONTINUOUS
 10
-11.8304041026
 20
12.9402807758
 11
-11.8139918601
 21
12.9504126393
  0
LINE
  5
315
100
AcDbEntity
  8
ASSI
100
AcDbLine
 62
7
  6
CONTINUOUS
 10
-14.2424337276
 20
10.3444083836
 11
-14.2549159953
 21
10.3367623727
  0
LINE
  5
316
100
AcDbEntity
  8
ASSI
100
AcDbLine
 62
250
  6
CONTINUOUS
 10
-14.7471722159
 20
11.5515810432
 11
-14.7668572002
 21
11.5395089742
  0
LWPOLYLINE
  5
317
100
AcDbEntity
  8
ASSI
100
AcDbPolyline
 62
250
  6
CONTINUOUS
 90
3
 70
0
 10
-14.7178934222
 20
11.5692594064
 10
-14.7276164908
 20
11.5634310415
 10
-14.7471722159
 20
11.5515810432
  0
LWPOLYLINE
  5
318
100
AcDbEntity
  8
ASSI
100
AcDbPolyline
 62
250
  6
CONTINUOUS
 90
10
 70
0
 10
-15.1070133641
 20
10.9812451007
 10
-15.0900429664
 20
10.9914144907
 10
-15.0713698766
 20
11.0005618542
 10
-15.051245714
 20
11.0085639306
 10
-15.0299416509
 20
11.0153128918
 10
-15.0077447591
 20
11.0207177955
 10
-14.9849541415
 20
11.0247058107
 10
-14.9618769011
 20
11.0272231986
 10
-14.9388240035
 20
11.0282360373
 10
-14.916106086
 20
11.0277306788
  0
LINE
  5
319
100
AcDbEntity
  8
RACCORDO
100
AcDbLine
 62
7
  6
CONTINUOUS
 10
-14.2916885304
 20
13.1298891967
 11
-14.1552417479
 21
13.2115686938
  0
LINE
  5
31A
100
AcDbEntity
  8
ASSI
100
AcDbLine
 62
250
  6
CONTINUOUS
 10
-16.6689765155
 20
11.7266678507
 11
-16.8053719415
 21
11.6451058431
  0
LINE
  5
31B
100
AcDbEntity
  8
ASSI
100
AcDbLine
 62
250
  6
CONTINUOUS
 10
-16.5256466245
 20
11.4976969093
 11
-16.6620420504
 21
11.4161349017
  0
LINE
  5
31C
100
AcDbEntity
  8
ASSI
100
AcDbLine
 62
250
  6
CONTINUOUS
 10
-17.3050412121
 20
10.457129491
 11
-17.8849812968
 21
10.1103357676
  0
LINE
  5
31D
100
AcDbEntity
  8
ASSI
100
AcDbLine
 62
250
  6
CONTINUOUS
 10
-17.161711321
 20
10.2281585496
 11
-17.6172530233
 21
9.9557528179
  0
LINE
  5
31E
100
AcDbEntity
  8
ASSI
100
AcDbLine
 62
250
  6
CONTINUOUS
 10
-12.8448193004
 20
12.6796702808
 11
-14.033412406
 21
11.9689130155
  0
LINE
  5
31F
100
AcDbEntity
  8
ASSI
100
AcDbLine
 62
250
  6
CONTINUOUS
 10
-11.9585526522
 20
13.2096417708
 11
-11.2178488979
 21
13.6525692725
  0
LINE
  5
320
100
AcDbEntity
  8
ASSI
100
AcDbLine
 62
250
  6
CONTINUOUS
 10
-12.7014894092
 20
12.4506993395
 11
-13.8900825149
 21
11.7399420742
  0
LINE
  5
321
100
AcDbEntity
  8
ASSI
100
AcDbLine
 62
250
  6
CONTINUOUS
 10
-11.8152227289
 20
12.9806708487
 11
-11.0745190069
 21
13.4235983311
  0
LWPOLYLINE
  5
322
100
AcDbEntity
  8
ASSI
100
AcDbPolyline
 62
250
  6
CONTINUOUS
 90
7
 70
0
 10
-14.2668385411
 20
11.4836545124
 10
-14.2820251509
 20
11.4745945664
 10
-14.2950756586
 20
11.4647717269
 10
-14.3058142283
 20
11.4543183655
 10
-14.3140961785
 20
11.4433753505
 10
-14.3198099389
 20
11.4320901409
 10
-14.3213206209
 20
11.426440803
  0
LWPOLYLINE
  5
323
100
AcDbEntity
  8
ASSI
100
AcDbPolyline
 62
250
  6
CONTINUOUS
 90
13
 70
0
 10
-11.0745190069
 20
13.4235983311
 10
-11.0702852031
 20
13.4260789618
 10
-11.0660187462
 20
13.4284633016
 10
-11.061719636
 20
13.4307513505
 10
-11.0574036852
 20
13.4329400937
 10
-11.0530550813
 20
13.4350325459
 10
-11.0486263858
 20
13.4370377519
 10
-11.0441141046
 20
13.4389628618
 10
-11.0395217319
 20
13.4408007255
 10
-11.0348123125
 20
13.4425389375
 10
-11.029973528
 20
13.4441733627
 10
-11.0250176968
 20
13.4457081363
 10
-11.019944819
 20
13.4471432582
  0
LWPOLYLINE
  5
324
100
AcDbEntity
  8
ASSI
100
AcDbPolyline
 62
250
  6
CONTINUOUS
 90
10
 70
0
 10
-12.6983329575
 20
12.4215926161
 10
-12.6797605566
 20
12.4323808175
 10
-12.6591990454
 20
12.4419498672
 10
-12.6369762534
 20
12.4501471977
 10
-12.6134464973
 20
12.4568421116
 10
-12.5889849321
 20
12.461927866
 10
-12.5639815699
 20
12.4653233741
 10
-12.5388350606
 20
12.4669744982
 10
-12.5139463368
 20
12.466854913
 10
-12.4897122208
 20
12.4649665247
  0
LINE
  5
325
100
AcDbEntity
  8
ASSI
100
AcDbLine
 62
7
  6
CONTINUOUS
 10
-11.7032624324
 20
13.8849651283
 11
-11.7032256126
 21
13.8849864032
  0
LINE
  5
326
100
AcDbEntity
  8
0
100
AcDbLine
 62
7
  6
CONTINUOUS
 10
-9.0802042873
 20
15.8468072956
 11
-8.5852295404
 21
16.1325995109
  0
LINE
  5
327
100
AcDbEntity
  8
ASSI
100
AcDbLine
 62
7
  6
CONTINUOUS
 10
-14.5690709648
 20
12.2302831603
 11
-11.7032256126
 21
13.8849864032
  0
LINE
  5
328
100
AcDbEntity
  8
ASSI
100
AcDbLine
 62
250
  6
CONTINUOUS
 10
-14.4689976878
 20
12.2204144981
 11
-11.6032207806
 21
13.8750781677
  0
LINE
  5
329
100
AcDbEntity
  8
0
100
AcDbLine
 62
7
  6
CONTINUOUS
 10
-3.8222192764
 20
18.1020436709
 11
-4.0222192764
 21
17.9865661775
  0
LINE
  5
32A
100
AcDbEntity
  8
0
100
AcDbLine
 62
7
  6
CONTINUOUS
 10
-3.572824757
 20
17.9580464011
 11
-3.772824757
 21
17.8425689076
  0
LINE
  5
32B
100
AcDbEntity
  8
RACCORDO
100
AcDbLine
 62
7
  6
CONTINUOUS
 10
-6.1170516279
 20
16.3410362159
 11
-7.4285159389
 21
15.5838131592
  0
LINE
  5
32C
100
AcDbEntity
  8
RACCORDO
100
AcDbLine
 62
7
  6
CONTINUOUS
 10
-8.1297396808
 20
15.1789353591
 11
-8.8942660785
 21
14.7375073988
  0
LINE
  5
32D
100
AcDbEntity
  8
0
100
AcDbLine
 62
7
  6
CONTINUOUS
 10
-2.9346682075
 20
17.5895828073
 11
-3.1346682075
 21
17.4741053139
  0
LINE
  5
32E
100
AcDbEntity
  8
0
100
AcDbLine
 62
7
  6
CONTINUOUS
 10
-2.6852737144
 20
17.4455855527
 11
-2.8852737144
 21
17.3301080593
  0
LINE
  5
32F
100
AcDbEntity
  8
RACCORDO
100
AcDbLine
 62
7
  6
CONTINUOUS
 10
-5.2685209202
 20
15.851108188
 11
-6.5799878015
 21
15.0938836473
  0
LINE
  5
330
100
AcDbEntity
  8
RACCORDO
100
AcDbLine
 62
7
  6
CONTINUOUS
 10
-7.2812115434
 20
14.6890058471
 11
-7.4082309536
 21
14.6156664315
  0
LINE
  5
331
100
AcDbEntity
  8
0
100
AcDbLine
 62
7
  6
CONTINUOUS
 10
-6.5799878015
 20
15.0123313114
 11
-7.1895786817
 21
14.6603611772
  0
LINE
  5
332
100
AcDbEntity
  8
0
100
AcDbLine
 62
7
  6
CONTINUOUS
 10
-6.5828135087
 20
14.8065624868
 11
-6.7889712712
 21
14.6875295785
  0
LWPOLYLINE
  5
333
100
AcDbEntity
  8
ASSI
100
AcDbPolyline
 62
250
  6
CONTINUOUS
 90
13
 70
0
 10
-11.2178488979
 20
13.6525692725
 10
-11.2107500268
 20
13.6566671121
 10
-11.2035953839
 20
13.660618042
 10
-11.1963880776
 20
13.6644167568
 10
-11.1891615083
 20
13.6680435588
 10
-11.1818887586
 20
13.6715089842
 10
-11.1744831717
 20
13.6748462718
 10
-11.1669451082
 20
13.6780450855
 10
-11.1592833412
 20
13.6810904747
 10
-11.1514257432
 20
13.6839952989
 10
-11.1433533251
 20
13.6867475885
 10
-11.1350993953
 20
13.689317508
 10
-11.1266721697
 20
13.6916839377
  0
LWPOLYLINE
  5
334
100
AcDbEntity
  8
ASSI
100
AcDbPolyline
 62
250
  6
CONTINUOUS
 90
13
 70
0
 10
-13.8900825149
 20
11.7399420742
 10
-13.9247912484
 20
11.7199094569
 10
-13.9591765996
 20
11.7012637575
 10
-13.9932385684
 20
11.684004976
 10
-14.0269509364
 20
11.6681691379
 10
-14.0603399221
 20
11.6537202177
 10
-14.0934841814
 20
11.6405501393
 10
-14.1263759484
 20
11.6286430262
 10
-14.1590229891
 20
11.6180147549
 10
-14.1915272569
 20
11.6086048791
 10
-14.2239227362
 20
11.60039325
 10
-14.2561754425
 20
11.5934000164
 10
-14.2882853759
 20
11.5876251783
  0
LINE
  5
335
100
AcDbEntity
  8
ASSI
100
AcDbLine
 62
7
  6
CONTINUOUS
 10
-9.4350924231
 20
13.1014408198
 11
-11.7763345776
 21
11.753644967
  0
LINE
  5
336
100
AcDbEntity
  8
ASSI
100
AcDbLine
 62
7
  6
CONTINUOUS
 10
-12.5655260726
 20
11.2993267122
 11
-13.7733995177
 21
10.6039835038
  0
LWPOLYLINE
  5
337
100
AcDbEntity
  8
ASSI
100
AcDbPolyline
 62
250
  6
CONTINUOUS
 90
10
 70
0
 10
-14.5807414476
 20
11.344078024
 10
-14.5904696129
 20
11.3385155696
 10
-14.60032731
 20
11.333098977
 10
-14.6103162317
 20
11.3278147759
 10
-14.6204664281
 20
11.3226379907
 10
-14.6307586135
 20
11.3175672998
 10
-14.6411144846
 20
11.3126190642
 10
-14.6515430274
 20
11.3077654513
 10
-14.6620376086
 20
11.3029955415
 10
-14.6724764405
 20
11.298338906
  0
LWPOLYLINE
  5
338
100
AcDbEntity
  8
ASSI
100
AcDbPolyline
 62
7
  6
CONTINUOUS
 90
10
 70
0
 10
-14.5690709646
 20
12.2302831604
 10
-14.5806156996
 20
12.223687297
 10
-14.6417859235
 20
12.1910613182
 10
-14.7017578902
 20
12.1629571528
 10
-14.7601087923
 20
12.139469682
 10
-14.8166510996
 20
12.1205508451
 10
-14.8713256077
 20
12.1061199371
 10
-14.9238690829
 20
12.096161041
 10
-14.9738927032
 20
12.0906346085
 10
-14.9818402686
 20
12.0901441501
  0
LWPOLYLINE
  5
339
100
AcDbEntity
  8
ASSI
100
AcDbPolyline
 62
250
  6
CONTINUOUS
 90
10
 70
0
 10
-14.033412406
 20
11.9689130155
 10
-14.0854046999
 20
11.9393712776
 10
-14.1369003386
 20
11.9133825348
 10
-14.1877793866
 20
11.8908992529
 10
-14.2376088491
 20
11.8719772031
 10
-14.2866168364
 20
11.8563966493
 10
-14.3356583841
 20
11.8438591451
 10
-14.3849194749
 20
11.8344061478
 10
-14.4339513163
 20
11.8282225425
 10
-14.482621147
 20
11.8253929764
  0
LINE
  5
33A
100
AcDbEntity
  8
ASSI
100
AcDbLine
 62
250
  6
CONTINUOUS
 10
-9.548661602
 20
14.112721691
 11
-8.7970377813
 21
14.5395064182
  0
LINE
  5
33B
100
AcDbEntity
  8
ASSI
100
AcDbLine
 62
250
  6
CONTINUOUS
 10
-9.4110899417
 20
13.89162114
 11
-8.6609821288
 21
14.3175450523
  0
LWPOLYLINE
  5
33C
100
AcDbEntity
  8
ASSI
100
AcDbPolyline
 62
250
  6
CONTINUOUS
 90
7
 70
0
 10
-11.6032207806
 20
13.8750781677
 10
-11.596008745
 20
13.8791598571
 10
-11.588767967
 20
13.8830920123
 10
-11.5815015646
 20
13.8868703434
 10
-11.574247052
 20
13.8904737457
 10
-11.5669732889
 20
13.8939165176
 10
-11.5595811457
 20
13.8972396969
  0
LINE
  5
33D
100
AcDbEntity
  8
ASSI
100
AcDbLine
 62
7
  6
CONTINUOUS
 10
-13.7733995177
 20
10.6039835038
 11
-14.2424329885
 21
10.3444087926
  0
LINE
  5
33E
100
AcDbEntity
  8
ASSI
100
AcDbLine
 62
7
  6
CONTINUOUS
 10
-14.9723760163
 20
9.9404402869
 11
-16.3092968057
 21
9.2005552904
  0
LWPOLYLINE
  5
33F
100
AcDbEntity
  8
ASSI
100
AcDbPolyline
 62
250
  6
CONTINUOUS
 90
8
 70
0
 10
-14.5690025199
 20
12.2303227336
 10
-14.5663457255
 20
12.2317773023
 10
-14.5526215003
 20
12.2370913938
 10
-14.5375601218
 20
12.2395277317
 10
-14.5214024232
 20
12.2390473587
 10
-14.5044067676
 20
12.235657956
 10
-14.4868449172
 20
12.2294137205
 10
-14.4689976878
 20
12.2204144981
  0
LWPOLYLINE
  5
340
100
AcDbEntity
  8
ASSI
100
AcDbPolyline
 62
250
  6
CONTINUOUS
 90
13
 70
0
 10
-12.8448193004
 20
12.6796702808
 10
-12.817025145
 20
12.6947817556
 10
-12.7872648746
 20
12.7081427193
 10
-12.7555384892
 20
12.719753172
 10
-12.7214807477
 20
12.729714302
 10
-12.6854568912
 20
12.737924921
 10
-12.6485626429
 20
12.7440814634
 10
-12.6107587065
 20
12.7480919569
 10
-12.5720843783
 20
12.7500483738
 10
-12.5337532709
 20
12.7499230652
 10
-12.4961699218
 20
12.7477068148
 10
-12.4589297936
 20
12.743408839
 10
-12.3943427663
 20
12.7322785568
  0
LWPOLYLINE
  5
341
100
AcDbEntity
  8
ASSI
100
AcDbPolyline
 62
250
  6
CONTINUOUS
 90
9
 70
0
 10
-13.6358172987
 20
13.8496498465
 10
-13.6269282054
 20
13.8544296585
 10
-13.6125032821
 20
13.8595996102
 10
-13.5968942019
 20
13.8623317565
 10
-13.5802717983
 20
13.8625964564
 10
-13.5628178773
 20
13.8603909449
 10
-13.5447234909
 20
13.855739409
 10
-13.5261868946
 20
13.8486928581
 10
-13.5074110827
 20
13.8393285202
  0
LINE
  5
342
100
AcDbEntity
  8
ASSI
100
AcDbLine
 62
7
  6
CONTINUOUS
 10
-15.6458347599
 20
9.4636673292
 11
-16.2252938016
 21
9.1520530086
  0
LWPOLYLINE
  5
343
100
AcDbEntity
  8
RACCORDO
100
AcDbPolyline
 62
7
  6
CONTINUOUS
 90
10
 70
0
 10
-5.2685498161
 20
15.8510915039
 10
-5.2571533518
 20
15.8571724057
 10
-5.2459329493
 20
15.8621817889
 10
-5.2348886086
 20
15.8661196534
 10
-5.2239253497
 20
15.868996211
 10
-5.2131381525
 20
15.8708012499
 10
-5.2028119571
 20
15.8715041352
 10
-5.1930417433
 20
15.8710946554
 10
-5.1837325313
 20
15.869583022
 10
-5.174884321
 20
15.8669692351
  0
LWPOLYLINE
  5
344
100
AcDbEntity
  8
RACCORDO
100
AcDbPolyline
 62
250
  6
CONTINUOUS
 90
7
 70
0
 10
-9.7564313406
 20
15.9369175832
 10
-9.8910075622
 20
15.8665314919
 10
-10.0194043228
 20
15.7923967207
 10
-10.1413086982
 20
15.7146939384
 10
-10.2564236532
 20
15.6336124727
 10
-10.3644686938
 20
15.549349885
 10
-10.4107499837
 20
15.5092602126
  0
LINE
  5
345
100
AcDbEntity
  8
RACCORDO
100
AcDbLine
 62
7
  6
CONTINUOUS
 10
-2.4625529569
 20
16.7221606345
 11
-5.6993931108
 21
15.0424093314
  0
LWPOLYLINE
  5
346
100
AcDbEntity
  8
RACCORDO
100
AcDbPolyline
 62
250
  6
CONTINUOUS
 90
3
 70
0
 10
-5.4629742218
 20
15.0103143401
 10
-5.5305228505
 20
14.9762329413
 10
-5.5996854454
 20
14.9432272906
  0
LWPOLYLINE
  5
347
100
AcDbEntity
  8
RACCORDO
100
AcDbPolyline
 62
7
  6
CONTINUOUS
 90
35
 70
0
 10
-5.6993865897
 20
15.0424127347
 10
-5.7655854828
 20
15.0091604911
 10
-5.8929572832
 20
14.9507061923
 10
-6.0278528704
 20
14.8957832842
 10
-6.1698969425
 20
14.8447435949
 10
-6.3185398403
 20
14.7979289365
 10
-6.4730681463
 20
14.7556607894
 10
-6.6328496348
 20
14.7182299523
 10
-6.7973178344
 20
14.6858882775
 10
-6.9657993465
 20
14.6588473741
 10
-7.1376381087
 20
14.6372685466
 10
-7.3121724904
 20
14.6212776242
 10
-7.4886573753
 20
14.6109683744
 10
-7.6664258561
 20
14.6064159464
 10
-7.8447368407
 20
14.6076795915
 10
-8.0227296407
 20
14.6147557502
 10
-8.1997508005
 20
14.6276050112
 10
-8.3750564752
 20
14.6461624245
 10
-8.5476480414
 20
14.6702735394
 10
-8.7167875469
 20
14.6997631222
 10
-8.8819288588
 20
14.734456933
 10
-9.0423804783
 20
14.7741297446
 10
-9.1973771984
 20
14.8184736401
 10
-9.346560547
 20
14.8672603858
 10
-9.4898158294
 20
14.9203545506
 10
-9.6265846991
 20
14.9774515932
 10
-9.7563554222
 20
15.0382382346
 10
-9.8789709578
 20
15.1025437801
 10
-9.9939576184
 20
15.1700241294
 10
-10.1007656278
 20
15.2402513356
 10
-10.1990166777
 20
15.3128249648
 10
-10.288304803
 20
15.3872639728
 10
-10.3682330868
 20
15.463012267
 10
-10.4384401057
 20
15.5393802673
 10
-10.4879772238
 20
15.6011455451
  0
LWPOLYLINE
  5
348
100
AcDbEntity
  8
ASSI
100
AcDbPolyline
 62
250
  6
CONTINUOUS
 90
13
 70
0
 10
-12.7014894092
 20
12.4506993386
 10
-12.6878268434
 20
12.457419256
 10
-12.6729075012
 20
12.4632954556
 10
-12.6568600935
 20
12.4682521873
 10
-12.6397925097
 20
12.4722234604
 10
-12.6218740429
 20
12.4751546397
 10
-12.6033425587
 20
12.4769996115
 10
-12.584406456
 20
12.4777443774
 10
-12.5651898551
 20
12.4773819024
 10
-12.5458140621
 20
12.4758832962
 10
-12.526438206
 20
12.4732355953
 10
-12.5072712062
 20
12.469471245
 10
-12.4885135103
 20
12.4646222932
  0
LINE
  5
349
100
AcDbEntity
  8
RACCORDO
100
AcDbLine
 62
250
  6
CONTINUOUS
 10
-9.6160036855
 20
16.0033834522
 11
-9.6239510571
 21
15.9999215039
  0
LWPOLYLINE
  5
34A
100
AcDbEntity
  8
RACCORDO
100
AcDbPolyline
 62
250
  6
CONTINUOUS
 90
16
 70
0
 10
-13.3140813054
 20
14.7408167385
 10
-13.290759251
 20
14.7516132377
 10
-13.2653789306
 20
14.7610963828
 10
-13.2382174481
 20
14.7691626364
 10
-13.2095713545
 20
14.7757239305
 10
-13.1797534098
 20
14.7807086285
 10
-13.1490891684
 20
14.7840623071
 10
-13.1179134244
 20
14.7857483505
 10
-13.0865665569
 20
14.7857483505
 10
-13.0553908129
 20
14.7840623071
 10
-13.0247265714
 20
14.7807086285
 10
-12.9949086267
 20
14.7757239306
 10
-12.9662625332
 20
14.7691626365
 10
-12.9391010507
 20
14.7610963828
 10
-12.9137207302
 20
14.7516132377
 10
-12.8903986759
 20
14.7408167385
  0
LWPOLYLINE
  5
34B
100
AcDbEntity
  8
RACCORDO
100
AcDbPolyline
 62
250
  6
CONTINUOUS
 90
16
 70
0
 10
-5.5996854454
 20
14.9432272906
 10
-5.6704620066
 20
14.9112973878
 10
-5.7425212336
 20
14.8805319035
 10
-5.8161944269
 20
14.8508421672
 10
-5.8924754877
 20
14.8219621676
 10
-5.9717833493
 20
14.7937059257
 10
-6.0536990785
 20
14.7662594205
 10
-6.1379597765
 20
14.7399145773
 10
-6.2246275948
 20
14.7146741053
 10
-6.313640382
 20
14.6905352953
 10
-6.4045487852
 20
14.6677819448
 10
-6.4974776637
 20
14.6464254247
 10
-6.5923021582
 20
14.6264543642
 10
-6.6881983378
 20
14.6081184478
 10
-6.7851098308
 20
14.5914735951
 10
-6.883093009
 20
14.5764638866
  0
LWPOLYLINE
  5
34C
100
AcDbEntity
  8
ASSI
100
AcDbPolyline
 62
250
  6
CONTINUOUS
 90
27
 70
0
 10
-14.7133806312
 20
11.2803613996
 10
-14.7234946704
 20
11.2758533234
 10
-14.7337042402
 20
11.2711781089
 10
-14.7440909043
 20
11.2663096237
 10
-14.7546122022
 20
11.2612322568
 10
-14.7652428457
 20
11.2558274341
 10
-14.77604901
 20
11.2500522039
 10
-14.7870105452
 20
11.2438922337
 10
-14.7979751749
 20
11.2372511688
 10
-14.8089364989
 20
11.2300975929
 10
-14.8199095922
 20
11.2223886728
 10
-14.8307620795
 20
11.2139893526
 10
-14.8414806542
 20
11.2048611768
 10
-14.85203775
 20
11.1949716416
 10
-14.8622604219
 20
11.1841813973
 10
-14.8721472289
 20
11.1723303035
 10
-14.881580518
 20
11.1595499976
 10
-14.8901728016
 20
11.1461506723
 10
-14.8977438264
 20
11.1320401796
 10
-14.9042635613
 20
11.1173905684
 10
-14.9095708841
 20
11.1029218575
 10
-14.9134899384
 20
11.0887520884
 10
-14.9160771965
 20
11.0748741407
 10
-14.917590252
 20
11.0617818112
 10
-14.9181351091
 20
11.0496341903
 10
-14.9176323566
 20
11.0382856501
 10
-14.9161054563
 20
11.0277305926
  0
LINE
  5
34D
100
AcDbEntity
  8
ASSI
100
AcDbLine
 62
250
  6
CONTINUOUS
 10
-14.6724764405
 20
11.298338906
 11
-14.7133806312
 21
11.2803613996
  0
LINE
  5
34E
100
AcDbEntity
  8
RACCORDO
100
AcDbLine
 62
250
  6
CONTINUOUS
 10
-9.4700666745
 20
16.0657672118
 11
-9.475813517
 21
16.0634554561
  0
LWPOLYLINE
  5
34F
100
AcDbEntity
  8
ASSI
100
AcDbPolyline
 62
250
  6
CONTINUOUS
 90
5
 70
0
 10
-14.6328075414
 20
12.1397900797
 10
-14.5945066173
 20
12.1560984137
 10
-14.5542665687
 20
12.1749137903
 10
-14.512411586
 20
12.19629721
 10
-14.4689976878
 20
12.2204144981
  0
LWPOLYLINE
  5
350
100
AcDbEntity
  8
ASSI
100
AcDbPolyline
 62
250
  6
CONTINUOUS
 90
6
 70
0
 10
-11.5595811457
 20
13.8972396969
 10
-11.5520681909
 20
13.9004335308
 10
-11.5444459322
 20
13.9034825747
 10
-11.5366382068
 20
13.9064042697
 10
-11.5286247613
 20
13.9091875478
 10
-11.5204403313
 20
13.911800445
  0
LWPOLYLINE
  5
351
100
AcDbEntity
  8
ASSI
100
AcDbPolyline
 62
250
  6
CONTINUOUS
 90
13
 70
0
 10
-9.489411871
 20
13.8497047848
 10
-9.4824197328
 20
13.8525270851
 10
-9.4755267496
 20
13.8554463658
 10
-9.4687389059
 20
13.8584622569
 10
-9.4620910524
 20
13.8615593706
 10
-9.4555591041
 20
13.8647515411
 10
-9.4490672068
 20
13.8680844921
 10
-9.4426238058
 20
13.8715613957
 10
-9.436247293
 20
13.8751821004
 10
-9.4298898293
 20
13.8789913356
 10
-9.4235523898
 20
13.8830065671
 10
-9.4172781528
 20
13.8872158422
 10
-9.4110899417
 20
13.89162114
  0
LWPOLYLINE
  5
352
100
AcDbEntity
  8
RACCORDO
100
AcDbPolyline
 62
7
  6
CONTINUOUS
 90
10
 70
0
 10
-9.3347610091
 20
16.1181289947
 10
-9.475813517
 20
16.0634554561
 10
-9.6239510571
 20
15.9999215039
 10
-9.7668463131
 20
15.932042718
 10
-9.9042095702
 20
15.8599162163
 10
-10.0356648207
 20
15.7836931331
 10
-10.1607694888
 20
15.7035927981
 10
-10.2792987127
 20
15.6197213192
 10
-10.3909137503
 20
15.5322728877
 10
-10.413690327
 20
15.5124585843
  0
LWPOLYLINE
  5
353
100
AcDbEntity
  8
ASSI
100
AcDbPolyline
 62
250
  6
CONTINUOUS
 90
6
 70
0
 10
-11.700568818
 20
13.8864409721
 10
-11.6868445927
 20
13.8917550635
 10
-11.6717832143
 20
13.8941914014
 10
-11.6556255157
 20
13.8937110283
 10
-11.6386298602
 20
13.8903216255
 10
-11.6210680099
 20
13.88407739
  0
LINE
  5
354
100
AcDbEntity
  8
0
100
AcDbLine
 62
7
  6
CONTINUOUS
 10
-9.3348861179
 20
16.1180828614
 11
-8.7298084284
 21
16.3412126716
  0
LINE
  5
355
100
AcDbEntity
  8
0
100
AcDbLine
 62
7
  6
CONTINUOUS
 10
-19.2272995133
 20
10.8853734826
 11
-20.0967421448
 21
10.5748075916
  0
LWPOLYLINE
  5
356
100
AcDbEntity
  8
ASSI
100
AcDbPolyline
 62
7
  6
CONTINUOUS
 90
5
 70
0
 10
-11.6026337091
 20
13.9279469032
 10
-11.6312013816
 20
13.9187659045
 10
-11.659403008
 20
13.9073738625
 10
-11.6870311872
 20
13.8939346313
 10
-11.7032624324
 20
13.8849651283
  0
LINE
  5
357
100
AcDbEntity
  8
ASSI
100
AcDbLine
 62
250
  6
CONTINUOUS
 10
-11.5204403313
 20
13.911800445
 11
-11.5120932448
 21
13.914221236
  0
LINE
  5
358
100
AcDbEntity
  8
RACCORDO
100
AcDbLine
 62
250
  6
CONTINUOUS
 10
-25.0710001902
 20
-12.9636750159
 11
-24.9391946864
 21
-12.9935658427
  0
LINE
  5
359
100
AcDbEntity
  8
RACCORDO
100
AcDbLine
 62
250
  6
CONTINUOUS
 10
-18.9952554492
 20
-10.8558927671
 11
-19.7745045324
 21
-10.4059641127
  0
LINE
  5
35A
100
AcDbEntity
  8
DRAFT
100
AcDbLine
 62
7
  6
CONTINUOUS
 10
-19.3403236823
 20
-10.1552743626
 11
-18.9952554492
 21
-10.3545124357
  0
LWPOLYLINE
  5
35B
100
AcDbEntity
  8
0
100
AcDbPolyline
 62
7
  6
CONTINUOUS
 90
13
 70
0
 10
-18.9952554492
 20
-6.5654826264
 10
-19.0019938284
 20
-6.5580679607
 10
-19.033668069
 20
-6.5161170554
 10
-19.0624084318
 20
-6.4703990508
 10
-19.088112067
 20
-6.4212025618
 10
-19.1108546384
 20
-6.368484184
 10
-19.1305727446
 20
-6.3124263088
 10
-19.1471818153
 20
-6.2533382042
 10
-19.1606772308
 20
-6.1913073999
 10
-19.1710044499
 20
-6.1266572169
 10
-19.1781529451
 20
-6.0595901766
 10
-19.1821315723
 20
-5.9899131498
 10
-19.1827705709
 20
-5.9288915833
  0
LWPOLYLINE
  5
35C
100
AcDbEntity
  8
ASSI
100
AcDbPolyline
 62
250
  6
CONTINUOUS
 90
7
 70
0
 10
-19.6569805952
 20
13.5861998032
 10
-19.6540447078
 20
13.5718841684
 10
-19.6484144338
 20
13.5558208158
 10
-19.6399167655
 20
13.5384776993
 10
-19.6284280884
 20
13.5201874049
 10
-19.6138535879
 20
13.5013677634
 10
-19.5961124027
 20
13.4825613142
  0
LWPOLYLINE
  5
35D
100
AcDbEntity
  8
ASSI
100
AcDbPolyline
 62
250
  6
CONTINUOUS
 90
13
 70
0
 10
-17.161711321
 20
10.2281585496
 10
-17.1643513431
 20
10.249581589
 10
-17.169138936
 20
10.2716801446
 10
-17.1760010192
 20
10.2941168912
 10
-17.1848328459
 20
10.3165493416
 10
-17.1954996021
 20
10.3386350738
 10
-17.2078384643
 20
10.3600369587
 10
-17.2216610849
 20
10.3804283055
 10
-17.2367564677
 20
10.3994978492
 10
-17.2528941879
 20
10.4169545011
 10
-17.2698279103
 20
10.4325317929
 10
-17.2872991487
 20
10.4459919441
 10
-17.3050412121
 20
10.457129491
  0
LINE
  5
35E
100
AcDbEntity
  8
ASSI
100
AcDbLine
 62
250
  6
CONTINUOUS
 10
-14.8415017181
 20
10.2068733042
 11
-14.8180384399
 21
9.9714971047
  0
LWPOLYLINE
  5
35F
100
AcDbEntity
  8
ASSI
100
AcDbPolyline
 62
250
  6
CONTINUOUS
 90
13
 70
0
 10
-16.9621222415
 20
13.6431149939
 10
-16.9600590684
 20
13.6214127709
 10
-16.955770643
 20
13.5988903415
 10
-16.9493255376
 20
13.5759078416
 10
-16.9408268102
 20
13.5528327636
 10
-16.9304103563
 20
13.5300340804
 10
-16.918242736
 20
13.5078763452
 10
-16.9045185107
 20
13.4867138624
 10
-16.8894571323
 20
13.4668850222
 10
-16.8732994337
 20
13.4487068898
 10
-16.8563037781
 20
13.4324701355
 10
-16.8387419277
 20
13.4184343864
 10
-16.8208946983
 20
13.4068240756
  0
LWPOLYLINE
  5
360
100
AcDbEntity
  8
RACCORDO
100
AcDbPolyline
 62
250
  6
CONTINUOUS
 90
13
 70
0
 10
-15.5078547201
 20
13.9627355114
 10
-15.5047599604
 20
13.930182177
 10
-15.4983273222
 20
13.8963985329
 10
-15.4886596642
 20
13.861924783
 10
-15.4759115731
 20
13.827312166
 10
-15.4602868923
 20
13.7931141412
 10
-15.4420354618
 20
13.7598775383
 10
-15.4214491239
 20
13.7281338141
 10
-15.3988570563
 20
13.6983905539
 10
-15.3746205083
 20
13.6711233554
 10
-15.3491270249
 20
13.6467682238
 10
-15.3227842493
 20
13.6257146002
 10
-15.2960134052
 20
13.608299134
  0
LWPOLYLINE
  5
361
100
AcDbEntity
  8
ASSI
100
AcDbPolyline
 62
250
  6
CONTINUOUS
 90
13
 70
0
 10
-14.417406718
 20
15.3452059531
 10
-14.4194698912
 20
15.366908176
 10
-14.4237583166
 20
15.3894306054
 10
-14.4302034219
 20
15.4124131054
 10
-14.4387021493
 20
15.4354881834
 10
-14.4491186032
 20
15.4582868666
 10
-14.4612862236
 20
15.4804446018
 10
-14.4750104488
 20
15.5016070846
 10
-14.4900718272
 20
15.5214359248
 10
-14.5062295259
 20
15.5396140571
 10
-14.5232251815
 20
15.5558508115
 10
-14.5407870319
 20
15.5698865606
 10
-14.5586342612
 20
15.5814968714
  0
LINE
  5
362
100
AcDbEntity
  8
ASSI
100
AcDbLine
 62
250
  6
CONTINUOUS
 10
-14.8668304186
 20
10.473025653
 11
-14.8415017181
 21
10.2068733042
  0
LINE
  5
363
100
AcDbEntity
  8
RACCORDO
100
AcDbLine
 62
250
  6
CONTINUOUS
 10
-15.0481891421
 20
13.5666831687
 11
-15.0631010291
 21
13.7309546705
  0
LINE
  5
364
100
AcDbEntity
  8
ASSI
100
AcDbLine
 62
250
  6
CONTINUOUS
 10
-14.8942965077
 20
10.7761042864
 11
-14.8668304186
 21
10.473025653
  0
LINE
  5
365
100
AcDbEntity
  8
ASSI
100
AcDbLine
 62
250
  6
CONTINUOUS
 10
-14.916106086
 20
11.0277306791
 11
-14.8942965077
 21
10.7761042864
  0
LWPOLYLINE
  5
366
100
AcDbEntity
  8
ASSI
100
AcDbPolyline
 62
250
  6
CONTINUOUS
 90
5
 70
0
 10
-16.7467315146
 20
15.0030219081
 10
-16.7449195501
 20
14.9784664314
 10
-16.7395459125
 20
14.9542541303
 10
-16.7306488962
 20
14.9303904024
 10
-16.7182920711
 20
14.9070458658
  0
LWPOLYLINE
  5
367
100
AcDbEntity
  8
ASSI
100
AcDbPolyline
 62
250
  6
CONTINUOUS
 90
10
 70
0
 10
-14.2668385397
 20
11.4836545133
 10
-14.2674950562
 20
11.4966733856
 10
-14.2685856298
 20
11.5093253112
 10
-14.2701102605
 20
11.5216102901
 10
-14.2720722027
 20
11.5335279188
 10
-14.274468202
 20
11.5450786007
 10
-14.2772884952
 20
11.5562635465
 10
-14.2805298281
 20
11.5670831598
 10
-14.284195455
 20
11.5775370371
 10
-14.2882853759
 20
11.5876251783
  0
LWPOLYLINE
  5
368
100
AcDbEntity
  8
RACCORDO
100
AcDbPolyline
 62
7
  6
CONTINUOUS
 90
13
 70
0
 10
-12.9001063384
 20
4.5531451481
 10
-12.9013776165
 20
4.5807115926
 10
-12.905669812
 20
4.6111756543
 10
-12.9128350711
 20
4.6412578159
 10
-12.9228611652
 20
4.6711163647
 10
-12.9357769411
 20
4.7006511123
 10
-12.9510299717
 20
4.7286472077
 10
-12.9685739865
 20
4.7551706608
 10
-12.9884998986
 20
4.7802519736
 10
-13.0100153604
 20
4.8028743377
 10
-13.0330009557
 20
4.8230093381
 10
-13.0575837609
 20
4.8407305507
 10
-13.0708394487
 20
4.8488532098
  0
LWPOLYLINE
  5
369
100
AcDbEntity
  8
ASSI
100
AcDbPolyline
 62
250
  6
CONTINUOUS
 90
16
 70
0
 10
-13.8800377373
 20
8.3255163342
 10
-13.8805761858
 20
8.343224426
 10
-13.8826938488
 20
8.3616212767
 10
-13.886367401
 20
8.3805041912
 10
-13.8915571058
 20
8.3996674913
 10
-13.898205417
 20
8.4188976763
 10
-13.9062358501
 20
8.4379757978
 10
-13.9155559675
 20
8.4566873454
 10
-13.9260637462
 20
8.4748318783
 10
-13.9376471579
 20
8.4922173134
 10
-13.9501978295
 20
8.5086756645
 10
-13.9635613397
 20
8.5239995025
 10
-13.9775335466
 20
8.537966889
 10
-13.9919351689
 20
8.5504256951
 10
-14.0066234604
 20
8.5612784607
 10
-14.0214375544
 20
8.5704280013
  0
LINE
  5
36A
100
AcDbEntity
  8
ASSI
100
AcDbLine
 62
250
  6
CONTINUOUS
 10
-14.2570740799
 20
11.1443131193
 11
-14.2668385397
 21
11.4836545133
  0
LINE
  5
36B
100
AcDbEntity
  8
ASSI
100
AcDbLine
 62
250
  6
CONTINUOUS
 10
-14.2498080426
 20
10.8296579693
 11
-14.2570740799
 21
11.1443131193
  0
LINE
  5
36C
100
AcDbEntity
  8
ASSI
100
AcDbLine
 62
250
  6
CONTINUOUS
 10
-14.2458708927
 20
10.6110392802
 11
-14.2498080426
 21
10.8296579693
  0
LWPOLYLINE
  5
36D
100
AcDbEntity
  8
ASSI
100
AcDbPolyline
 62
250
  6
CONTINUOUS
 90
3
 70
0
 10
-14.2424329885
 20
10.3444087926
 10
-14.2431036392
 20
10.4083634792
 10
-14.2458708927
 20
10.6110392802
  0
LWPOLYLINE
  5
36E
100
AcDbEntity
  8
ASSI
100
AcDbPolyline
 62
250
  6
CONTINUOUS
 90
16
 70
0
 10
-14.3914994681
 20
11.632765721
 10
-14.3915372013
 20
11.6487641648
 10
-14.3925407614
 20
11.6647247811
 10
-14.3945036523
 20
11.6805454117
 10
-14.3974132356
 20
11.6961247551
 10
-14.4012508158
 20
11.7113631548
 10
-14.4059917882
 20
11.7261632258
 10
-14.4116057903
 20
11.7404303016
 10
-14.4180568302
 20
11.7540730207
 10
-14.4253035329
 20
11.7670040476
 10
-14.433299516
 20
11.7791406976
 10
-14.4419935233
 20
11.7904052419
 10
-14.45132967
 20
11.8007254301
 10
-14.4612480623
 20
11.8100352353
 10
-14.4716852209
 20
11.8182752206
 10
-14.4825742922
 20
11.8253927382
  0
LINE
  5
36F
100
AcDbEntity
  8
ASSI
100
AcDbLine
 62
7
  6
CONTINUOUS
 10
-14.2971626131
 20
11.3081368384
 11
-14.2971626131
 21
10.2393661517
  0
LINE
  5
370
100
AcDbEntity
  8
ASSI
100
AcDbLine
 62
7
  6
CONTINUOUS
 10
-14.1430888406
 20
10.2655181586
 11
-14.1430888406
 21
10.3993882986
  0
LINE
  5
371
100
AcDbEntity
  8
ASSI
100
AcDbLine
 62
250
  6
CONTINUOUS
 10
-13.8800377373
 20
7.9562053446
 11
-13.8800377373
 21
8.3255163342
  0
LINE
  5
372
100
AcDbEntity
  8
0
100
AcDbLine
 62
7
  6
CONTINUOUS
 10
-13.8602461281
 20
-34.9150312453
 11
-13.8602461281
 21
7.3784088765
  0
LINE
  5
373
100
AcDbEntity
  8
RACCORDO
100
AcDbLine
 62
7
  6
CONTINUOUS
 10
-13.8602461281
 20
0.4752978536
 11
-13.8602461281
 21
-28.0119202224
  0
LINE
  5
374
100
AcDbEntity
  8
ASSI
100
AcDbLine
 62
7
  6
CONTINUOUS
 10
-13.8239056973
 20
8.036422752
 11
-13.8239056973
 21
8.4057337416
  0
LINE
  5
375
100
AcDbEntity
  8
0
100
AcDbLine
 62
7
  6
CONTINUOUS
 10
-13.6481140937
 20
-28.1596721306
 11
-13.6481140937
 21
-28.2630632611
  0
LINE
  5
376
100
AcDbEntity
  8
DRAFT
100
AcDbLine
 62
7
  6
CONTINUOUS
 10
-13.627082058
 20
9.080727543
 11
-13.627082058
 21
9.2691509211
  0
LINE
  5
377
100
AcDbEntity
  8
RACCORDO
100
AcDbLine
 62
250
  6
CONTINUOUS
 10
-13.3140813054
 20
14.7408167385
 11
-13.3140813054
 21
14.0486162109
  0
LINE
  5
378
100
AcDbEntity
  8
DRAFT
100
AcDbLine
 62
250
  6
CONTINUOUS
 10
-13.0969616196
 20
10.2134167392
 11
-13.0969616196
 21
9.422080542
  0
LINE
  5
379
100
AcDbEntity
  8
RACCORDO
100
AcDbLine
 62
250
  6
CONTINUOUS
 10
-12.9586849821
 20
-30.926188039
 11
-12.9586849821
 21
-29.011082945
  0
LINE
  5
37A
100
AcDbEntity
  8
RACCORDO
100
AcDbLine
 62
250
  6
CONTINUOUS
 10
-12.9586849821
 20
4.4714933426
 11
-12.9586849821
 21
2.5563882486
  0
LINE
  5
37B
100
AcDbEntity
  8
RACCORDO
100
AcDbLine
 62
7
  6
CONTINUOUS
 10
-12.9001063383
 20
-30.8445331234
 11
-12.9001063383
 21
-29.0397096762
  0
LINE
  5
37C
100
AcDbEntity
  8
RACCORDO
100
AcDbLine
 62
7
  6
CONTINUOUS
 10
-12.9001063383
 20
4.5531482655
 11
-12.9001063383
 21
2.7483248171
  0
LINE
  5
37D
100
AcDbEntity
  8
RACCORDO
100
AcDbLine
 62
250
  6
CONTINUOUS
 10
-12.8903986759
 20
14.7408167385
 11
-12.8903986759
 21
14.3099554337
  0
LINE
  5
37E
100
AcDbEntity
  8
ASSI
100
AcDbLine
 62
250
  6
CONTINUOUS
 10
-13.8239057214
 20
8.4056771532
 11
-13.8239056973
 21
8.4057337416
  0
LWPOLYLINE
  5
37F
100
AcDbEntity
  8
ASSI
100
AcDbPolyline
 62
7
  6
CONTINUOUS
 90
21
 70
0
 10
-14.2972170143
 20
10.2393672668
 10
-14.2972353678
 20
10.2369460582
 10
-14.2991548959
 20
10.2147006183
 10
-14.3042325271
 20
10.192821443
 10
-14.3125468985
 20
10.1711703246
 10
-14.3240193729
 20
10.1498854708
 10
-14.3384140389
 20
10.1293815053
 10
-14.3557664657
 20
10.1096871894
 10
-14.3760410841
 20
10.0907737619
 10
-14.3988952747
 20
10.0729695622
 10
-14.4244121475
 20
10.0562734553
 10
-14.4525085925
 20
10.0406865764
 10
-14.4825926607
 20
10.0265406698
 10
-14.514673295
 20
10.013880708
 10
-14.5487415525
 20
10.0026617186
 10
-14.584178655
 20
9.9930805287
 10
-14.6210106104
 20
9.9851614036
 10
-14.6592114109
 20
9.978880078
 10
-14.6980842542
 20
9.974360583
 10
-14.737396873
 20
9.971644262
 10
-14.7773815347
 20
9.9706897715
  0
LWPOLYLINE
  5
380
100
AcDbEntity
  8
ASSI
100
AcDbPolyline
 62
250
  6
CONTINUOUS
 90
16
 70
0
 10
-12.4885135578
 20
12.4648247637
 10
-12.4881493193
 20
12.4824902571
 10
-12.4870605946
 20
12.5011554361
 10
-12.4852593119
 20
12.5206158009
 10
-12.4827652064
 20
12.5406581396
 10
-12.4796056041
 20
12.5610628642
 10
-12.4758151224
 20
12.5816064166
 10
-12.4714352905
 20
12.6020637175
 10
-12.4665140947
 20
12.6222106323
 10
-12.4611054526
 20
12.6418264275
 10
-12.4552686226
 20
12.6606961883
 10
-12.4490675539
 20
12.6786131738
 10
-12.4425701867
 20
12.6953810821
 10
-12.4358477073
 20
12.7108162006
 10
-12.4289737688
 20
12.7247494184
 10
-12.4220236833
 20
12.7370280801
  0
LWPOLYLINE
  5
381
100
AcDbEntity
  8
ASSI
100
AcDbPolyline
 62
250
  6
CONTINUOUS
 90
22
 70
0
 10
-14.2971626131
 20
11.3081368384
 10
-14.2984751888
 20
11.2872321203
 10
-14.3035012823
 20
11.26231362
 10
-14.3122551471
 20
11.2377411358
 10
-14.3246706985
 20
11.2137001969
 10
-14.3406541791
 20
11.1903723698
 10
-14.3600848997
 20
11.1679338065
 10
-14.3828161491
 20
11.1465539394
 10
-14.408676273
 20
11.1263942266
 10
-14.4374699613
 20
11.1076069241
 10
-14.4689797548
 20
11.0903339092
 10
-14.5029677275
 20
11.0747055983
 10
-14.5391772565
 20
11.0608399895
 10
-14.5773349259
 20
11.0488417838
 10
-14.6171525871
 20
11.0388015887
 10
-14.6583295693
 20
11.0307952215
 10
-14.7005549427
 20
11.0248831414
 10
-14.7435098428
 20
11.0211099961
 10
-14.7868698802
 20
11.01950428
 10
-14.8303076217
 20
11.0200781163
 10
-14.8734950639
 20
11.0228271696
 10
-14.916106086
 20
11.0277306791
  0
LWPOLYLINE
  5
382
100
AcDbEntity
  8
0
100
AcDbPolyline
 62
250
  6
CONTINUOUS
 90
9
 70
0
 10
-16.2642994051
 20
-36.1614267921
 10
-16.2671890329
 20
-36.203584593
 10
-16.2738369429
 20
-36.2429721042
 10
-16.2841699287
 20
-36.2791555871
 10
-16.2980760904
 20
-36.3117402847
 10
-16.3154012301
 20
-36.3403627177
 10
-16.3359465214
 20
-36.3646996149
 10
-16.3594763845
 20
-36.3844836411
 10
-16.3782263659
 20
-36.395845402
  0
LWPOLYLINE
  5
383
100
AcDbEntity
  8
ASSI
100
AcDbPolyline
 62
250
  6
CONTINUOUS
 90
3
 70
0
 10
-11.8703035477
 20
12.9012630703
 10
-11.8699978541
 20
12.9049535477
 10
-11.8671566854
 20
12.9172297157
  0
LWPOLYLINE
  5
384
100
AcDbEntity
  8
ASSI
100
AcDbPolyline
 62
7
  6
CONTINUOUS
 90
20
 70
0
 10
-11.8223085771
 20
11.6063764987
 10
-11.8245720017
 20
11.5793230501
 10
-11.8308862038
 20
11.5542685117
 10
-11.8411804455
 20
11.5294461949
 10
-11.8552168902
 20
11.505472675
 10
-11.873088036
 20
11.4823766492
 10
-11.8947013849
 20
11.4601294203
 10
-11.9195416059
 20
11.4392614732
 10
-11.9476862751
 20
11.4198059506
 10
-11.9790578164
 20
11.4017297098
 10
-12.0129081701
 20
11.3854638075
 10
-12.0492969126
 20
11.3710517625
 10
-12.0881644675
 20
11.3584500561
 10
-12.1285840462
 20
11.3479591889
 10
-12.1706074231
 20
11.3396312016
 10
-12.2141828239
 20
11.3334140537
 10
-12.2582281371
 20
11.3294521236
 10
-12.3023826588
 20
11.3277935376
 10
-12.347007093
 20
11.3283901694
 10
-12.3921014395
 20
11.3312420192
  0
LWPOLYLINE
  5
385
100
AcDbEntity
  8
RACCORDO
100
AcDbPolyline
 62
250
  6
CONTINUOUS
 90
7
 70
0
 10
-12.9001063383
 20
4.5531482655
 10
-12.9018173659
 20
4.5380754305
 10
-12.9069211727
 20
4.5232604953
 10
-12.9153304313
 20
4.5089569467
 10
-12.9269012571
 20
4.495409522
 10
-12.9414356699
 20
4.4828500218
 10
-12.9586849821
 20
4.4714933426
  0
LWPOLYLINE
  5
386
100
AcDbEntity
  8
ASSI
100
AcDbPolyline
 62
250
  6
CONTINUOUS
 90
3
 70
0
 10
-13.8260291418
 20
8.0196400462
 10
-13.8240836524
 20
8.0315524503
 10
-13.8239056973
 20
8.036422752
  0
LWPOLYLINE
  5
387
100
AcDbEntity
  8
ASSI
100
AcDbPolyline
 62
250
  6
CONTINUOUS
 90
5
 70
0
 10
-11.8671566854
 20
12.9172297157
 10
-11.862517013
 20
12.9292396188
 10
-11.8561323062
 20
12.9408403381
 10
-11.8480985815
 20
12.9518783539
 10
-11.8385204703
 20
12.9622445514
  0
LINE
  5
388
100
AcDbEntity
  8
RACCORDO
100
AcDbLine
 62
250
  6
CONTINUOUS
 10
-6.9044490763
 20
12.5758209592
 11
-6.8933283162
 21
12.5893080775
  0
LINE
  5
389
100
AcDbEntity
  8
ASSI
100
AcDbLine
 62
250
  6
CONTINUOUS
 10
-14.0205597126
 20
7.8120816013
 11
-13.8800377373
 21
7.9562053446
  0
LINE
  5
38A
100
AcDbEntity
  8
ASSI
100
AcDbLine
 62
7
  6
CONTINUOUS
 10
-13.9963523184
 20
7.7781918961
 11
-13.8807063278
 21
7.8968020496
  0
LWPOLYLINE
  5
38B
100
AcDbEntity
  8
RACCORDO
100
AcDbPolyline
 62
250
  6
CONTINUOUS
 90
14
 70
0
 10
-11.2163463227
 20
10.0777253438
 10
-11.2146621341
 20
10.0791162078
 10
-11.2123508187
 20
10.0809237893
 10
-11.2099425079
 20
10.0827136288
 10
-11.2074419565
 20
10.0844852049
 10
-11.2048564248
 20
10.0862448784
 10
-11.2021952592
 20
10.0879893694
 10
-11.1994596958
 20
10.0897213948
 10
-11.1966438623
 20
10.0914561325
 10
-11.1937515423
 20
10.0931925114
 10
-11.1907865663
 20
10.0949306062
 10
-11.1877408779
 20
10.0966865149
 10
-11.1846131419
 20
10.0984648684
 10
-11.1814099153
 20
10.1002593568
  0
LWPOLYLINE
  5
38C
100
AcDbEntity
  8
RACCORDO
100
AcDbPolyline
 62
250
  6
CONTINUOUS
 90
3
 70
0
 10
-6.93522228
 20
12.5518816948
 10
-6.9184920563
 20
12.5632755252
 10
-6.9044490763
 20
12.5758209592
  0
LWPOLYLINE
  5
38D
100
AcDbEntity
  8
0
100
AcDbPolyline
 62
250
  6
CONTINUOUS
 90
16
 70
0
 10
-16.6177316418
 20
6.6025080805
 10
-16.654012813
 20
6.5782995547
 10
-16.6898115579
 20
6.5500806056
 10
-16.7247486115
 20
6.518150195
 10
-16.758453838
 20
6.4828466052
 10
-16.7905701516
 20
6.4445438556
 10
-16.8207573005
 20
6.4036477395
 10
-16.8486954708
 20
6.3605915256
 10
-16.8740886754
 20
6.315831367
 10
-16.8966678896
 20
6.2698414691
 10
-16.9161939009
 20
6.2231090653
 10
-16.9324598436
 20
6.1761292562
 10
-16.9452933902
 20
6.1293997632
 10
-16.9545585774
 20
6.0834156557
 10
-16.9601572467
 20
6.0386641062
 10
-16.9620300836
 20
5.9956192289
  0
LWPOLYLINE
  5
38E
100
AcDbEntity
  8
ASSI
100
AcDbPolyline
 62
250
  6
CONTINUOUS
 90
9
 70
0
 10
-13.8800377373
 20
8.3255163342
 10
-13.8663828241
 20
8.3345801486
 10
-13.8544355264
 20
8.3444113294
 10
-13.8443236859
 20
8.354902977
 10
-13.8361594226
 20
8.3659344593
 10
-13.8300226952
 20
8.3773924174
 10
-13.8259727348
 20
8.3891742697
 10
-13.8240612862
 20
8.4011796461
 10
-13.8239057214
 20
8.4056771532
  0
LWPOLYLINE
  5
38F
100
AcDbEntity
  8
ASSI
100
AcDbPolyline
 62
250
  6
CONTINUOUS
 90
7
 70
0
 10
-13.8800377373
 20
7.9562053446
 10
-13.8664313727
 20
7.9652333426
 10
-13.8545163361
 20
7.9750259514
 10
-13.8444206041
 20
7.985477996
 10
-13.8362524078
 20
7.9964775408
 10
-13.8300998037
 20
8.0079061492
 10
-13.8260291418
 20
8.0196400462
  0
LINE
  5
390
100
AcDbEntity
  8
ASSI
100
AcDbLine
 62
7
  6
CONTINUOUS
 10
-13.8685521313
 20
8.9252411144
 11
-13.0380239577
 21
9.4600314418
  0
LINE
  5
391
100
AcDbEntity
  8
RACCORDO
100
AcDbLine
 62
250
  6
CONTINUOUS
 10
-12.0308075204
 20
7.3784809337
 11
-9.7544777754
 21
8.7598920627
  0
LINE
  5
392
100
AcDbEntity
  8
RACCORDO
100
AcDbLine
 62
250
  6
CONTINUOUS
 10
-2.469514227
 20
13.2819279869
 11
0.5489442897
 21
15.0878362094
  0
LWPOLYLINE
  5
393
100
AcDbEntity
  8
RACCORDO
100
AcDbPolyline
 62
7
  6
CONTINUOUS
 90
3
 70
0
 10
-27.9755367936
 20
-0.1580588297
 10
-27.9749543607
 20
-0.1577156703
 10
-27.9722130159
 20
-0.1561997857
  0
LINE
  5
394
100
AcDbEntity
  8
RACCORDO
100
AcDbLine
 62
250
  6
CONTINUOUS
 10
-10.8201747389
 20
10.0009153392
 11
-10.9513702003
 21
9.9247314516
  0
LWPOLYLINE
  5
395
100
AcDbEntity
  8
RACCORDO
100
AcDbPolyline
 62
7
  6
CONTINUOUS
 90
7
 70
0
 10
-27.9722130159
 20
-0.1561997857
 10
-27.9601204801
 20
-0.1491750698
 10
-27.9505097633
 20
-0.1437103961
 10
-27.9385882874
 20
-0.1367644584
 10
-27.9242724464
 20
-0.1282959122
 10
-27.9073366486
 20
-0.1184572913
 10
-27.8876436046
 20
-0.1073562707
  0
LINE
  5
396
100
AcDbEntity
  8
RACCORDO
100
AcDbLine
 62
250
  6
CONTINUOUS
 10
-14.6556422886
 20
9.0014343594
 11
-13.7683096012
 21
9.5137642011
  0
LINE
  5
397
100
AcDbEntity
  8
RACCORDO
100
AcDbLine
 62
250
  6
CONTINUOUS
 10
-14.3732001706
 20
8.8383558203
 11
-13.627082058
 21
9.2691509211
  0
LINE
  5
398
100
AcDbEntity
  8
0
100
AcDbLine
 62
7
  6
CONTINUOUS
 10
-1.0293962969
 20
16.4896421791
 11
-1.2293962969
 21
16.3741646857
  0
LINE
  5
399
100
AcDbEntity
  8
RACCORDO
100
AcDbLine
 62
250
  6
CONTINUOUS
 10
-11.3548837113
 20
10.4082088508
 11
-7.1119720514
 21
12.8580212786
  0
LINE
  5
39A
100
AcDbEntity
  8
ASSI
100
AcDbLine
 62
7
  6
CONTINUOUS
 10
-14.1961150298
 20
8.7361090794
 11
-13.8685521313
 21
8.9252411144
  0
LINE
  5
39B
100
AcDbEntity
  8
ASSI
100
AcDbLine
 62
250
  6
CONTINUOUS
 10
-14.0214375544
 20
8.5704280013
 11
-14.6196950698
 21
8.2250004238
  0
LINE
  5
39C
100
AcDbEntity
  8
RACCORDO
100
AcDbLine
 62
250
  6
CONTINUOUS
 10
-11.1781339399
 20
10.1020692669
 11
-6.93522228
 21
12.5518816948
  0
LINE
  5
39D
100
AcDbEntity
  8
RACCORDO
100
AcDbLine
 62
7
  6
CONTINUOUS
 10
-10.7174326691
 20
10.3074741588
 11
-6.8736066698
 21
12.5268748402
  0
LINE
  5
39E
100
AcDbEntity
  8
ASSI
100
AcDbLine
 62
250
  6
CONTINUOUS
 10
-13.8800377373
 20
8.3255163342
 11
-14.336909343
 21
8.0617234892
  0
LINE
  5
39F
100
AcDbEntity
  8
0
100
AcDbLine
 62
250
  6
CONTINUOUS
 10
-14.2136783648
 20
7.9905714669
 11
-16.6177316418
 21
6.6025080805
  0
LINE
  5
3A0
100
AcDbEntity
  8
0
100
AcDbLine
 62
250
  6
CONTINUOUS
 10
-13.8602461281
 20
7.3784088765
 11
-16.2642994051
 21
5.9903454902
  0
LINE
  5
3A1
100
AcDbEntity
  8
RACCORDO
100
AcDbLine
 62
250
  6
CONTINUOUS
 10
-11.3052778569
 20
9.1789209897
 11
-10.5301087443
 21
9.6166758736
  0
LINE
  5
3A2
100
AcDbEntity
  8
RACCORDO
100
AcDbLine
 62
250
  6
CONTINUOUS
 10
-10.6622698923
 20
8.5152791997
 11
-9.861074512
 21
8.9673522218
  0
LINE
  5
3A3
100
AcDbEntity
  8
RACCORDO
100
AcDbLine
 62
250
  6
CONTINUOUS
 10
-11.1814099153
 20
10.1002593568
 11
-11.1781339399
 21
10.1020692669
  0
LINE
  5
3A4
100
AcDbEntity
  8
ASSI
100
AcDbLine
 62
250
  6
CONTINUOUS
 10
-15.5486414201
 20
9.452216373
 11
-16.1681552128
 21
9.1190619036
  0
LINE
  5
3A5
100
AcDbEntity
  8
ASSI
100
AcDbLine
 62
250
  6
CONTINUOUS
 10
-13.9941699658
 20
7.7748850264
 11
-11.3053370613
 21
9.1789551735
  0
LWPOLYLINE
  5
3A6
100
AcDbEntity
  8
RACCORDO
100
AcDbPolyline
 62
250
  6
CONTINUOUS
 90
13
 70
0
 10
0.5489442897
 20
15.0878362094
 10
0.5886516983
 20
15.1084666535
 10
0.6272157615
 20
15.124918813
 10
0.664493266
 20
15.1374565515
 10
0.6999818514
 20
15.1462531444
 10
0.7340199972
 20
15.1517714586
 10
0.7677037619
 20
15.154429366
 10
0.800848668
 20
15.154270464
 10
0.833431373
 20
15.1512783685
 10
0.8666116494
 20
15.1451901099
 10
0.9005579577
 20
15.1355930563
 10
0.9345732806
 20
15.1222725524
 10
0.9683696585
 20
15.1049632291
  0
LWPOLYLINE
  5
3A7
100
AcDbEntity
  8
RACCORDO
100
AcDbPolyline
 62
250
  6
CONTINUOUS
 90
13
 70
0
 10
0.8624331907
 20
14.7115178084
 10
0.8773193847
 20
14.7191219812
 10
0.8919809934
 20
14.7251986715
 10
0.9064180169
 20
14.7297478793
 10
0.9205280482
 20
14.7326749087
 10
0.9344134943
 20
14.7340744557
 10
0.9483815757
 20
14.7342306076
 10
0.9624054744
 20
14.733321639
 10
0.9765120085
 20
14.7311692754
 10
0.9910888523
 20
14.7275227808
 10
1.0062652307
 20
14.7222985768
 10
1.0219119189
 20
14.7155802418
 10
1.0380289169
 20
14.707367776
  0
LWPOLYLINE
  5
3A8
100
AcDbEntity
  8
0
100
AcDbPolyline
 62
250
  6
CONTINUOUS
 90
16
 70
0
 10
-16.2642994051
 20
5.9903454902
 10
-16.3035236515
 20
5.9709743335
 10
-16.3459976285
 20
5.9540411902
 10
-16.3912687132
 20
5.9397265085
 10
-16.438860136
 20
5.9281816546
 10
-16.4882594999
 20
5.9195315091
 10
-16.5389223824
 20
5.913869724
 10
-16.5902959723
 20
5.911253704
 10
-16.6418449801
 20
5.9117063972
 10
-16.6930394938
 20
5.9152215677
 10
-16.7434046859
 20
5.9217731291
 10
-16.7923315783
 20
5.931288501
 10
-16.8391227363
 20
5.9436134906
 10
-16.8832531649
 20
5.9585647785
 10
-16.924352758
 20
5.9759696705
 10
-16.9620300836
 20
5.9956192289
  0
LWPOLYLINE
  5
3A9
100
AcDbEntity
  8
RACCORDO
100
AcDbPolyline
 62
250
  6
CONTINUOUS
 90
7
 70
0
 10
-7.1119720514
 20
12.8580212786
 10
-7.0937402387
 20
12.8668142592
 10
-7.075854792
 20
12.8727043316
 10
-7.0586149828
 20
12.8755929391
 10
-7.0423092796
 20
12.8754317477
 10
-7.0272105205
 20
12.8722234544
 10
-7.0145665734
 20
12.8666048709
  0
LINE
  5
3AA
100
AcDbEntity
  8
RACCORDO
100
AcDbLine
 62
250
  6
CONTINUOUS
 10
-8.2015149981
 20
10.9138870289
 11
-5.9555819166
 21
11.9968188532
  0
LINE
  5
3AB
100
AcDbEntity
  8
RACCORDO
100
AcDbLine
 62
250
  6
CONTINUOUS
 10
-10.4229690398
 20
9.8441488162
 11
-8.2015149981
 21
10.9138870289
  0
LWPOLYLINE
  5
3AC
100
AcDbEntity
  8
RACCORDO
100
AcDbPolyline
 62
250
  6
CONTINUOUS
 90
3
 70
0
 10
-11.2856160674
 20
10.082337211
 10
-11.3000368351
 20
10.0769171469
 10
-11.3146405493
 20
10.0696547053
  0
LWPOLYLINE
  5
3AD
100
AcDbEntity
  8
ASSI
100
AcDbPolyline
 62
250
  6
CONTINUOUS
 90
3
 70
0
 10
-15.6304768507
 20
9.4696359619
 10
-15.6419820381
 20
9.4655815946
 10
-15.6458347599
 20
9.4636673292
  0
LINE
  5
3AE
100
AcDbEntity
  8
ASSI
100
AcDbLine
 62
250
  6
CONTINUOUS
 10
-14.6350788687
 20
11.5974954952
 11
-14.6741064697
 21
11.5841135727
  0
LINE
  5
3AF
100
AcDbEntity
  8
ASSI
100
AcDbLine
 62
250
  6
CONTINUOUS
 10
-14.6741064697
 20
11.5841135727
 11
-14.7178934222
 21
11.5692594064
  0
LINE
  5
3B0
100
AcDbEntity
  8
RACCORDO
100
AcDbLine
 62
7
  6
CONTINUOUS
 10
-20.692513193
 20
-5.0571851148
 11
-18.9952554489
 21
-6.0371604647
  0
LINE
  5
3B1
100
AcDbEntity
  8
RACCORDO
100
AcDbLine
 62
250
  6
CONTINUOUS
 10
-20.9046307309
 20
-4.8332601216
 11
-18.9073874836
 21
-5.9864433412
  0
LINE
  5
3B2
100
AcDbEntity
  8
RACCORDO
100
AcDbLine
 62
7
  6
CONTINUOUS
 10
-29.672769314
 20
0.8219019557
 11
-27.9755115699
 21
-0.1580733941
  0
LINE
  5
3B3
100
AcDbEntity
  8
RACCORDO
100
AcDbLine
 62
250
  6
CONTINUOUS
 10
-29.884886852
 20
1.045826949
 11
-27.8876436046
 21
-0.1073562707
  0
LWPOLYLINE
  5
3B4
100
AcDbEntity
  8
RACCORDO
100
AcDbPolyline
 62
7
  6
CONTINUOUS
 90
10
 70
0
 10
-20.6925299496
 20
-5.0572045656
 10
-20.7112934831
 20
-5.0456992367
 10
-20.7366995527
 20
-5.0278660279
 10
-20.7621289975
 20
-5.0075336783
 10
-20.7874016467
 20
-4.9846306186
 10
-20.8122701269
 20
-4.9591755828
 10
-20.8366882971
 20
-4.9313122404
 10
-20.8604459234
 20
-4.9010654249
 10
-20.8831931323
 20
-4.868376648
 10
-20.9046307309
 20
-4.8332601216
  0
LWPOLYLINE
  5
3B5
100
AcDbEntity
  8
RACCORDO
100
AcDbPolyline
 62
7
  6
CONTINUOUS
 90
10
 70
0
 10
-29.6727860707
 20
0.821882505
 10
-29.6915496042
 20
0.8333878339
 10
-29.7169556738
 20
0.8512210426
 10
-29.7423851186
 20
0.8715533923
 10
-29.7676577678
 20
0.8944564519
 10
-29.7925262479
 20
0.9199114877
 10
-29.8169444181
 20
0.9477748301
 10
-29.8407020445
 20
0.9780216456
 10
-29.8634492534
 20
1.0107104226
 10
-29.884886852
 20
1.045826949
  0
LINE
  5
3B6
100
AcDbEntity
  8
ASSI
100
AcDbLine
 62
250
  6
CONTINUOUS
 10
-14.9963637131
 20
10.1121651344
 11
-14.9723760163
 21
9.9404402869
  0
LWPOLYLINE
  5
3B7
100
AcDbEntity
  8
RACCORDO
100
AcDbPolyline
 62
250
  6
CONTINUOUS
 90
19
 70
0
 10
-15.0631010291
 20
13.7309546705
 10
-15.068573588
 20
13.7716986957
 10
-15.0767455503
 20
13.8095956865
 10
-15.0876169162
 20
13.844645643
 10
-15.1012917527
 20
13.876976058
 10
-15.1176659927
 20
13.9064594386
 10
-15.1364274348
 20
13.932713306
 10
-15.1576234402
 20
13.9557441729
 10
-15.1812066477
 20
13.9755455267
 10
-15.2067227725
 20
13.9917153501
 10
-15.234094212
 20
14.0042202742
 10
-15.2633985688
 20
14.013093668
 10
-15.2944143659
 20
14.0180336212
 10
-15.3273696936
 20
14.0190036365
 10
-15.3620364616
 20
14.0160402112
 10
-15.3975089229
 20
14.0089509278
 10
-15.433485162
 20
13.9976716471
 10
-15.4702670943
 20
13.9822665083
 10
-15.5078547201
 20
13.9627355114
  0
LINE
  5
3B8
100
AcDbEntity
  8
ASSI
100
AcDbLine
 62
250
  6
CONTINUOUS
 10
-15.0217043571
 20
10.2999233082
 11
-14.9963637131
 21
10.1121651344
  0
LINE
  5
3B9
100
AcDbEntity
  8
ASSI
100
AcDbLine
 62
250
  6
CONTINUOUS
 10
-15.0486222626
 20
10.5066128856
 11
-15.0217043571
 21
10.2999233082
  0
LINE
  5
3BA
100
AcDbEntity
  8
ASSI
100
AcDbLine
 62
250
  6
CONTINUOUS
 10
-15.0771450029
 20
10.7339014121
 11
-15.0486222626
 21
10.5066128856
  0
LWPOLYLINE
  5
3BB
100
AcDbEntity
  8
ASSI
100
AcDbPolyline
 62
250
  6
CONTINUOUS
 90
13
 70
0
 10
-16.6620420504
 20
11.4161349017
 10
-16.6646882883
 20
11.4375943454
 10
-16.6694884361
 20
11.4597282156
 10
-16.6763682063
 20
11.4821974162
 10
-16.6852207012
 20
11.5046560431
 10
-16.6959102478
 20
11.5267623997
 10
-16.7082759953
 20
11.5481838152
 10
-16.7221405776
 20
11.5686074957
 10
-16.7372830499
 20
11.5877030237
 10
-16.7534373249
 20
11.6051428002
 10
-16.7703394298
 20
11.6206605887
 10
-16.787739526
 20
11.6340448405
 10
-16.8053719415
 20
11.6451058431
  0
LWPOLYLINE
  5
3BC
100
AcDbEntity
  8
ASSI
100
AcDbPolyline
 62
250
  6
CONTINUOUS
 90
13
 70
0
 10
-16.5256466245
 20
11.4976969093
 10
-16.5282866465
 20
11.5191199488
 10
-16.5330742394
 20
11.5412185043
 10
-16.5399363226
 20
11.563655251
 10
-16.5487681494
 20
11.5860877013
 10
-16.5594349055
 20
11.6081734336
 10
-16.5717737677
 20
11.6295753184
 10
-16.5855963884
 20
11.6499666653
 10
-16.6006917711
 20
11.6690362089
 10
-16.6168294914
 20
11.6864928608
 10
-16.6337632137
 20
11.7020701527
 10
-16.6512344521
 20
11.7155303038
 10
-16.6689765155
 20
11.7266678507
  0
LWPOLYLINE
  5
3BD
100
AcDbEntity
  8
ASSI
100
AcDbPolyline
 62
250
  6
CONTINUOUS
 90
13
 70
0
 10
-14.7178934222
 20
11.5692594064
 10
-14.7153435787
 20
11.5484959337
 10
-14.7107704341
 20
11.5270869558
 10
-14.7042397121
 20
11.5053401633
 10
-14.6958452705
 20
11.4835681022
 10
-14.6857077532
 20
11.4620836829
 10
-14.6739728568
 20
11.4411956835
 10
-14.660809235
 20
11.4212043089
 10
-14.6464060759
 20
11.4023968783
 10
-14.630970384
 20
11.3850436972
 10
-14.6147240032
 20
11.369394169
 10
-14.5979004276
 20
11.3556732111
 10
-14.5807414476
 20
11.344078024
  0
LINE
  5
3BE
100
AcDbEntity
  8
ASSI
100
AcDbLine
 62
250
  6
CONTINUOUS
 10
-15.1070133657
 20
10.9812451026
 11
-15.0771450029
 21
10.7339014121
  0
LINE
  5
3BF
100
AcDbEntity
  8
ASSI
100
AcDbLine
 62
250
  6
CONTINUOUS
 10
-12.7014894092
 20
12.4506993395
 11
-12.6884367037
 21
12.3311948059
  0
LWPOLYLINE
  5
3C0
100
AcDbEntity
  8
RACCORDO
100
AcDbPolyline
 62
250
  6
CONTINUOUS
 90
13
 70
0
 10
-12.9114697373
 20
15.4618556601
 10
-12.9083749611
 20
15.4293022105
 10
-12.9019422892
 20
15.3955184686
 10
-12.8922745884
 20
15.3610446448
 10
-12.8795264539
 20
15.3264319836
 10
-12.8639017361
 20
15.2922339448
 10
-12.8456502797
 20
15.2589973538
 10
-12.8250639325
 20
15.2272536658
 10
-12.8024718751
 20
15.1975104611
 10
-12.7782353541
 20
15.1702433261
 10
-12.7527419128
 20
15.1458882592
 10
-12.7263991951
 20
15.1248346971
 10
-12.6996284225
 20
15.1074192827
  0
LWPOLYLINE
  5
3C1
100
AcDbEntity
  8
RACCORDO
100
AcDbPolyline
 62
250
  6
CONTINUOUS
 90
13
 70
0
 10
-12.0448391887
 20
15.9622372774
 10
-12.041744429
 20
15.929683943
 10
-12.0353117909
 20
15.8959002989
 10
-12.0256441329
 20
15.861426549
 10
-12.0128960418
 20
15.826813932
 10
-11.9972713609
 20
15.7926159072
 10
-11.9790199305
 20
15.7593793043
 10
-11.9584335926
 20
15.7276355801
 10
-11.935841525
 20
15.6978923199
 10
-11.911604977
 20
15.6706251214
 10
-11.8861114936
 20
15.6462699898
 10
-11.859768718
 20
15.6252163661
 10
-11.832997874
 20
15.6078009
  0
LINE
  5
3C2
100
AcDbEntity
  8
ASSI
100
AcDbLine
 62
250
  6
CONTINUOUS
 10
-12.4212846277
 20
11.6538379941
 11
-12.392101363
 21
11.3312420192
  0
LINE
  5
3C3
100
AcDbEntity
  8
ASSI
100
AcDbLine
 62
250
  6
CONTINUOUS
 10
-12.4534824032
 20
12.0301009274
 11
-12.4212846277
 21
11.6538379941
  0
LINE
  5
3C4
100
AcDbEntity
  8
ASSI
100
AcDbLine
 62
250
  6
CONTINUOUS
 10
-12.4885135509
 20
12.4648247598
 11
-12.4534824032
 21
12.0301009274
  0
LINE
  5
3C5
100
AcDbEntity
  8
ASSI
100
AcDbLine
 62
250
  6
CONTINUOUS
 10
-11.7977280676
 20
12.5155853599
 11
-11.8152227289
 21
12.9806708487
  0
LINE
  5
3C6
100
AcDbEntity
  8
ASSI
100
AcDbLine
 62
250
  6
CONTINUOUS
 10
-11.7880445402
 20
12.2118456745
 11
-11.7977280676
 21
12.5155853599
  0
LINE
  5
3C7
100
AcDbEntity
  8
RACCORDO
100
AcDbLine
 62
250
  6
CONTINUOUS
 10
-11.1781339377
 20
10.1020692681
 11
-11.1788022617
 21
10.1241362531
  0
LINE
  5
3C8
100
AcDbEntity
  8
ASSI
100
AcDbLine
 62
250
  6
CONTINUOUS
 10
-11.7803787024
 20
11.9293241109
 11
-11.7880445402
 21
12.2118456745
  0
LINE
  5
3C9
100
AcDbEntity
  8
ASSI
100
AcDbLine
 62
250
  6
CONTINUOUS
 10
-11.7763354931
 20
11.753644433
 11
-11.7803787024
 21
11.9293241109
  0
LWPOLYLINE
  5
3CA
100
AcDbEntity
  8
RACCORDO
100
AcDbPolyline
 62
250
  6
CONTINUOUS
 90
10
 70
0
 10
-9.7903504893
 20
16.9189903776
 10
-9.790792236
 20
16.9431689918
 10
-9.7924728284
 20
16.9679303357
 10
-9.7953871893
 20
16.9931902939
 10
-9.7995266927
 20
17.0188627677
 10
-9.8048773484
 20
17.0448608306
 10
-9.811419813
 20
17.0710970157
 10
-9.8191319275
 20
17.0974824686
 10
-9.8279888255
 20
17.1239272565
 10
-9.8379611476
 20
17.1503415323
  0
LWPOLYLINE
  5
3CB
100
AcDbEntity
  8
0
100
AcDbPolyline
 62
7
  6
CONTINUOUS
 90
8
 70
0
 10
-9.65296078
 20
2.4823006914
 10
-9.6537357482
 20
2.5367174492
 10
-9.6560449148
 20
2.5918573459
 10
-9.6598882797
 20
2.6477203815
 10
-9.6652733686
 20
2.704373475
 10
-9.6721926559
 20
2.7617497074
 10
-9.6806235644
 20
2.819648322
 10
-9.6905710446
 20
2.8780665978
  0
LWPOLYLINE
  5
3CC
100
AcDbEntity
  8
RACCORDO
100
AcDbPolyline
 62
250
  6
CONTINUOUS
 90
21
 70
0
 10
-9.9086051164
 20
15.1199346963
 10
-9.9086793264
 20
15.1303470281
 10
-9.9023678946
 20
15.2066801066
 10
-9.8892169754
 20
15.2827230101
 10
-9.8692610878
 20
15.3582731974
 10
-9.842548478
 20
15.4331391797
 10
-9.8091415777
 20
15.5071304464
 10
-9.7691299225
 20
15.5800362585
 10
-9.7226321488
 20
15.6516388589
 10
-9.6697694977
 20
15.7217534417
 10
-9.6106906272
 20
15.7901845004
 10
-9.5455978478
 20
15.8567086977
 10
-9.474722016
 20
15.9211145001
 10
-9.3982288782
 20
15.9832736508
 10
-9.3162374744
 20
16.0430923593
 10
-9.2289888775
 20
16.1003895654
 10
-9.1366846041
 20
16.1550280609
 10
-9.0393560936
 20
16.2069640389
 10
-8.9369770657
 20
16.2561507541
 10
-8.8300230566
 20
16.3023014903
 10
-8.7298084284
 20
16.3412126716
  0
LINE
  5
3CD
100
AcDbEntity
  8
ASSI
100
AcDbLine
 62
7
  6
CONTINUOUS
 10
-11.822288879
 20
12.7370979151
 11
-11.822288879
 21
11.6063763102
  0
LINE
  5
3CE
100
AcDbEntity
  8
RACCORDO
100
AcDbLine
 62
250
  6
CONTINUOUS
 10
-11.1781339399
 20
10.0556619929
 11
-11.1781339399
 21
10.1020692669
  0
LINE
  5
3CF
100
AcDbEntity
  8
ASSI
100
AcDbLine
 62
7
  6
CONTINUOUS
 10
-10.8201747389
 20
10.1641420072
 11
-10.8201747389
 21
9.8489808365
  0
LINE
  5
3D0
100
AcDbEntity
  8
0
100
AcDbLine
 62
250
  6
CONTINUOUS
 10
-10.7030174514
 20
10.0058452592
 11
-10.7030174514
 21
9.781335687
  0
LINE
  5
3D1
100
AcDbEntity
  8
ASSI
100
AcDbLine
 62
7
  6
CONTINUOUS
 10
-10.1864730021
 20
8.2532939779
 11
-10.1864730021
 21
8.1526311461
  0
LINE
  5
3D2
100
AcDbEntity
  8
RACCORDO
100
AcDbLine
 62
250
  6
CONTINUOUS
 10
-9.7903504893
 20
16.9189903776
 11
-9.7903504893
 21
16.6761411351
  0
LINE
  5
3D3
100
AcDbEntity
  8
RACCORDO
100
AcDbLine
 62
7
  6
CONTINUOUS
 10
-9.6916610096
 20
2.9373990643
 11
-9.6916610096
 21
-25.4892087987
  0
LINE
  5
3D4
100
AcDbEntity
  8
0
100
AcDbLine
 62
7
  6
CONTINUOUS
 10
-9.65296078
 20
-25.0788004801
 11
-9.65296078
 21
2.4823006914
  0
LINE
  5
3D5
100
AcDbEntity
  8
RACCORDO
100
AcDbLine
 62
7
  6
CONTINUOUS
 10
-10.5291231406
 20
15.8705897076
 11
-10.5291278099
 21
15.8677248475
  0
LWPOLYLINE
  5
3D6
100
AcDbEntity
  8
RACCORDO
100
AcDbPolyline
 62
7
  6
CONTINUOUS
 90
6
 70
0
 10
-13.081856297
 20
-27.8286197009
 10
-13.0821010953
 20
-27.830596696
 10
-13.0848850483
 20
-27.8344721447
 10
-13.0903030335
 20
-27.8399965974
 10
-13.0982343289
 20
-27.8471373417
 10
-13.1085331144
 20
-27.855810205
  0
LWPOLYLINE
  5
3D7
100
AcDbEntity
  8
RACCORDO
100
AcDbPolyline
 62
250
  6
CONTINUOUS
 90
13
 70
0
 10
-6.5745637806
 20
19.1027954464
 10
-6.5624961812
 20
19.1471666058
 10
-6.5536329719
 20
19.1907670311
 10
-6.5480597688
 20
19.2331755544
 10
-6.5458304075
 20
19.2739825208
 10
-6.546966423
 20
19.3127937464
 10
-6.5514568418
 20
19.3492343255
 10
-6.5592582876
 20
19.382952252
 10
-6.5702954006
 20
19.4136218201
 10
-6.5844615654
 20
19.4409467702
 10
-6.6016199406
 20
19.4646631508
 10
-6.6216047812
 20
19.4845418682
 10
-6.644223039
 20
19.5003908995
  0
LINE
  5
3D8
100
AcDbEntity
  8
0
100
AcDbLine
 62
7
  6
CONTINUOUS
 10
-6.5828135087
 20
14.8065624868
 11
-6.6116252154
 21
14.7232020413
  0
LWPOLYLINE
  5
3D9
100
AcDbEntity
  8
RACCORDO
100
AcDbPolyline
 62
250
  6
CONTINUOUS
 90
4
 70
0
 10
-6.8933283162
 20
12.5893080775
 10
-6.8853158556
 20
12.6035112039
 10
-6.8805457636
 20
12.6181926815
 10
-6.8790905404
 20
12.6318989777
  0
LINE
  5
3DA
100
AcDbEntity
  8
RACCORDO
100
AcDbLine
 62
7
  6
CONTINUOUS
 10
-12.9586849821
 20
2.5563882486
 11
-13.3229228571
 21
1.9443943266
  0
LWPOLYLINE
  5
3DB
100
AcDbEntity
  8
SUPERFICI
100
AcDbPolyline
 62
7
  6
CONTINUOUS
 90
10
 70
0
 10
-13.3229228571
 20
1.9443943266
 10
-13.3362779688
 20
1.9231802862
 10
-13.3503441826
 20
1.9030095152
 10
-13.3651214984
 20
1.8838820136
 10
-13.3807203435
 20
1.8656816182
 10
-13.3970302906
 20
1.8485244922
 10
-13.4137200583
 20
1.8327591247
 10
-13.4306792193
 20
1.8185016787
 10
-13.4480182008
 20
1.8056359913
 10
-13.4657370028
 20
1.7941620623
  0
LWPOLYLINE
  5
3DC
100
AcDbEntity
  8
RACCORDO
100
AcDbPolyline
 62
250
  6
CONTINUOUS
 90
18
 70
0
 10
-2.059786371
 20
12.6593204067
 10
-2.1376412351
 20
12.6107131005
 10
-2.2128238703
 20
12.5596149461
 10
-2.2851455041
 20
12.5059288979
 10
-2.3537663339
 20
12.4501395649
 10
-2.4191973804
 20
12.3916174929
 10
-2.4827630924
 20
12.3285492223
 10
-2.5441200279
 20
12.2602194999
 10
-2.6016531101
 20
12.1873077865
 10
-2.6542803905
 20
12.1100445998
 10
-2.7012548862
 20
12.0282733969
 10
-2.7414626434
 20
11.9423882595
 10
-2.7736471829
 20
11.8535457961
 10
-2.7972063909
 20
11.7617681899
 10
-2.8114430342
 20
11.6674193789
 10
-2.8157284701
 20
11.5722451049
 10
-2.8099831569
 20
11.4769344538
 10
-2.7941621784
 20
11.381497398
  0
LWPOLYLINE
  5
3DD
100
AcDbEntity
  8
RACCORDO
100
AcDbPolyline
 62
250
  6
CONTINUOUS
 90
16
 70
0
 10
-2.0121758963
 20
12.4279684251
 10
-2.0886946721
 20
12.3804757458
 10
-2.1626273976
 20
12.330452663
 10
-2.2336744336
 20
12.2779133265
 10
-2.3008218675
 20
12.2235106774
 10
-2.3645612283
 20
12.166687069
 10
-2.4264088758
 20
12.1055012589
 10
-2.4862129247
 20
12.0390791916
 10
-2.5423427505
 20
11.9681234115
 10
-2.5936733134
 20
11.8929728933
 10
-2.6394526296
 20
11.8134903789
 10
-2.6786383158
 20
11.7299541839
 10
-2.7100009138
 20
11.6434598929
 10
-2.7329388829
 20
11.5541017064
 10
-2.7467781135
 20
11.4622751879
 10
-2.7509485475
 20
11.379569181
  0
LINE
  5
3DE
100
AcDbEntity
  8
RACCORDO
100
AcDbLine
 62
7
  6
CONTINUOUS
 10
1.4021961308
 20
14.2913959678
 11
-1.1325375754
 21
12.7219591876
  0
LINE
  5
3DF
100
AcDbEntity
  8
DRAFT
100
AcDbLine
 62
7
  6
CONTINUOUS
 10
-2.0121758963
 20
12.1851206085
 11
-1.1325375754
 21
12.7205837618
  0
LINE
  5
3E0
100
AcDbEntity
  8
DRAFT
100
AcDbLine
 62
7
  6
CONTINUOUS
 10
-27.9755115703
 20
-5.2559996318
 11
-28.3205798033
 21
-5.4658555801
  0
LINE
  5
3E1
100
AcDbEntity
  8
RACCORDO
100
AcDbLine
 62
7
  6
CONTINUOUS
 10
-11.9215922685
 20
7.2007070744
 11
-9.7484791306
 21
8.5189972736
  0
LINE
  5
3E2
100
AcDbEntity
  8
0
100
AcDbLine
 62
7
  6
CONTINUOUS
 10
-11.866144222
 20
7.1104521601
 11
-9.394961425
 21
8.6095516817
  0
LINE
  5
3E3
100
AcDbEntity
  8
ASSI
100
AcDbLine
 62
7
  6
CONTINUOUS
 10
-10.1883449879
 20
8.1557197273
 11
-11.8788377253
 21
7.1311138628
  0
LINE
  5
3E4
100
AcDbEntity
  8
RACCORDO
100
AcDbLine
 62
250
  6
CONTINUOUS
 10
-2.1559578191
 20
12.9056500069
 11
0.8624331907
 21
14.7115178084
  0
LINE
  5
3E5
100
AcDbEntity
  8
RACCORDO
100
AcDbLine
 62
250
  6
CONTINUOUS
 10
1.2036103381
 20
14.6117751936
 11
-2.0597872991
 21
12.6593227841
  0
LINE
  5
3E6
100
AcDbEntity
  8
RACCORDO
100
AcDbLine
 62
250
  6
CONTINUOUS
 10
1.2496284049
 20
14.3794690187
 11
-2.0121758963
 21
12.427969851
  0
LINE
  5
3E7
100
AcDbEntity
  8
RACCORDO
100
AcDbLine
 62
250
  6
CONTINUOUS
 10
-27.9755115703
 20
-4.9417961756
 11
-28.3205798033
 21
-5.1445743559
  0
LINE
  5
3E8
100
AcDbEntity
  8
RACCORDO
100
AcDbLine
 62
7
  6
CONTINUOUS
 10
-28.7547606535
 20
-5.9148765127
 11
-28.7691169601
 21
-5.9232005872
  0
LINE
  5
3E9
100
AcDbEntity
  8
RACCORDO
100
AcDbLine
 62
7
  6
CONTINUOUS
 10
-29.4643573065
 20
-6.3245885866
 11
-29.4821875261
 21
-6.3349148756
  0
LWPOLYLINE
  5
3EA
100
AcDbEntity
  8
RACCORDO
100
AcDbPolyline
 62
7
  6
CONTINUOUS
 90
4
 70
0
 10
-29.6406021634
 20
-6.4262868954
 10
-29.6915174949
 20
-6.4557770998
 10
-29.7169801696
 20
-6.4704119955
 10
-29.7423851186
 20
-6.4851070885
  0
LINE
  5
3EB
100
AcDbEntity
  8
RACCORDO
100
AcDbLine
 62
7
  6
CONTINUOUS
 10
-29.5668831268
 20
-6.3837497632
 11
-29.5907015657
 21
-6.3975351885
  0
LWPOLYLINE
  5
3EC
100
AcDbEntity
  8
RACCORDO
100
AcDbPolyline
 62
7
  6
CONTINUOUS
 90
3
 70
0
 10
-28.8996133565
 20
-5.9984653569
 10
-28.9404323433
 20
-6.0220980359
 10
-29.4643573065
 20
-6.3245885866
  0
LWPOLYLINE
  5
3ED
100
AcDbEntity
  8
RACCORDO
100
AcDbPolyline
 62
7
  6
CONTINUOUS
 90
3
 70
0
 10
-28.8393700643
 20
-5.9636534123
 10
-28.8792239978
 20
-5.9867592951
 10
-28.8996133565
 20
-5.9984653569
  0
LINE
  5
3EE
100
AcDbEntity
  8
RACCORDO
100
AcDbLine
 62
7
  6
CONTINUOUS
 10
-1.3798846979
 20
12.2989157592
 11
-2.6288753823
 21
11.5777653974
  0
LINE
  5
3EF
100
AcDbEntity
  8
0
100
AcDbLine
 62
7
  6
CONTINUOUS
 10
-1.3020296942
 20
11.355786769
 11
-0.8070549474
 21
11.6415789843
  0
LINE
  5
3F0
100
AcDbEntity
  8
RACCORDO
100
AcDbLine
 62
250
  6
CONTINUOUS
 10
-27.9755115703
 20
-4.5694648791
 11
-28.3205798033
 21
-4.7687032912
  0
LINE
  5
3F1
100
AcDbEntity
  8
RACCORDO
100
AcDbLine
 62
250
  6
CONTINUOUS
 10
-27.9755115703
 20
-4.8960564747
 11
-28.3205798033
 21
-5.0952948867
  0
LINE
  5
3F2
100
AcDbEntity
  8
RACCORDO
100
AcDbLine
 62
7
  6
CONTINUOUS
 10
1.6611229652
 20
11.8500156893
 11
0.3496586541
 21
11.0927926326
  0
LINE
  5
3F3
100
AcDbEntity
  8
RACCORDO
100
AcDbLine
 62
7
  6
CONTINUOUS
 10
-0.3515650878
 20
10.6879148325
 11
-1.1160914854
 21
10.2464868722
  0
LINE
  5
3F4
100
AcDbEntity
  8
0
100
AcDbLine
 62
7
  6
CONTINUOUS
 10
-10.1864730021
 20
8.1526311461
 11
-9.394961425
 21
8.6095516817
  0
LINE
  5
3F5
100
AcDbEntity
  8
RACCORDO
100
AcDbLine
 62
250
  6
CONTINUOUS
 10
-13.1683488734
 20
4.8403294451
 11
-13.8602461281
 21
4.4547816397
  0
LINE
  5
3F6
100
AcDbEntity
  8
RACCORDO
100
AcDbLine
 62
250
  6
CONTINUOUS
 10
-12.9586849821
 20
4.4714933426
 11
-13.8602461281
 21
3.9691139517
  0
LINE
  5
3F7
100
AcDbEntity
  8
RACCORDO
100
AcDbLine
 62
250
  6
CONTINUOUS
 10
-9.7404581177
 20
8.7676418666
 11
-9.7544777754
 21
8.7598920627
  0
LWPOLYLINE
  5
3F8
100
AcDbEntity
  8
RACCORDO
100
AcDbPolyline
 62
250
  6
CONTINUOUS
 90
7
 70
0
 10
-1.9782567475
 20
11.4458970566
 10
-2.1128329691
 20
11.3755109653
 10
-2.2412297297
 20
11.3013761941
 10
-2.3631341052
 20
11.2236734118
 10
-2.4782490601
 20
11.1425919461
 10
-2.5862941007
 20
11.0583293584
 10
-2.6325753906
 20
11.018239686
  0
LINE
  5
3F9
100
AcDbEntity
  8
ASSI
100
AcDbLine
 62
250
  6
CONTINUOUS
 10
-13.8602461281
 20
6.8540039642
 11
-10.6622698923
 21
8.5152791997
  0
LWPOLYLINE
  5
3FA
100
AcDbEntity
  8
RACCORDO
100
AcDbPolyline
 62
250
  6
CONTINUOUS
 90
4
 70
0
 10
-9.6914897434
 20
8.7936572781
 10
-9.7070174437
 20
8.78607136
 10
-9.7169563268
 20
8.7808650573
 10
-9.7404581177
 20
8.7676418666
  0
LINE
  5
3FB
100
AcDbEntity
  8
RACCORDO
100
AcDbLine
 62
250
  6
CONTINUOUS
 10
-7.5027062306
 20
10.1996108083
 11
-5.2552609756
 21
11.2720473379
  0
LINE
  5
3FC
100
AcDbEntity
  8
RACCORDO
100
AcDbLine
 62
250
  6
CONTINUOUS
 10
-9.7257418358
 20
9.1402339449
 11
-7.5027062306
 21
10.1996108083
  0
LINE
  5
3FD
100
AcDbEntity
  8
RACCORDO
100
AcDbLine
 62
250
  6
CONTINUOUS
 10
-1.8378290925
 20
11.5123629256
 11
-1.8457764641
 21
11.5089009773
  0
LINE
  5
3FE
100
AcDbEntity
  8
RACCORDO
100
AcDbLine
 62
250
  6
CONTINUOUS
 10
-1.6918920815
 20
11.5747466851
 11
-1.6976389239
 21
11.5724349295
  0
LWPOLYLINE
  5
3FF
100
AcDbEntity
  8
RACCORDO
100
AcDbPolyline
 62
7
  6
CONTINUOUS
 90
10
 70
0
 10
-1.556586416
 20
11.6271084681
 10
-1.6976389239
 20
11.5724349295
 10
-1.8457764641
 20
11.5089009773
 10
-1.9886717201
 20
11.4410221914
 10
-2.1260349772
 20
11.3688956897
 10
-2.2574902276
 20
11.2926726065
 10
-2.3825948958
 20
11.2125722715
 10
-2.5011241197
 20
11.1287007926
 10
-2.6127391572
 20
11.0412523611
 10
-2.635515734
 20
11.0214380577
  0
LINE
  5
400
100
AcDbEntity
  8
0
100
AcDbLine
 62
7
  6
CONTINUOUS
 10
-1.5567115249
 20
11.6270623348
 11
-0.9516338353
 21
11.850192145
  0
LINE
  5
401
100
AcDbEntity
  8
RACCORDO
100
AcDbLine
 62
7
  6
CONTINUOUS
 10
-13.1085331144
 20
1.9007760503
 11
-13.219703848
 21
2.117823315
  0
LWPOLYLINE
  5
402
100
AcDbEntity
  8
RACCORDO
100
AcDbPolyline
 62
7
  6
CONTINUOUS
 90
13
 70
0
 10
-13.1085331144
 20
1.9007760503
 10
-13.0982343289
 20
1.8776037525
 10
-13.0903030335
 20
1.853523784
 10
-13.0848850483
 20
1.8289099759
 10
-13.0821010953
 20
1.8041370266
 10
-13.0819967523
 20
1.7796004211
 10
-13.0845420437
 20
1.755710341
 10
-13.0897065123
 20
1.7328417445
 10
-13.0974257689
 20
1.7113561891
 10
-13.1075509064
 20
1.6916199883
 10
-13.1199125586
 20
1.6739529597
 10
-13.1343272098
 20
1.658625612
 10
-13.1505645873
 20
1.6458811565
  0
LWPOLYLINE
  5
403
100
AcDbEntity
  8
ASSI
100
AcDbPolyline
 62
250
  6
CONTINUOUS
 90
3
 70
0
 10
-16.7182920711
 20
14.9070458658
 10
-16.7113366118
 20
14.8907428967
 10
-16.7103569308
 20
14.8863336362
  0
LWPOLYLINE
  5
404
100
AcDbEntity
  8
ASSI
100
AcDbPolyline
 62
250
  6
CONTINUOUS
 90
8
 70
0
 10
-13.8800377373
 20
7.9562053446
 10
-13.8758590569
 20
7.9435723629
 10
-13.8733037608
 20
7.931962279
 10
-13.8723974903
 20
7.9215006712
 10
-13.8731472512
 20
7.9123032105
 10
-13.8755418945
 20
7.9044646572
 10
-13.8795579442
 20
7.8980626697
 10
-13.8806910509
 20
7.8968177316
  0
LWPOLYLINE
  5
405
100
AcDbEntity
  8
ASSI
100
AcDbPolyline
 62
7
  6
CONTINUOUS
 90
4
 70
0
 10
-14.1572498732
 20
10.3915512332
 10
-14.1503739151
 20
10.3588319775
 10
-14.1449977006
 20
10.313699993
 10
-14.1430888406
 20
10.2655181586
  0
LWPOLYLINE
  5
406
100
AcDbEntity
  8
ASSI
100
AcDbPolyline
 62
7
  6
CONTINUOUS
 90
5
 70
0
 10
-14.3036019249
 20
11.3700366633
 10
-14.3007843222
 20
11.3546441505
 10
-14.2987699989
 20
11.3391603783
 10
-14.2975636586
 20
11.3236451142
 10
-14.2971626173
 20
11.3081368384
  0
LINE
  5
407
100
AcDbEntity
  8
ASSI
100
AcDbLine
 62
250
  6
CONTINUOUS
 10
-12.5974362506
 20
11.5514253746
 11
-12.5655286702
 21
11.2993252164
  0
LWPOLYLINE
  5
408
100
AcDbEntity
  8
ASSI
100
AcDbPolyline
 62
250
  6
CONTINUOUS
 90
13
 70
0
 10
-13.8900825149
 20
11.7399420742
 10
-13.8927226231
 20
11.7613656178
 10
-13.8975103719
 20
11.7834645942
 10
-13.9043726457
 20
11.8059016524
 10
-13.9132046599
 20
11.8283342816
 10
-13.9238715698
 20
11.850420061
 10
-13.9362105357
 20
11.8718218851
 10
-13.9500331878
 20
11.8922130706
 10
-13.9651285172
 20
11.9112823746
 10
-13.9812661146
 20
11.9287387579
 10
-13.9981996535
 20
11.9443157816
 10
-14.0156706445
 20
11.9577756801
 10
-14.0334124055
 20
11.9689130158
  0
LWPOLYLINE
  5
409
100
AcDbEntity
  8
ASSI
100
AcDbPolyline
 62
250
  6
CONTINUOUS
 90
13
 70
0
 10
-12.7014894093
 20
12.4506993395
 10
-12.7041294312
 20
12.4721223786
 10
-12.7089170241
 20
12.4942209339
 10
-12.7157791072
 20
12.5166576804
 10
-12.7246109338
 20
12.5390901308
 10
-12.73527769
 20
12.5611758632
 10
-12.7476165522
 20
12.5825777482
 10
-12.7614391729
 20
12.6029690951
 10
-12.7765345557
 20
12.6220386388
 10
-12.792672276
 20
12.6394952908
 10
-12.8096059984
 20
12.6550725827
 10
-12.8270772369
 20
12.6685327339
 10
-12.8448193004
 20
12.6796702808
  0
LWPOLYLINE
  5
40A
100
AcDbEntity
  8
ASSI
100
AcDbPolyline
 62
250
  6
CONTINUOUS
 90
13
 70
0
 10
-11.8152227299
 20
12.9806708481
 10
-11.8178627497
 20
13.0020938745
 10
-11.8226503389
 20
13.0241924206
 10
-11.8295124183
 20
13.0466291622
 10
-11.838344243
 20
13.0690616136
 10
-11.8490109995
 20
13.0911473514
 10
-11.861349863
 20
13.1125492418
 10
-11.8751724849
 20
13.1329405929
 10
-11.8902678695
 20
13.1520101406
 10
-11.9064055916
 20
13.1694667957
 10
-11.9233393156
 20
13.1850440898
 10
-11.9408105554
 20
13.1985042424
 10
-11.9585526198
 20
13.2096417902
  0
LINE
  5
40B
100
AcDbEntity
  8
ASSI
100
AcDbLine
 62
250
  6
CONTINUOUS
 10
-12.6319106466
 20
11.8359376258
 11
-12.5974362506
 21
11.5514253746
  0
LWPOLYLINE
  5
40C
100
AcDbEntity
  8
RACCORDO
100
AcDbPolyline
 62
250
  6
CONTINUOUS
 90
15
 70
0
 10
-11.1788022617
 20
10.1241362531
 10
-11.1814327712
 20
10.1470597465
 10
-11.1859966582
 20
10.1705886901
 10
-11.1924439383
 20
10.1944653872
 10
-11.2007040028
 20
10.2184283492
 10
-11.2106863978
 20
10.2422151595
 10
-11.2222818051
 20
10.2655653151
 10
-11.2353632341
 20
10.2882230749
 10
-11.2497874205
 20
10.309940285
 10
-11.2653963931
 20
10.3304790999
 10
-11.2820192036
 20
10.3496145738
 10
-11.2994737963
 20
10.3671371218
 10
-11.3175690062
 20
10.3828548336
 10
-11.3361066534
 20
10.3965955728
 10
-11.3548837112
 20
10.4082088508
  0
LINE
  5
40D
100
AcDbEntity
  8
ASSI
100
AcDbLine
 62
250
  6
CONTINUOUS
 10
-12.6690431525
 20
12.1571028727
 11
-12.6319106466
 21
11.8359376258
  0
LINE
  5
40E
100
AcDbEntity
  8
ASSI
100
AcDbLine
 62
250
  6
CONTINUOUS
 10
-12.6884367037
 20
12.3311948059
 11
-12.6690431525
 21
12.1571028727
  0
LWPOLYLINE
  5
40F
100
AcDbEntity
  8
RACCORDO
100
AcDbPolyline
 62
250
  6
CONTINUOUS
 90
55
 70
0
 10
-9.7753089434
 20
15.0481783823
 10
-9.7799539196
 20
15.1015538986
 10
-9.7798691952
 20
15.173174598
 10
-9.7734919577
 20
15.2445167308
 10
-9.7607762725
 20
15.3155772823
 10
-9.7417680742
 20
15.3863592673
 10
-9.7166064576
 20
15.456321132
 10
-9.6852368004
 20
15.52546707
 10
-9.6477137249
 20
15.5937928878
 10
-9.6043401931
 20
15.6607444505
 10
-9.5550569748
 20
15.7263133536
 10
-9.4999233001
 20
15.7905080016
 10
-9.4394198218
 20
15.8527994742
 10
-9.3735474702
 20
15.9131398128
 10
-9.3023053149
 20
15.971576976
 10
-9.2261712172
 20
16.0277259192
 10
-9.1451545882
 20
16.0815704675
 10
-9.0592460168
 20
16.1331267959
 10
-8.9688951311
 20
16.1820583849
 10
-8.8738448509
 20
16.2284332202
 10
-8.7743522564
 20
16.272183316
 10
-8.671638216
 20
16.3127681965
 10
-8.5652973473
 20
16.3501571759
 10
-8.4557350327
 20
16.3843809399
 10
-8.3453882883
 20
16.4149910697
 10
-8.2342837714
 20
16.4417811477
 10
-8.1223948246
 20
16.4649575915
 10
-8.0120784925
 20
16.4846912353
 10
-7.9036880026
 20
16.5008279399
 10
-7.7968701274
 20
16.5135218445
 10
-7.6929222282
 20
16.5234061997
 10
-7.5920863938
 20
16.530453294
 10
-7.4941205355
 20
16.534690839
 10
-7.3995957492
 20
16.53683522
 10
-7.3086740091
 20
16.5369112838
 10
-7.2211933409
 20
16.5348941835
 10
-7.1372389176
 20
16.5314257646
 10
-7.0569348442
 20
16.5265539994
 10
-6.9801570156
 20
16.5202309155
 10
-6.9066182891
 20
16.5129544412
 10
-6.8363517554
 20
16.504771667
 10
-6.7693243239
 20
16.4956355024
 10
-6.7051495797
 20
16.4859026041
 10
-6.6438418329
 20
16.4756128197
 10
-6.5853867735
 20
16.4647263017
 10
-6.529355057
 20
16.4534801636
 10
-6.4757504734
 20
16.4419075615
 10
-6.4245692328
 20
16.4299753394
 10
-6.3753706205
 20
16.417821143
 10
-6.3281514756
 20
16.4054713572
 10
-6.282914959
 20
16.3928995972
 10
-6.2392298391
 20
16.380164354
 10
-6.196952372
 20
16.3672851245
 10
-6.1562263016
 20
16.3542424118
 10
-6.1170516279
 20
16.3410362159
  0
LINE
  5
410
100
AcDbEntity
  8
ASSI
100
AcDbLine
 62
250
  6
CONTINUOUS
 10
-9.4350924231
 20
13.1014408198
 11
-9.489411871
 21
13.8497047848
  0
LINE
  5
411
100
AcDbEntity
  8
ASSI
100
AcDbLine
 62
250
  6
CONTINUOUS
 10
-9.3579457466
 20
13.1595465752
 11
-9.4110899417
 21
13.89162114
  0
LINE
  5
412
100
AcDbEntity
  8
RACCORDO
100
AcDbLine
 62
7
  6
CONTINUOUS
 10
-8.6609821288
 20
14.3175450523
 11
-8.6230729385
 21
13.7953364853
  0
LWPOLYLINE
  5
413
100
AcDbEntity
  8
RACCORDO
100
AcDbPolyline
 62
7
  6
CONTINUOUS
 90
12
 70
0
 10
-6.8790905404
 20
12.6318989777
 10
-6.8801423413
 20
12.6549959714
 10
-6.8842504242
 20
12.6829413532
 10
-6.8914098429
 20
12.7106292627
 10
-6.9016232644
 20
12.7379381807
 10
-6.9142514641
 20
12.7634417332
 10
-6.9293031881
 20
12.7874962289
 10
-6.947049326
 20
12.8103624828
 10
-6.9666085059
 20
12.8308195287
 10
-6.9878746345
 20
12.8488483291
 10
-7.0111546057
 20
12.8646009734
 10
-7.0145665734
 20
12.8666048709
  0
LWPOLYLINE
  5
414
100
AcDbEntity
  8
RACCORDO
100
AcDbPolyline
 62
250
  6
CONTINUOUS
 90
10
 70
0
 10
-6.5285461882
 20
18.8704895453
 10
-6.5287760262
 20
18.8935421225
 10
-6.5301508988
 20
18.9174863625
 10
-6.5327178131
 20
18.9422696629
 10
-6.5365314425
 20
18.9678966507
 10
-6.5416261466
 20
18.9942343939
 10
-6.5479848069
 20
19.0210048
 10
-6.5555894853
 20
19.0480514905
 10
-6.5644517854
 20
19.0753474428
 10
-6.5745637806
 20
19.1027954464
  0
LWPOLYLINE
  5
415
100
AcDbEntity
  8
RACCORDO
100
AcDbPolyline
 62
250
  6
CONTINUOUS
 90
28
 70
0
 10
-6.93522228
 20
12.5518816948
 10
-6.9353119802
 20
12.5618364868
 10
-6.9358254094
 20
12.5721919327
 10
-6.9367850137
 20
12.5829345297
 10
-6.9382105496
 20
12.5940337267
 10
-6.9401233883
 20
12.6054833442
 10
-6.9425519796
 20
12.6173031267
 10
-6.9455316746
 20
12.6295138801
 10
-6.9490754124
 20
12.6420395071
 10
-6.9531688582
 20
12.654748328
 10
-6.957810974
 20
12.6675845391
 10
-6.9630102047
 20
12.6805236362
 10
-6.9687459467
 20
12.6934763271
 10
-6.9750135873
 20
12.70640212
 10
-6.9818017405
 20
12.7192492275
 10
-6.9890643506
 20
12.7319125483
 10
-6.9967638622
 20
12.7443196957
 10
-7.0048935635
 20
12.7564531576
 10
-7.0134467639
 20
12.7682910089
 10
-7.0223517813
 20
12.779726747
 10
-7.0316270797
 20
12.7907773185
 10
-7.0414168239
 20
12.8015790831
 10
-7.0516946094
 20
12.8120466008
 10
-7.0624475838
 20
12.8221114815
 10
-7.0738618068
 20
12.8318659443
 10
-7.0859839754
 20
12.8412310704
 10
-7.0987049636
 20
12.8500003378
 10
-7.1119720514
 20
12.8580212786
  0
LINE
  5
416
100
AcDbEntity
  8
DRAFT
100
AcDbLine
 62
7
  6
CONTINUOUS
 10
-9.051920016
 20
16.7286527987
 11
-9.051920016
 21
17.1256466879
  0
LINE
  5
417
100
AcDbEntity
  8
0
100
AcDbLine
 62
7
  6
CONTINUOUS
 10
-8.1297396808
 20
15.1789353591
 11
-8.1297396808
 21
14.6225231828
  0
LINE
  5
418
100
AcDbEntity
  8
0
100
AcDbLine
 62
7
  6
CONTINUOUS
 10
-7.8782606003
 20
15.7244045053
 11
-7.8782606003
 21
14.6090123389
  0
LINE
  5
419
100
AcDbEntity
  8
0
100
AcDbLine
 62
7
  6
CONTINUOUS
 10
-7.4285159389
 20
15.5838131592
 11
-7.4285159389
 21
14.6144814973
  0
LINE
  5
41A
100
AcDbEntity
  8
RACCORDO
100
AcDbLine
 62
250
  6
CONTINUOUS
 10
-6.93522228
 20
12.4912983788
 11
-6.93522228
 21
12.5518816948
  0
LINE
  5
41B
100
AcDbEntity
  8
RACCORDO
100
AcDbLine
 62
7
  6
CONTINUOUS
 10
-6.8790902401
 20
12.5268748402
 11
-6.8790902401
 21
12.6320991023
  0
LINE
  5
41C
100
AcDbEntity
  8
0
100
AcDbLine
 62
7
  6
CONTINUOUS
 10
-6.5799878015
 20
15.0938836473
 11
-6.5799878015
 21
14.7306135062
  0
LINE
  5
41D
100
AcDbEntity
  8
0
100
AcDbLine
 62
7
  6
CONTINUOUS
 10
-6.3364921352
 20
14.793018443
 11
-6.3364921352
 21
14.8342067164
  0
LINE
  5
41E
100
AcDbEntity
  8
DRAFT
100
AcDbLine
 62
7
  6
CONTINUOUS
 10
-6.2417586593
 20
17.1110588426
 11
-6.2417586593
 21
17.0660367335
  0
LWPOLYLINE
  5
41F
100
AcDbEntity
  8
RACCORDO
100
AcDbPolyline
 62
7
  6
CONTINUOUS
 90
13
 70
0
 10
-9.6916610096
 20
-25.4892087987
 10
-9.6925626271
 20
-25.525731193
 10
-9.6952731069
 20
-25.5609473625
 10
-9.699792449
 20
-25.5948573072
 10
-9.7061460263
 20
-25.6275931994
 10
-9.714308466
 20
-25.6590228669
 10
-9.7242036494
 20
-25.6887497924
 10
-9.7358684688
 20
-25.7167446781
 10
-9.749266032
 20
-25.7430368218
 10
-9.764209544
 20
-25.7673176006
 10
-9.7806367399
 20
-25.7894841403
 10
-9.7986098846
 20
-25.8096393152
 10
-9.8181289782
 20
-25.8277831251
  0
LWPOLYLINE
  5
420
100
AcDbEntity
  8
DRAFT
100
AcDbPolyline
 62
7
  6
CONTINUOUS
 90
4
 70
0
 10
-4.3001179186
 20
15.7685602118
 10
-4.2828842751
 20
15.851845285
 10
-4.2729462266
 20
15.9535384082
 10
-4.2720518033
 20
15.9937190838
  0
LWPOLYLINE
  5
421
100
AcDbEntity
  8
RACCORDO
100
AcDbPolyline
 62
250
  6
CONTINUOUS
 90
5
 70
0
 10
-2.8444853266
 20
6.301985932
 10
-2.8567350005
 20
6.2855103091
 10
-2.8718687262
 20
6.2698540738
 10
-2.8897243562
 20
6.2551849717
 10
-2.9101105798
 20
6.2416601722
  0
LINE
  5
422
100
AcDbEntity
  8
RACCORDO
100
AcDbLine
 62
7
  6
CONTINUOUS
 10
1.5364159338
 20
12.5750162069
 11
0.9747989351
 21
12.0474757766
  0
LINE
  5
423
100
AcDbEntity
  8
0
100
AcDbLine
 62
7
  6
CONTINUOUS
 10
-13.4657370028
 20
1.7941620623
 11
-13.8602461281
 21
1.5584262154
  0
LINE
  5
424
100
AcDbEntity
  8
RACCORDO
100
AcDbLine
 62
250
  6
CONTINUOUS
 10
-9.8181289782
 20
3.4220154307
 11
-13.8602461281
 21
1.0334101712
  0
LINE
  5
425
100
AcDbEntity
  8
RACCORDO
100
AcDbLine
 62
250
  6
CONTINUOUS
 10
-9.6916610096
 20
2.9373990643
 11
-13.8602461281
 21
0.4752978536
  0
LINE
  5
426
100
AcDbEntity
  8
RACCORDO
100
AcDbLine
 62
250
  6
CONTINUOUS
 10
-2.9101105798
 20
6.4637861611
 11
-9.65296078
 21
2.4823006914
  0
LINE
  5
427
100
AcDbEntity
  8
RACCORDO
100
AcDbLine
 62
7
  6
CONTINUOUS
 10
-28.7547606535
 20
-5.9148765127
 11
-28.3205798033
 21
-5.6641867626
  0
LINE
  5
428
100
AcDbEntity
  8
RACCORDO
100
AcDbLine
 62
7
  6
CONTINUOUS
 10
2.5096536729
 20
11.3600876614
 11
1.1981867915
 21
10.6028631206
  0
LINE
  5
429
100
AcDbEntity
  8
RACCORDO
100
AcDbLine
 62
7
  6
CONTINUOUS
 10
0.4969630497
 20
10.1979853205
 11
0.3699436394
 21
10.1246459049
  0
LINE
  5
42A
100
AcDbEntity
  8
0
100
AcDbLine
 62
7
  6
CONTINUOUS
 10
1.1981867915
 20
10.5213107848
 11
0.5885959114
 21
10.1693406506
  0
LINE
  5
42B
100
AcDbEntity
  8
0
100
AcDbLine
 62
7
  6
CONTINUOUS
 10
1.1953610843
 20
10.3155419602
 11
0.9892033219
 21
10.1965090519
  0
LINE
  5
42C
100
AcDbEntity
  8
RACCORDO
100
AcDbLine
 62
250
  6
CONTINUOUS
 10
-2.8302100821
 20
6.7044327692
 11
6.1191243522
 21
11.8716840522
  0
LINE
  5
42D
100
AcDbEntity
  8
RACCORDO
100
AcDbLine
 62
250
  6
CONTINUOUS
 10
-2.5005272521
 20
5.5885704383
 11
6.6847236205
 21
10.8920373837
  0
LINE
  5
42E
100
AcDbEntity
  8
RACCORDO
100
AcDbLine
 62
250
  6
CONTINUOUS
 10
-13.1085331144
 20
1.9007760503
 11
-13.8602461281
 21
1.4668302651
  0
LINE
  5
42F
100
AcDbEntity
  8
RACCORDO
100
AcDbLine
 62
250
  6
CONTINUOUS
 10
-13.1505645873
 20
1.6458811565
 11
-13.8602461281
 21
1.2361991265
  0
LWPOLYLINE
  5
430
100
AcDbEntity
  8
RACCORDO
100
AcDbPolyline
 62
7
  6
CONTINUOUS
 90
3
 70
0
 10
-29.4821875261
 20
-6.3349148756
 10
-29.5220821476
 20
-6.3579173992
 10
-29.5668831268
 20
-6.3837497632
  0
LINE
  5
431
100
AcDbEntity
  8
RACCORDO
100
AcDbLine
 62
7
  6
CONTINUOUS
 10
-29.5907015657
 20
-6.3975351885
 11
-29.6406021634
 21
-6.4262868954
  0
LINE
  5
432
100
AcDbEntity
  8
RACCORDO
100
AcDbLine
 62
7
  6
CONTINUOUS
 10
-28.7691169601
 20
-5.9232005872
 11
-28.8393700643
 21
-5.9636534123
  0
LWPOLYLINE
  5
433
100
AcDbEntity
  8
RACCORDO
100
AcDbPolyline
 62
7
  6
CONTINUOUS
 90
6
 70
0
 10
-29.7423851186
 20
-6.4851070885
 10
-29.7925822395
 20
-6.5140218867
 10
-29.8169444181
 20
-6.5281509302
 10
-29.840524613
 20
-6.5419685984
 10
-29.8632178541
 20
-6.5551314948
 10
-29.884886852
 20
-6.5673734064
  0
LWPOLYLINE
  5
434
100
AcDbEntity
  8
RACCORDO
100
AcDbPolyline
 62
7
  6
CONTINUOUS
 90
10
 70
0
 10
2.509624777
 20
11.3600709773
 10
2.5210212412
 20
11.3661518791
 10
2.5322416437
 20
11.3711612623
 10
2.5432859844
 20
11.3750991268
 10
2.5542492434
 20
11.3779756844
 10
2.5650364405
 20
11.3797807233
 10
2.575362636
 20
11.3804836086
 10
2.5851328497
 20
11.3800741288
 10
2.5944420617
 20
11.3785624954
 10
2.603290272
 20
11.3759487085
  0
LINE
  5
435
100
AcDbEntity
  8
RACCORDO
100
AcDbLine
 62
7
  6
CONTINUOUS
 10
5.3156216361
 20
12.2311401079
 11
2.0787814823
 21
10.5513888048
  0
LWPOLYLINE
  5
436
100
AcDbEntity
  8
RACCORDO
100
AcDbPolyline
 62
250
  6
CONTINUOUS
 90
3
 70
0
 10
2.3152003712
 20
10.5192938135
 10
2.2476517425
 20
10.4852124147
 10
2.1784891476
 20
10.452206764
  0
LWPOLYLINE
  5
437
100
AcDbEntity
  8
RACCORDO
100
AcDbPolyline
 62
7
  6
CONTINUOUS
 90
35
 70
0
 10
2.0787880034
 20
10.5513922081
 10
2.0125891102
 20
10.5181399645
 10
1.8852173098
 20
10.4596856657
 10
1.7503217226
 20
10.4047627576
 10
1.6082776505
 20
10.3537230683
 10
1.4596347527
 20
10.3069084099
 10
1.3051064467
 20
10.2646402628
 10
1.1453249583
 20
10.2272094257
 10
0.9808567587
 20
10.1948677508
 10
0.8123752466
 20
10.1678268475
 10
0.6405364844
 20
10.14624802
 10
0.4660021027
 20
10.1302570976
 10
0.2895172178
 20
10.1199478478
 10
0.111748737
 20
10.1153954198
 10
-0.0665622476
 20
10.1166590649
 10
-0.2445550477
 20
10.1237352236
 10
-0.4215762074
 20
10.1365844846
 10
-0.5968818822
 20
10.1551418978
 10
-0.7694734484
 20
10.1792530128
 10
-0.9386129539
 20
10.2087425956
 10
-1.1037542658
 20
10.2434364064
 10
-1.2642058853
 20
10.283109218
 10
-1.4192026053
 20
10.3274531135
 10
-1.568385954
 20
10.3762398592
 10
-1.7116412363
 20
10.429334024
 10
-1.848410106
 20
10.4864310666
 10
-1.9781808291
 20
10.547217708
 10
-2.1007963647
 20
10.6115232535
 10
-2.2157830253
 20
10.6790036028
 10
-2.3225910347
 20
10.749230809
 10
-2.4208420847
 20
10.8218044382
 10
-2.51013021
 20
10.8962434462
 10
-2.5900584937
 20
10.9719917404
 10
-2.6602655127
 20
11.0483597407
 10
-2.7098026307
 20
11.1101250185
  0
LWPOLYLINE
  5
438
100
AcDbEntity
  8
RACCORDO
100
AcDbPolyline
 62
250
  6
CONTINUOUS
 90
16
 70
0
 10
2.1784891476
 20
10.452206764
 10
2.1077125864
 20
10.4202768612
 10
2.0356533594
 20
10.3895113769
 10
1.9619801662
 20
10.3598216406
 10
1.8856991054
 20
10.330941641
 10
1.8063912438
 20
10.3026853991
 10
1.7244755146
 20
10.2752388939
 10
1.6402148166
 20
10.2488940507
 10
1.5535469982
 20
10.2236535787
 10
1.464534211
 20
10.1995147687
 10
1.3736258078
 20
10.1767614181
 10
1.2806969293
 20
10.1554048981
 10
1.1858724348
 20
10.1354338376
 10
1.0899762553
 20
10.1170979212
 10
0.9930647622
 20
10.1004530685
 10
0.8950815841
 20
10.08544336
  0
LWPOLYLINE
  5
439
100
AcDbEntity
  8
RACCORDO
100
AcDbPolyline
 62
250
  6
CONTINUOUS
 90
7
 70
0
 10
6.8060683083
 20
-14.0239889215
 10
6.8038692761
 20
-14.0222066177
 10
6.7964775901
 20
-14.0174789526
 10
6.7839369378
 20
-14.0098555892
 10
6.7663411513
 20
-13.999393558
 10
6.7438218434
 20
-13.9861711148
 10
6.6847236205
 20
-13.9518614664
  0
LWPOLYLINE
  5
43A
100
AcDbEntity
  8
RACCORDO
100
AcDbPolyline
 62
250
  6
CONTINUOUS
 90
26
 70
0
 10
-13.0661441146
 20
4.7504655307
 10
-13.0563981761
 20
4.7381041004
 10
-13.0473094382
 20
4.7257871492
 10
-13.0388667808
 20
4.7135888494
 10
-13.031037312
 20
4.7015458341
 10
-13.0238206419
 20
4.6897435396
 10
-13.0171781448
 20
4.6782055034
 10
-13.0110259499
 20
4.6668582145
 10
-13.0053540721
 20
4.6557483241
 10
-13.0001382321
 20
4.6448949795
 10
-12.9952912943
 20
4.6341680806
 10
-12.9908050315
 20
4.6235886109
 10
-12.9866700834
 20
4.6131756823
 10
-12.9828200009
 20
4.6027879185
 10
-12.9792562925
 20
4.5924407261
 10
-12.9759796594
 20
4.5821486495
 10
-12.9729463061
 20
4.5717671472
 10
-12.9701692887
 20
4.5613123631
 10
-12.9676612455
 20
4.5508002498
 10
-12.9654039876
 20
4.5400902902
 10
-12.9634247526
 20
4.5292060284
 10
-12.961750831
 20
4.5181711852
 10
-12.9603941802
 20
4.5068571335
 10
-12.9593963129
 20
4.4952502062
 10
-12.9588107872
 20
4.4834461597
 10
-12.9586849821
 20
4.4714933426
  0
LWPOLYLINE
  5
43B
100
AcDbEntity
  8
ASSI
100
AcDbPolyline
 62
250
  6
CONTINUOUS
 90
7
 70
0
 10
-19.5560415964
 20
13.5227487813
 10
-19.5613931119
 20
13.5295753693
 10
-19.5767510631
 20
13.5456844005
 10
-19.5942739771
 20
13.5595975704
 10
-19.6136908358
 20
13.5710997434
 10
-19.6347013524
 20
13.5800130882
 10
-19.6569805954
 20
13.5861998048
  0
LINE
  5
43C
100
AcDbEntity
  8
RACCORDO
100
AcDbLine
 62
7
  6
CONTINUOUS
 10
-11.7668824617
 20
6.9488799814
 11
-12.0308075204
 21
7.3784809337
  0
LWPOLYLINE
  5
43D
100
AcDbEntity
  8
ASSI
100
AcDbPolyline
 62
250
  6
CONTINUOUS
 90
4
 70
0
 10
-16.7182919622
 20
14.9068412877
 10
-16.7126755213
 20
14.8976160114
 10
-16.7088684395
 20
14.8881143326
 10
-16.708741636
 20
14.8874912595
  0
LWPOLYLINE
  5
43E
100
AcDbEntity
  8
ASSI
100
AcDbPolyline
 62
250
  6
CONTINUOUS
 90
16
 70
0
 10
-16.5296676275
 20
15.1087297154
 10
-16.5205634931
 20
15.0917501414
 10
-16.5137534383
 20
15.0745935519
 10
-16.5092374632
 20
15.0572599469
 10
-16.5070047383
 20
15.039643896
 10
-16.507066093
 20
15.0218508296
 10
-16.509454016
 20
15.0041970393
 10
-16.5142303954
 20
14.9866688383
 10
-16.5213333431
 20
14.9692799133
 10
-16.5306096835
 20
14.9523876164
 10
-16.542104453
 20
14.9360208527
 10
-16.5557726152
 20
14.9201507171
 10
-16.5713258855
 20
14.9050478454
 10
-16.588668169
 20
14.8908024496
 10
-16.6078955607
 20
14.8773243178
 10
-16.6290080604
 20
14.8646134499
  0
LWPOLYLINE
  5
43F
100
AcDbEntity
  8
ASSI
100
AcDbPolyline
 62
250
  6
CONTINUOUS
 90
4
 70
0
 10
-14.328574661
 20
11.4426391178
 10
-14.3308407349
 20
11.4470163711
 10
-14.3354396328
 20
11.454550787
 10
-14.3404165561
 20
11.4612520347
  0
LWPOLYLINE
  5
440
100
AcDbEntity
  8
RACCORDO
100
AcDbPolyline
 62
7
  6
CONTINUOUS
 90
9
 70
0
 10
-9.8181289782
 20
3.4220154307
 10
-10.0454444343
 20
3.8707961996
 10
-10.2774525477
 20
4.3173877002
 10
-10.5141533184
 20
4.7617899325
 10
-10.7556243844
 20
5.2041417023
 10
-11.0017881077
 20
5.6443042037
 10
-11.2524115744
 20
6.0818610193
 10
-11.5074171464
 20
6.5166733433
 10
-11.7668824617
 20
6.9488799814
  0
LINE
  5
441
100
AcDbEntity
  8
ASSI
100
AcDbLine
 62
7
  6
CONTINUOUS
 10
-14.3285564564
 20
11.4426017047
 11
-14.328574661
 21
11.4426391178
  0
LWPOLYLINE
  5
442
100
AcDbEntity
  8
RACCORDO
100
AcDbPolyline
 62
7
  6
CONTINUOUS
 90
13
 70
0
 10
-9.8181289782
 20
3.4220154307
 10
-9.7986098846
 20
3.3813314608
 10
-9.7806367399
 20
3.3404213489
 10
-9.764209544
 20
3.2992850952
 10
-9.749266032
 20
3.2577479233
 10
-9.7358684688
 20
3.2159846094
 10
-9.7242036494
 20
3.1745194828
 10
-9.714308466
 20
3.1333658474
 10
-9.7061460263
 20
3.0925103992
 10
-9.699792449
 20
3.0524375552
 10
-9.6952731069
 20
3.0133087874
 10
-9.6925626271
 20
2.9749626238
 10
-9.6916610096
 20
2.9373990643
  0
LWPOLYLINE
  5
443
100
AcDbEntity
  8
ASSI
100
AcDbPolyline
 62
7
  6
CONTINUOUS
 90
6
 70
0
 10
-14.3285377405
 20
11.4425633242
 10
-14.3230053884
 20
11.4305811311
 10
-14.3169222413
 20
11.4156317542
 10
-14.3116588516
 20
11.4005255752
 10
-14.3072219519
 20
11.3853216345
 10
-14.3036019249
 20
11.3700366633
  0
LINE
  5
444
100
AcDbEntity
  8
ASSI
100
AcDbLine
 62
7
  6
CONTINUOUS
 10
-14.3283693516
 20
11.4422003571
 11
-14.3283372835
 21
11.4421266414
  0
LWPOLYLINE
  5
445
100
AcDbEntity
  8
RACCORDO
100
AcDbPolyline
 62
7
  6
CONTINUOUS
 90
13
 70
0
 10
-11.7016953638
 20
16.1006648462
 10
-11.6935025028
 20
16.0714497195
 10
-11.683402064
 20
16.0427053565
 10
-11.6713940475
 20
16.0144317572
 10
-11.657281656
 20
15.9863006635
 10
-11.6412616869
 20
15.9586403334
 10
-11.6239245318
 20
15.9324355415
 10
-11.605249933
 20
15.907783394
 10
-11.5852581483
 20
15.8845867847
 10
-11.5646003429
 20
15.8635391698
 10
-11.5434935718
 20
15.8448717013
 10
-11.52172078
 20
15.8283532272
 10
-11.4992819675
 20
15.8139837474
  0
LINE
  5
446
100
AcDbEntity
  8
0
100
AcDbLine
 62
7
  6
CONTINUOUS
 10
-9.6905710446
 20
2.8780665978
 11
-9.6916610096
 21
2.8836729063
  0
LWPOLYLINE
  5
447
100
AcDbEntity
  8
DRAFT
100
AcDbPolyline
 62
7
  6
CONTINUOUS
 90
38
 70
0
 10
-4.2720518033
 20
15.9937190838
 10
-4.2740334201
 20
16.05500201
 10
-4.2862785879
 20
16.1562490831
 10
-4.3095489977
 20
16.2572666348
 10
-4.3435630513
 20
16.3568389056
 10
-4.3884397664
 20
16.454930507
 10
-4.4440601254
 20
16.5515768274
 10
-4.5097854761
 20
16.6456682723
 10
-4.5857487294
 20
16.7371925609
 10
-4.6718169745
 20
16.8261619739
 10
-4.766952827
 20
16.911503759
 10
-4.8712392042
 20
16.9931571413
 10
-4.9845931888
 20
17.0711828957
 10
-5.1057286434
 20
17.1446905946
 10
-5.2347841214
 20
17.2136489603
 10
-5.3716210695
 20
17.2780892706
 10
-5.5145376907
 20
17.337214931
 10
-5.6635547666
 20
17.3909404367
 10
-5.8186515157
 20
17.4393512925
 10
-5.9780637961
 20
17.4819074187
 10
-6.1418459703
 20
17.51855041
 10
-6.3099436758
 20
17.5493386716
 10
-6.4804296837
 20
17.5739073404
 10
-6.653311506
 20
17.5921921208
 10
-6.8285816307
 20
17.6042573083
 10
-7.0042902933
 20
17.6099309255
 10
-7.180687494
 20
17.6091033315
 10
-7.3575232326
 20
17.6018841673
 10
-7.5320977434
 20
17.5884303781
 10
-7.7043300639
 20
17.5685830674
 10
-7.8743011566
 20
17.5425011318
 10
-8.0395541435
 20
17.5108182062
 10
-8.1998762102
 20
17.473426518
 10
-8.355480171
 20
17.4304338399
 10
-8.5045475907
 20
17.3827971251
 10
-8.6464723243
 20
17.3308353581
 10
-8.7818605169
 20
17.2742295545
 10
-8.9107121684
 20
17.2129797142
  0
LWPOLYLINE
  5
448
100
AcDbEntity
  8
RACCORDO
100
AcDbPolyline
 62
7
  6
CONTINUOUS
 90
13
 70
0
 10
-5.1616385549
 20
15.959240691
 10
-5.1620061511
 20
15.9708377443
 10
-5.163118183
 20
15.9818735408
 10
-5.1649746507
 20
15.9923480805
 10
-5.1675921073
 20
16.002328445
 10
-5.1709539996
 20
16.0117475528
 10
-5.1750106682
 20
16.0204041591
 10
-5.1797830888
 20
16.0282739213
 10
-5.1852502857
 20
16.035381182
 10
-5.1912996727
 20
16.0415977246
 10
-5.1978937211
 20
16.04688081
 10
-5.2050699596
 20
16.0512731773
 10
-5.2108843397
 20
16.0540036964
  0
LINE
  5
449
100
AcDbEntity
  8
RACCORDO
100
AcDbLine
 62
7
  6
CONTINUOUS
 10
-2.8259130468
 20
-20.655021857
 11
-2.8261325747
 21
-20.6074619454
  0
LINE
  5
44A
100
AcDbEntity
  8
RACCORDO
100
AcDbLine
 62
7
  6
CONTINUOUS
 10
-5.1616385549
 20
15.959240691
 11
-5.1616385549
 21
15.8621245856
  0
LINE
  5
44B
100
AcDbEntity
  8
RACCORDO
100
AcDbLine
 62
7
  6
CONTINUOUS
 10
-4.8301070812
 20
16.533507471
 11
-4.8301070812
 21
15.7398563322
  0
LINE
  5
44C
100
AcDbEntity
  8
RACCORDO
100
AcDbLine
 62
250
  6
CONTINUOUS
 10
-4.7422391155
 20
16.4614730265
 11
-4.7422391155
 21
15.7070728
  0
LINE
  5
44D
100
AcDbEntity
  8
RACCORDO
100
AcDbLine
 62
250
  6
CONTINUOUS
 10
-4.3106341173
 20
15.7631028529
 11
-4.3106341173
 21
15.8322625344
  0
LINE
  5
44E
100
AcDbEntity
  8
RACCORDO
100
AcDbLine
 62
250
  6
CONTINUOUS
 10
-2.9101105798
 20
6.4637861611
 11
-2.9101105798
 21
6.2416601722
  0
LINE
  5
44F
100
AcDbEntity
  8
RACCORDO
100
AcDbLine
 62
250
  6
CONTINUOUS
 10
-2.9101105798
 20
-20.7750296874
 11
-2.9101105798
 21
-20.997155676
  0
LINE
  5
450
100
AcDbEntity
  8
RACCORDO
100
AcDbLine
 62
7
  6
CONTINUOUS
 10
-2.8259125199
 20
-20.6547035771
 11
-2.8259125199
 21
-20.876829565
  0
LWPOLYLINE
  5
451
100
AcDbEntity
  8
RACCORDO
100
AcDbPolyline
 62
7
  6
CONTINUOUS
 90
35
 70
0
 10
-2.8261325747
 20
-20.6074619454
 10
-2.8261169187
 20
-20.585141887
 10
-2.8258719189
 20
-20.5636541822
 10
-2.8253327212
 20
-20.5420926335
 10
-2.824439061
 20
-20.5202163044
 10
-2.8231623448
 20
-20.4982998055
 10
-2.8214772152
 20
-20.4763163156
 10
-2.8193665976
 20
-20.4542640097
 10
-2.816816664
 20
-20.4321368265
 10
-2.8138204268
 20
-20.4099557426
 10
-2.8103697888
 20
-20.3877118283
 10
-2.8064629462
 20
-20.3654328516
 10
-2.8021172862
 20
-20.3432255126
 10
-2.797346344
 20
-20.3211454712
 10
-2.7921532395
 20
-20.2991934031
 10
-2.7865499881
 20
-20.2774078909
 10
-2.7805487098
 20
-20.2558272519
 10
-2.7741631427
 20
-20.2344913221
 10
-2.7674095902
 20
-20.2134495748
 10
-2.7603049017
 20
-20.1927496638
 10
-2.7528666211
 20
-20.1724424544
 10
-2.7451191312
 20
-20.1525951031
 10
-2.7370787426
 20
-20.1332537786
 10
-2.7287770561
 20
-20.1145009175
 10
-2.7202812702
 20
-20.0964876561
 10
-2.7116033917
 20
-20.0792375227
 10
-2.7028232791
 20
-20.0629055015
 10
-2.69416792
 20
-20.0478703474
 10
-2.6857363503
 20
-20.0342224126
 10
-2.6776499902
 20
-20.022061695
 10
-2.670251584
 20
-20.0117542234
 10
-2.6638007014
 20
-20.0034433071
 10
-2.6583803566
 20
-19.996996781
 10
-2.6540873929
 20
-19.9922955583
 10
-2.6528005632
 20
-19.9909696425
  0
LWPOLYLINE
  5
452
100
AcDbEntity
  8
RACCORDO
100
AcDbPolyline
 62
250
  6
CONTINUOUS
 90
25
 70
0
 10
-2.9101105798
 20
6.2416601722
 10
-2.9123105915
 20
6.1695259656
 10
-2.9123306177
 20
6.1013356105
 10
-2.9101706584
 20
6.0370891067
 10
-2.9058857355
 20
5.9766605079
 10
-2.8994208271
 20
5.9201757604
 10
-2.8906108672
 20
5.8680127041
 10
-2.8791814175
 20
5.8204156535
 10
-2.8654069163
 20
5.777140294
 10
-2.8499456117
 20
5.7378315221
 10
-2.8328501365
 20
5.7024612241
 10
-2.814067858
 20
5.6710575136
 10
-2.7940991265
 20
5.6433496279
 10
-2.7729825379
 20
5.6192634034
 10
-2.7506794964
 20
5.5988730038
 10
-2.7275745647
 20
5.5821301573
 10
-2.7036313678
 20
5.5690568296
 10
-2.6788862807
 20
5.559631055
 10
-2.6538329909
 20
5.5537386645
 10
-2.6285435101
 20
5.5514818467
 10
-2.6029458267
 20
5.5527584131
 10
-2.5773175938
 20
5.557147629
 10
-2.5517513626
 20
5.5645092493
 10
-2.5261545821
 20
5.5749835191
 10
-2.5005272521
 20
5.5885704383
  0
LWPOLYLINE
  5
453
100
AcDbEntity
  8
RACCORDO
100
AcDbPolyline
 62
250
  6
CONTINUOUS
 90
5
 70
0
 10
-2.8259125199
 20
6.3619862841
 10
-2.8261904892
 20
6.3545314021
 10
-2.8291308144
 20
6.3366823525
 10
-2.8352509512
 20
6.3191044174
 10
-2.8444853266
 20
6.301985932
  0
LWPOLYLINE
  5
454
100
AcDbEntity
  8
RACCORDO
100
AcDbPolyline
 62
250
  6
CONTINUOUS
 90
9
 70
0
 10
-2.8259125606
 20
6.5840219447
 10
-2.8261904911
 20
6.5766573641
 10
-2.8291308199
 20
6.5588083188
 10
-2.8352509591
 20
6.5412303878
 10
-2.8444853354
 20
6.5241119066
 10
-2.8567350089
 20
6.5076362877
 10
-2.871868733
 20
6.4919800562
 10
-2.8897243601
 20
6.4773109576
 10
-2.9101105798
 20
6.4637861611
  0
LWPOLYLINE
  5
455
100
AcDbEntity
  8
RACCORDO
100
AcDbPolyline
 62
250
  6
CONTINUOUS
 90
10
 70
0
 10
-3.1381970323
 20
7.7715798913
 10
-3.1386724306
 20
7.7686990207
 10
-3.1420432881
 20
7.7644666628
 10
-3.1482360164
 20
7.7588494555
 10
-3.1571842859
 20
7.751907573
 10
-3.1687922409
 20
7.7437153847
 10
-3.1829355109
 20
7.734360667
 10
-3.1994625617
 20
7.7239436505
 10
-3.2181963275
 20
7.7125759416
 10
-9.9694639174
 20
3.7207905847
  0
LWPOLYLINE
  5
456
100
AcDbEntity
  8
0
100
AcDbPolyline
 62
7
  6
CONTINUOUS
 90
8
 70
0
 10
-9.6905720309
 20
-25.4311392654
 10
-9.6806242915
 20
-25.3842075828
 10
-9.6721931627
 20
-25.3360442288
 10
-9.6652736943
 20
-25.2866576404
 10
-9.659888464
 20
-25.2362225028
 10
-9.6560449978
 20
-25.1847970445
 10
-9.6537357698
 20
-25.1323230369
 10
-9.65296078
 20
-25.0788004801
  0
LINE
  5
457
100
AcDbEntity
  8
0
100
AcDbLine
 62
7
  6
CONTINUOUS
 10
-9.6916610096
 20
-25.4354829072
 11
-9.6905720309
 21
-25.4311392654
  0
LWPOLYLINE
  5
458
100
AcDbEntity
  8
RACCORDO
100
AcDbPolyline
 62
7
  6
CONTINUOUS
 90
3
 70
0
 10
-18.9952806726
 20
-6.0371459003
 10
-18.9946982396
 20
-6.0368027408
 10
-18.9919568948
 20
-6.0352868562
  0
LWPOLYLINE
  5
459
100
AcDbEntity
  8
RACCORDO
100
AcDbPolyline
 62
7
  6
CONTINUOUS
 90
7
 70
0
 10
-18.9919568948
 20
-6.0352868562
 10
-18.9798643591
 20
-6.0282621403
 10
-18.9702536422
 20
-6.0227974666
 10
-18.9583321663
 20
-6.015851529
 10
-18.9440163254
 20
-6.0073829827
 10
-18.9270805275
 20
-5.9975443618
 10
-18.9073874836
 20
-5.9864433412
  0
LINE
  5
45A
100
AcDbEntity
  8
0
100
AcDbLine
 62
250
  6
CONTINUOUS
 10
-16.9620300836
 20
5.9956192289
 11
-31.8302442519
 21
14.5803397472
  0
LWPOLYLINE
  5
45B
100
AcDbEntity
  8
RACCORDO
100
AcDbPolyline
 62
250
  6
CONTINUOUS
 90
9
 70
0
 10
-13.1683488734
 20
4.8403294451
 10
-13.1532805838
 20
4.8310040988
 10
-13.1387982142
 20
4.8208485344
 10
-13.1249576007
 20
4.8100242108
 10
-13.1118239037
 20
4.7987050466
 10
-13.0994027513
 20
4.787014699
 10
-13.0876461827
 20
4.7750117848
 10
-13.0765530728
 20
4.762789754
 10
-13.0661441146
 20
4.7504655307
  0
LWPOLYLINE
  5
45C
100
AcDbEntity
  8
RACCORDO
100
AcDbPolyline
 62
250
  6
CONTINUOUS
 90
7
 70
0
 10
7.3896315065
 20
-12.9892856777
 10
7.3874307046
 20
-12.9875010385
 10
7.3800375688
 20
-12.9827726113
 10
7.3674960657
 20
-12.975148809
 10
7.3499001509
 20
-12.9646867458
 10
7.3273816451
 20
-12.9514647988
 10
7.2682872702
 20
-12.9171573997
  0
LWPOLYLINE
  5
45D
100
AcDbEntity
  8
ASSI
100
AcDbPolyline
 62
250
  6
CONTINUOUS
 90
3
 70
0
 10
-19.5961124027
 20
13.4825613142
 10
-19.5751530638
 20
13.4641081113
 10
-19.5509533407
 20
13.4461084893
  0
LWPOLYLINE
  5
45E
100
AcDbEntity
  8
ASSI
100
AcDbPolyline
 62
250
  6
CONTINUOUS
 90
7
 70
0
 10
-14.3404165561
 20
11.4612520347
 10
-14.3456877094
 20
11.4671895602
 10
-14.3511412585
 20
11.4723594505
 10
-14.3566454747
 20
11.4766866232
 10
-14.3621151501
 20
11.4801791383
 10
-14.3675033922
 20
11.4829232098
 10
-14.372754583
 20
11.4849666877
  0
LWPOLYLINE
  5
45F
100
AcDbEntity
  8
RACCORDO
100
AcDbPolyline
 62
7
  6
CONTINUOUS
 90
12
 70
0
 10
-9.8141437559
 20
9.0085268607
 10
-9.8643508358
 20
9.0835257169
 10
-9.9174813593
 20
9.1563548056
 10
-9.9733633747
 20
9.2266676069
 10
-10.0317826448
 20
9.294090201
 10
-10.0924870088
 20
9.3582512215
 10
-10.1552982509
 20
9.4188634459
 10
-10.2200138762
 20
9.475631706
 10
-10.2863675735
 20
9.5282079035
 10
-10.3541309118
 20
9.5763028744
 10
-10.4230786584
 20
9.6196497056
 10
-11.2171027652
 20
10.0781621042
  0
LWPOLYLINE
  5
460
100
AcDbEntity
  8
0
100
AcDbPolyline
 62
7
  6
CONTINUOUS
 90
19
 70
0
 10
-9.7257552133
 20
9.1402552769
 10
-9.7582850477
 20
9.1904065035
 10
-9.791756809
 20
9.2394983526
 10
-9.8261704971
 20
9.2875308241
 10
-9.8615838539
 20
9.334577016
 10
-9.8979391376
 20
9.3805638303
 10
-9.9350631225
 20
9.4252719732
 10
-9.9729587288
 20
9.4686945667
 10
-10.0116230364
 20
9.5108384887
 10
-10.0508740594
 20
9.5515050796
 10
-10.0907144412
 20
9.5906874492
 10
-10.1311415383
 20
9.6283924876
 10
-10.1719654342
 20
9.6644422055
 10
-10.2131929237
 20
9.698831865
 10
-10.254817212
 20
9.731566204
 10
-10.2966279979
 20
9.7624814463
 10
-10.3385551809
 20
9.7915229997
 10
-10.3806688616
 20
9.8187454563
 10
-10.4229690398
 20
9.8441488162
  0
LWPOLYLINE
  5
461
100
AcDbEntity
  8
ASSI
100
AcDbPolyline
 62
7
  6
CONTINUOUS
 90
10
 70
0
 10
-11.8776054389
 20
12.9127899312
 10
-11.8659024859
 20
12.8943154967
 10
-11.8555958673
 20
12.8754252771
 10
-11.846693747
 20
12.8561992141
 10
-11.8392129055
 20
12.8367657586
 10
-11.8331232769
 20
12.8171606195
 10
-11.8283818087
 20
12.7973234337
 10
-11.8249903078
 20
12.7772880164
 10
-11.8229619481
 20
12.7571849106
 10
-11.8222888832
 20
12.7370979151
  0
LWPOLYLINE
  5
462
100
AcDbEntity
  8
ASSI
100
AcDbPolyline
 62
250
  6
CONTINUOUS
 90
13
 70
0
 10
-10.6622698929
 20
8.5152791993
 10
-10.706900792
 20
8.5858272824
 10
-10.7537629018
 20
8.6543539689
 10
-10.8026910364
 20
8.7206122413
 10
-10.8535152897
 20
8.7843617709
 10
-10.906053534
 20
8.8453741862
 10
-10.9601120738
 20
8.903433878
 10
-11.0154986295
 20
8.9583305641
 10
-11.07201848
 20
9.0098672225
 10
-11.1294672506
 20
9.057864545
 10
-11.1876402161
 20
9.1021508269
 10
-11.2463328281
 20
9.142563251
 10
-11.3053370613
 20
9.1789551735
  0
LINE
  5
463
100
AcDbEntity
  8
RACCORDO
100
AcDbLine
 62
7
  6
CONTINUOUS
 10
-9.790903949
 20
8.9717460055
 11
-9.8141437559
 21
9.0085268607
  0
LINE
  5
464
100
AcDbEntity
  8
0
100
AcDbLine
 62
7
  6
CONTINUOUS
 10
-9.6147657439
 20
8.9638704491
 11
-9.7257552133
 21
9.1402552769
  0
LINE
  5
465
100
AcDbEntity
  8
RACCORDO
100
AcDbLine
 62
250
  6
CONTINUOUS
 10
-9.8783175094
 20
8.9575593129
 11
-9.7819198943
 21
8.8038748732
  0
LINE
  5
466
100
AcDbEntity
  8
RACCORDO
100
AcDbLine
 62
250
  6
CONTINUOUS
 10
-9.7819198943
 20
8.8038748732
 11
-9.7544777754
 21
8.7598920627
  0
LINE
  5
467
100
AcDbEntity
  8
RACCORDO
100
AcDbLine
 62
7
  6
CONTINUOUS
 10
-9.6811946739
 20
8.7965300348
 11
-9.790903949
 21
8.9717460055
  0
LINE
  5
468
100
AcDbEntity
  8
0
100
AcDbLine
 62
7
  6
CONTINUOUS
 10
-9.5045011478
 20
8.7869692507
 11
-9.6147657439
 21
8.9638704491
  0
LINE
  5
469
100
AcDbEntity
  8
0
100
AcDbLine
 62
7
  6
CONTINUOUS
 10
-9.394961425
 20
8.6095516817
 11
-9.5045011478
 21
8.7869692507
  0
LWPOLYLINE
  5
46A
100
AcDbEntity
  8
ASSI
100
AcDbPolyline
 62
250
  6
CONTINUOUS
 90
16
 70
0
 10
-12.0430204618
 20
12.963665948
 10
-12.0531492357
 20
12.9804509458
 10
-12.0609960786
 20
12.9974592538
 10
-12.0665609903
 20
13.0146908721
 10
-12.0698611908
 20
13.0322509473
 10
-12.0708794601
 20
13.0500343328
 10
-12.0695641387
 20
13.0677255882
 10
-12.0658542069
 20
13.0853396438
 10
-12.0598106845
 20
13.1028615694
 10
-12.0515649708
 20
13.119931134
 10
-12.0410703035
 20
13.136520361
 10
-12.0283734448
 20
13.152657227
 10
-12.0137460817
 20
13.1680654311
 10
-11.9972787763
 20
13.1826528729
 10
-11.9788809665
 20
13.1965116528
 10
-11.9585526522
 20
13.2096417708
  0
LWPOLYLINE
  5
46B
100
AcDbEntity
  8
RACCORDO
100
AcDbPolyline
 62
250
  6
CONTINUOUS
 90
16
 70
0
 10
-9.7544777754
 20
8.7598920627
 10
-9.7433170068
 20
8.741275135
 10
-9.7334238802
 20
8.7220630606
 10
-9.7249149312
 20
8.7024821466
 10
-9.7178903912
 20
8.6827630479
 10
-9.7124330039
 20
8.6631380409
 10
-9.7086070529
 20
8.6438382875
 10
-9.7064576087
 20
8.6250911371
 10
-9.7060099911
 20
8.6071174122
 10
-9.7072694792
 20
8.5901288042
 10
-9.7102212546
 20
8.5743254156
 10
-9.7148305577
 20
8.5598934386
 10
-9.7210430863
 20
8.5470029183
 10
-9.7287856507
 20
8.5358057081
 10
-9.7379670502
 20
8.5264336941
 10
-9.7471996106
 20
8.5197550444
  0
LWPOLYLINE
  5
46C
100
AcDbEntity
  8
RACCORDO
100
AcDbPolyline
 62
7
  6
CONTINUOUS
 90
6
 70
0
 10
-10.4614914968
 20
15.5930296289
 10
-10.4877893086
 20
15.6535985883
 10
-10.5075907195
 20
15.7136140419
 10
-10.5213830481
 20
15.7755887674
 10
-10.5284455247
 20
15.8404133481
 10
-10.5291227601
 20
15.870541799
  0
LINE
  5
46D
100
AcDbEntity
  8
RACCORDO
100
AcDbLine
 62
250
  6
CONTINUOUS
 10
-9.9341324121
 20
17.3966705335
 11
-9.8379618922
 21
17.1503433107
  0
LINE
  5
46E
100
AcDbEntity
  8
RACCORDO
100
AcDbLine
 62
250
  6
CONTINUOUS
 10
-10.5464972416
 20
15.7777538713
 11
-10.510818431
 21
15.6841720169
  0
LINE
  5
46F
100
AcDbEntity
  8
0
100
AcDbLine
 62
7
  6
CONTINUOUS
 10
-8.0615952396
 20
14.6175768492
 11
-8.1297396808
 21
14.8147380599
  0
LINE
  5
470
100
AcDbEntity
  8
0
100
AcDbLine
 62
7
  6
CONTINUOUS
 10
-8.3290999571
 20
15.3915439261
 11
-8.5852295404
 21
16.1325995109
  0
LINE
  5
471
100
AcDbEntity
  8
RACCORDO
100
AcDbLine
 62
250
  6
CONTINUOUS
 10
-10.5723367714
 20
15.8725179246
 11
-10.5464972416
 21
15.7777538713
  0
LWPOLYLINE
  5
472
100
AcDbEntity
  8
RACCORDO
100
AcDbPolyline
 62
250
  6
CONTINUOUS
 90
55
 70
0
 10
-1.9971343504
 20
10.5571578556
 10
-2.0017793265
 20
10.6105333719
 10
-2.0016946021
 20
10.6821540714
 10
-1.9953173646
 20
10.7534962042
 10
-1.9826016794
 20
10.8245567557
 10
-1.9635934811
 20
10.8953387407
 10
-1.9384318646
 20
10.9653006053
 10
-1.9070622073
 20
11.0344465434
 10
-1.8695391319
 20
11.1027723611
 10
-1.8261656001
 20
11.1697239239
 10
-1.7768823817
 20
11.2352928269
 10
-1.7217487071
 20
11.299487475
 10
-1.6612452287
 20
11.3617789476
 10
-1.5953728771
 20
11.4221192862
 10
-1.5241307218
 20
11.4805564494
 10
-1.4479966241
 20
11.5367053926
 10
-1.3669799951
 20
11.5905499409
 10
-1.2810714238
 20
11.6421062693
 10
-1.190720538
 20
11.6910378583
 10
-1.0956702579
 20
11.7374126936
 10
-0.9961776633
 20
11.7811627894
 10
-0.893463623
 20
11.8217476699
 10
-0.7871227542
 20
11.8591366493
 10
-0.6775604396
 20
11.8933604132
 10
-0.5672136953
 20
11.9239705431
 10
-0.4561091783
 20
11.9507606211
 10
-0.3442202316
 20
11.9739370649
 10
-0.2339038995
 20
11.9936707087
 10
-0.1255134096
 20
12.0098074133
 10
-0.0186955343
 20
12.0225013179
 10
0.0852523648
 20
12.0323856731
 10
0.1860881992
 20
12.0394327674
 10
0.2840540575
 20
12.0436703124
 10
0.3785788439
 20
12.0458146934
 10
0.469500584
 20
12.0458907572
 10
0.5569812521
 20
12.0438736569
 10
0.6409356755
 20
12.040405238
 10
0.7212397489
 20
12.0355334728
 10
0.7980175775
 20
12.0292103889
 10
0.8715563039
 20
12.0219339146
 10
0.9418228376
 20
12.0137511404
 10
1.0088502692
 20
12.0046149758
 10
1.0730250133
 20
11.9948820775
 10
1.1343327602
 20
11.9845922931
 10
1.1927878196
 20
11.9737057751
 10
1.2488195361
 20
11.962459637
 10
1.3024241196
 20
11.9508870349
 10
1.3536053603
 20
11.9389548128
 10
1.4028039726
 20
11.9268006164
 10
1.4500231175
 20
11.9144508306
 10
1.4952596341
 20
11.9018790706
 10
1.5389447539
 20
11.8891438274
 10
1.581222221
 20
11.8762645979
 10
1.6219482914
 20
11.8632218852
 10
1.6611229652
 20
11.8500156893
  0
LWPOLYLINE
  5
473
100
AcDbEntity
  8
RACCORDO
100
AcDbPolyline
 62
250
  6
CONTINUOUS
 90
10
 70
0
 10
-2.0121758963
 20
12.427969851
 10
-2.012617643
 20
12.4521484652
 10
-2.0142982354
 20
12.4769098091
 10
-2.0172125962
 20
12.5021697673
 10
-2.0213520996
 20
12.5278422411
 10
-2.0267027554
 20
12.553840304
 10
-2.0332452199
 20
12.5800764891
 10
-2.0409573345
 20
12.606461942
 10
-2.0498142325
 20
12.6329067299
 10
-2.0597865546
 20
12.6593210057
  0
LWPOLYLINE
  5
474
100
AcDbEntity
  8
RACCORDO
100
AcDbPolyline
 62
7
  6
CONTINUOUS
 90
13
 70
0
 10
-2.8259125606
 20
6.5840219448
 10
-2.8264033409
 20
6.6274424997
 10
-2.8317744957
 20
6.7360725945
 10
-2.8429286594
 20
6.8461792311
 10
-2.859711259
 20
6.9573548993
 10
-2.8819531966
 20
7.0692371641
 10
-2.9094717095
 20
7.1814550573
 10
-2.9420944844
 20
7.2936518435
 10
-2.9796393952
 20
7.4054847909
 10
-3.0219128982
 20
7.5165644262
 10
-3.0687032843
 20
7.6264982512
 10
-3.1197736054
 20
7.7348977573
 10
-3.138198388
 20
7.771582542
  0
LWPOLYLINE
  5
475
100
AcDbEntity
  8
RACCORDO
100
AcDbPolyline
 62
250
  6
CONTINUOUS
 90
21
 70
0
 10
-2.1304305234
 20
10.6289141697
 10
-2.1305047333
 20
10.6393265015
 10
-2.1241933015
 20
10.71565958
 10
-2.1110423823
 20
10.7917024835
 10
-2.0910864947
 20
10.8672526708
 10
-2.064373885
 20
10.9421186531
 10
-2.0309669846
 20
11.0161099198
 10
-1.9909553294
 20
11.0890157319
 10
-1.9444575558
 20
11.1606183323
 10
-1.8915949047
 20
11.2307329151
 10
-1.8325160342
 20
11.2991639738
 10
-1.7674232548
 20
11.3656881711
 10
-1.6965474229
 20
11.4300939735
 10
-1.6200542851
 20
11.4922531242
 10
-1.5380628814
 20
11.5520718326
 10
-1.4508142844
 20
11.6093690388
 10
-1.358510011
 20
11.6640075343
 10
-1.2611815006
 20
11.7159435122
 10
-1.1588024727
 20
11.7651302275
 10
-1.0518484635
 20
11.8112809637
 10
-0.9516338353
 20
11.850192145
  0
LINE
  5
476
100
AcDbEntity
  8
RACCORDO
100
AcDbLine
 62
250
  6
CONTINUOUS
 10
-2.0121758963
 20
12.427969851
 11
-2.0121758963
 21
12.1851206085
  0
LINE
  5
477
100
AcDbEntity
  8
DRAFT
100
AcDbLine
 62
7
  6
CONTINUOUS
 10
-1.273745423
 20
12.2376322721
 11
-1.273745423
 21
12.6346261613
  0
LINE
  5
478
100
AcDbEntity
  8
0
100
AcDbLine
 62
7
  6
CONTINUOUS
 10
-0.3515650878
 20
10.6879148325
 11
-0.3515650878
 21
10.1315026562
  0
LINE
  5
479
100
AcDbEntity
  8
0
100
AcDbLine
 62
7
  6
CONTINUOUS
 10
-0.1000860072
 20
11.2333839787
 11
-0.1000860072
 21
10.1179918123
  0
LINE
  5
47A
100
AcDbEntity
  8
0
100
AcDbLine
 62
7
  6
CONTINUOUS
 10
0.3496586541
 20
11.0927926326
 11
0.3496586541
 21
10.1234609707
  0
LINE
  5
47B
100
AcDbEntity
  8
RACCORDO
100
AcDbLine
 62
7
  6
CONTINUOUS
 10
-2.8259130263
 20
-20.655021857
 11
-2.8259125199
 21
-20.6547035771
  0
LINE
  5
47C
100
AcDbEntity
  8
RACCORDO
100
AcDbLine
 62
7
  6
CONTINUOUS
 10
-2.7509485475
 20
11.379569181
 11
-2.7509532168
 21
11.3767043209
  0
LWPOLYLINE
  5
47D
100
AcDbEntity
  8
RACCORDO
100
AcDbPolyline
 62
250
  6
CONTINUOUS
 90
11
 70
0
 10
-2.9101105798
 20
-20.997155676
 10
-2.9123420976
 20
-21.0888623372
 10
-2.9191751198
 20
-21.1776191717
 10
-2.930588184
 20
-21.2631384432
 10
-2.9465119617
 20
-21.3449947547
 10
-2.9669108354
 20
-21.4230845135
 10
-2.9918670551
 20
-21.4975551546
 10
-3.0213713245
 20
-21.5680884698
 10
-3.0554003312
 20
-21.6343846049
 10
-3.0941408525
 20
-21.6964815133
 10
-3.1376894422
 20
-21.7541010881
  0
LWPOLYLINE
  5
47E
100
AcDbEntity
  8
RACCORDO
100
AcDbPolyline
 62
250
  6
CONTINUOUS
 90
9
 70
0
 10
-2.8259125199
 20
-20.876829565
 10
-2.8261904211
 20
-20.8842835342
 10
-2.8291305981
 20
-20.9021326503
 10
-2.8352506233
 20
-20.9197106899
 10
-2.84448494
 20
-20.9368293115
 10
-2.8567346133
 20
-20.9533050842
 10
-2.8718683991
 20
-20.968961473
 10
-2.8897241572
 20
-20.983630729
 10
-2.9101105798
 20
-20.9971556751
  0
LWPOLYLINE
  5
47F
100
AcDbEntity
  8
RACCORDO
100
AcDbPolyline
 62
250
  6
CONTINUOUS
 90
13
 70
0
 10
1.2036108125
 20
14.6117749198
 10
1.2156784118
 20
14.6561460792
 10
1.2245416212
 20
14.6997465045
 10
1.2301148243
 20
14.7421550277
 10
1.2323441856
 20
14.7829619942
 10
1.23120817
 20
14.8217732198
 10
1.2267177512
 20
14.8582137989
 10
1.2189163054
 20
14.8919317254
 10
1.2078791924
 20
14.9226012935
 10
1.1937130277
 20
14.9499262436
 10
1.1765546524
 20
14.9736426242
 10
1.1565698119
 20
14.9935213416
 10
1.1339515541
 20
15.0093703729
  0
LINE
  5
480
100
AcDbEntity
  8
0
100
AcDbLine
 62
7
  6
CONTINUOUS
 10
1.1953610843
 20
10.3155419602
 11
1.1665493776
 21
10.2321815147
  0
LINE
  5
481
100
AcDbEntity
  8
DRAFT
100
AcDbLine
 62
250
  6
CONTINUOUS
 10
-24.4997173886
 20
-13.4594563216
 11
-24.3344849546
 21
-13.3623733845
  0
LWPOLYLINE
  5
482
100
AcDbEntity
  8
RACCORDO
100
AcDbPolyline
 62
7
  6
CONTINUOUS
 90
3
 70
0
 10
-19.9767197853
 20
-10.5227214966
 10
-20.5212115696
 20
-10.8371241683
 10
-20.5418260266
 20
-10.8490049992
  0
LINE
  5
483
100
AcDbEntity
  8
RACCORDO
100
AcDbLine
 62
7
  6
CONTINUOUS
 10
-19.3403236823
 20
-10.1552743626
 11
-19.8046211656
 21
-10.4233750957
  0
LINE
  5
484
100
AcDbEntity
  8
RACCORDO
100
AcDbLine
 62
7
  6
CONTINUOUS
 10
-20.5418260266
 20
-10.8490049992
 11
-20.7873861838
 21
-10.9907939148
  0
LWPOLYLINE
  5
485
100
AcDbEntity
  8
RACCORDO
100
AcDbPolyline
 62
7
  6
CONTINUOUS
 90
6
 70
0
 10
-20.7873861838
 20
-10.9907939148
 10
-20.8123261185
 20
-11.0051094867
 10
-20.8366882971
 20
-11.0192385302
 10
-20.860268492
 20
-11.0330561984
 10
-20.882961733
 20
-11.0462190948
 10
-20.9046307309
 20
-11.0584610064
  0
LINE
  5
486
100
AcDbEntity
  8
RACCORDO
100
AcDbLine
 62
7
  6
CONTINUOUS
 10
-19.8046211656
 20
-10.4233750957
 11
-19.9767197853
 21
-10.5226628444
  0
LINE
  5
487
100
AcDbEntity
  8
RACCORDO
100
AcDbLine
 62
250
  6
CONTINUOUS
 10
-25.2385787655
 20
-13.9538764337
 11
-24.5022031849
 21
-13.5432906444
  0
LINE
  5
488
100
AcDbEntity
  8
RACCORDO
100
AcDbLine
 62
250
  6
CONTINUOUS
 10
-26.0727132757
 20
-14.4371812362
 11
-25.4730185955
 21
-14.102805518
  0
LWPOLYLINE
  5
489
100
AcDbEntity
  8
RACCORDO
100
AcDbPolyline
 62
250
  6
CONTINUOUS
 90
7
 70
0
 10
-13.0708394487
 20
4.8488532098
 10
-13.0835873292
 20
4.8545316168
 10
-13.0986860885
 20
4.8577399133
 10
-13.1149917933
 20
4.8579011072
 10
-13.1322316051
 20
4.8550125008
 10
-13.1501170558
 20
4.849122428
 10
-13.1683488734
 20
4.8403294451
  0
LINE
  5
48A
100
AcDbEntity
  8
0
100
AcDbLine
 62
250
  6
CONTINUOUS
 10
-16.6177316418
 20
6.6025080805
 11
-31.4859458102
 21
15.1872285988
  0
LINE
  5
48B
100
AcDbEntity
  8
RACCORDO
100
AcDbLine
 62
250
  6
CONTINUOUS
 10
-13.8602461281
 20
5.2398222484
 11
-13.1683488734
 21
4.8403294451
  0
LINE
  5
48C
100
AcDbEntity
  8
RACCORDO
100
AcDbLine
 62
7
  6
CONTINUOUS
 10
-13.8602461281
 20
5.3046467414
 11
-13.0708121856
 21
4.848837477
  0
LINE
  5
48D
100
AcDbEntity
  8
0
100
AcDbLine
 62
7
  6
CONTINUOUS
 10
-24.6929362226
 20
13.2285924482
 11
-20.0967421448
 21
10.5748075916
  0
LINE
  5
48E
100
AcDbEntity
  8
0
100
AcDbLine
 62
7
  6
CONTINUOUS
 10
-24.1909632852
 20
13.066230827
 11
-19.9603492314
 21
10.6235272944
  0
LINE
  5
48F
100
AcDbEntity
  8
0
100
AcDbLine
 62
7
  6
CONTINUOUS
 10
-14.2136783648
 20
7.9905714669
 11
-19.2272995133
 21
10.8853734826
  0
LINE
  5
490
100
AcDbEntity
  8
0
100
AcDbLine
 62
7
  6
CONTINUOUS
 10
-24.1909632852
 20
13.7513307352
 11
-29.2045844337
 21
16.6461327509
  0
LINE
  5
491
100
AcDbEntity
  8
ASSI
100
AcDbLine
 62
250
  6
CONTINUOUS
 10
-21.185352078
 20
12.6975723532
 11
-17.3050412121
 21
10.457129491
  0
LINE
  5
492
100
AcDbEntity
  8
ASSI
100
AcDbLine
 62
250
  6
CONTINUOUS
 10
-14.0214375544
 20
8.5704280013
 11
-15.5486414201
 21
9.452216373
  0
LINE
  5
493
100
AcDbEntity
  8
ASSI
100
AcDbLine
 62
250
  6
CONTINUOUS
 10
-23.1977803366
 20
13.8687333171
 11
-24.7249842023
 21
14.7505216889
  0
LWPOLYLINE
  5
494
100
AcDbEntity
  8
ASSI
100
AcDbPolyline
 62
250
  6
CONTINUOUS
 90
16
 70
0
 10
-23.1977803366
 20
13.8687333171
 10
-23.1830783963
 20
13.8596597367
 10
-23.1684814819
 20
13.8488938826
 10
-23.15414834
 20
13.836525098
 10
-23.1402300564
 20
13.8226534055
 10
-23.1268957782
 20
13.8074157742
 10
-23.1143260927
 20
13.790993189
 10
-23.1026575502
 20
13.7735402816
 10
-23.0920412612
 20
13.7552572688
 10
-23.0826474839
 20
13.7364309656
 10
-23.0745910628
 20
13.7173147889
 10
-23.0679333611
 20
13.6980812942
 10
-23.0627332196
 20
13.6789083112
 10
-23.0590474602
 20
13.659996237
 10
-23.0569216336
 20
13.6415659346
 10
-23.0563805195
 20
13.62382165
  0
LWPOLYLINE
  5
495
100
AcDbEntity
  8
RACCORDO
100
AcDbPolyline
 62
250
  6
CONTINUOUS
 90
8
 70
0
 10
-9.8046674266
 20
8.9936115257
 10
-9.8049250024
 20
8.9938433584
 10
-9.8077561107
 20
8.9937119603
 10
-9.8133672312
 20
8.9917953952
 10
-9.8216644746
 20
8.9881257323
 10
-9.8325090057
 20
8.9827643749
 10
-9.8457193665
 20
8.9758010329
 10
-9.861074512
 20
8.9673522218
  0
LWPOLYLINE
  5
496
100
AcDbEntity
  8
ASSI
100
AcDbPolyline
 62
250
  6
CONTINUOUS
 90
12
 70
0
 10
-11.8776054389
 20
12.9127899312
 10
-11.8817844082
 20
12.918549255
 10
-11.8923981813
 20
12.9304793093
 10
-11.9046622014
 20
12.940983877
 10
-11.9184420995
 20
12.9499478653
 10
-11.9335869001
 20
12.9572730628
 10
-11.9499306728
 20
12.9628792129
 10
-11.9672943529
 20
12.966704894
 10
-11.9854877035
 20
12.9687081913
 10
-12.004311396
 20
12.9688671551
 10
-12.0235591934
 20
12.967180043
 10
-12.043020213
 20
12.9636653382
  0
LINE
  5
497
100
AcDbEntity
  8
ASSI
100
AcDbLine
 62
7
  6
CONTINUOUS
 10
-11.8775673905
 20
12.9127339109
 11
-11.8776054389
 21
12.9127899312
  0
LINE
  5
498
100
AcDbEntity
  8
RACCORDO
100
AcDbLine
 62
7
  6
CONTINUOUS
 10
-10.4217406755
 20
15.5212153871
 11
-10.4286647356
 21
15.5320008544
  0
LWPOLYLINE
  5
499
100
AcDbEntity
  8
RACCORDO
100
AcDbPolyline
 62
250
  6
CONTINUOUS
 90
3
 70
0
 10
-10.5354984381
 20
15.6683718913
 10
-10.5743094123
 20
15.7304518971
 10
-10.6074901977
 20
15.7906915961
  0
LINE
  5
49A
100
AcDbEntity
  8
RACCORDO
100
AcDbLine
 62
250
  6
CONTINUOUS
 10
-10.4654228603
 20
15.5919248469
 11
-10.4240716936
 21
15.5237509624
  0
LINE
  5
49B
100
AcDbEntity
  8
RACCORDO
100
AcDbLine
 62
7
  6
CONTINUOUS
 10
-10.4286647356
 20
15.5320008544
 11
-10.4614914968
 21
15.5930296289
  0
LINE
  5
49C
100
AcDbEntity
  8
RACCORDO
100
AcDbLine
 62
250
  6
CONTINUOUS
 10
-10.510818431
 20
15.6841720169
 11
-10.4654228603
 21
15.5919248469
  0
LWPOLYLINE
  5
49D
100
AcDbEntity
  8
RACCORDO
100
AcDbPolyline
 62
250
  6
CONTINUOUS
 90
42
 70
0
 10
-10.6074901977
 20
15.7906915961
 10
-10.6355733284
 20
15.8490584184
 10
-10.6592088766
 20
15.9059677346
 10
-10.6786994076
 20
15.9612343185
 10
-10.6943978909
 20
16.0148359173
 10
-10.7067853453
 20
16.067479186
 10
-10.7160545403
 20
16.1190927232
 10
-10.7223970182
 20
16.1696118421
 10
-10.7260374218
 20
16.2197741618
 10
-10.7270360249
 20
16.269630917
 10
-10.7254431147
 20
16.319031161
 10
-10.7212667801
 20
16.3684180146
 10
-10.7144705874
 20
16.4179288767
 10
-10.7050576702
 20
16.4673575683
 10
-10.6930294671
 20
16.5166392545
 10
-10.6783261155
 20
16.5659177034
 10
-10.660984565
 20
16.6149798978
 10
-10.6412492731
 20
16.6632318475
 10
-10.6191741064
 20
16.7107282512
 10
-10.5948949535
 20
16.7573356432
 10
-10.5690038817
 20
16.8022016212
 10
-10.5418210992
 20
16.8451635644
 10
-10.5134671304
 20
16.8863799608
 10
-10.484399456
 20
16.9255222179
 10
-10.4550105087
 20
16.9624423773
 10
-10.4254253312
 20
16.9973373366
 10
-10.3957168749
 20
17.0304074485
 10
-10.3660942247
 20
17.0616643977
 10
-10.3367194534
 20
17.0911574093
 10
-10.3075298415
 20
17.1191335987
 10
-10.2787454907
 20
17.1455425517
 10
-10.2504045663
 20
17.1704970505
 10
-10.2220917699
 20
17.1944683499
 10
-10.1940301505
 20
17.2173509365
 10
-10.1661166207
 20
17.2393081312
 10
-10.1373271745
 20
17.2611698978
 10
-10.1075731861
 20
17.2829817048
 10
-10.0769100178
 20
17.3046818922
 10
-10.0444058912
 20
17.3268785767
 10
-10.0096759408
 20
17.3497379109
 10
-9.9729439647
 20
17.3730145794
 10
-9.9341324121
 20
17.3966705335
  0
LWPOLYLINE
  5
49E
100
AcDbEntity
  8
RACCORDO
100
AcDbPolyline
 62
7
  6
CONTINUOUS
 90
15
 70
0
 10
-2.8226577654
 20
6.2165200453
 10
-2.8214469778
 20
6.2125684643
 10
-2.820542725
 20
6.2092702677
 10
-2.8204299849
 20
6.208826127
 10
-2.8209087586
 20
6.2113169207
 10
-2.8217577117
 20
6.2166383072
 10
-2.8228008843
 20
6.2248085376
 10
-2.8238736149
 20
6.2358043058
 10
-2.8248071803
 20
6.2491226071
 10
-2.8255076923
 20
6.2642940927
 10
-2.8259523101
 20
6.2814158674
 10
-2.8261398813
 20
6.300741946
 10
-2.8261070964
 20
6.3219751643
 10
-2.8259669353
 20
6.3450796627
 10
-2.8259125199
 20
6.5841122718
  0
LINE
  5
49F
100
AcDbEntity
  8
RACCORDO
100
AcDbLine
 62
250
  6
CONTINUOUS
 10
-2.7941621784
 20
11.381497398
 11
-2.7683226486
 21
11.2867333448
  0
LWPOLYLINE
  5
4A0
100
AcDbEntity
  8
RACCORDO
100
AcDbPolyline
 62
7
  6
CONTINUOUS
 90
13
 70
0
 10
2.6165360382
 20
11.4682201644
 10
2.616168442
 20
11.4798172177
 10
2.61505641
 20
11.4908530142
 10
2.6131999423
 20
11.5013275539
 10
2.6105824858
 20
11.5113079184
 10
2.6072205935
 20
11.5207270262
 10
2.6031639248
 20
11.5293836325
 10
2.5983915043
 20
11.5372533947
 10
2.5929243074
 20
11.5443606554
 10
2.5868749204
 20
11.550577198
 10
2.580280872
 20
11.5558602834
 10
2.5731046334
 20
11.5602526507
 10
2.5672902533
 20
11.5629831697
  0
LWPOLYLINE
  5
4A1
100
AcDbEntity
  8
RACCORDO
100
AcDbPolyline
 62
250
  6
CONTINUOUS
 90
10
 70
0
 10
1.2496284049
 20
14.3794690187
 10
1.2493985669
 20
14.4025215959
 10
1.2480236942
 20
14.4264658359
 10
1.24545678
 20
14.4512491363
 10
1.2416431506
 20
14.4768761241
 10
1.2365484465
 20
14.5032138673
 10
1.2301897861
 20
14.5299842734
 10
1.2225851078
 20
14.5570309639
 10
1.2137228077
 20
14.5843269162
 10
1.2036108125
 20
14.6117749198
  0
LINE
  5
4A2
100
AcDbEntity
  8
0
100
AcDbLine
 62
7
  6
CONTINUOUS
 10
1.1981867915
 20
10.6028631206
 11
1.1981867915
 21
10.2395929796
  0
LINE
  5
4A3
100
AcDbEntity
  8
0
100
AcDbLine
 62
7
  6
CONTINUOUS
 10
1.4416824579
 20
10.3019979164
 11
1.4416824579
 21
10.3431861898
  0
LINE
  5
4A4
100
AcDbEntity
  8
DRAFT
100
AcDbLine
 62
7
  6
CONTINUOUS
 10
1.5364159338
 20
12.620038316
 11
1.5364159338
 21
12.5750162069
  0
LINE
  5
4A5
100
AcDbEntity
  8
RACCORDO
100
AcDbLine
 62
7
  6
CONTINUOUS
 10
2.6165360382
 20
11.4682201644
 11
2.6165360382
 21
11.3711040589
  0
LINE
  5
4A6
100
AcDbEntity
  8
RACCORDO
100
AcDbLine
 62
7
  6
CONTINUOUS
 10
2.9480675119
 20
12.0424869444
 11
2.9480675119
 21
11.2488358056
  0
LINE
  5
4A7
100
AcDbEntity
  8
RACCORDO
100
AcDbLine
 62
250
  6
CONTINUOUS
 10
3.0359354775
 20
11.9704524999
 11
3.0359354775
 21
11.2160522734
  0
LINE
  5
4A8
100
AcDbEntity
  8
RACCORDO
100
AcDbLine
 62
250
  6
CONTINUOUS
 10
3.4675404758
 20
11.2720823263
 11
3.4675404758
 21
11.3412420078
  0
LWPOLYLINE
  5
4A9
100
AcDbEntity
  8
DRAFT
100
AcDbPolyline
 62
7
  6
CONTINUOUS
 90
4
 70
0
 10
3.4780566745
 20
11.2775396852
 10
3.4952903179
 20
11.3608247584
 10
3.5052283664
 20
11.4625178816
 10
3.5061227897
 20
11.5026985572
  0
LWPOLYLINE
  5
4AA
100
AcDbEntity
  8
RACCORDO
100
AcDbPolyline
 62
250
  6
CONTINUOUS
 90
19
 70
0
 10
6.6847236205
 20
10.8920373837
 10
6.7164151528
 20
10.9532208413
 10
6.743628909
 20
11.0164119655
 10
6.766145147
 20
11.0811466569
 10
6.7837837065
 20
11.146971449
 10
6.7963846172
 20
11.2133719347
 10
6.8038289126
 20
11.2797754362
 10
6.8060593184
 20
11.3456605723
 10
6.8030610631
 20
11.4105559751
 10
6.7948560794
 20
11.4739686682
 10
6.7815060283
 20
11.5354218968
 10
6.763110888
 20
11.5944553123
 10
6.7398098282
 20
11.6506231738
 10
6.7117774549
 20
11.7035057548
 10
6.6792252399
 20
11.7527050869
 10
6.6424030128
 20
11.7978468887
 10
6.6015909256
 20
11.8385930505
 10
6.5570954193
 20
11.8746424415
 10
6.5092517802
 20
11.9057273356
  0
LWPOLYLINE
  5
4AB
100
AcDbEntity
  8
RACCORDO
100
AcDbPolyline
 62
7
  6
CONTINUOUS
 90
12
 70
0
 10
9.1816109308
 20
4.0827251547
 10
9.198854667
 20
4.099092679
 10
9.233168096
 20
4.1358663097
 10
9.2646208856
 20
4.1756626363
 10
9.2929401536
 20
4.2182124909
 10
9.318115442
 20
4.2636578453
 10
9.3399053907
 20
4.3118293452
 10
9.3580530151
 20
4.3624250352
 10
9.3724496127
 20
4.4155409853
 10
9.3828887598
 20
4.4711297664
 10
9.3891349545
 20
4.5288491866
 10
9.3910178367
 20
4.5832777648
  0
LINE
  5
4AC
100
AcDbEntity
  8
RACCORDO
100
AcDbLine
 62
250
  6
CONTINUOUS
 10
9.2506877438
 20
4.3827821783
 11
7.8239315971
 21
3.0804538408
  0
LINE
  5
4AD
100
AcDbEntity
  8
RACCORDO
100
AcDbLine
 62
7
  6
CONTINUOUS
 10
9.1816709548
 20
4.0827774518
 11
7.787793472
 21
2.8104604206
  0
LINE
  5
4AE
100
AcDbEntity
  8
DRAFT
100
AcDbLine
 62
7
  6
CONTINUOUS
 10
-24.502206632
 20
-15.7069309077
 11
-22.9617648454
 21
-14.817497613
  0
LWPOLYLINE
  5
4AF
100
AcDbEntity
  8
RACCORDO
100
AcDbPolyline
 62
7
  6
CONTINUOUS
 90
3
 70
0
 10
-25.4230933117
 20
-16.2386472924
 10
-26.10982366
 20
-16.635176456
 10
-26.1304381169
 20
-16.6470572869
  0
LINE
  5
4B0
100
AcDbEntity
  8
RACCORDO
100
AcDbLine
 62
7
  6
CONTINUOUS
 10
-24.5022031849
 20
-15.7069368779
 11
-25.2542804186
 21
-16.1411974812
  0
LINE
  5
4B1
100
AcDbEntity
  8
RACCORDO
100
AcDbLine
 62
7
  6
CONTINUOUS
 10
-26.1304381169
 20
-16.6470572869
 11
-26.3759982742
 21
-16.7888462025
  0
LWPOLYLINE
  5
4B2
100
AcDbEntity
  8
RACCORDO
100
AcDbPolyline
 62
7
  6
CONTINUOUS
 90
6
 70
0
 10
-26.3759982742
 20
-16.7888462025
 10
-26.4009382088
 20
-16.8031617744
 10
-26.4253003874
 20
-16.8172908179
 10
-26.4488805823
 20
-16.8311084861
 10
-26.4715738233
 20
-16.8442713825
 10
-26.4932428212
 20
-16.8565132941
  0
LINE
  5
4B3
100
AcDbEntity
  8
RACCORDO
100
AcDbLine
 62
7
  6
CONTINUOUS
 10
-25.2542804186
 20
-16.1411974812
 11
-25.4230943343
 21
-16.2386035418
  0
LWPOLYLINE
  5
4B4
100
AcDbEntity
  8
RACCORDO
100
AcDbPolyline
 62
7
  6
CONTINUOUS
 90
14
 70
0
 10
-25.2241637855
 20
-14.4142966732
 10
-25.2396460405
 20
-14.4223806394
 10
-25.2564667767
 20
-14.4295120969
 10
-25.2744557862
 20
-14.4356121971
 10
-25.2934316617
 20
-14.4406157968
 10
-25.3131943206
 20
-14.4444612
 10
-25.3335259171
 20
-14.4470928725
 10
-25.3542222645
 20
-14.4484790341
 10
-25.3750485861
 20
-14.4485997711
 10
-25.3957320145
 20
-14.4474471116
 10
-25.416043123
 20
-14.4450378942
 10
-25.4357693478
 20
-14.4414030969
 10
-25.4546730362
 20
-14.4365892247
 10
-25.4652988213
 20
-14.4330633543
  0
LWPOLYLINE
  5
4B5
100
AcDbEntity
  8
ASSI
100
AcDbPolyline
 62
250
  6
CONTINUOUS
 90
8
 70
0
 10
-15.4555056783
 20
9.4630510237
 10
-15.4667902601
 20
9.4673020238
 10
-15.4789782966
 20
9.4696268043
 10
-15.491939199
 20
9.4700004435
 10
-15.5055340804
 20
9.4684189317
 10
-15.5196172721
 20
9.4648992152
 10
-15.5340378882
 20
9.4594790045
 10
-15.5486414201
 20
9.452216373
  0
LWPOLYLINE
  5
4B6
100
AcDbEntity
  8
ASSI
100
AcDbPolyline
 62
250
  6
CONTINUOUS
 90
7
 70
0
 10
-17.365807749
 20
12.2289636252
 10
-17.3730087407
 20
12.2325615218
 10
-17.3858271671
 20
12.2366111807
 10
-17.3996960472
 20
12.2382857244
 10
-17.4144332452
 20
12.2375631538
 10
-17.4298452153
 20
12.2344529506
 10
-17.4457295512
 20
12.2289959542
  0
LWPOLYLINE
  5
4B7
100
AcDbEntity
  8
ASSI
100
AcDbPolyline
 62
250
  6
CONTINUOUS
 90
7
 70
0
 10
-19.4435877224
 20
13.4286477397
 10
-19.4507776723
 20
13.4322392461
 10
-19.463596131
 20
13.4362888956
 10
-19.4774650401
 20
13.4379634347
 10
-19.4922022585
 20
13.4372408716
 10
-19.5076142418
 20
13.4341306956
 10
-19.5234985835
 20
13.4286737529
  0
LWPOLYLINE
  5
4B8
100
AcDbEntity
  8
ASSI
100
AcDbPolyline
 62
250
  6
CONTINUOUS
 90
9
 70
0
 10
-13.9239008653
 20
8.5789360325
 10
-13.928301959
 20
8.5812627226
 10
-13.9395865645
 20
8.5855136998
 10
-13.9517745963
 20
8.5878384503
 10
-13.9647354722
 20
8.5882120654
 10
-13.9783303208
 20
8.5866305404
 10
-13.9924134806
 20
8.5831108202
 10
-14.0068340609
 20
8.577690616
 10
-14.0214375544
 20
8.5704280013
  0
LINE
  5
4B9
100
AcDbEntity
  8
ASSI
100
AcDbLine
 62
250
  6
CONTINUOUS
 10
-15.4511047311
 20
9.4607244042
 11
-15.4555056783
 21
9.4630510237
  0
LINE
  5
4BA
100
AcDbEntity
  8
ASSI
100
AcDbLine
 62
250
  6
CONTINUOUS
 10
-24.6274475133
 20
14.75902972
 11
-24.6318484605
 21
14.7613563396
  0
LWPOLYLINE
  5
4BB
100
AcDbEntity
  8
RACCORDO
100
AcDbPolyline
 62
250
  6
CONTINUOUS
 90
7
 70
0
 10
-11.2171027652
 20
10.0781621042
 10
-11.2215040753
 20
10.0804888991
 10
-11.2327887122
 20
10.0847398543
 10
-11.2449768094
 20
10.0870646152
 10
-11.2579377796
 20
10.0874382734
 10
-11.2715327524
 20
10.0858568238
 10
-11.2856160674
 20
10.082337211
  0
LWPOLYLINE
  5
4BC
100
AcDbEntity
  8
ASSI
100
AcDbPolyline
 62
250
  6
CONTINUOUS
 90
7
 70
0
 10
-15.5486414201
 20
9.452216373
 10
-15.5629732117
 20
9.4598953014
 10
-15.5772353248
 20
9.4657581367
 10
-15.5912721932
 20
9.4697193586
 10
-15.6049454466
 20
9.4717141144
 10
-15.6180804312
 20
9.4716901752
 10
-15.6304768507
 20
9.4696359619
  0
LWPOLYLINE
  5
4BD
100
AcDbEntity
  8
ASSI
100
AcDbPolyline
 62
250
  6
CONTINUOUS
 90
7
 70
0
 10
-24.7249842023
 20
14.7505216889
 10
-24.7393159939
 20
14.7582006173
 10
-24.753578107
 20
14.7640634526
 10
-24.7676149754
 20
14.7680246745
 10
-24.7812882288
 20
14.7700194303
 10
-24.7944232134
 20
14.7699954911
 10
-24.806819633
 20
14.7679412777
  0
LWPOLYLINE
  5
4BE
100
AcDbEntity
  8
ASSI
100
AcDbPolyline
 62
250
  6
CONTINUOUS
 90
4
 70
0
 10
-17.4457299252
 20
12.2289961702
 10
-17.4177359489
 20
12.2138954113
 10
-17.3871548583
 20
12.1998690571
 10
-17.3540001216
 20
12.18681273
  0
LINE
  5
4BF
100
AcDbEntity
  8
ASSI
100
AcDbLine
 62
7
  6
CONTINUOUS
 10
-13.9239008653
 20
8.5789360325
 11
-15.4511047311
 21
9.4607244042
  0
LINE
  5
4C0
100
AcDbEntity
  8
ASSI
100
AcDbLine
 62
7
  6
CONTINUOUS
 10
-23.1002436475
 20
13.8772413483
 11
-24.6274475133
 21
14.75902972
  0
LINE
  5
4C1
100
AcDbEntity
  8
ASSI
100
AcDbLine
 62
250
  6
CONTINUOUS
 10
-21.0462128931
 20
12.8403126272
 11
-17.1992314228
 21
10.6191137402
  0
LINE
  5
4C2
100
AcDbEntity
  8
DRAFT
100
AcDbLine
 62
7
  6
CONTINUOUS
 10
-15.0279678871
 20
9.7582614133
 11
-15.1618654186
 21
9.8355721698
  0
LINE
  5
4C3
100
AcDbEntity
  8
ASSI
100
AcDbLine
 62
7
  6
CONTINUOUS
 10
-13.7683096012
 20
9.5137642011
 11
-14.588578758
 21
9.9873773318
  0
LINE
  5
4C4
100
AcDbEntity
  8
ASSI
100
AcDbLine
 62
250
  6
CONTINUOUS
 10
-20.6644006225
 20
13.6501831429
 11
-16.9278464287
 21
11.4927435815
  0
LINE
  5
4C5
100
AcDbEntity
  8
ASSI
100
AcDbLine
 62
250
  6
CONTINUOUS
 10
-20.5419261353
 20
13.8025454045
 11
-16.8053719415
 21
11.6451058431
  0
LINE
  5
4C6
100
AcDbEntity
  8
ASSI
100
AcDbLine
 62
250
  6
CONTINUOUS
 10
-14.2606510677
 20
10.3333971152
 11
-14.1430888406
 21
10.2655181586
  0
LINE
  5
4C7
100
AcDbEntity
  8
ASSI
100
AcDbLine
 62
250
  6
CONTINUOUS
 10
-16.6689765155
 20
11.7266678507
 11
-20.4006656953
 21
13.881298414
  0
LINE
  5
4C8
100
AcDbEntity
  8
ASSI
100
AcDbLine
 62
250
  6
CONTINUOUS
 10
-19.5234985835
 20
13.4286737529
 11
-17.4457299252
 21
12.2289961702
  0
LINE
  5
4C9
100
AcDbEntity
  8
ASSI
100
AcDbLine
 62
7
  6
CONTINUOUS
 10
-19.4435765667
 20
13.4286413
 11
-17.365807749
 21
12.2289636252
  0
LINE
  5
4CA
100
AcDbEntity
  8
ASSI
100
AcDbLine
 62
250
  6
CONTINUOUS
 10
-16.5193903878
 20
11.7745945407
 11
-17.1138253769
 21
12.1178138534
  0
LINE
  5
4CB
100
AcDbEntity
  8
ASSI
100
AcDbLine
 62
250
  6
CONTINUOUS
 10
-19.6569805952
 20
13.5861998032
 11
-20.2514155843
 21
13.9294191159
  0
LINE
  5
4CC
100
AcDbEntity
  8
ASSI
100
AcDbLine
 62
7
  6
CONTINUOUS
 10
-20.5163745258
 20
14.4972927641
 11
-19.6272028796
 21
13.9838961996
  0
LINE
  5
4CD
100
AcDbEntity
  8
ASSI
100
AcDbLine
 62
7
  6
CONTINUOUS
 10
-13.7733995177
 20
10.6039835038
 11
-11.3053370613
 21
9.1789551735
  0
LINE
  5
4CE
100
AcDbEntity
  8
ASSI
100
AcDbLine
 62
250
  6
CONTINUOUS
 10
-14.4826188115
 20
11.8253916279
 11
-14.9113495842
 21
12.0729354028
  0
LINE
  5
4CF
100
AcDbEntity
  8
ASSI
100
AcDbLine
 62
250
  6
CONTINUOUS
 10
-17.8785679882
 20
13.7861701213
 11
-18.307298761
 21
14.0337138963
  0
LINE
  5
4D0
100
AcDbEntity
  8
RACCORDO
100
AcDbLine
 62
250
  6
CONTINUOUS
 10
-19.7310316382
 20
14.9291734378
 11
-18.9464998331
 21
14.4761946061
  0
LINE
  5
4D1
100
AcDbEntity
  8
RACCORDO
100
AcDbLine
 62
250
  6
CONTINUOUS
 10
-11.3146405493
 20
10.0696547053
 11
-10.5301087443
 21
9.6166758736
  0
LINE
  5
4D2
100
AcDbEntity
  8
RACCORDO
100
AcDbLine
 62
7
  6
CONTINUOUS
 10
-19.6334949486
 20
14.9376814687
 11
-18.8489646281
 21
14.4847034941
  0
LINE
  5
4D3
100
AcDbEntity
  8
ASSI
100
AcDbLine
 62
250
  6
CONTINUOUS
 10
-14.6823470768
 20
12.1720534813
 11
-16.8208946983
 21
13.4068240756
  0
LINE
  5
4D4
100
AcDbEntity
  8
0
100
AcDbLine
 62
7
  6
CONTINUOUS
 10
-10.4229690398
 20
9.8441488162
 11
-10.7030174514
 21
10.0058452592
  0
LINE
  5
4D5
100
AcDbEntity
  8
0
100
AcDbLine
 62
7
  6
CONTINUOUS
 10
-19.1387951483
 20
14.8765575763
 11
-19.4188508753
 21
15.0382582431
  0
LINE
  5
4D6
100
AcDbEntity
  8
ASSI
100
AcDbLine
 62
250
  6
CONTINUOUS
 10
-14.5644540524
 20
12.2382793719
 11
-16.6690461535
 21
13.4534444744
  0
LINE
  5
4D7
100
AcDbEntity
  8
ASSI
100
AcDbLine
 62
250
  6
CONTINUOUS
 10
-14.033412406
 20
11.9689130155
 11
-14.4689976878
 21
12.2204144981
  0
LINE
  5
4D8
100
AcDbEntity
  8
ASSI
100
AcDbLine
 62
250
  6
CONTINUOUS
 10
-17.4244111684
 20
13.9268332018
 11
-17.8599964503
 21
14.1783346843
  0
LWPOLYLINE
  5
4D9
100
AcDbEntity
  8
RACCORDO
100
AcDbPolyline
 62
250
  6
CONTINUOUS
 90
55
 70
0
 10
-11.3146405493
 20
10.0696547053
 10
-11.3231387648
 20
10.0746267452
 10
-11.331569886
 20
10.0798053556
 10
-11.3399339132
 20
10.0851905367
 10
-11.3482679683
 20
10.090788019
 10
-11.3565349293
 20
10.0965920718
 10
-11.3646234296
 20
10.1025855035
 10
-11.3725507639
 20
10.1087963893
 10
-11.3802996376
 20
10.115196654
 10
-11.3877068009
 20
10.1216848794
 10
-11.3947281568
 20
10.1282382897
 10
-11.4014078022
 20
10.1348796607
 10
-11.4077147786
 20
10.1415759026
 10
-11.4136393581
 20
10.1483213684
 10
-11.4191912685
 20
10.1551217051
 10
-11.4243687348
 20
10.1619607629
 10
-11.4291691774
 20
10.1688352531
 10
-11.433595176
 20
10.1757484644
 10
-11.4376526946
 20
10.182694114
 10
-11.4413433063
 20
10.1896735772
 10
-11.444665438
 20
10.1966854787
 10
-11.4476203346
 20
10.2037194095
 10
-11.4502087552
 20
10.2107786609
 10
-11.4524299407
 20
10.2178599418
 10
-11.4542828582
 20
10.2249429693
 10
-11.455766131
 20
10.2320273623
 10
-11.4568811358
 20
10.239113502
 10
-11.4576309705
 20
10.2461822494
 10
-11.4580144709
 20
10.2532340668
 10
-11.4580328012
 20
10.260268492
 10
-11.4576925509
 20
10.2672649984
 10
-11.4569923773
 20
10.2742236912
 10
-11.4559336232
 20
10.2811444653
 10
-11.4545269071
 20
10.2880064788
 10
-11.4527706163
 20
10.2948101384
 10
-11.4506663635
 20
10.3015550373
 10
-11.448229605
 20
10.3082191131
 10
-11.4454586829
 20
10.3148022297
 10
-11.442355255
 20
10.3213045231
 10
-11.4389397518
 20
10.327704339
 10
-11.4352094646
 20
10.3340025217
 10
-11.4311671019
 20
10.3401982269
 10
-11.4268412198
 20
10.3462672674
 10
-11.4222302363
 20
10.3522082591
 10
-11.4173357333
 20
10.3580225861
 10
-11.4121910131
 20
10.363690213
 10
-11.4068050217
 20
10.3692025785
 10
-11.401168813
 20
10.3745682439
 10
-11.3952888502
 20
10.3797928581
 10
-11.389168008
 20
10.3848775974
 10
-11.3828034117
 20
10.3898212857
 10
-11.3761929
 20
10.3946260431
 10
-11.3693357525
 20
10.3992925764
 10
-11.3622326896
 20
10.403820179
 10
-11.3548837113
 20
10.4082088508
  0
LWPOLYLINE
  5
4DA
100
AcDbEntity
  8
RACCORDO
100
AcDbPolyline
 62
7
  6
CONTINUOUS
 90
5
 70
0
 10
-11.217073415
 20
10.0781451352
 10
-11.2262549445
 20
10.0836992344
 10
-11.2343874751
 20
10.0891457075
 10
-11.2406432595
 20
10.0938261571
 10
-11.2439991011
 20
10.0966037589
  0
LWPOLYLINE
  5
4DB
100
AcDbEntity
  8
ASSI
100
AcDbPolyline
 62
7
  6
CONTINUOUS
 90
11
 70
0
 10
-19.4435877226
 20
13.4286477398
 10
-19.4651776919
 20
13.4418095175
 10
-19.4831665433
 20
13.4539686294
 10
-19.4985912823
 20
13.4654580113
 10
-19.5118879576
 20
13.4763504183
 10
-19.523181885
 20
13.4864581106
 10
-19.5326173522
 20
13.4956351357
 10
-19.5405785124
 20
13.5040392452
 10
-19.547257984
 20
13.5116663302
 10
-19.5525999956
 20
13.5182329188
 10
-19.5560269844
 20
13.5227290581
  0
LWPOLYLINE
  5
4DC
100
AcDbEntity
  8
RACCORDO
100
AcDbPolyline
 62
250
  6
CONTINUOUS
 90
3
 70
0
 10
-10.5301087443
 20
9.6166758736
 10
-10.4719188127
 20
9.5811600503
 10
-10.4139367196
 20
9.5418160048
  0
LWPOLYLINE
  5
4DD
100
AcDbEntity
  8
RACCORDO
100
AcDbPolyline
 62
7
  6
CONTINUOUS
 90
6
 70
0
 10
-15.1396208366
 20
13.6194743226
 10
-15.1447179192
 20
13.6226978116
 10
-15.1508710912
 20
13.627439726
 10
-15.1553124081
 20
13.6316692716
 10
-15.1581850875
 20
13.6349947065
 10
-15.1593940057
 20
13.6366600109
  0
LINE
  5
4DE
100
AcDbEntity
  8
ASSI
100
AcDbLine
 62
250
  6
CONTINUOUS
 10
-19.5509533407
 20
13.4461084893
 11
-19.5234985835
 21
13.4286737529
  0
LWPOLYLINE
  5
4DF
100
AcDbEntity
  8
RACCORDO
100
AcDbPolyline
 62
250
  6
CONTINUOUS
 90
31
 70
0
 10
-15.6604983433
 20
13.5243229956
 10
-15.6696794031
 20
13.530713838
 10
-15.6788946145
 20
13.53721078
 10
-15.6881358161
 20
13.5438031763
 10
-15.6973668354
 20
13.5504573449
 10
-15.7066091359
 20
13.5571840065
 10
-15.7159369399
 20
13.564043784
 10
-15.7253827367
 20
13.5710647685
 10
-15.7348878813
 20
13.5782056715
 10
-15.7443878915
 20
13.5854246831
 10
-15.7538698811
 20
13.5927037766
 10
-15.7633274232
 20
13.6000379671
 10
-15.7727104553
 20
13.607401258
 10
-15.7820116102
 20
13.6147776808
 10
-15.7912236017
 20
13.6221565963
 10
-15.800300338
 20
13.6295183325
 10
-15.8092361685
 20
13.6368467478
 10
-15.818027279
 20
13.6441301573
 10
-15.8266337388
 20
13.6513550808
 10
-15.8350524386
 20
13.6585065444
 10
-15.8432819239
 20
13.6655724505
 10
-15.8512876085
 20
13.6725439443
 10
-15.8590684199
 20
13.6794075559
 10
-15.8666253873
 20
13.6861517995
 10
-15.8739294436
 20
13.6927716007
 10
-15.8809854906
 20
13.6992591982
 10
-15.8877922119
 20
13.7056003012
 10
-15.8943144958
 20
13.7117815806
 10
-15.9005448211
 20
13.7177931611
 10
-15.9065010653
 20
13.7236278922
 10
-15.912188657
 20
13.7292781637
  0
LWPOLYLINE
  5
4E0
100
AcDbEntity
  8
ASSI
100
AcDbPolyline
 62
250
  6
CONTINUOUS
 90
10
 70
0
 10
-14.2882846097
 20
11.5876254184
 10
-14.2985052163
 20
11.5952616642
 10
-14.3092566365
 20
11.6022831301
 10
-14.320462279
 20
11.6086438053
 10
-14.3321549203
 20
11.6142674763
 10
-14.3441727642
 20
11.6191796191
 10
-14.3561720327
 20
11.6234910545
 10
-14.3680245872
 20
11.6272228263
 10
-14.3798057964
 20
11.6303189551
 10
-14.3914988508
 20
11.6327695207
  0
LWPOLYLINE
  5
4E1
100
AcDbEntity
  8
RACCORDO
100
AcDbPolyline
 62
250
  6
CONTINUOUS
 90
11
 70
0
 10
-10.4139367196
 20
9.5418160048
 10
-10.3563634989
 20
9.4987789844
 10
-10.2995184761
 20
9.4522981612
 10
-10.2434749263
 20
9.4024469151
 10
-10.1880794866
 20
9.349052331
 10
-10.1335535818
 20
9.2922461067
 10
-10.0801080823
 20
9.2321667775
 10
-10.0276271451
 20
9.168559583
 10
-9.9762631249
 20
9.1014118524
 10
-9.9264011671
 20
9.0310160572
 10
-9.8783175094
 20
8.9575593129
  0
LWPOLYLINE
  5
4E2
100
AcDbEntity
  8
RACCORDO
100
AcDbPolyline
 62
250
  6
CONTINUOUS
 90
3
 70
0
 10
-2.8259125199
 20
6.3729533226
 10
-2.8238915835
 20
6.3708527854
 10
-2.779764829
 20
6.3194842036
  0
LWPOLYLINE
  5
4E3
100
AcDbEntity
  8
RACCORDO
100
AcDbPolyline
 62
250
  6
CONTINUOUS
 90
13
 70
0
 10
-2.779764829
 20
6.3194842036
 10
-2.7378917187
 20
6.2649961452
 10
-2.6985908115
 20
6.2078031393
 10
-2.6621610948
 20
6.1483402901
 10
-2.6288797134
 20
6.0870599701
 10
-2.5989998606
 20
6.0244283786
 10
-2.5727488521
 20
5.9609219948
 10
-2.5503263966
 20
5.8970239531
 10
-2.5319030766
 20
5.8332203678
 10
-2.5176190506
 20
5.7699966343
 10
-2.5075829867
 20
5.7078337369
 10
-2.5018712361
 20
5.6472045897
 10
-2.5005272521
 20
5.5885704383
  0
LINE
  5
4E4
100
AcDbEntity
  8
RACCORDO
100
AcDbLine
 62
7
  6
CONTINUOUS
 10
-10.4879790212
 20
15.6011517713
 11
-10.4884698944
 21
15.6018060535
  0
LINE
  5
4E5
100
AcDbEntity
  8
RACCORDO
100
AcDbLine
 62
250
  6
CONTINUOUS
 10
-10.4104260702
 20
15.5012540118
 11
-10.3941817544
 21
15.4782874168
  0
LINE
  5
4E6
100
AcDbEntity
  8
RACCORDO
100
AcDbLine
 62
250
  6
CONTINUOUS
 10
-10.4884698944
 20
15.6018060535
 11
-10.5354984381
 21
15.6683718913
  0
LWPOLYLINE
  5
4E7
100
AcDbEntity
  8
RACCORDO
100
AcDbPolyline
 62
7
  6
CONTINUOUS
 90
13
 70
0
 10
-5.1454919451
 20
11.3272545026
 10
-5.1577871177
 20
11.3468291318
 10
-5.2104007365
 20
11.4261228342
 10
-5.2661584239
 20
11.5031813955
 10
-5.3249070924
 20
11.5776653586
 10
-5.3864465132
 20
11.6491983655
 10
-5.4505378017
 20
11.7173991884
 10
-5.5170290491
 20
11.7819784417
 10
-5.5857435735
 20
11.8426315662
 10
-5.6564460817
 20
11.8989956834
 10
-5.7289474395
 20
11.9507645408
 10
-5.8030541669
 20
11.9976401314
 10
-5.8167936541
 20
12.0056740216
  0
LWPOLYLINE
  5
4E8
100
AcDbEntity
  8
RACCORDO
100
AcDbPolyline
 62
250
  6
CONTINUOUS
 90
3
 70
0
 10
-2.757323845
 20
11.1773513647
 10
-2.7961348192
 20
11.2394313705
 10
-2.8293156046
 20
11.2996710695
  0
LWPOLYLINE
  5
4E9
100
AcDbEntity
  8
RACCORDO
100
AcDbPolyline
 62
250
  6
CONTINUOUS
 90
10
 70
0
 10
-5.2552609756
 20
11.2720473379
 10
-5.0165217507
 20
10.8837550031
 10
-4.7813183574
 20
10.4930827579
 10
-4.5497122064
 20
10.1001326053
 10
-4.3217637685
 20
9.7050071432
 10
-4.0975325608
 20
9.307809537
 10
-3.877077131
 20
8.9086434921
 10
-3.6604550399
 20
8.5076132289
 10
-3.4477228459
 20
8.104823455
 10
-3.2389360927
 20
7.7003793372
  0
LINE
  5
4EA
100
AcDbEntity
  8
RACCORDO
100
AcDbLine
 62
250
  6
CONTINUOUS
 10
-2.6872482672
 20
11.1009043204
 11
-2.6458971005
 21
11.0327304358
  0
LINE
  5
4EB
100
AcDbEntity
  8
RACCORDO
100
AcDbLine
 62
7
  6
CONTINUOUS
 10
-2.6504901425
 20
11.0409803278
 11
-2.6833169038
 21
11.1020091023
  0
LWPOLYLINE
  5
4EC
100
AcDbEntity
  8
RACCORDO
100
AcDbPolyline
 62
7
  6
CONTINUOUS
 90
10
 70
0
 10
-3.1381970323
 20
7.7715798913
 10
-3.3460571227
 20
8.174228919
 10
-3.5578413036
 20
8.5752235939
 10
-3.773494818
 20
8.9744605743
 10
-3.9929616548
 20
9.3718364573
 10
-4.2161854044
 20
9.7672493332
 10
-4.4431093188
 20
10.1605987821
 10
-4.6736751791
 20
10.5517838684
 10
-4.9078232646
 20
10.940703195
 10
-5.1454932415
 20
11.327256439
  0
LINE
  5
4ED
100
AcDbEntity
  8
RACCORDO
100
AcDbLine
 62
250
  6
CONTINUOUS
 10
-2.732643838
 20
11.1931514903
 11
-2.6872482672
 21
11.1009043204
  0
LWPOLYLINE
  5
4EE
100
AcDbEntity
  8
RACCORDO
100
AcDbPolyline
 62
250
  6
CONTINUOUS
 90
13
 70
0
 10
-3.2389360924
 20
7.7003793373
 10
-3.1890199545
 20
7.5986064603
 10
-3.1427817306
 20
7.4957629871
 10
-3.100376123
 20
7.3921811169
 10
-3.0620119081
 20
7.2883825452
 10
-3.0277366686
 20
7.184517724
 10
-2.9975125686
 20
7.0803664589
 10
-2.9715168998
 20
6.9762880263
 10
-2.9499079494
 20
6.8726297433
 10
-2.9327499662
 20
6.7691888352
 10
-2.9202426208
 20
6.6661846405
 10
-2.9126315166
 20
6.5642359936
 10
-2.9101105798
 20
6.4637861611
  0
LWPOLYLINE
  5
4EF
100
AcDbEntity
  8
RACCORDO
100
AcDbPolyline
 62
250
  6
CONTINUOUS
 90
42
 70
0
 10
-2.8293156046
 20
11.2996710695
 10
-2.8573987353
 20
11.3580378918
 10
-2.8810342836
 20
11.414947208
 10
-2.9005248146
 20
11.4702137918
 10
-2.9162232978
 20
11.5238153907
 10
-2.9286107522
 20
11.5764586594
 10
-2.9378799473
 20
11.6280721966
 10
-2.9442224251
 20
11.6785913155
 10
-2.9478628287
 20
11.7287536352
 10
-2.9488614318
 20
11.7786103904
 10
-2.9472685217
 20
11.8280106344
 10
-2.943092187
 20
11.8773974879
 10
-2.9362959943
 20
11.9269083501
 10
-2.9268830771
 20
11.9763370417
 10
-2.9148548741
 20
12.0256187279
 10
-2.9001515224
 20
12.0748971768
 10
-2.882809972
 20
12.1239593712
 10
-2.86307468
 20
12.1722113209
 10
-2.8409995133
 20
12.2197077246
 10
-2.8167203605
 20
12.2663151166
 10
-2.7908292886
 20
12.3111810946
 10
-2.7636465062
 20
12.3541430377
 10
-2.7352925374
 20
12.3953594342
 10
-2.7062248629
 20
12.4345016913
 10
-2.6768359157
 20
12.4714218507
 10
-2.6472507382
 20
12.5063168099
 10
-2.6175422819
 20
12.5393869219
 10
-2.5879196316
 20
12.5706438711
 10
-2.5585448604
 20
12.6001368827
 10
-2.5293552484
 20
12.6281130721
 10
-2.5005708977
 20
12.6545220251
 10
-2.4722299732
 20
12.6794765239
 10
-2.4439171769
 20
12.7034478233
 10
-2.4158555575
 20
12.7263304099
 10
-2.3879420276
 20
12.7482876046
 10
-2.3591525814
 20
12.7701493712
 10
-2.3293985931
 20
12.7919611782
 10
-2.2987354248
 20
12.8136613656
 10
-2.2662312982
 20
12.8358580501
 10
-2.2315013478
 20
12.8587173843
 10
-2.1947693716
 20
12.8819940528
 10
-2.155957819
 20
12.9056500069
  0
LWPOLYLINE
  5
4F0
100
AcDbEntity
  8
RACCORDO
100
AcDbPolyline
 62
7
  6
CONTINUOUS
 90
6
 70
0
 10
-2.6833169038
 20
11.1020091023
 10
-2.7096147155
 20
11.1625780617
 10
-2.7294161264
 20
11.2225935153
 10
-2.7432084551
 20
11.2845682408
 10
-2.7502709316
 20
11.3493928215
 10
-2.7509481671
 20
11.3795212724
  0
LINE
  5
4F1
100
AcDbEntity
  8
RACCORDO
100
AcDbLine
 62
250
  6
CONTINUOUS
 10
-2.1559578191
 20
12.9056500069
 11
-2.0597872991
 21
12.6593227841
  0
LINE
  5
4F2
100
AcDbEntity
  8
RACCORDO
100
AcDbLine
 62
250
  6
CONTINUOUS
 10
-2.7683226486
 20
11.2867333448
 11
-2.732643838
 21
11.1931514903
  0
LINE
  5
4F3
100
AcDbEntity
  8
0
100
AcDbLine
 62
7
  6
CONTINUOUS
 10
-0.2834206466
 20
10.1265563226
 11
-0.3515650878
 21
10.3237175333
  0
LINE
  5
4F4
100
AcDbEntity
  8
0
100
AcDbLine
 62
7
  6
CONTINUOUS
 10
-0.5509253641
 20
10.9005233995
 11
-0.8070549474
 21
11.6415789843
  0
LWPOLYLINE
  5
4F5
100
AcDbEntity
  8
DRAFT
100
AcDbPolyline
 62
7
  6
CONTINUOUS
 90
38
 70
0
 10
3.5061227897
 20
11.5026985572
 10
3.5041411729
 20
11.5639814834
 10
3.4918960051
 20
11.6652285564
 10
3.4686255953
 20
11.7662461082
 10
3.4346115418
 20
11.8658183789
 10
3.3897348266
 20
11.9639099804
 10
3.3341144677
 20
12.0605563008
 10
3.268389117
 20
12.1546477457
 10
3.1924258636
 20
12.2461720343
 10
3.1063576185
 20
12.3351414473
 10
3.0112217661
 20
12.4204832324
 10
2.9069353888
 20
12.5021366147
 10
2.7935814043
 20
12.580162369
 10
2.6724459496
 20
12.653670068
 10
2.5433904716
 20
12.7226284337
 10
2.4065535236
 20
12.787068744
 10
2.2636369024
 20
12.8461944044
 10
2.1146198264
 20
12.8999199101
 10
1.9595230773
 20
12.9483307659
 10
1.8001107969
 20
12.9908868921
 10
1.6363286228
 20
13.0275298834
 10
1.4682309173
 20
13.058318145
 10
1.2977449093
 20
13.0828868138
 10
1.124863087
 20
13.1011715942
 10
0.9495929623
 20
13.1132367817
 10
0.7738842998
 20
13.1189103989
 10
0.597487099
 20
13.1180828049
 10
0.4206513604
 20
13.1108636407
 10
0.2460768496
 20
13.0974098515
 10
0.0738445291
 20
13.0775625408
 10
-0.0961265636
 20
13.0514806052
 10
-0.2613795504
 20
13.0197976796
 10
-0.4217016171
 20
12.9824059914
 10
-0.5773055779
 20
12.9394133133
 10
-0.7263729977
 20
12.8917765985
 10
-0.8682977313
 20
12.8398148315
 10
-1.0036859239
 20
12.7832090279
 10
-1.1325375754
 20
12.7219591876
  0
LWPOLYLINE
  5
4F6
100
AcDbEntity
  8
RACCORDO
100
AcDbPolyline
 62
250
  6
CONTINUOUS
 90
15
 70
0
 10
-2.7508306647
 20
-19.9418985646
 10
-2.7731416752
 20
-19.9890075818
 10
-2.7942635764
 20
-20.0383957858
 10
-2.814235265
 20
-20.0900352381
 10
-2.8330178444
 20
-20.1439538771
 10
-2.8501092878
 20
-20.1998234255
 10
-2.8655620341
 20
-20.2576789338
 10
-2.8793236445
 20
-20.3174853515
 10
-2.8907347761
 20
-20.3788092498
 10
-2.8995168425
 20
-20.4416070113
 10
-2.9059484302
 20
-20.5059222534
 10
-2.910205956
 20
-20.5714523997
 10
-2.9123482257
 20
-20.6380965914
 10
-2.9123164336
 20
-20.7059556873
 10
-2.9101105798
 20
-20.7750296874
  0
LWPOLYLINE
  5
4F7
100
AcDbEntity
  8
RACCORDO
100
AcDbPolyline
 62
250
  6
CONTINUOUS
 90
9
 70
0
 10
7.787793472
 20
2.8104604206
 10
7.8027180171
 20
2.8263791145
 10
7.8189841627
 20
2.8514415705
 10
7.8309331936
 20
2.8806649409
 10
7.8384746924
 20
2.9138280947
 10
7.8415515932
 20
2.9506800888
 10
7.8401406133
 20
2.990942067
 10
7.8342524294
 20
3.0343093701
 10
7.8239315971
 20
3.0804538408
  0
LWPOLYLINE
  5
4F8
100
AcDbEntity
  8
ASSI
100
AcDbPolyline
 62
250
  6
CONTINUOUS
 90
11
 70
0
 10
-17.0243480413
 20
12.0878326037
 10
-16.9785599166
 20
12.0740148062
 10
-16.9319802676
 20
12.0609162744
 10
-16.8847009806
 20
12.0485996275
 10
-16.836997715
 20
12.0372527237
 10
-16.7887417141
 20
12.0268338884
 10
-16.7400617346
 20
12.0173847961
 10
-16.6916197065
 20
12.0092183279
 10
-16.643259831
 20
12.0023193387
 10
-16.5951379069
 20
11.9967029736
 10
-16.5483832607
 20
11.9927275483
  0
LINE
  5
4F9
100
AcDbEntity
  8
0
100
AcDbLine
 62
7
  6
CONTINUOUS
 10
-24.1909632852
 20
13.066230827
 11
-24.6929362226
 21
13.2285924482
  0
LINE
  5
4FA
100
AcDbEntity
  8
ASSI
100
AcDbLine
 62
250
  6
CONTINUOUS
 10
-17.0694365281
 20
12.1024322861
 11
-17.0243480413
 21
12.0878326037
  0
LWPOLYLINE
  5
4FB
100
AcDbEntity
  8
ASSI
100
AcDbPolyline
 62
250
  6
CONTINUOUS
 90
3
 70
0
 10
-17.3540001216
 20
12.18681273
 10
-17.3179391509
 20
12.1743981852
 10
-17.2793767008
 20
12.1625114411
  0
LINE
  5
4FC
100
AcDbEntity
  8
ASSI
100
AcDbLine
 62
250
  6
CONTINUOUS
 10
-17.1138253769
 20
12.1178138534
 11
-17.0694365281
 21
12.1024322861
  0
LINE
  5
4FD
100
AcDbEntity
  8
ASSI
100
AcDbLine
 62
7
  6
CONTINUOUS
 10
-17.1063802344
 20
12.1236779385
 11
-17.1727971328
 21
12.1469722076
  0
LWPOLYLINE
  5
4FE
100
AcDbEntity
  8
ASSI
100
AcDbPolyline
 62
7
  6
CONTINUOUS
 90
8
 70
0
 10
-17.1727971328
 20
12.1469722076
 10
-17.2075264199
 20
12.1592752707
 10
-17.2402317806
 20
12.1713708428
 10
-17.2707968212
 20
12.1833849812
 10
-17.2992991441
 20
12.1954812082
 10
-17.325372779
 20
12.2075869822
 10
-17.3489459073
 20
12.2196010322
 10
-17.3657246856
 20
12.2289155857
  0
LWPOLYLINE
  5
4FF
100
AcDbEntity
  8
ASSI
100
AcDbPolyline
 62
250
  6
CONTINUOUS
 90
8
 70
0
 10
-24.6318484605
 20
14.7613563396
 10
-24.6431330423
 20
14.7656073397
 10
-24.6553210788
 20
14.7679321202
 10
-24.6682819812
 20
14.7683057593
 10
-24.6818768626
 20
14.7667242475
 10
-24.6959600544
 20
14.7632045311
 10
-24.7103806704
 20
14.7577843204
 10
-24.7249842023
 20
14.7505216889
  0
LWPOLYLINE
  5
500
100
AcDbEntity
  8
RACCORDO
100
AcDbPolyline
 62
250
  6
CONTINUOUS
 90
7
 70
0
 10
-10.432652245
 20
9.6252301311
 10
-10.4453460866
 20
9.6308776807
 10
-10.460444904
 20
9.6340862287
 10
-10.4767507564
 20
9.6342476098
 10
-10.4939907933
 20
9.6313591006
 10
-10.5118765508
 20
9.6254690102
 10
-10.5301087454
 20
9.6166758742
  0
LWPOLYLINE
  5
501
100
AcDbEntity
  8
RACCORDO
100
AcDbPolyline
 62
250
  6
CONTINUOUS
 90
7
 70
0
 10
-19.6334949486
 20
14.9376814687
 10
-19.6462701065
 20
14.9433756131
 10
-19.6613688653
 20
14.9465839063
 10
-19.6776745686
 20
14.9467450978
 10
-19.6949143779
 20
14.9438564904
 10
-19.712799825
 20
14.9379664181
 10
-19.7310316382
 20
14.9291734378
  0
LWPOLYLINE
  5
502
100
AcDbEntity
  8
RACCORDO
100
AcDbPolyline
 62
250
  6
CONTINUOUS
 90
9
 70
0
 10
-18.849069031
 20
14.4847636493
 10
-18.8533659268
 20
14.4870302824
 10
-18.8646504686
 20
14.4912811827
 10
-18.8768383733
 20
14.4936058323
 10
-18.8897990563
 20
14.4939793247
 10
-18.9033936565
 20
14.4923976601
 10
-18.9174765167
 20
14.4888777846
 10
-18.9318967443
 20
14.4834574088
 10
-18.9464998331
 20
14.4761946061
  0
LWPOLYLINE
  5
503
100
AcDbEntity
  8
RACCORDO
100
AcDbPolyline
 62
7
  6
CONTINUOUS
 90
13
 70
0
 10
-19.6334830774
 20
14.9376746128
 10
-19.6903508245
 20
14.9686421248
 10
-19.7608996943
 20
15.0019114418
 10
-19.8311619144
 20
15.0293724258
 10
-19.9010308257
 20
15.0509902035
 10
-19.9701847267
 20
15.0666792397
 10
-20.0380538902
 20
15.0763558106
 10
-20.1044755455
 20
15.080078093
 10
-20.1691686908
 20
15.0779060461
 10
-20.2313617982
 20
15.0700050447
 10
-20.2906316515
 20
15.0566941536
 10
-20.3469128497
 20
15.0382690707
 10
-20.3714513661
 20
15.0282880882
  0
LWPOLYLINE
  5
504
100
AcDbEntity
  8
0
100
AcDbPolyline
 62
7
  6
CONTINUOUS
 90
19
 70
0
 10
-19.4188508753
 20
15.0382582431
 10
-19.4611550397
 20
15.0617044408
 10
-19.5032737314
 20
15.0831160064
 10
-19.5452069504
 20
15.1024929399
 10
-19.5870254286
 20
15.11986186
 10
-19.6286584341
 20
15.135196148
 10
-19.6698937711
 20
15.1484159476
 10
-19.7107244815
 20
15.1595083018
 10
-19.7511575234
 20
15.1684861676
 10
-19.7910015751
 20
15.1753085592
 10
-19.8302534819
 20
15.1799652804
 10
-19.8689163984
 20
15.1824665274
 10
-19.9068084674
 20
15.182801904
 10
-19.9439258179
 20
15.1809615958
 10
-19.9802723209
 20
15.1769554172
 10
-20.0156777316
 20
15.1708024155
 10
-20.0500853018
 20
15.1625089399
 10
-20.0835517797
 20
15.1520686412
 10
-20.1160771654
 20
15.1394815194
  0
LWPOLYLINE
  5
505
100
AcDbEntity
  8
RACCORDO
100
AcDbPolyline
 62
250
  6
CONTINUOUS
 90
11
 70
0
 10
-15.1396103987
 20
13.6194685728
 10
-15.1423231175
 20
13.6209851136
 10
-15.1566519044
 20
13.6275881513
 10
-15.1718033634
 20
13.6323038375
 10
-15.187828449
 20
13.6351024351
 10
-15.2047473603
 20
13.6359011932
 10
-15.2223774967
 20
13.6346099975
 10
-15.2404627377
 20
13.6311887321
 10
-15.258827166
 20
13.6256487915
 10
-15.2773894281
 20
13.6180076253
 10
-15.2960134158
 20
13.6082991401
  0
LINE
  5
506
100
AcDbEntity
  8
RACCORDO
100
AcDbLine
 62
250
  6
CONTINUOUS
 10
-14.0539525766
 20
12.5277061158
 11
-15.6605004795
 21
13.4553067402
  0
LINE
  5
507
100
AcDbEntity
  8
RACCORDO
100
AcDbLine
 62
250
  6
CONTINUOUS
 10
-13.984174904
 20
12.5679948694
 11
-15.5409660335
 21
13.4668665565
  0
LINE
  5
508
100
AcDbEntity
  8
RACCORDO
100
AcDbLine
 62
250
  6
CONTINUOUS
 10
-13.7392222758
 20
12.709427447
 11
-15.2960134053
 21
13.608299134
  0
LINE
  5
509
100
AcDbEntity
  8
RACCORDO
100
AcDbLine
 62
7
  6
CONTINUOUS
 10
-13.6513483054
 20
12.7601647761
 11
-15.1394922887
 21
13.6194004612
  0
LINE
  5
50A
100
AcDbEntity
  8
ASSI
100
AcDbLine
 62
250
  6
CONTINUOUS
 10
-13.5927142517
 20
13.7627600588
 11
-12.7538142321
 21
13.2783897014
  0
LINE
  5
50B
100
AcDbEntity
  8
ASSI
100
AcDbLine
 62
250
  6
CONTINUOUS
 10
-13.5074110827
 20
13.8393285202
 11
-12.6448566869
 21
13.3413004224
  0
LINE
  5
50C
100
AcDbEntity
  8
ASSI
100
AcDbLine
 62
7
  6
CONTINUOUS
 10
-12.7642575412
 20
14.2989058179
 11
-11.8752999426
 21
13.7856328417
  0
LINE
  5
50D
100
AcDbEntity
  8
ASSI
100
AcDbLine
 62
250
  6
CONTINUOUS
 10
-11.2178488979
 20
13.6525692725
 11
-11.6032207806
 21
13.8750781677
  0
LINE
  5
50E
100
AcDbEntity
  8
ASSI
100
AcDbLine
 62
250
  6
CONTINUOUS
 10
-14.5586342612
 20
15.5814968714
 11
-14.9440061439
 21
15.8040057666
  0
LINE
  5
50F
100
AcDbEntity
  8
ASSI
100
AcDbLine
 62
250
  6
CONTINUOUS
 10
-11.1266721697
 20
13.6916839377
 11
-11.5120932448
 21
13.914221236
  0
LINE
  5
510
100
AcDbEntity
  8
ASSI
100
AcDbLine
 62
250
  6
CONTINUOUS
 10
-14.4667490951
 20
15.6202024934
 11
-14.8521701703
 21
15.8427397918
  0
LINE
  5
511
100
AcDbEntity
  8
RACCORDO
100
AcDbLine
 62
250
  6
CONTINUOUS
 10
-12.8903986759
 20
14.7408167385
 11
-11.5217746968
 21
13.9505904059
  0
LINE
  5
512
100
AcDbEntity
  8
RACCORDO
100
AcDbLine
 62
250
  6
CONTINUOUS
 10
-12.6996284225
 20
15.1074192827
 11
-10.9657478946
 21
14.1062983965
  0
LWPOLYLINE
  5
513
100
AcDbEntity
  8
ASSI
100
AcDbPolyline
 62
250
  6
CONTINUOUS
 90
13
 70
0
 10
-11.2178488979
 20
13.6525692725
 10
-11.2001068346
 20
13.6414317257
 10
-11.1826355963
 20
13.6279715746
 10
-11.165701874
 20
13.6123942828
 10
-11.1495641538
 20
13.594937631
 10
-11.134468771
 20
13.5758680874
 10
-11.1206461503
 20
13.5554767406
 10
-11.1083072881
 20
13.5340748558
 10
-11.0976405319
 20
13.5119891235
 10
-11.0888087051
 20
13.4895566731
 10
-11.0819466219
 20
13.4671199264
 10
-11.0771590289
 20
13.4450213707
 10
-11.0745190069
 20
13.4235983311
  0
LWPOLYLINE
  5
514
100
AcDbEntity
  8
ASSI
100
AcDbPolyline
 62
250
  6
CONTINUOUS
 90
13
 70
0
 10
-11.1266721697
 20
13.6916839377
 10
-11.1096264166
 20
13.6802373301
 10
-11.0933978696
 20
13.6662405139
 10
-11.0782337327
 20
13.6499066976
 10
-11.0643649958
 20
13.6314846889
 10
-11.0520029167
 20
13.6112551038
 10
-11.0413358028
 20
13.5895260926
 10
-11.0325261425
 20
13.566628646
 10
-11.0257081303
 20
13.5429115529
 10
-11.0209856228
 20
13.5187360877
 10
-11.0184305562
 20
13.4944705069
 10
-11.018081851
 20
13.4704844399
 10
-11.019944819
 20
13.4471432582
  0
LWPOLYLINE
  5
515
100
AcDbEntity
  8
ASSI
100
AcDbPolyline
 62
250
  6
CONTINUOUS
 90
13
 70
0
 10
-9.5961392217
 20
14.0942454642
 10
-9.5790934685
 20
14.0827988565
 10
-9.5628649214
 20
14.0688020401
 10
-9.5477007844
 20
14.0524682238
 10
-9.5338320474
 20
14.0340462149
 10
-9.5214699684
 20
14.0138166297
 10
-9.5108028545
 20
13.9920876185
 10
-9.5019931943
 20
13.9691901719
 10
-9.4951751822
 20
13.9454730789
 10
-9.4904526747
 20
13.9212976138
 10
-9.4878976082
 20
13.8970320331
 10
-9.4875489031
 20
13.8730459663
 10
-9.489411871
 20
13.8497047848
  0
LWPOLYLINE
  5
516
100
AcDbEntity
  8
ASSI
100
AcDbPolyline
 62
250
  6
CONTINUOUS
 90
6
 70
0
 10
-13.2785678525
 20
16.2663228133
 10
-13.2910427652
 20
16.2754689406
 10
-13.3038544178
 20
16.2819910892
 10
-13.3168240032
 20
16.285798232
 10
-13.3297705101
 20
16.286837234
 10
-13.3335803116
 20
16.2866098993
  0
LWPOLYLINE
  5
517
100
AcDbEntity
  8
RACCORDO
100
AcDbPolyline
 62
250
  6
CONTINUOUS
 90
11
 70
0
 10
-5.8296742965
 20
11.9143603566
 10
-5.7673433227
 20
11.866850497
 10
-5.7058090702
 20
11.8154696508
 10
-5.6451887883
 20
11.7603267139
 10
-5.5854266432
 20
11.701314347
 10
-5.5267561064
 20
11.6386033851
 10
-5.4693992195
 20
11.5723718299
 10
-5.4133294319
 20
11.502448316
 10
-5.3587272803
 20
11.4288836334
 10
-5.3059479013
 20
11.3520051236
 10
-5.2552608162
 20
11.2720474466
  0
LINE
  5
518
100
AcDbEntity
  8
0
100
AcDbLine
 62
7
  6
CONTINUOUS
 10
-8.3732353471
 20
15.4386122899
 11
-8.1297396808
 21
15.1789353591
  0
LINE
  5
519
100
AcDbEntity
  8
0
100
AcDbLine
 62
7
  6
CONTINUOUS
 10
-6.3364921352
 20
14.8342067164
 11
-6.5799878015
 21
15.0938836473
  0
LINE
  5
51A
100
AcDbEntity
  8
RACCORDO
100
AcDbLine
 62
7
  6
CONTINUOUS
 10
-2.7098044281
 20
11.1101312447
 11
-2.7102953014
 21
11.1107855269
  0
LINE
  5
51B
100
AcDbEntity
  8
RACCORDO
100
AcDbLine
 62
250
  6
CONTINUOUS
 10
-2.6322514771
 20
11.0102334852
 11
-2.6160071614
 21
10.9872668902
  0
LINE
  5
51C
100
AcDbEntity
  8
RACCORDO
100
AcDbLine
 62
250
  6
CONTINUOUS
 10
-2.7102953014
 20
11.1107855269
 11
-2.757323845
 21
11.1773513647
  0
LINE
  5
51D
100
AcDbEntity
  8
RACCORDO
100
AcDbLine
 62
7
  6
CONTINUOUS
 10
-2.6435660825
 20
11.0301948605
 11
-2.6504901425
 21
11.0409803278
  0
LWPOLYLINE
  5
51E
100
AcDbEntity
  8
RACCORDO
100
AcDbPolyline
 62
7
  6
CONTINUOUS
 90
20
 70
0
 10
9.3910174088
 20
9.6109360684
 10
9.3909697728
 20
9.6214158073
 10
9.3878791821
 20
9.6939706355
 10
9.3804754093
 20
9.7636944573
 10
9.3694560913
 20
9.8302256979
 10
9.355261524
 20
9.8938891671
 10
9.3380223991
 20
9.9555353458
 10
9.317791429
 20
10.015575051
 10
9.2947549737
 20
10.0735780566
 10
9.2691775631
 20
10.1291479749
 10
9.2411593191
 20
10.1822533016
 10
9.210760818
 20
10.2327741841
 10
9.1782241403
 20
10.2803825536
 10
9.1437605945
 20
10.3249075628
 10
9.1075066063
 20
10.3662290582
 10
9.0696435146
 20
10.4041556127
 10
9.0304548882
 20
10.4385771693
 10
8.9902903216
 20
10.4694461633
 10
8.9494280812
 20
10.496709461
 10
8.9319329973
 20
10.5071765605
  0
LINE
  5
51F
100
AcDbEntity
  8
RACCORDO
100
AcDbLine
 62
250
  6
CONTINUOUS
 10
7.3089856139
 20
1.983916765
 11
7.3089856139
 21
-12.7773574355
  0
LINE
  5
520
100
AcDbEntity
  8
RACCORDO
100
AcDbLine
 62
7
  6
CONTINUOUS
 10
7.5335137737
 20
2.3047863946
 11
7.5335137737
 21
-12.4564877693
  0
LINE
  5
521
100
AcDbEntity
  8
RACCORDO
100
AcDbLine
 62
250
  6
CONTINUOUS
 10
9.2506877438
 20
4.3827821783
 11
9.2506877438
 21
9.4107732948
  0
LINE
  5
522
100
AcDbEntity
  8
RACCORDO
100
AcDbLine
 62
7
  6
CONTINUOUS
 10
9.3910178436
 20
9.6113168134
 11
9.3910178436
 21
4.5833257883
  0
LWPOLYLINE
  5
523
100
AcDbEntity
  8
RACCORDO
100
AcDbPolyline
 62
7
  6
CONTINUOUS
 90
22
 70
0
 10
7.5335137736
 20
2.3047819116
 10
7.533694434
 20
2.3130201957
 10
7.5344424434
 20
2.3246923214
 10
7.5360498819
 20
2.3397064351
 10
7.5388136733
 20
2.3581349053
 10
7.5429861181
 20
2.3797883136
 10
7.548716964
 20
2.4041087604
 10
7.5561528855
 20
2.43079628
 10
7.5654063757
 20
2.4595646643
 10
7.5764137071
 20
2.4897136854
 10
7.5891380465
 20
2.5208063472
 10
7.6035302295
 20
2.5525054149
 10
7.6193833465
 20
2.5842309513
 10
7.6365362723
 20
2.6155794129
 10
7.6548083414
 20
2.6462049148
 10
7.6738877148
 20
2.6756421488
 10
7.6935290582
 20
2.7035908635
 10
7.7134508214
 20
2.7297594084
 10
7.7332201726
 20
2.7537530093
 10
7.7524867412
 20
2.7753498236
 10
7.7709296127
 20
2.7944079867
 10
7.7877913903
 20
2.8104585205
  0
LWPOLYLINE
  5
524
100
AcDbEntity
  8
RACCORDO
100
AcDbPolyline
 62
250
  6
CONTINUOUS
 90
10
 70
0
 10
6.6847236205
 20
-13.9518614664
 10
6.6833792171
 20
-14.0070504667
 10
6.6776660148
 20
-14.0593778644
 10
6.6676274879
 20
-14.1084454764
 10
6.6533401377
 20
-14.1538796233
 10
6.6349126271
 20
-14.1953349324
 10
6.6124846708
 20
-14.2324966814
 10
6.5862261548
 20
-14.2650823854
 10
6.556337074
 20
-14.2928430096
 10
6.5300242432
 20
-14.3113965211
  0
LWPOLYLINE
  5
525
100
AcDbEntity
  8
RACCORDO
100
AcDbPolyline
 62
250
  6
CONTINUOUS
 90
19
 70
0
 10
7.3089856139
 20
1.983916765
 10
7.3108553984
 20
2.0446248619
 10
7.3163173494
 20
2.106649559
 10
7.325371467
 20
2.1699908565
 10
7.3381124107
 20
2.2350506801
 10
7.3544455209
 20
2.301427104
 10
7.374086819
 20
2.3679143505
 10
7.3970751581
 20
2.4344396544
 10
7.4233716852
 20
2.5010757809
 10
7.4525758629
 20
2.5668352475
 10
7.484724513
 20
2.6317094811
 10
7.5197808136
 20
2.6957070547
 10
7.5572337624
 20
2.7578662057
 10
7.5971844127
 20
2.8182306747
 10
7.6395317111
 20
2.8767567209
 10
7.683461495
 20
2.9323513592
 10
7.7287023768
 20
2.984650261
 10
7.7755257442
 20
3.0340177549
 10
7.8239315971
 20
3.0804538408
  0
LWPOLYLINE
  5
526
100
AcDbEntity
  8
RACCORDO
100
AcDbPolyline
 62
250
  6
CONTINUOUS
 90
9
 70
0
 10
9.3910174088
 20
9.6109360684
 10
9.3905545583
 20
9.5988919671
 10
9.3856540101
 20
9.5691435585
 10
9.3754537783
 20
9.5398470072
 10
9.3600631511
 20
9.5113162053
 10
9.3396470285
 20
9.4838568405
 10
9.3144241551
 20
9.457763121
 10
9.2846647765
 20
9.4333146229
 10
9.2506877438
 20
9.4107732948
  0
LWPOLYLINE
  5
527
100
AcDbEntity
  8
RACCORDO
100
AcDbPolyline
 62
250
  6
CONTINUOUS
 90
13
 70
0
 10
7.3089856139
 20
-12.7773574355
 10
7.3085054699
 20
-12.7893861528
 10
7.3075125374
 20
-12.801189963
 10
7.3060068164
 20
-12.8127688663
 10
7.3039790765
 20
-12.8240319377
 10
7.3014385482
 20
-12.8350701021
 10
7.298412923
 20
-12.8461561341
 10
7.2949795891
 20
-12.8572722806
 10
7.2910611585
 20
-12.8684362947
 10
7.2864531585
 20
-12.8799742102
 10
7.2810874317
 20
-12.8919947052
 10
7.2750321356
 20
-12.9043891017
 10
7.2682872702
 20
-12.9171573997
  0
LWPOLYLINE
  5
528
100
AcDbEntity
  8
RACCORDO
100
AcDbPolyline
 62
250
  6
CONTINUOUS
 90
10
 70
0
 10
7.5335137736
 20
2.3047819116
 10
7.5311081266
 20
2.2689918726
 10
7.5227968266
 20
2.2294328784
 10
7.5086112691
 20
2.1904347045
 10
7.4886570304
 20
2.1522875957
 10
7.4630826205
 20
2.1152754628
 10
7.4320783775
 20
2.0796737693
 10
7.3958750512
 20
2.0457474819
 10
7.3547420856
 20
2.0137490975
 10
7.3089856139
 20
1.983916765
  0
LWPOLYLINE
  5
529
100
AcDbEntity
  8
RACCORDO
100
AcDbPolyline
 62
250
  6
CONTINUOUS
 90
10
 70
0
 10
7.5335137734
 20
-12.4565007215
 10
7.5311079425
 20
-12.4922836593
 10
7.5227964517
 20
-12.5318425965
 10
7.5086107351
 20
-12.5708406704
 10
7.4886563863
 20
-12.6089876393
 10
7.4630819305
 20
-12.6459995986
 10
7.4320777187
 20
-12.6816010931
 10
7.3958745117
 20
-12.7155271646
 10
7.3547417634
 20
-12.7475253249
 10
7.3089856139
 20
-12.7773574355
  0
LWPOLYLINE
  5
52A
100
AcDbEntity
  8
RACCORDO
100
AcDbPolyline
 62
250
  6
CONTINUOUS
 90
8
 70
0
 10
9.3905546729
 20
4.5709024778
 10
9.3856543779
 20
4.5411539675
 10
9.3754543422
 20
4.5118572456
 10
9.3600638257
 20
4.4833262142
 10
9.3396477138
 20
4.4558665854
 10
9.3144247402
 20
4.4297725835
 10
9.2846651357
 20
4.4053237933
 10
9.2506877438
 20
4.3827821783
  0
LWPOLYLINE
  5
52B
100
AcDbEntity
  8
RACCORDO
100
AcDbPolyline
 62
250
  6
CONTINUOUS
 90
80
 70
0
 10
0.8950815841
 20
10.08544336
 10
0.7966815368
 20
10.0721507215
 10
0.698046136
 20
10.0606116059
 10
0.598993866
 20
10.0507895605
 10
0.499634996
 20
10.0426571529
 10
0.4003105658
 20
10.0361949341
 10
0.3006795355
 20
10.0314223533
 10
0.1998290542
 20
10.0283703253
 10
0.098002264
 20
10.0269395751
 10
-0.0050439773
 20
10.0272293777
 10
-0.1109519465
 20
10.0295684733
 10
-0.2197747471
 20
10.0338075259
 10
-0.3314592757
 20
10.0400958715
 10
-0.4474884986
 20
10.0492102592
 10
-0.5682791634
 20
10.0610347477
 10
-0.6934145225
 20
10.0756852782
 10
-0.8231273
 20
10.0942864234
 10
-0.9580509033
 20
10.1168531165
 10
-1.0975519249
 20
10.1433704243
 10
-1.2399628667
 20
10.1749181198
 10
-1.3858792917
 20
10.2117156193
 10
-1.5347056369
 20
10.2535435065
 10
-1.6829877145
 20
10.300823305
 10
-1.8311873214
 20
10.3540752554
 10
-1.9788426608
 20
10.4127791173
 10
-2.1211141545
 20
10.4757956929
 10
-2.2575427597
 20
10.543537071
 10
-2.3885875193
 20
10.6155911628
 10
-2.5107859833
 20
10.6895825057
 10
-2.6231111847
 20
10.7653873497
 10
-2.7265900906
 20
10.8431294447
 10
-2.8208411518
 20
10.9208045769
 10
-2.905337503
 20
10.9981654433
 10
-2.9806060096
 20
11.075459347
 10
-3.0478457191
 20
11.1514239832
 10
-3.1069046883
 20
11.2258393792
 10
-3.1579348605
 20
11.2989255078
 10
-3.2025911128
 20
11.3700799836
 10
-3.2408843245
 20
11.4390508048
 10
-3.2728036163
 20
11.5060899733
 10
-3.2999712269
 20
11.5713511089
 10
-3.3225469669
 20
11.6346870641
 10
-3.3403710256
 20
11.6962449864
 10
-3.3545862093
 20
11.7566199395
 10
-3.3653900819
 20
11.8157682949
 10
-3.3725850795
 20
11.8737336809
 10
-3.3767213172
 20
11.9312420464
 10
-3.3779587698
 20
11.9883992758
 10
-3.3761374625
 20
12.0450994847
 10
-3.3713275865
 20
12.1017509685
 10
-3.3635555605
 20
12.1585429618
 10
-3.3527949657
 20
12.21528623
 10
-3.3390367372
 20
12.2718213647
 10
-3.3221468814
 20
12.3283507902
 10
-3.3022593918
 20
12.3846720823
 10
-3.2797671849
 20
12.44001856
 10
-3.2544614005
 20
12.4944689204
 10
-3.2265508988
 20
12.5479444664
 10
-3.1970551759
 20
12.5994424262
 10
-3.165954871
 20
12.6487578848
 10
-3.133269345
 20
12.6960957572
 10
-3.1000761766
 20
12.7410680163
 10
-3.0665426051
 20
12.783445635
 10
-3.0325013912
 20
12.8234576405
 10
-2.998528396
 20
12.861403087
 10
-2.9647262437
 20
12.8972577248
 10
-2.9309923101
 20
12.9310458036
 10
-2.8975945834
 20
12.9631391269
 10
-2.8647092993
 20
12.9934608312
 10
-2.8321602221
 20
13.0220877799
 10
-2.7996866338
 20
13.0496223667
 10
-2.7675726071
 20
13.075943689
 10
-2.7355340692
 20
13.1011726493
 10
-2.7024580836
 20
13.1262743484
 10
-2.6683616593
 20
13.1513562003
 10
-2.6332277872
 20
13.1763107909
 10
-2.5958925043
 20
13.201780979
 10
-2.5559678227
 20
13.2279810508
 10
-2.5138417303
 20
13.2546967201
 10
-2.469514227
 20
13.2819279869
  0
LWPOLYLINE
  5
52C
100
AcDbEntity
  8
ASSI
100
AcDbPolyline
 62
7
  6
CONTINUOUS
 90
10
 70
0
 10
-14.8180382393
 20
9.9714971115
 10
-14.8375619734
 20
9.9717842861
 10
-14.8565939686
 20
9.9711107687
 10
-14.8751342249
 20
9.9694765595
 10
-14.8933188837
 20
9.9668466603
 10
-14.9110118036
 20
9.9632560692
 10
-14.9278045605
 20
9.95880978
 10
-14.9435610132
 20
9.9535427907
 10
-14.9584173029
 20
9.9474201033
 10
-14.9723734296
 20
9.9404417178
  0
LINE
  5
52D
100
AcDbEntity
  8
ASSI
100
AcDbLine
 62
7
  6
CONTINUOUS
 10
-14.7773815347
 20
9.9706897715
 11
-14.8180382393
 21
9.9714971115
  0
LWPOLYLINE
  5
52E
100
AcDbEntity
  8
RACCORDO
100
AcDbPolyline
 62
250
  6
CONTINUOUS
 90
4
 70
0
 10
-9.6811978896
 20
8.7965351192
 10
-9.6827951385
 20
8.7966960923
 10
-9.6863183707
 20
8.7958427347
 10
-9.6914897434
 20
8.7936572781
  0
LWPOLYLINE
  5
52F
100
AcDbEntity
  8
ASSI
100
AcDbPolyline
 62
250
  6
CONTINUOUS
 90
16
 70
0
 10
-16.6620420504
 20
11.4161349017
 10
-16.675805123
 20
11.4177977511
 10
-16.6909389536
 20
11.4201378383
 10
-16.7072834349
 20
11.423130407
 10
-16.7246659795
 20
11.4267438698
 10
-16.7429023923
 20
11.4309399479
 10
-16.7617986766
 20
11.4356739726
 10
-16.7811541127
 20
11.4408955759
 10
-16.8007646167
 20
11.4465496214
 10
-16.8204238828
 20
11.4525765988
 10
-16.8399316867
 20
11.4589153402
 10
-16.859073741
 20
11.4654964329
 10
-16.8776267678
 20
11.4722424905
 10
-16.8953905338
 20
11.4790792067
 10
-16.9121880641
 20
11.4859369076
 10
-16.9278464287
 20
11.4927435815
  0
LWPOLYLINE
  5
530
100
AcDbEntity
  8
ASSI
100
AcDbPolyline
 62
250
  6
CONTINUOUS
 90
13
 70
0
 10
-16.9334270445
 20
10.5425050604
 10
-16.9508367076
 20
10.5446881771
 10
-16.9703236398
 20
10.5479187301
 10
-16.9915663732
 20
10.5521434269
 10
-17.0142144749
 20
10.5572925748
 10
-17.037894327
 20
10.5632812307
 10
-17.0622152897
 20
10.5700106019
 10
-17.0867761478
 20
10.5773696765
 10
-17.1111717276
 20
10.5852370542
 10
-17.1349995799
 20
10.5934829488
 10
-17.157866622
 20
10.60197133
 10
-17.1793956226
 20
10.6105621673
 10
-17.1992314228
 20
10.6191137402
  0
LWPOLYLINE
  5
531
100
AcDbEntity
  8
ASSI
100
AcDbPolyline
 62
250
  6
CONTINUOUS
 90
4
 70
0
 10
-17.1063802351
 20
12.1236779388
 10
-17.1069935469
 20
12.1237643193
 10
-17.1099170875
 20
12.1222344841
 10
-17.1138253767
 20
12.1178138533
  0
LWPOLYLINE
  5
532
100
AcDbEntity
  8
ASSI
100
AcDbPolyline
 62
250
  6
CONTINUOUS
 90
24
 70
0
 10
-12.4885135509
 20
12.4648247598
 10
-12.4480827888
 20
12.4576901673
 10
-12.4067526766
 20
12.4525531542
 10
-12.364818697
 20
12.4494504475
 10
-12.3225806494
 20
12.4484042307
 10
-12.2803405087
 20
12.4494219847
 10
-12.238400266
 20
12.452496434
 10
-12.1970597617
 20
12.4576055999
 10
-12.1566145592
 20
12.4647129558
 10
-12.1173538329
 20
12.473767685
 10
-12.0795582809
 20
12.4847050468
 10
-12.0434981034
 20
12.4974468471
 10
-12.0094310901
 20
12.5119019957
 10
-11.9776007973
 20
12.5279671493
 10
-11.948234793
 20
12.5455274526
 10
-11.9215430183
 20
12.5644573678
 10
-11.897716295
 20
12.5846215699
 10
-11.8769249865
 20
12.6058758906
 10
-11.8593177595
 20
12.6280683512
 10
-11.8450204936
 20
12.6510402775
 10
-11.8341353897
 20
12.6746274438
 10
-11.8267402609
 20
12.6986612219
 10
-11.8228879756
 20
12.7229697539
 10
-11.822288879
 20
12.7370979151
  0
LWPOLYLINE
  5
533
100
AcDbEntity
  8
ASSI
100
AcDbPolyline
 62
250
  6
CONTINUOUS
 90
27
 70
0
 10
-14.3914994681
 20
11.632765721
 10
-14.3990040564
 20
11.6341983599
 10
-14.4064696459
 20
11.6354217541
 10
-14.4138928613
 20
11.6364356566
 10
-14.4212212011
 20
11.6372326503
 10
-14.4285018805
 20
11.6378198719
 10
-14.4358820802
 20
11.6382190024
 10
-14.4433954712
 20
11.638440665
 10
-14.451006337
 20
11.6384741793
 10
-14.4587585637
 20
11.6383093045
 10
-14.4666514284
 20
11.6379486604
 10
-14.4746859514
 20
11.6373896335
 10
-14.4829093252
 20
11.63661415
 10
-14.4913286732
 20
11.6356222845
 10
-14.4999401174
 20
11.6344140695
 10
-14.5087753772
 20
11.632971424
 10
-14.5178438305
 20
11.631291024
 10
-14.5271430902
 20
11.6293766508
 10
-14.5366884572
 20
11.6272210362
 10
-14.5464864245
 20
11.6248197216
 10
-14.5565415052
 20
11.6221784933
 10
-14.5668669062
 20
11.6193057413
 10
-14.5774655911
 20
11.6161985715
 10
-14.5883488259
 20
11.6128627618
 10
-14.5995422064
 20
11.6093200811
 10
-14.6110437842
 20
11.605572065
 10
-14.6350788687
 20
11.5974954952
  0
LWPOLYLINE
  5
534
100
AcDbEntity
  8
ASSI
100
AcDbPolyline
 62
250
  6
CONTINUOUS
 90
5
 70
0
 10
-19.3786671737
 20
13.4923073299
 10
-19.4058062581
 20
13.497617472
 10
-19.4304520453
 20
13.5014982875
 10
-19.4525828912
 20
13.5040842956
 10
-19.472119281
 20
13.5055804046
  0
LWPOLYLINE
  5
535
100
AcDbEntity
  8
ASSI
100
AcDbPolyline
 62
250
  6
CONTINUOUS
 90
21
 70
0
 10
-14.3762698991
 20
11.4859726921
 10
-14.3797652971
 20
11.4866999779
 10
-14.3832364847
 20
11.4871581171
 10
-14.3866594298
 20
11.48736502
 10
-14.3900496889
 20
11.4873225067
 10
-14.3934722362
 20
11.4870128318
 10
-14.3969589972
 20
11.4864519013
 10
-14.4004938672
 20
11.4856361198
 10
-14.4040843908
 20
11.4845166627
 10
-14.4077495329
 20
11.4831102908
 10
-14.4114986448
 20
11.4814167583
 10
-14.4153380445
 20
11.4793653948
 10
-14.419300154
 20
11.4769753082
 10
-14.4234010448
 20
11.4742511778
 10
-14.4276405523
 20
11.4711075124
 10
-14.4320649884
 20
11.4675664565
 10
-14.4367038729
 20
11.4636421763
 10
-14.4415551014
 20
11.4592471034
 10
-14.446681461
 20
11.4544091775
 10
-14.4521315897
 20
11.4491541583
 10
-14.4641075088
 20
11.4371900458
  0
LWPOLYLINE
  5
536
100
AcDbEntity
  8
RACCORDO
100
AcDbPolyline
 62
250
  6
CONTINUOUS
 90
31
 70
0
 10
-15.6605004795
 20
13.4553067402
 10
-15.6651528965
 20
13.4565257883
 10
-15.6699192924
 20
13.4577107312
 10
-15.6747996673
 20
13.458861569
 10
-15.6797827122
 20
13.4599766147
 10
-15.6848797361
 20
13.4610575553
 10
-15.6901246658
 20
13.4621094514
 10
-15.6955437382
 20
13.463137728
 10
-15.7011107163
 20
13.4641369602
 10
-15.7067808164
 20
13.4650959335
 10
-15.7125522532
 20
13.4660132347
 10
-15.7184268119
 20
13.466890277
 10
-15.7243650646
 20
13.4677200862
 10
-15.730366782
 20
13.4685018252
 10
-15.7364321933
 20
13.4692363312
 10
-15.7425225581
 20
13.4699191402
 10
-15.7486367865
 20
13.4705494869
 10
-15.7547759685
 20
13.4711281367
 10
-15.7609046331
 20
13.4716529228
 10
-15.7670215755
 20
13.4721232289
 10
-15.7731280006
 20
13.4725396713
 10
-15.7791920517
 20
13.4729019322
 10
-15.7852122969
 20
13.4732095086
 10
-15.7911901682
 20
13.4734629035
 10
-15.797098104
 20
13.4736633089
 10
-15.8029430615
 20
13.4738101273
 10
-15.8087180835
 20
13.4739039562
 10
-15.8143747375
 20
13.4739477803
 10
-15.8198968794
 20
13.4739425947
 10
-15.8253006533
 20
13.4738874043
 10
-16.6690461535
 20
13.4534444744
  0
LINE
  5
537
100
AcDbEntity
  8
ASSI
100
AcDbLine
 62
250
  6
CONTINUOUS
 10
-17.1566965935
 20
12.1294917281
 11
-17.1138253769
 21
12.1178138534
  0
LWPOLYLINE
  5
538
100
AcDbEntity
  8
ASSI
100
AcDbPolyline
 62
250
  6
CONTINUOUS
 90
3
 70
0
 10
-17.2793767008
 20
12.1625114411
 10
-17.2394576781
 20
12.1512778998
 10
-17.1566965935
 20
12.1294917281
  0
LINE
  5
539
100
AcDbEntity
  8
ASSI
100
AcDbLine
 62
250
  6
CONTINUOUS
 10
-14.372754583
 20
11.4849666877
 11
-14.3762698991
 21
11.4859726921
  0
LWPOLYLINE
  5
53A
100
AcDbEntity
  8
RACCORDO
100
AcDbPolyline
 62
250
  6
CONTINUOUS
 90
10
 70
0
 10
-15.540959923
 20
13.4668700846
 10
-15.5547258934
 20
13.4711216135
 10
-15.5684280449
 20
13.4759458796
 10
-15.5820422446
 20
13.4813249601
 10
-15.5955470009
 20
13.4872326583
 10
-15.6089165147
 20
13.4936554472
 10
-15.6221202894
 20
13.5005945784
 10
-15.635132555
 20
13.5080371768
 10
-15.6479327661
 20
13.5159542364
 10
-15.6604983433
 20
13.5243229956
  0
LINE
  5
53B
100
AcDbEntity
  8
0
100
AcDbLine
 62
7
  6
CONTINUOUS
 10
0.4969630497
 20
10.1979853205
 11
0.6561827821
 21
10.1482128197
  0
LWPOLYLINE
  5
53C
100
AcDbEntity
  8
RACCORDO
100
AcDbPolyline
 62
250
  6
CONTINUOUS
 90
7
 70
0
 10
-13.8592984238
 20
16.8186674204
 10
-13.8720186452
 20
16.8243298799
 10
-13.8871174044
 20
16.8275381734
 10
-13.9034231077
 20
16.8276993648
 10
-13.9206629167
 20
16.8248107572
 10
-13.9385483633
 20
16.8189206847
 10
-13.9567801756
 20
16.810127704
  0
LWPOLYLINE
  5
53D
100
AcDbEntity
  8
RACCORDO
100
AcDbPolyline
 62
250
  6
CONTINUOUS
 90
7
 70
0
 10
-5.8167936541
 20
12.0056740216
 10
-5.83246591
 20
12.0129786567
 10
-5.8542701742
 20
12.0184306672
 10
-5.8778720198
 20
12.0195232775
 10
-5.9028940441
 20
12.0162389924
 10
-5.9289361505
 20
12.0086303041
 10
-5.9555819177
 20
11.9968188539
  0
LWPOLYLINE
  5
53E
100
AcDbEntity
  8
RACCORDO
100
AcDbPolyline
 62
250
  6
CONTINUOUS
 90
7
 70
0
 10
-15.0984270051
 20
17.3647728973
 10
-15.1142171844
 20
17.372145287
 10
-15.1360214011
 20
17.3775970515
 10
-15.1596231108
 20
17.3786894735
 10
-15.1846449199
 20
17.3754050851
 10
-15.2106867269
 20
17.3677964039
 10
-15.2373321208
 20
17.3559850935
  0
LWPOLYLINE
  5
53F
100
AcDbEntity
  8
ASSI
100
AcDbPolyline
 62
250
  6
CONTINUOUS
 90
13
 70
0
 10
-9.548661602
 20
14.112721691
 10
-9.5287983718
 20
14.1031961796
 10
-9.5097232118
 20
14.0913072815
 10
-9.4917023463
 20
14.0772209255
 10
-9.4749872854
 20
14.061133709
 10
-9.4598113144
 20
14.0432701549
 10
-9.4463862383
 20
14.0238795778
 10
-9.4348994256
 20
14.0032326041
 10
-9.425511193
 20
13.9816173953
 10
-9.4183525684
 20
13.9593356264
 10
-9.4135234619
 20
13.9366982751
 10
-9.4110912713
 20
13.9140212817
 10
-9.4110899417
 20
13.89162114
  0
LWPOLYLINE
  5
540
100
AcDbEntity
  8
ASSI
100
AcDbPolyline
 62
250
  6
CONTINUOUS
 90
6
 70
0
 10
-14.8521701703
 20
15.8427397918
 10
-14.8699659475
 20
15.8514102471
 10
-14.8880482017
 20
15.8572240574
 10
-14.9061414921
 20
15.8600926629
 10
-14.9239702098
 20
15.8599723672
 10
-14.9414504124
 20
15.856813967
  0
LWPOLYLINE
  5
541
100
AcDbEntity
  8
ASSI
100
AcDbPolyline
 62
250
  6
CONTINUOUS
 90
3
 70
0
 10
-13.3396544328
 20
16.2557042299
 10
-13.35745021
 20
16.2643746852
 10
-13.3755324642
 20
16.2701884955
  0
LINE
  5
542
100
AcDbEntity
  8
ASSI
100
AcDbLine
 62
250
  6
CONTINUOUS
 10
-11.6210680099
 20
13.88407739
 11
-11.6032207806
 21
13.8750781677
  0
LWPOLYLINE
  5
543
100
AcDbEntity
  8
RACCORDO
100
AcDbPolyline
 62
7
  6
CONTINUOUS
 90
10
 70
0
 10
-13.8592984238
 20
16.8186674204
 10
-13.8811151231
 20
16.8298297229
 10
-13.9063681997
 20
16.839493828
 10
-13.9323621425
 20
16.8461374624
 10
-13.9586540238
 20
16.8496477992
 10
-13.9849253142
 20
16.8500323709
 10
-14.0108836814
 20
16.8473274453
 10
-14.0361299635
 20
16.8416125244
 10
-14.060241133
 20
16.833053826
 10
-14.0786114689
 20
16.8242484567
  0
LWPOLYLINE
  5
544
100
AcDbEntity
  8
ASSI
100
AcDbPolyline
 62
250
  6
CONTINUOUS
 90
3
 70
0
 10
-14.9440061439
 20
15.8040057666
 10
-14.9611371701
 20
15.8130035046
 10
-14.9780066985
 20
15.8193712818
  0
LWPOLYLINE
  5
545
100
AcDbEntity
  8
RACCORDO
100
AcDbPolyline
 62
7
  6
CONTINUOUS
 90
13
 70
0
 10
-15.0984183984
 20
17.3647679274
 10
-15.1643698981
 20
17.4005149014
 10
-15.2443195852
 20
17.437676192
 10
-15.3239659156
 20
17.4680085077
 10
-15.4031727901
 20
17.4915049613
 10
-15.4816089898
 20
17.5081223956
 10
-15.5586704692
 20
17.5178160973
 10
-15.6341444324
 20
17.5206748529
 10
-15.7076904868
 20
17.5167976489
 10
-15.7784332919
 20
17.5064131641
 10
-15.8458578758
 20
17.4899173908
 10
-15.9098442303
 20
17.4676838072
 10
-15.9387008077
 20
17.4553455592
  0
LINE
  5
546
100
AcDbEntity
  8
RACCORDO
100
AcDbLine
 62
250
  6
CONTINUOUS
 10
-15.2373321209
 20
17.3559850935
 11
-14.3192989337
 21
16.8259242369
  0
LINE
  5
547
100
AcDbEntity
  8
RACCORDO
100
AcDbLine
 62
250
  6
CONTINUOUS
 10
-6.8736066698
 20
12.5268748402
 11
-5.9555819166
 21
11.9968188532
  0
LINE
  5
548
100
AcDbEntity
  8
RACCORDO
100
AcDbLine
 62
7
  6
CONTINUOUS
 10
-15.0984270051
 20
17.3647728973
 11
-14.1731141099
 21
16.8305088285
  0
LINE
  5
549
100
AcDbEntity
  8
RACCORDO
100
AcDbLine
 62
7
  6
CONTINUOUS
 10
-6.7419812633
 20
12.5398658568
 11
-5.8166768087
 21
12.0056066616
  0
LINE
  5
54A
100
AcDbEntity
  8
RACCORDO
100
AcDbLine
 62
250
  6
CONTINUOUS
 10
-7.1119720514
 20
12.8580212786
 11
-8.7296363164
 21
13.7920403512
  0
LINE
  5
54B
100
AcDbEntity
  8
RACCORDO
100
AcDbLine
 62
250
  6
CONTINUOUS
 10
-13.9567801756
 20
16.810127704
 11
-13.0892594368
 21
16.309232102
  0
LINE
  5
54C
100
AcDbEntity
  8
RACCORDO
100
AcDbLine
 62
7
  6
CONTINUOUS
 10
-7.0144353623
 20
12.8665293098
 11
-8.6562993165
 21
13.8145209796
  0
LINE
  5
54D
100
AcDbEntity
  8
RACCORDO
100
AcDbLine
 62
7
  6
CONTINUOUS
 10
-13.8592984238
 20
16.8186674204
 11
-12.9925035186
 21
16.3181909405
  0
LINE
  5
54E
100
AcDbEntity
  8
RACCORDO
100
AcDbLine
 62
7
  6
CONTINUOUS
 10
-11.4992819675
 20
15.8139837474
 11
-9.3333828606
 21
14.5634207481
  0
LINE
  5
54F
100
AcDbEntity
  8
ASSI
100
AcDbLine
 62
7
  6
CONTINUOUS
 10
-8.7970377813
 20
14.5395064182
 11
-8.9545215126
 21
14.630435551
  0
LINE
  5
550
100
AcDbEntity
  8
ASSI
100
AcDbLine
 62
7
  6
CONTINUOUS
 10
-11.8363242879
 20
16.2943523559
 11
-11.9938080193
 21
16.3852814887
  0
LINE
  5
551
100
AcDbEntity
  8
0
100
AcDbLine
 62
7
  6
CONTINUOUS
 10
-0.5950607541
 20
10.9475917633
 11
-1.3020296942
 21
11.355786769
  0
LINE
  5
552
100
AcDbEntity
  8
0
100
AcDbLine
 62
7
  6
CONTINUOUS
 10
-8.3732353471
 20
15.4386122899
 11
-9.0802042873
 21
15.8468072956
  0
LINE
  5
553
100
AcDbEntity
  8
0
100
AcDbLine
 62
7
  6
CONTINUOUS
 10
1.1981867915
 20
10.3139104323
 11
1.1953610843
 21
10.3155419602
  0
LINE
  5
554
100
AcDbEntity
  8
0
100
AcDbLine
 62
7
  6
CONTINUOUS
 10
-6.5799878015
 20
14.8049309589
 11
-6.5828135087
 21
14.8065624868
  0
LINE
  5
555
100
AcDbEntity
  8
0
100
AcDbLine
 62
7
  6
CONTINUOUS
 10
1.4886735786
 20
10.3160541056
 11
1.4416824579
 21
10.3431861898
  0
LINE
  5
556
100
AcDbEntity
  8
0
100
AcDbLine
 62
7
  6
CONTINUOUS
 10
-0.1000860072
 20
11.2333839787
 11
-0.8070549474
 21
11.6415789843
  0
LINE
  5
557
100
AcDbEntity
  8
0
100
AcDbLine
 62
7
  6
CONTINUOUS
 10
-6.2895010145
 20
14.8070746322
 11
-6.3364921352
 21
14.8342067164
  0
LINE
  5
558
100
AcDbEntity
  8
0
100
AcDbLine
 62
7
  6
CONTINUOUS
 10
-7.8782606003
 20
15.7244045053
 11
-8.5852295404
 21
16.1325995109
  0
LINE
  5
559
100
AcDbEntity
  8
DRAFT
100
AcDbLine
 62
7
  6
CONTINUOUS
 10
-1.273745423
 20
12.2376322721
 11
-1.6084454429
 21
12.4308838688
  0
LINE
  5
55A
100
AcDbEntity
  8
DRAFT
100
AcDbLine
 62
7
  6
CONTINUOUS
 10
-9.051920016
 20
16.7286527987
 11
-9.3866200359
 21
16.9219043954
  0
LWPOLYLINE
  5
55B
100
AcDbEntity
  8
RACCORDO
100
AcDbPolyline
 62
250
  6
CONTINUOUS
 90
13
 70
0
 10
-10.2476888201
 20
17.7729485135
 10
-10.2158549561
 20
17.7542148559
 10
-10.1843098186
 20
17.7324937951
 10
-10.1532931649
 20
17.7079504742
 10
-10.1230406899
 20
17.680771517
 10
-10.0937823659
 20
17.6511635312
 10
-10.0657406951
 20
17.6193515372
 10
-10.039128799
 20
17.5855773887
 10
-10.0141489301
 20
17.5500978554
 10
-9.990991067
 20
17.5131825916
 10
-9.9698312504
 20
17.4751122181
 10
-9.950830246
 20
17.4361761881
 10
-9.9341324535
 20
17.3966705088
  0
LWPOLYLINE
  5
55C
100
AcDbEntity
  8
RACCORDO
100
AcDbPolyline
 62
250
  6
CONTINUOUS
 90
3
 70
0
 10
-5.9555819166
 20
11.9968188532
 10
-5.892493327
 20
11.9577357044
 10
-5.8296742965
 20
11.9143603566
  0
LWPOLYLINE
  5
55D
100
AcDbEntity
  8
RACCORDO
100
AcDbPolyline
 62
7
  6
CONTINUOUS
 90
16
 70
0
 10
-11.8363242879
 20
16.2943523559
 10
-11.8245582949
 20
16.2869563895
 10
-11.8130176551
 20
16.278580089
 10
-11.8017023685
 20
16.2692234547
 10
-11.7905455902
 20
16.2588232058
 10
-11.7796141652
 20
16.2474426231
 10
-11.7691086275
 20
16.235271548
 10
-11.7590253335
 20
16.2222857753
 10
-11.7493679269
 20
16.2085095103
 10
-11.7403478733
 20
16.1942052113
 10
-11.7319741626
 20
16.1793548373
 10
-11.7242378049
 20
16.1639764293
 10
-11.7173232966
 20
16.1483865681
 10
-11.7112921364
 20
16.1326907807
 10
-11.7060828254
 20
16.11678354
 10
-11.7016953638
 20
16.1006648462
  0
LWPOLYLINE
  5
55E
100
AcDbEntity
  8
RACCORDO
100
AcDbPolyline
 62
250
  6
CONTINUOUS
 90
15
 70
0
 10
-5.174884321
 20
15.8669692351
 10
-5.1503613307
 20
15.8432912929
 10
-5.125995569
 20
15.8187196865
 10
-5.1018588189
 20
15.7932427218
 10
-5.0780939339
 20
15.7669273406
 10
-5.0547041181
 20
15.7396879745
 10
-5.0315808122
 20
15.7112786782
 10
-5.0088332387
 20
15.6816855333
 10
-4.9865752411
 20
15.650896475
 10
-4.9647655569
 20
15.6186570893
 10
-4.9435576381
 20
15.5849527188
 10
-4.9231125288
 20
15.5497727243
 10
-4.9034713528
 20
15.5128602689
 10
-4.8848437172
 20
15.4742061812
 10
-4.8816452852
 20
15.4667778236
  0
LWPOLYLINE
  5
55F
100
AcDbEntity
  8
RACCORDO
100
AcDbPolyline
 62
250
  6
CONTINUOUS
 90
15
 70
0
 10
2.603290272
 20
11.3759487085
 10
2.6278132624
 20
11.3522707663
 10
2.652179024
 20
11.3276991599
 10
2.6763157742
 20
11.3022221952
 10
2.7000806591
 20
11.275906814
 10
2.723470475
 20
11.2486674479
 10
2.7465937808
 20
11.2202581516
 10
2.7693413543
 20
11.1906650067
 10
2.791599352
 20
11.1598759484
 10
2.8134090361
 20
11.1276365627
 10
2.834616955
 20
11.0939321922
 10
2.8550620642
 20
11.0587521977
 10
2.8747032403
 20
11.0218397423
 10
2.8933308759
 20
10.9831856546
 10
2.8965293078
 20
10.975757297
  0
LWPOLYLINE
  5
560
100
AcDbEntity
  8
RACCORDO
100
AcDbPolyline
 62
250
  6
CONTINUOUS
 90
16
 70
0
 10
-5.2685209202
 20
15.851108188
 10
-5.2456604908
 20
15.8284991574
 10
-5.2230829525
 20
15.8049959694
 10
-5.2007883053
 20
15.7805986241
 10
-5.1787428069
 20
15.7553900178
 10
-5.1569801997
 20
15.7292872542
 10
-5.1356017104
 20
15.7020416441
 10
-5.1145620074
 20
15.6736552563
 10
-5.0939064222
 20
15.6441260219
 10
-5.0738721764
 20
15.6131990451
 10
-5.0544018029
 20
15.5808720974
 10
-5.0355527687
 20
15.5471474072
 10
-5.0177346963
 20
15.5117767637
 10
-5.0008785987
 20
15.4747520504
 10
-4.9850534629
 20
15.4360813838
 10
-4.9782553185
 20
15.4166422526
  0
LWPOLYLINE
  5
561
100
AcDbEntity
  8
RACCORDO
100
AcDbPolyline
 62
250
  6
CONTINUOUS
 90
16
 70
0
 10
2.5096536729
 20
11.3600876614
 10
2.5325141023
 20
11.3374786308
 10
2.5550916406
 20
11.3139754428
 10
2.5773862878
 20
11.2895780975
 10
2.5994317861
 20
11.2643694912
 10
2.6211943933
 20
11.2382667276
 10
2.6425728827
 20
11.2110211175
 10
2.6636125857
 20
11.1826347297
 10
2.6842681708
 20
11.1531054953
 10
2.7043024166
 20
11.1221785185
 10
2.7237727901
 20
11.0898515708
 10
2.7426218243
 20
11.0561268805
 10
2.7604398967
 20
11.0207562371
 10
2.7772959943
 20
10.9837315237
 10
2.7931211301
 20
10.9450608572
 10
2.7999192745
 20
10.925621726
  0
LINE
  5
562
100
AcDbEntity
  8
0
100
AcDbLine
 62
7
  6
CONTINUOUS
 10
-0.5950607541
 20
10.9475917633
 11
-0.3515650878
 21
10.6879148325
  0
LINE
  5
563
100
AcDbEntity
  8
0
100
AcDbLine
 62
7
  6
CONTINUOUS
 10
1.4416824579
 20
10.3431861898
 11
1.1981867915
 21
10.6028631206
  0
LWPOLYLINE
  5
564
100
AcDbEntity
  8
RACCORDO
100
AcDbPolyline
 62
250
  6
CONTINUOUS
 90
10
 70
0
 10
9.2506877438
 20
4.3827821783
 10
9.2559905396
 20
4.3363805764
 10
9.2576673637
 20
4.2925614257
 10
9.2557265292
 20
4.2515476882
 10
9.2501865595
 20
4.2135621177
 10
9.2411245866
 20
4.1787547378
 10
9.2286336834
 20
4.1472369979
 10
9.2126748807
 20
4.1190205332
 10
9.1933897555
 20
4.0944480418
 10
9.1816770978
 20
4.082783059
  0
LWPOLYLINE
  5
565
100
AcDbEntity
  8
RACCORDO
100
AcDbPolyline
 62
7
  6
CONTINUOUS
 90
9
 70
0
 10
7.3943922045
 20
-12.9807597711
 10
7.4270728171
 20
-12.9170412136
 10
7.4553282454
 20
-12.8523938405
 10
7.479477321
 20
-12.786202872
 10
7.4994149869
 20
-12.7185658822
 10
7.5147923761
 20
-12.6505858762
 10
7.5255806198
 20
-12.5826153766
 10
7.5318432736
 20
-12.5141592851
 10
7.5335137734
 20
-12.4565007215
  0
LINE
  5
566
100
AcDbEntity
  8
RACCORDO
100
AcDbLine
 62
250
  6
CONTINUOUS
 10
7.2682872702
 20
-12.9171573997
 11
6.6847236205
 21
-13.9518614664
  0
LINE
  5
567
100
AcDbEntity
  8
RACCORDO
100
AcDbLine
 62
7
  6
CONTINUOUS
 10
7.3943922045
 20
-12.9807597711
 11
6.806067857
 21
-14.0239897441
  0
LINE
  5
568
100
AcDbEntity
  8
RACCORDO
100
AcDbLine
 62
250
  6
CONTINUOUS
 10
-3.1376894422
 20
-21.7541010881
 11
-3.185966514
 21
-21.8067419264
  0
LWPOLYLINE
  5
569
100
AcDbEntity
  8
ASSI
100
AcDbPolyline
 62
250
  6
CONTINUOUS
 90
9
 70
0
 10
-14.9113495842
 20
12.0729354028
 10
-14.8767503268
 20
12.0757657528
 10
-14.8421514016
 20
12.080293612
 10
-14.8076263772
 20
12.0864184436
 10
-14.7736386645
 20
12.0939447388
 10
-14.7398655395
 20
12.1028318041
 10
-14.7051594393
 20
12.1133740958
 10
-14.6694216415
 20
12.1256876009
 10
-14.6328075414
 20
12.1397900797
  0
LWPOLYLINE
  5
56A
100
AcDbEntity
  8
ASSI
100
AcDbPolyline
 62
250
  6
CONTINUOUS
 90
16
 70
0
 10
-16.4358277445
 20
11.5264141209
 10
-16.4429783877
 20
11.5260027906
 10
-16.4499814258
 20
11.5253094485
 10
-16.4568368586
 20
11.5243340947
 10
-16.463552938
 20
11.523049091
 10
-16.4701214122
 20
11.5214820755
 10
-16.4765175258
 20
11.5197159625
 10
-16.4827390671
 20
11.5177537875
 10
-16.4887882478
 20
11.515592515
 10
-16.4946469471
 20
11.5133059526
 10
-16.5003134272
 20
11.51089671
 10
-16.505789426
 20
11.5083621774
 10
-16.5110620358
 20
11.5057683332
 10
-16.5161269542
 20
11.5031371702
 10
-16.5209884838
 20
11.5004466956
 10
-16.5256466245
 20
11.4976969093
  0
LWPOLYLINE
  5
56B
100
AcDbEntity
  8
ASSI
100
AcDbPolyline
 62
250
  6
CONTINUOUS
 90
16
 70
0
 10
-16.5193903878
 20
11.7745945407
 10
-16.5311681648
 20
11.7739338222
 10
-16.5427675474
 20
11.7727144865
 10
-16.5541604726
 20
11.7709863095
 10
-16.5653157587
 20
11.7687978659
 10
-16.5762160348
 20
11.7661971185
 10
-16.5868579925
 20
11.7632296098
 10
-16.5972261126
 20
11.7599378642
 10
-16.6073016807
 20
11.7563642574
 10
-16.6170800551
 20
11.7525499324
 10
-16.6265509083
 20
11.7485324134
 10
-16.6357015068
 20
11.744349023
 10
-16.6445261473
 20
11.7400378189
 10
-16.6530182198
 20
11.7356333594
 10
-16.6611700999
 20
11.7311666029
 10
-16.6689765155
 20
11.7266678507
  0
LINE
  5
56C
100
AcDbEntity
  8
ASSI
100
AcDbLine
 62
250
  6
CONTINUOUS
 10
-16.4174523164
 20
11.991005227
 11
-14.9113495842
 21
12.0729354028
  0
LINE
  5
56D
100
AcDbEntity
  8
ASSI
100
AcDbLine
 62
7
  6
CONTINUOUS
 10
-16.4885162074
 20
12.0081820997
 11
-14.9819805293
 21
12.0901366014
  0
LINE
  5
56E
100
AcDbEntity
  8
ASSI
100
AcDbLine
 62
7
  6
CONTINUOUS
 10
-14.9819805293
 20
12.0901366014
 11
-14.9818402687
 21
12.0901441501
  0
LWPOLYLINE
  5
56F
100
AcDbEntity
  8
ASSI
100
AcDbPolyline
 62
7
  6
CONTINUOUS
 90
17
 70
0
 10
-16.4885162075
 20
12.0081820997
 10
-16.5054585711
 20
12.0075050365
 10
-16.5364925746
 20
12.0073044192
 10
-16.5706763901
 20
12.0083575613
 10
-16.6075816767
 20
12.010734866
 10
-16.6466502139
 20
12.0144475861
 10
-16.6876068448
 20
12.0194918713
 10
-16.7302424614
 20
12.0258686506
 10
-16.7742133452
 20
12.0335509205
 10
-16.8192351498
 20
12.0425017648
 10
-16.86505968
 20
12.0526864848
 10
-16.9114252915
 20
12.064062857
 10
-16.958033361
 20
12.0765680369
 10
-17.0046010357
 20
12.090135928
 10
-17.0508520228
 20
12.1046994572
 10
-17.0964251324
 20
12.1201519309
 10
-17.1063505811
 20
12.1236677116
  0
LINE
  5
570
100
AcDbEntity
  8
ASSI
100
AcDbLine
 62
250
  6
CONTINUOUS
 10
-16.4597286866
 20
11.9899383943
 11
-16.4174523164
 21
11.991005227
  0
LINE
  5
571
100
AcDbEntity
  8
ASSI
100
AcDbLine
 62
250
  6
CONTINUOUS
 10
-14.7178934222
 20
11.5692594064
 11
-16.4358277445
 21
11.5264141209
  0
LINE
  5
572
100
AcDbEntity
  8
ASSI
100
AcDbLine
 62
250
  6
CONTINUOUS
 10
-14.4826188115
 20
11.8253916279
 11
-16.5193903878
 21
11.7745945407
  0
LWPOLYLINE
  5
573
100
AcDbEntity
  8
ASSI
100
AcDbPolyline
 62
250
  6
CONTINUOUS
 90
5
 70
0
 10
-16.4880832612
 20
12.0082064256
 10
-16.4753423441
 20
12.0082319472
 10
-16.4555935538
 20
12.0056312473
 10
-16.4361928024
 20
11.9998580368
 10
-16.4174523164
 20
11.991005227
  0
LWPOLYLINE
  5
574
100
AcDbEntity
  8
ASSI
100
AcDbPolyline
 62
250
  6
CONTINUOUS
 90
5
 70
0
 10
-14.9818402687
 20
12.0901441501
 10
-14.9692383661
 20
12.0901620604
 10
-14.9494899339
 20
12.0875612331
 10
-14.930089606
 20
12.0817880345
 10
-14.9113495842
 20
12.0729354028
  0
LWPOLYLINE
  5
575
100
AcDbEntity
  8
ASSI
100
AcDbPolyline
 62
250
  6
CONTINUOUS
 90
5
 70
0
 10
-19.472119281
 20
13.5055804046
 10
-19.4891764578
 20
13.5060376015
 10
-19.5039620896
 20
13.5053295801
 10
-19.5164114846
 20
13.5035928357
 10
-19.526521202
 20
13.5008804098
  0
LWPOLYLINE
  5
576
100
AcDbEntity
  8
ASSI
100
AcDbPolyline
 62
250
  6
CONTINUOUS
 90
3
 70
0
 10
-16.5483832607
 20
11.9927275483
 10
-16.5033723347
 20
11.9905125014
 10
-16.4597286866
 20
11.9899383943
  0
LWPOLYLINE
  5
577
100
AcDbEntity
  8
ASSI
100
AcDbPolyline
 62
7
  6
CONTINUOUS
 90
10
 70
0
 10
-12.3921014395
 20
11.3312420192
 10
-12.4136151726
 20
11.332488091
 10
-12.434745774
 20
11.3324989899
 10
-12.4554932439
 20
11.3312747159
 10
-12.47609485
 20
11.3287657773
 10
-12.4963133245
 20
11.3250216658
 10
-12.5154368644
 20
11.320190856
 10
-12.5332282018
 20
11.3143228396
 10
-12.5499246045
 20
11.307368125
 10
-12.5655260726
 20
11.2993267122
  0
LWPOLYLINE
  5
578
100
AcDbEntity
  8
RACCORDO
100
AcDbPolyline
 62
250
  6
CONTINUOUS
 90
10
 70
0
 10
-15.660500529
 20
13.4553067688
 10
-15.6479340239
 20
13.4541713078
 10
-15.635133094
 20
13.453649034
 10
-15.6221203332
 20
13.453736596
 10
-15.6089163799
 20
13.4544241811
 10
-15.5955469335
 20
13.4557099147
 10
-15.5820422495
 20
13.4576024828
 10
-15.5684280435
 20
13.4601006885
 10
-15.554725889
 20
13.4631908512
 10
-15.5409599189
 20
13.466863026
  0
LWPOLYLINE
  5
579
100
AcDbEntity
  8
ASSI
100
AcDbPolyline
 62
250
  6
CONTINUOUS
 90
24
 70
0
 10
-12.3943427663
 20
12.7322785568
 10
-12.3664973665
 20
12.7290784143
 10
-12.3384966866
 20
12.7274287102
 10
-12.3100843707
 20
12.7273414364
 10
-12.2815167747
 20
12.728804601
 10
-12.2535629664
 20
12.7317822284
 10
-12.2262445255
 20
12.7363136416
 10
-12.1995398723
 20
12.7423595176
 10
-12.1741533359
 20
12.7497659123
 10
-12.1501119513
 20
12.7585719166
 10
-12.1273886834
 20
12.7687384395
 10
-12.106606756
 20
12.7799942651
 10
-12.0878202996
 20
12.7923724143
 10
-12.0709751837
 20
12.8058398661
 10
-12.0565322403
 20
12.8200263414
 10
-12.0445626531
 20
12.8349481783
 10
-12.0349952385
 20
12.8505890386
 10
-12.0280772775
 20
12.86652963
 10
-12.0238794249
 20
12.8827769658
 10
-12.022331026
 20
12.8993240327
 10
-12.0234673985
 20
12.9157304976
 10
-12.0273003149
 20
12.9318495829
 10
-12.0338180026
 20
12.9478280664
 10
-12.0430204618
 20
12.963665948
  0
LINE
  5
57A
100
AcDbEntity
  8
ASSI
100
AcDbLine
 62
250
  6
CONTINUOUS
 10
-16.1645216485
 20
15.3328687162
 11
-16.1921557872
 21
15.3366301359
  0
LWPOLYLINE
  5
57B
100
AcDbEntity
  8
RACCORDO
100
AcDbPolyline
 62
250
  6
CONTINUOUS
 90
10
 70
0
 10
-5.1454932415
 20
11.327256439
 10
-5.1477810169
 20
11.3275836899
 10
-5.1527340001
 20
11.3261534234
 10
-5.1603396476
 20
11.3230386692
 10
-5.1705164722
 20
11.3182727987
 10
-5.1831554379
 20
11.3119068736
 10
-5.1981211266
 20
11.3040091003
 10
-5.2152531916
 20
11.2946640979
 10
-5.2343680754
 20
11.2839719911
 10
-5.2552609757
 20
11.272047338
  0
LINE
  5
57C
100
AcDbEntity
  8
RACCORDO
100
AcDbLine
 62
250
  6
CONTINUOUS
 10
-8.7362254963
 20
14.6078736431
 11
-8.875726518
 21
14.6343909509
  0
LINE
  5
57D
100
AcDbEntity
  8
ASSI
100
AcDbLine
 62
250
  6
CONTINUOUS
 10
-16.1006495938
 20
15.3204388351
 11
-16.1645216485
 21
15.3328687162
  0
LWPOLYLINE
  5
57E
100
AcDbEntity
  8
RACCORDO
100
AcDbPolyline
 62
250
  6
CONTINUOUS
 90
19
 70
0
 10
-18.7494745163
 20
14.404431113
 10
-18.7616413643
 20
14.4068555319
 10
-18.7737466143
 20
14.4094886114
 10
-18.7857814788
 20
14.4123347134
 10
-18.7977549454
 20
14.4153963339
 10
-18.8096580266
 20
14.4186709769
 10
-18.8214549712
 20
14.4221555173
 10
-18.8331565354
 20
14.4258566348
 10
-18.8447519631
 20
14.4297676498
 10
-18.8561732348
 20
14.4338653975
 10
-18.8674473958
 20
14.4381700156
 10
-18.8785474007
 20
14.4426613664
 10
-18.8893240942
 20
14.4472558729
 10
-18.8997424455
 20
14.4519489138
 10
-18.9098374852
 20
14.4567451103
 10
-18.9195651502
 20
14.4615747491
 10
-18.9289107526
 20
14.4664145924
 10
-18.9378889803
 20
14.4712878781
 10
-18.9464998331
 20
14.4761946061
  0
LINE
  5
57F
100
AcDbEntity
  8
RACCORDO
100
AcDbLine
 62
250
  6
CONTINUOUS
 10
-8.875726518
 20
14.6343909509
 11
-9.0181374597
 21
14.6659386464
  0
LWPOLYLINE
  5
580
100
AcDbEntity
  8
ASSI
100
AcDbPolyline
 62
250
  6
CONTINUOUS
 90
5
 70
0
 10
-14.9780066985
 20
15.8193712818
 10
-14.9943572229
 20
15.8230118969
 10
-15.0099391596
 20
15.8238697773
 10
-15.0245146569
 20
15.821931828
 10
-15.0378612261
 20
15.8172276308
  0
LWPOLYLINE
  5
581
100
AcDbEntity
  8
RACCORDO
100
AcDbPolyline
 62
250
  6
CONTINUOUS
 90
61
 70
0
 10
-9.0181374597
 20
14.6659386464
 10
-9.1640538848
 20
14.7027361459
 10
-9.3128802299
 20
14.7445640331
 10
-9.4611623075
 20
14.7918438316
 10
-9.6093619144
 20
14.8450957821
 10
-9.7570172538
 20
14.9037996439
 10
-9.8992887475
 20
14.9668162196
 10
-10.0357173528
 20
15.0345575976
 10
-10.1667621124
 20
15.1066116894
 10
-10.2889605764
 20
15.1806030323
 10
-10.4012857778
 20
15.2564078763
 10
-10.5047646836
 20
15.3341499713
 10
-10.5990157449
 20
15.4118251036
 10
-10.683512096
 20
15.4891859699
 10
-10.7587806026
 20
15.5664798736
 10
-10.8260203121
 20
15.6424445099
 10
-10.8850792814
 20
15.7168599058
 10
-10.9361094536
 20
15.7899460344
 10
-10.9807657058
 20
15.8611005102
 10
-11.0190589176
 20
15.9300713314
 10
-11.0509782094
 20
15.9971104999
 10
-11.0781458199
 20
16.0623716355
 10
-11.1007215599
 20
16.1257075907
 10
-11.1185456186
 20
16.1872655131
 10
-11.1327608024
 20
16.2476404661
 10
-11.1435646749
 20
16.3067888215
 10
-11.1507596725
 20
16.3647542075
 10
-11.1548959102
 20
16.422262573
 10
-11.1561333628
 20
16.4794198024
 10
-11.1543120555
 20
16.5361200113
 10
-11.1495021795
 20
16.5927714951
 10
-11.1417301535
 20
16.6495634884
 10
-11.1309695587
 20
16.7063067566
 10
-11.1172113303
 20
16.7628418913
 10
-11.1003214744
 20
16.8193713168
 10
-11.0804339849
 20
16.8756926089
 10
-11.0579417779
 20
16.9310390866
 10
-11.0326359936
 20
16.985489447
 10
-11.0047254918
 20
17.038964993
 10
-10.9752297689
 20
17.0904629528
 10
-10.944129464
 20
17.1397784114
 10
-10.911443938
 20
17.1871162838
 10
-10.8782507696
 20
17.2320885429
 10
-10.8447171981
 20
17.2744661616
 10
-10.8106759842
 20
17.3144781671
 10
-10.776702989
 20
17.3524236136
 10
-10.7429008367
 20
17.3882782514
 10
-10.7091669031
 20
17.4220663302
 10
-10.6757691765
 20
17.4541596535
 10
-10.6428838923
 20
17.4844813578
 10
-10.6103348152
 20
17.5131083066
 10
-10.5778612269
 20
17.5406428933
 10
-10.5457472002
 20
17.5669642156
 10
-10.5137086623
 20
17.5921931759
 10
-10.4806326767
 20
17.617294875
 10
-10.4465362523
 20
17.6423767269
 10
-10.4114023803
 20
17.6673313175
 10
-10.3740670973
 20
17.6928015056
 10
-10.3341424158
 20
17.7190015774
 10
-10.2920163234
 20
17.7457172467
 10
-10.2476888201
 20
17.7729485135
  0
LWPOLYLINE
  5
582
100
AcDbEntity
  8
RACCORDO
100
AcDbPolyline
 62
7
  6
CONTINUOUS
 90
10
 70
0
 10
1.7540707764
 20
11.8661280485
 10
1.7459139243
 20
11.8684920074
 10
1.7366047123
 20
11.8700036408
 10
1.7268344985
 20
11.8704131206
 10
1.7165083031
 20
11.8697102352
 10
1.7057211059
 20
11.8679051964
 10
1.694757847
 20
11.8650286388
 10
1.6837135063
 20
11.8610907743
 10
1.6724931038
 20
11.8560813911
 10
1.6610966396
 20
11.8500004893
  0
LINE
  5
583
100
AcDbEntity
  8
0
100
AcDbLine
 62
7
  6
CONTINUOUS
 10
0.3496586541
 20
11.0927926326
 11
-0.1000860072
 21
11.2333839787
  0
LINE
  5
584
100
AcDbEntity
  8
0
100
AcDbLine
 62
7
  6
CONTINUOUS
 10
-7.2812115434
 20
14.6890058471
 11
-7.1219918109
 21
14.6392333463
  0
LINE
  5
585
100
AcDbEntity
  8
0
100
AcDbLine
 62
7
  6
CONTINUOUS
 10
-7.4285159389
 20
15.5838131592
 11
-7.8782606003
 21
15.7244045053
  0
LWPOLYLINE
  5
586
100
AcDbEntity
  8
RACCORDO
100
AcDbPolyline
 62
7
  6
CONTINUOUS
 90
22
 70
0
 10
1.7540699306
 20
11.8661263513
 10
1.6351596005
 20
11.9055839429
 10
1.5129864507
 20
11.9412706967
 10
1.3880753867
 20
11.9730535747
 10
1.2607610638
 20
12.00087634
 10
1.1313687785
 20
12.024693226
 10
1.0002195927
 20
12.0444661055
 10
0.8676625448
 20
12.0601601576
 10
0.73403154
 20
12.071751078
 10
0.5996337663
 20
12.0792228893
 10
0.4648170377
 20
12.082563068
 10
0.3299246432
 20
12.0817677658
 10
0.1952591324
 20
12.076839201
 10
0.0611620942
 20
12.0677860282
 10
-0.0720186674
 20
12.054625712
 10
-0.2039746485
 20
12.0373790353
 10
-0.334364633
 20
12.0160769142
 10
-0.4628526165
 20
11.9907579574
 10
-0.5891467822
 20
11.9614583263
 10
-0.7129328032
 20
11.9282232843
 10
-0.8338698349
 20
11.891112914
 10
-0.9516338353
 20
11.850192145
  0
LINE
  5
587
100
AcDbEntity
  8
RACCORDO
100
AcDbLine
 62
7
  6
CONTINUOUS
 10
1.8375013752
 20
11.8356156043
 11
1.7540707764
 21
11.8661280485
  0
LINE
  5
588
100
AcDbEntity
  8
RACCORDO
100
AcDbLine
 62
7
  6
CONTINUOUS
 10
-5.9406732179
 20
16.3266361309
 11
-6.0241038166
 21
16.3571485751
  0
LINE
  5
589
100
AcDbEntity
  8
RACCORDO
100
AcDbLine
 62
7
  6
CONTINUOUS
 10
2.603290272
 20
11.3759487085
 11
2.77026715
 21
11.3147138351
  0
LINE
  5
58A
100
AcDbEntity
  8
RACCORDO
100
AcDbLine
 62
7
  6
CONTINUOUS
 10
-5.174884321
 20
15.8669692351
 11
-5.0079074431
 21
15.8057343617
  0
LINE
  5
58B
100
AcDbEntity
  8
0
100
AcDbLine
 62
7
  6
CONTINUOUS
 10
2.4033332287
 20
11.6270623348
 11
2.4015758313
 21
11.6277103966
  0
LINE
  5
58C
100
AcDbEntity
  8
0
100
AcDbLine
 62
7
  6
CONTINUOUS
 10
-5.3748413644
 20
16.1180828614
 11
-5.3765987617
 21
16.1187309232
  0
LINE
  5
58D
100
AcDbEntity
  8
RACCORDO
100
AcDbLine
 62
7
  6
CONTINUOUS
 10
2.77026715
 20
11.3147138351
 11
2.9446909662
 21
11.2500955296
  0
LINE
  5
58E
100
AcDbEntity
  8
RACCORDO
100
AcDbLine
 62
7
  6
CONTINUOUS
 10
2.0966282886
 20
11.7398519033
 11
1.8375013752
 21
11.8356156043
  0
LINE
  5
58F
100
AcDbEntity
  8
RACCORDO
100
AcDbLine
 62
7
  6
CONTINUOUS
 10
-5.0079074431
 20
15.8057343617
 11
-4.8334836269
 21
15.7411160562
  0
LINE
  5
590
100
AcDbEntity
  8
RACCORDO
100
AcDbLine
 62
7
  6
CONTINUOUS
 10
-5.6815463045
 20
16.2308724299
 11
-5.9406732179
 21
16.3266361309
  0
LINE
  5
591
100
AcDbEntity
  8
RACCORDO
100
AcDbLine
 62
7
  6
CONTINUOUS
 10
2.9446909662
 20
11.2500955296
 11
3.2237903136
 21
11.1455886988
  0
LINE
  5
592
100
AcDbEntity
  8
RACCORDO
100
AcDbLine
 62
7
  6
CONTINUOUS
 10
-4.8334836269
 20
15.7411160562
 11
-4.5543842794
 21
15.6366092254
  0
LINE
  5
593
100
AcDbEntity
  8
RACCORDO
100
AcDbLine
 62
7
  6
CONTINUOUS
 10
2.5653462047
 20
11.5637542998
 11
2.0966282886
 21
11.7398519033
  0
LINE
  5
594
100
AcDbEntity
  8
RACCORDO
100
AcDbLine
 62
7
  6
CONTINUOUS
 10
-5.2128283883
 20
16.0547748264
 11
-5.6815463045
 21
16.2308724299
  0
LINE
  5
595
100
AcDbEntity
  8
RACCORDO
100
AcDbLine
 62
250
  6
CONTINUOUS
 10
2.5653462047
 20
11.5637542998
 11
2.4033332287
 21
11.6270623348
  0
LINE
  5
596
100
AcDbEntity
  8
RACCORDO
100
AcDbLine
 62
250
  6
CONTINUOUS
 10
-5.2128283883
 20
16.0547748264
 11
-5.3748413644
 21
16.1180828614
  0
LWPOLYLINE
  5
597
100
AcDbEntity
  8
RACCORDO
100
AcDbPolyline
 62
7
  6
CONTINUOUS
 90
3
 70
0
 10
2.5672908279
 20
11.5629842742
 10
2.4242302894
 20
11.6192992694
 10
2.4033316635
 20
11.627058119
  0
LWPOLYLINE
  5
598
100
AcDbEntity
  8
RACCORDO
100
AcDbPolyline
 62
7
  6
CONTINUOUS
 90
3
 70
0
 10
-5.2108837652
 20
16.0540048008
 10
-5.3539443036
 20
16.110319796
 10
-5.3748429295
 20
16.1180786456
  0
LWPOLYLINE
  5
599
100
AcDbEntity
  8
RACCORDO
100
AcDbPolyline
 62
250
  6
CONTINUOUS
 90
10
 70
0
 10
5.5521007334
 20
12.1990763831
 10
5.5223741531
 20
12.215880731
 10
5.4928266415
 20
12.2294274212
 10
5.4636828117
 20
12.2396134749
 10
5.4351642081
 20
12.2463614603
 10
5.4074876222
 20
12.2496200808
 10
5.3808634447
 20
12.2493645652
 10
5.3554940662
 20
12.2455968557
 10
5.3315723386
 20
12.2383455937
 10
5.3156216361
 20
12.2311401079
  0
LWPOLYLINE
  5
59A
100
AcDbEntity
  8
RACCORDO
100
AcDbPolyline
 62
250
  6
CONTINUOUS
 90
10
 70
0
 10
2.3152003712
 20
10.5192938135
 10
2.2854821739
 20
10.5361025235
 10
2.2559426997
 20
10.5496533925
 10
2.2268065617
 20
10.5598434422
 10
2.1982953573
 20
10.5665952691
 10
2.170625825
 20
10.5698575498
 10
2.1440081962
 20
10.5696054312
 10
2.1186448523
 20
10.5658408519
 10
2.0947286539
 20
10.5585924582
 10
2.0787880246
 20
10.5513921997
  0
LWPOLYLINE
  5
59B
100
AcDbEntity
  8
RACCORDO
100
AcDbPolyline
 62
250
  6
CONTINUOUS
 90
10
 70
0
 10
-5.4629742218
 20
15.0103143401
 10
-5.4926924191
 20
15.0271230501
 10
-5.5222318933
 20
15.0406739191
 10
-5.5513680313
 20
15.0508639689
 10
-5.5798792357
 20
15.0576157957
 10
-5.607548768
 20
15.0608780764
 10
-5.6341663968
 20
15.0606259578
 10
-5.6595297407
 20
15.0568613785
 10
-5.6834459392
 20
15.0496129848
 10
-5.6993865685
 20
15.0424127263
  0
LINE
  5
59C
100
AcDbEntity
  8
DRAFT
100
AcDbLine
 62
7
  6
CONTINUOUS
 10
-6.2417586593
 20
17.0660367335
 11
-4.8301070812
 21
16.2509668044
  0
LINE
  5
59D
100
AcDbEntity
  8
DRAFT
100
AcDbLine
 62
7
  6
CONTINUOUS
 10
1.5364159338
 20
12.5750162069
 11
2.9480675119
 21
11.7599462778
  0
LINE
  5
59E
100
AcDbEntity
  8
RACCORDO
100
AcDbLine
 62
250
  6
CONTINUOUS
 10
6.6847236205
 20
10.8920373837
 11
9.2506877438
 21
9.4107732948
  0
LINE
  5
59F
100
AcDbEntity
  8
RACCORDO
100
AcDbLine
 62
250
  6
CONTINUOUS
 10
1.2496284049
 20
14.3794690187
 11
1.4021961308
 21
14.2913959678
  0
LINE
  5
5A0
100
AcDbEntity
  8
RACCORDO
100
AcDbLine
 62
250
  6
CONTINUOUS
 10
-6.5285461882
 20
18.8704895453
 11
-6.3759784622
 21
18.7824164944
  0
LINE
  5
5A1
100
AcDbEntity
  8
RACCORDO
100
AcDbLine
 62
250
  6
CONTINUOUS
 10
1.0380289169
 20
14.707367776
 11
1.2036103381
 21
14.6117751936
  0
LINE
  5
5A2
100
AcDbEntity
  8
RACCORDO
100
AcDbLine
 62
250
  6
CONTINUOUS
 10
-6.7401456762
 20
19.1983883026
 11
-6.5745642534
 21
19.1027957193
  0
LINE
  5
5A3
100
AcDbEntity
  8
RACCORDO
100
AcDbLine
 62
250
  6
CONTINUOUS
 10
6.1191243522
 20
11.8716840522
 11
5.5521007334
 21
12.1990763831
  0
LINE
  5
5A4
100
AcDbEntity
  8
RACCORDO
100
AcDbLine
 62
250
  6
CONTINUOUS
 10
0.5489442897
 20
15.0878362094
 11
-2.2260738597
 21
16.6900969098
  0
LINE
  5
5A5
100
AcDbEntity
  8
RACCORDO
100
AcDbLine
 62
250
  6
CONTINUOUS
 10
-7.2292303033
 20
19.578856736
 11
-7.7962539221
 21
19.906249067
  0
LWPOLYLINE
  5
5A6
100
AcDbEntity
  8
RACCORDO
100
AcDbPolyline
 62
250
  6
CONTINUOUS
 90
13
 70
0
 10
-2.469514227
 20
13.2819279869
 10
-2.4376803631
 20
13.2631943293
 10
-2.4061352256
 20
13.2414732685
 10
-2.3751185719
 20
13.2169299475
 10
-2.3448660968
 20
13.1897509904
 10
-2.3156077728
 20
13.1601430046
 10
-2.287566102
 20
13.1283310106
 10
-2.2609542059
 20
13.0945568621
 10
-2.2359743371
 20
13.0590773288
 10
-2.2128164739
 20
13.022162065
 10
-2.1916566573
 20
12.9840916915
 10
-2.1726556529
 20
12.9451556615
 10
-2.1559578604
 20
12.9056499822
  0
LWPOLYLINE
  5
5A7
100
AcDbEntity
  8
RACCORDO
100
AcDbPolyline
 62
250
  6
CONTINUOUS
 90
13
 70
0
 10
-7.2292303033
 20
19.578856736
 10
-7.1974005743
 20
19.5601194433
 10
-7.1658599518
 20
19.5383946093
 10
-7.1348482026
 20
19.5138474408
 10
-7.1046010745
 20
19.4866646035
 10
-7.0753484795
 20
19.4570527775
 10
-7.0473127495
 20
19.4252370791
 10
-7.0207069897
 20
19.3914593983
 10
-6.9957334216
 20
19.3559765274
 10
-6.972581831
 20
19.3190581726
 10
-6.9514281767
 20
19.28098497
 10
-6.9324332455
 20
19.2420463584
 10
-6.9157414024
 20
19.202538335
  0
LWPOLYLINE
  5
5A8
100
AcDbEntity
  8
RACCORDO
100
AcDbPolyline
 62
250
  6
CONTINUOUS
 90
13
 70
0
 10
0.5489442897
 20
15.0878362094
 10
0.5807740187
 20
15.0690989167
 10
0.6123146413
 20
15.0473740827
 10
0.6433263905
 20
15.0228269142
 10
0.6735735186
 20
14.9956440769
 10
0.7028261136
 20
14.9660322509
 10
0.7308618435
 20
14.9342165525
 10
0.7574676034
 20
14.9004388717
 10
0.7824411715
 20
14.8649560008
 10
0.805592762
 20
14.828037646
 10
0.8267464164
 20
14.7899644434
 10
0.8457413475
 20
14.7510258318
 10
0.8624331907
 20
14.7115178084
  0
LWPOLYLINE
  5
5A9
100
AcDbEntity
  8
RACCORDO
100
AcDbPolyline
 62
250
  6
CONTINUOUS
 90
19
 70
0
 10
6.1191243522
 20
11.8716840522
 10
6.1692325138
 20
11.84120047
 10
6.2188843627
 20
11.8059370484
 10
6.2677021648
 20
11.7661620591
 10
6.3153145312
 20
11.7221780966
 10
6.3613592433
 20
11.6743197756
 10
6.4054860089
 20
11.6229511858
 10
6.4473591269
 20
11.5684631215
 10
6.486660041
 20
11.5112701093
 10
6.5230897635
 20
11.4518072537
 10
6.5563711495
 20
11.3905269276
 10
6.5862510059
 20
11.3278953306
 10
6.612502017
 20
11.2643889422
 10
6.6349244742
 20
11.200490897
 10
6.6533477951
 20
11.1366873094
 10
6.6676318215
 20
11.0734635749
 10
6.6776678855
 20
11.011300678
 10
6.6833796362
 20
10.9506715324
 10
6.6847236205
 20
10.8920373837
  0
LWPOLYLINE
  5
5AA
100
AcDbEntity
  8
RACCORDO
100
AcDbPolyline
 62
250
  6
CONTINUOUS
 90
19
 70
0
 10
-6.644223039
 20
19.5003908995
 10
-6.6142649255
 20
19.480960776
 10
-6.5863636429
 20
19.4584648696
 10
-6.5607282893
 20
19.4330657029
 10
-6.5375485583
 20
19.4049435301
 10
-6.5170032259
 20
19.3743067314
 10
-6.4992549819
 20
19.3413937046
 10
-6.4844379018
 20
19.3064549339
 10
-6.4726584331
 20
19.2697436386
 10
-6.464003113
 20
19.231527237
 10
-6.4585360714
 20
19.1920755278
 10
-6.4563024566
 20
19.1516931517
 10
-6.4573178232
 20
19.1107150027
 10
-6.4615720454
 20
19.0694140662
 10
-6.469026988
 20
19.0281282005
 10
-6.4795820092
 20
18.9872918682
 10
-6.4931073937
 20
18.9472421405
 10
-6.5094793511
 20
18.9082181578
 10
-6.5285461882
 20
18.8704895453
  0
LWPOLYLINE
  5
5AB
100
AcDbEntity
  8
RACCORDO
100
AcDbPolyline
 62
250
  6
CONTINUOUS
 90
19
 70
0
 10
1.1339515541
 20
15.0093703729
 10
1.1639096675
 20
14.9899402494
 10
1.1918109501
 20
14.967444343
 10
1.2174463037
 20
14.9420451763
 10
1.2406260347
 20
14.9139230035
 10
1.2611713672
 20
14.8832862048
 10
1.2789196111
 20
14.850373178
 10
1.2937366912
 20
14.8154344073
 10
1.30551616
 20
14.778723112
 10
1.3141714801
 20
14.7405067104
 10
1.3196385217
 20
14.7010550012
 10
1.3218721364
 20
14.6606726251
 10
1.3208567699
 20
14.6196944761
 10
1.3166025477
 20
14.5783935396
 10
1.3091476051
 20
14.5371076738
 10
1.2985925838
 20
14.4962713416
 10
1.2850671993
 20
14.4562216139
 10
1.2686952419
 20
14.4171976312
 10
1.2496284049
 20
14.3794690187
  0
LWPOLYLINE
  5
5AC
100
AcDbEntity
  8
RACCORDO
100
AcDbPolyline
 62
250
  6
CONTINUOUS
 90
13
 70
0
 10
-6.8098049346
 20
19.5959837557
 10
-6.7871866767
 20
19.5801347244
 10
-6.7672018361
 20
19.5602560069
 10
-6.7500434608
 20
19.5365396263
 10
-6.7358772961
 20
19.5092146761
 10
-6.7248401831
 20
19.4785451081
 10
-6.7170387373
 20
19.4448271816
 10
-6.7125483186
 20
19.4083866026
 10
-6.7114123031
 20
19.369575377
 10
-6.7136416644
 20
19.3287684105
 10
-6.7192148675
 20
19.2863598873
 10
-6.7280780768
 20
19.242759462
 10
-6.7401456762
 20
19.1983883026
  0
LWPOLYLINE
  5
5AD
100
AcDbEntity
  8
RACCORDO
100
AcDbPolyline
 62
250
  6
CONTINUOUS
 90
13
 70
0
 10
0.9683696585
 20
15.1049632291
 10
0.9909879164
 20
15.0891141978
 10
1.010972757
 20
15.0692354803
 10
1.0281311322
 20
15.0455190996
 10
1.042297297
 20
15.0181941495
 10
1.0533344099
 20
14.9875245815
 10
1.0611358557
 20
14.953806655
 10
1.0656262745
 20
14.917366076
 10
1.06676229
 20
14.8785548504
 10
1.0645329287
 20
14.8377478839
 10
1.0589597256
 20
14.7953393607
 10
1.0500965162
 20
14.7517389353
 10
1.0380289169
 20
14.707367776
  0
LINE
  5
5AE
100
AcDbEntity
  8
RACCORDO
100
AcDbLine
 62
250
  6
CONTINUOUS
 10
-3.185966514
 20
-21.8067419264
 11
-3.2389360924
 21
-21.8540293923
  0
LWPOLYLINE
  5
5AF
100
AcDbEntity
  8
RACCORDO
100
AcDbPolyline
 62
7
  6
CONTINUOUS
 90
13
 70
0
 10
-3.2170662695
 20
-21.8386781139
 10
-3.1995497185
 20
-21.8241911008
 10
-3.1387706206
 20
-21.7675160969
 10
-3.0819606468
 20
-21.7037788258
 10
-3.0295031735
 20
-21.6328046559
 10
-2.9821062091
 20
-21.5548802835
 10
-2.9405512933
 20
-21.4708832553
 10
-2.905096217
 20
-21.3810909511
 10
-2.8759272848
 20
-21.285647658
 10
-2.8533632739
 20
-21.1854043301
 10
-2.8375078381
 20
-21.080846037
 10
-2.8283644722
 20
-20.9720779077
 10
-2.825912521
 20
-20.876814438
  0
LINE
  5
5B0
100
AcDbEntity
  8
RACCORDO
100
AcDbLine
 62
7
  6
CONTINUOUS
 10
-3.2170662691
 20
-21.8386781136
 11
-3.2173194997
 21
-21.8388822611
  0
LINE
  5
5B1
100
AcDbEntity
  8
RACCORDO
100
AcDbLine
 62
7
  6
CONTINUOUS
 10
-13.1967189332
 20
-27.9264924805
 11
-13.1085331144
 21
-27.855810205
  0
LWPOLYLINE
  5
5B2
100
AcDbEntity
  8
RACCORDO
100
AcDbPolyline
 62
250
  6
CONTINUOUS
 90
6
 70
0
 10
-3.2389360925
 20
-21.8540293922
 10
-3.4477223621
 20
-22.0173714331
 10
-3.6604540549
 20
-22.1745030629
 10
-3.8770756276
 20
-22.3253832554
 10
-4.0975305216
 20
-22.4699726166
 10
-4.2696973052
 20
-22.5768990174
  0
LWPOLYLINE
  5
5B3
100
AcDbEntity
  8
RACCORDO
100
AcDbPolyline
 62
7
  6
CONTINUOUS
 90
6
 70
0
 10
-13.6481140937
 20
-28.2630632611
 10
-13.5564395861
 20
-28.1979945179
 10
-13.4654628163
 20
-28.1318030682
 10
-13.3751837842
 20
-28.0644889121
 10
-13.2856024898
 20
-27.9960520495
 10
-13.1967189332
 20
-27.9264924805
  0
LWPOLYLINE
  5
5B4
100
AcDbEntity
  8
RACCORDO
100
AcDbPolyline
 62
250
  6
CONTINUOUS
 90
10
 70
0
 10
-2.6551483014
 20
-19.9916449844
 10
-2.6288797134
 20
-19.9731126913
 10
-2.5989998607
 20
-19.9453525883
 10
-2.5727488521
 20
-19.912768747
 10
-2.5503263966
 20
-19.8756090537
 10
-2.5319030766
 20
-19.8341562062
 10
-2.5176190506
 20
-19.7887255633
 10
-2.5075829867
 20
-19.7396627452
 10
-2.5018712361
 20
-19.6873410048
 10
-2.5005272521
 20
-19.6321583876
  0
LINE
  5
5B5
100
AcDbEntity
  8
RACCORDO
100
AcDbLine
 62
250
  6
CONTINUOUS
 10
-3.2173194997
 20
-21.8388822611
 11
-3.2389360925
 21
-21.8540293922
  0
LWPOLYLINE
  5
5B6
100
AcDbEntity
  8
RACCORDO
100
AcDbPolyline
 62
250
  6
CONTINUOUS
 90
11
 70
0
 10
-2.5005272521
 20
-19.6321583876
 10
-2.5261715857
 20
-19.6492286576
 10
-2.5517853184
 20
-19.6693794196
 10
-2.5773684499
 20
-19.6926106736
 10
-2.6030138965
 20
-19.7188930753
 10
-2.6286287421
 20
-19.7482559691
 10
-2.6539342383
 20
-19.7807873878
 10
-2.6790022766
 20
-19.8166757577
 10
-2.7037609654
 20
-19.8557326525
 10
-2.7277158821
 20
-19.8974808273
 10
-2.7508306647
 20
-19.9418985646
  0
LWPOLYLINE
  5
5B7
100
AcDbEntity
  8
RACCORDO
100
AcDbPolyline
 62
250
  6
CONTINUOUS
 90
9
 70
0
 10
-2.9101105798
 20
-20.7750296874
 10
-2.8897243562
 20
-20.7615048875
 10
-2.8718687262
 20
-20.7468357852
 10
-2.8567350005
 20
-20.7311795499
 10
-2.8444853266
 20
-20.7147039273
 10
-2.8352509512
 20
-20.6975854424
 10
-2.8291308144
 20
-20.6800075078
 10
-2.8261904892
 20
-20.6621584589
 10
-2.8259130263
 20
-20.655021857
  0
LINE
  5
5B8
100
AcDbEntity
  8
RACCORDO
100
AcDbLine
 62
250
  6
CONTINUOUS
 10
6.6847236205
 20
-13.9518614664
 11
-2.5005272521
 21
-19.6321583876
  0
LINE
  5
5B9
100
AcDbEntity
  8
RACCORDO
100
AcDbLine
 62
7
  6
CONTINUOUS
 10
6.5300242432
 20
-14.3113965211
 11
-2.6552266265
 21
-19.9916934405
  0
LINE
  5
5BA
100
AcDbEntity
  8
RACCORDO
100
AcDbLine
 62
250
  6
CONTINUOUS
 10
-9.65296078
 20
-25.0788004801
 11
-2.9101105798
 21
-20.997155676
  0
LINE
  5
5BB
100
AcDbEntity
  8
ASSI
100
AcDbLine
 62
250
  6
CONTINUOUS
 10
-11.5120932448
 20
13.914221236
 11
-8.9545215126
 21
14.630435551
  0
LINE
  5
5BC
100
AcDbEntity
  8
ASSI
100
AcDbLine
 62
7
  6
CONTINUOUS
 10
-11.6026283502
 20
13.927948404
 11
-9.0371995047
 21
14.6463630002
  0
LWPOLYLINE
  5
5BD
100
AcDbEntity
  8
ASSI
100
AcDbPolyline
 62
250
  6
CONTINUOUS
 90
13
 70
0
 10
-9.5961392217
 20
14.0942454642
 10
-9.5918983205
 20
14.0953944103
 10
-9.5877242263
 20
14.0966017742
 10
-9.5836169392
 20
14.097867556
 10
-9.5795878631
 20
14.0991843338
 10
-9.575625594
 20
14.1005595294
 10
-9.5716959202
 20
14.1020154085
 10
-9.5677901174
 20
14.1035507956
 10
-9.5639169098
 20
14.105166866
 10
-9.5600682584
 20
14.1068894116
 10
-9.5562414834
 20
14.1087270296
 10
-9.5524392646
 20
14.1106711227
 10
-9.548661602
 20
14.112721691
  0
LINE
  5
5BE
100
AcDbEntity
  8
ASSI
100
AcDbLine
 62
250
  6
CONTINUOUS
 10
-11.019944819
 20
13.4471432582
 11
-9.489411871
 21
13.8497047848
  0
LINE
  5
5BF
100
AcDbEntity
  8
ASSI
100
AcDbLine
 62
250
  6
CONTINUOUS
 10
-11.1266721697
 20
13.6916839377
 11
-9.5961392217
 21
14.0942454642
  0
LWPOLYLINE
  5
5C0
100
AcDbEntity
  8
RACCORDO
100
AcDbPolyline
 62
7
  6
CONTINUOUS
 90
9
 70
0
 10
-9.0371923622
 20
14.6463477542
 10
-9.0318204771
 20
14.6476318633
 10
-9.021737182
 20
14.6489737022
 10
-9.0112316431
 20
14.6490132467
 10
-9.0003002166
 20
14.6477704945
 10
-8.9891434369
 20
14.6452871758
 10
-8.9778281487
 20
14.6415772007
 10
-8.9662875073
 20
14.6366266591
 10
-8.9545215126
 20
14.630435551
  0
LWPOLYLINE
  5
5C1
100
AcDbEntity
  8
ASSI
100
AcDbPolyline
 62
250
  6
CONTINUOUS
 90
6
 70
0
 10
-11.6026283502
 20
13.927948404
 10
-11.5862219649
 20
13.931128568
 10
-11.5678509063
 20
13.9315629468
 10
-11.5491728356
 20
13.9288526063
 10
-11.5304871189
 20
13.9230409871
 10
-11.5120932448
 20
13.914221236
  0
LWPOLYLINE
  5
5C2
100
AcDbEntity
  8
RACCORDO
100
AcDbPolyline
 62
250
  6
CONTINUOUS
 90
18
 70
0
 10
-6.883093009
 20
14.5764638866
 10
-6.9814930563
 20
14.5631712481
 10
-7.0801284571
 20
14.5516321325
 10
-7.179180727
 20
14.5418100871
 10
-7.2785395971
 20
14.5336776795
 10
-7.3778640272
 20
14.5272154608
 10
-7.4774950575
 20
14.5224428799
 10
-7.5783455388
 20
14.5193908519
 10
-7.6801723291
 20
14.5179601017
 10
-7.7832185703
 20
14.5182499043
 10
-7.8891265395
 20
14.5205889999
 10
-7.9979493402
 20
14.5248280525
 10
-8.1096338687
 20
14.5311163981
 10
-8.2256630916
 20
14.5402307858
 10
-8.3464537564
 20
14.5520552743
 10
-8.4715891155
 20
14.5667058048
 10
-8.601301893
 20
14.58530695
 10
-8.7362254963
 20
14.6078736431
  0
LWPOLYLINE
  5
5C3
100
AcDbEntity
  8
ASSI
100
AcDbPolyline
 62
250
  6
CONTINUOUS
 90
3
 70
0
 10
-20.2741650852
 20
13.9272398849
 10
-20.2662009523
 20
13.9282449579
 10
-20.258619313
 20
13.928961766
  0
LWPOLYLINE
  5
5C4
100
AcDbEntity
  8
ASSI
100
AcDbPolyline
 62
250
  6
CONTINUOUS
 90
7
 70
0
 10
-18.3073359125
 20
14.0337353471
 10
-18.2642700167
 20
14.0374521329
 10
-18.2194640945
 20
14.0439665619
 10
-18.1729791914
 20
14.0533942979
 10
-18.1250134255
 20
14.06582174
 10
-18.0755235502
 20
14.0813612061
 10
-18.024212695
 20
14.1002200961
  0
LWPOLYLINE
  5
5C5
100
AcDbEntity
  8
ASSI
100
AcDbPolyline
 62
7
  6
CONTINUOUS
 90
7
 70
0
 10
-20.322116733
 20
13.9466164044
 10
-20.338607471
 20
13.9453192513
 10
-20.3754342145
 20
13.9395706393
 10
-20.4136535475
 20
13.929522
 10
-20.4514887886
 20
13.91551722
 10
-20.4883701662
 20
13.8979529248
 10
-20.4981420116
 20
13.8926421161
  0
LINE
  5
5C6
100
AcDbEntity
  8
ASSI
100
AcDbLine
 62
250
  6
CONTINUOUS
 10
-20.258619313
 20
13.928961766
 11
-20.2514155843
 21
13.9294191159
  0
LWPOLYLINE
  5
5C7
100
AcDbEntity
  8
RACCORDO
100
AcDbPolyline
 62
250
  6
CONTINUOUS
 90
16
 70
0
 10
-18.5641429435
 20
14.392978956
 10
-18.5762601279
 20
14.3923040321
 10
-18.588475703
 20
14.3918272908
 10
-18.6007532197
 20
14.3915545582
 10
-18.6130926914
 20
14.3914865825
 10
-18.6254941047
 20
14.3916226154
 10
-18.6379209709
 20
14.3919662375
 10
-18.6503733689
 20
14.3925182371
 10
-18.6628512198
 20
14.3932778259
 10
-18.675317798
 20
14.3942462206
 10
-18.6877731792
 20
14.3954243022
 10
-18.7002172876
 20
14.3968111898
 10
-18.7126131708
 20
14.3984054572
 10
-18.7249529688
 20
14.4002062024
 10
-18.7372445416
 20
14.4022143274
 10
-18.7494745163
 20
14.404431113
  0
LINE
  5
5C8
100
AcDbEntity
  8
ASSI
100
AcDbLine
 62
250
  6
CONTINUOUS
 10
-20.2514155843
 20
13.9294191159
 11
-18.307298761
 21
14.0337138963
  0
LINE
  5
5C9
100
AcDbEntity
  8
ASSI
100
AcDbLine
 62
7
  6
CONTINUOUS
 10
-20.3221167331
 20
13.9466164044
 11
-18.3777848565
 21
14.0509229218
  0
LINE
  5
5CA
100
AcDbEntity
  8
ASSI
100
AcDbLine
 62
7
  6
CONTINUOUS
 10
-18.3777848565
 20
14.0509229218
 11
-18.3776444491
 21
14.0509303726
  0
LWPOLYLINE
  5
5CB
100
AcDbEntity
  8
ASSI
100
AcDbPolyline
 62
250
  6
CONTINUOUS
 90
16
 70
0
 10
-19.4601274691
 20
13.7478077265
 10
-19.4973098287
 20
13.7459329743
 10
-19.531015869
 20
13.742745851
 10
-19.56124559
 20
13.7382463567
 10
-19.5879177333
 20
13.7323945882
 10
-19.6111135573
 20
13.7252304485
 10
-19.6310768366
 20
13.7168736469
 10
-19.6479391864
 20
13.7074085208
 10
-19.6615689915
 20
13.6967507326
 10
-19.6718151809
 20
13.6847669789
 10
-19.6788108662
 20
13.6713592241
 10
-19.6824229357
 20
13.6566255038
 10
-19.6821009839
 20
13.6407266212
 10
-19.6776615423
 20
13.6237161775
 10
-19.6692880794
 20
13.6055405715
 10
-19.6569805952
 20
13.5861998032
  0
LWPOLYLINE
  5
5CC
100
AcDbEntity
  8
ASSI
100
AcDbPolyline
 62
250
  6
CONTINUOUS
 90
10
 70
0
 10
-16.6690461535
 20
13.4534444744
 10
-16.6837302033
 20
13.4527246167
 10
-16.6989462224
 20
13.4510492936
 10
-16.714680778
 20
13.4483640732
 10
-16.7308370777
 20
13.4446411972
 10
-16.7474706424
 20
13.4398142409
 10
-16.7647984655
 20
13.4337270804
 10
-16.7828766317
 20
13.4262448092
 10
-16.8015901521
 20
13.4173063697
 10
-16.8208946983
 20
13.4068240756
  0
LWPOLYLINE
  5
5CD
100
AcDbEntity
  8
ASSI
100
AcDbPolyline
 62
250
  6
CONTINUOUS
 90
10
 70
0
 10
-16.750506449
 20
13.708944871
 10
-16.7709190036
 20
13.7079530732
 10
-16.7920472708
 20
13.7054852837
 10
-16.8138912504
 20
13.7015415026
 10
-16.8363717888
 20
13.6962612853
 10
-16.8595680396
 20
13.6895050764
 10
-16.8837174642
 20
13.6808542094
 10
-16.9088992162
 20
13.6701691289
 10
-16.935034142
 20
13.6575893904
 10
-16.9621222415
 20
13.6431149939
  0
LINE
  5
5CE
100
AcDbEntity
  8
ASSI
100
AcDbLine
 62
250
  6
CONTINUOUS
 10
-17.7971076928
 20
13.5306697247
 11
-19.3786671737
 21
13.4923073299
  0
LINE
  5
5CF
100
AcDbEntity
  8
RACCORDO
100
AcDbLine
 62
250
  6
CONTINUOUS
 10
-16.750506449
 20
13.708944871
 11
-15.9121868665
 21
13.7292791975
  0
LINE
  5
5D0
100
AcDbEntity
  8
ASSI
100
AcDbLine
 62
250
  6
CONTINUOUS
 10
-17.8785679882
 20
13.7861701213
 11
-19.4601274691
 21
13.7478077265
  0
LWPOLYLINE
  5
5D1
100
AcDbEntity
  8
ASSI
100
AcDbPolyline
 62
250
  6
CONTINUOUS
 90
7
 70
0
 10
-16.0942040234
 20
15.3595612421
 10
-16.1006173574
 20
15.3594336831
 10
-16.1074309057
 20
15.3571678497
 10
-16.1145700181
 20
15.3527885665
 10
-16.1219564769
 20
15.3463438136
 10
-16.1295093546
 20
15.3379042008
 10
-16.1371459002
 20
15.327562194
  0
LWPOLYLINE
  5
5D2
100
AcDbEntity
  8
ASSI
100
AcDbPolyline
 62
250
  6
CONTINUOUS
 90
6
 70
0
 10
-18.3776444491
 20
14.0509303726
 10
-18.3681826956
 20
14.0510579766
 10
-18.3526005113
 20
14.0496628855
 10
-18.3371581273
 20
14.0462821962
 10
-18.3220113641
 20
14.0409483052
 10
-18.3073121314
 20
14.033713179
  0
LWPOLYLINE
  5
5D3
100
AcDbEntity
  8
ASSI
100
AcDbPolyline
 62
250
  6
CONTINUOUS
 90
5
 70
0
 10
-20.3218966985
 20
13.9466284087
 10
-20.3077354567
 20
13.9465623871
 10
-20.2885197412
 20
13.9438276921
 10
-20.2696503369
 20
13.9380840123
 10
-20.2514155843
 20
13.9294191159
  0
LWPOLYLINE
  5
5D4
100
AcDbEntity
  8
ASSI
100
AcDbPolyline
 62
250
  6
CONTINUOUS
 90
23
 70
0
 10
-16.1921557872
 20
15.3366301359
 10
-16.2200391832
 20
15.3388452099
 10
-16.2484287624
 20
15.3395071394
 10
-16.277067599
 20
15.3386227232
 10
-16.3051849156
 20
15.336212358
 10
-16.3327615339
 20
15.3322363077
 10
-16.3598166323
 20
15.3267343083
 10
-16.3856369686
 20
15.3198459643
 10
-16.4101978927
 20
15.311531663
 10
-16.4335240546
 20
15.3018310169
 10
-16.4549761622
 20
15.2910024684
 10
-16.4745021233
 20
15.2790119218
 10
-16.4921540301
 20
15.2658934726
 10
-16.5074488663
 20
15.2520078501
 10
-16.5203164839
 20
15.2373372856
 10
-16.5308270311
 20
15.2218995477
 10
-16.5387079361
 20
15.2061086716
 10
-16.5438890124
 20
15.1899562197
 10
-16.5464404466
 20
15.1734506297
 10
-16.5463002264
 20
15.1570312495
 10
-16.5434476811
 20
15.1408445284
 10
-16.5379034815
 20
15.124744017
 10
-16.5296676275
 20
15.1087297154
  0
LWPOLYLINE
  5
5D5
100
AcDbEntity
  8
ASSI
100
AcDbPolyline
 62
250
  6
CONTINUOUS
 90
3
 70
0
 10
-16.0262672936
 20
15.3124151189
 10
-16.0636931027
 20
15.3153902244
 10
-16.1006495938
 20
15.3204388351
  0
LWPOLYLINE
  5
5D6
100
AcDbEntity
  8
ASSI
100
AcDbPolyline
 62
250
  6
CONTINUOUS
 90
3
 70
0
 10
-13.3755324642
 20
16.2701884955
 10
-13.3936257546
 20
16.2730571011
 10
-13.4114544722
 20
16.2729368053
  0
LWPOLYLINE
  5
5D7
100
AcDbEntity
  8
RACCORDO
100
AcDbPolyline
 62
7
  6
CONTINUOUS
 90
10
 70
0
 10
-6.0241038166
 20
16.3571485751
 10
-6.0322606687
 20
16.359512534
 10
-6.0415698808
 20
16.3610241674
 10
-6.0513400945
 20
16.3614336472
 10
-6.0616662899
 20
16.3607307619
 10
-6.0724534871
 20
16.358925723
 10
-6.083416746
 20
16.3560491654
 10
-6.0944610867
 20
16.3521113009
 10
-6.1056814892
 20
16.3471019177
 10
-6.1170779535
 20
16.3410210159
  0
LWPOLYLINE
  5
5D8
100
AcDbEntity
  8
RACCORDO
100
AcDbPolyline
 62
7
  6
CONTINUOUS
 90
22
 70
0
 10
-6.0241046624
 20
16.3571468779
 10
-6.1430149926
 20
16.3966044695
 10
-6.2651881423
 20
16.4322912233
 10
-6.3900992064
 20
16.4640741013
 10
-6.5174135292
 20
16.4918968666
 10
-6.6468058145
 20
16.5157137527
 10
-6.7779550004
 20
16.5354866321
 10
-6.9105120482
 20
16.5511806842
 10
-7.044143053
 20
16.5627716046
 10
-7.1785408268
 20
16.5702434159
 10
-7.3133575553
 20
16.5735835946
 10
-7.4482499498
 20
16.5727882924
 10
-7.5829154607
 20
16.5678597277
 10
-7.7170124989
 20
16.5588065548
 10
-7.8501932605
 20
16.5456462386
 10
-7.9821492415
 20
16.5283995619
 10
-8.112539226
 20
16.5070974408
 10
-8.2410272096
 20
16.481778484
 10
-8.3673213752
 20
16.4524788529
 10
-8.4911073963
 20
16.4192438109
 10
-8.612044428
 20
16.3821334406
 10
-8.7298084284
 20
16.3412126716
  0
LWPOLYLINE
  5
5D9
100
AcDbEntity
  8
RACCORDO
100
AcDbPolyline
 62
250
  6
CONTINUOUS
 90
10
 70
0
 10
6.5092517802
 20
11.9057273356
 10
6.4736132707
 20
11.9229228273
 10
6.4353107191
 20
11.9349256077
 10
6.3946243574
 20
11.9416481548
 10
6.3518158591
 20
11.943040513
 10
6.3072314085
 20
11.9390850295
 10
6.261312687
 20
11.9298403045
 10
6.2144429892
 20
11.915426972
 10
6.1669313214
 20
11.8959823837
 10
6.1191243522
 20
11.8716840522
  0
LWPOLYLINE
  5
5DA
100
AcDbEntity
  8
RACCORDO
100
AcDbPolyline
 62
250
  6
CONTINUOUS
 90
13
 70
0
 10
5.9129355811
 20
12.250032836
 10
5.8895634696
 20
12.2613120357
 10
5.8648372172
 20
12.2692347615
 10
5.8390466875
 20
12.2740676952
 10
5.8127659226
 20
12.2760846887
 10
5.7859508073
 20
12.2756370394
 10
5.7578228834
 20
12.2728316265
 10
5.7286263622
 20
12.2676558362
 10
5.6983430809
 20
12.2601598103
 10
5.6656186042
 20
12.2499350824
 10
5.6300207379
 20
12.2364902968
 10
5.5921343008
 20
12.2196322938
 10
2.3152003712
 20
10.5192938135
  0
LWPOLYLINE
  5
5DB
100
AcDbEntity
  8
RACCORDO
100
AcDbPolyline
 62
250
  6
CONTINUOUS
 90
13
 70
0
 10
-1.8652443723
 20
16.741056457
 10
-1.8886143425
 20
16.7523338439
 10
-1.9133387498
 20
16.7602556283
 10
-1.9391279055
 20
16.7650882218
 10
-1.9654081648
 20
16.7671052124
 10
-1.9922235233
 20
16.7666575908
 10
-2.0203517097
 20
16.7638521531
 10
-2.0495482309
 20
16.7586763628
 10
-2.0798315121
 20
16.7511803369
 10
-2.1125559888
 20
16.740955609
 10
-2.1481538552
 20
16.7275108234
 10
-2.1860402923
 20
16.7106528204
 10
-5.4629742218
 20
15.0103143401
  0
LWPOLYLINE
  5
5DC
100
AcDbEntity
  8
RACCORDO
100
AcDbPolyline
 62
7
  6
CONTINUOUS
 90
17
 70
0
 10
5.9120052535
 20
12.2505685682
 10
5.8958748413
 20
12.259462236
 10
5.8512178937
 20
12.280437752
 10
5.8073124523
 20
12.2963539922
 10
5.7645007472
 20
12.3078304598
 10
5.7224710746
 20
12.3155066965
 10
5.6814433323
 20
12.3197597311
 10
5.6417257994
 20
12.3209499521
 10
5.6028982472
 20
12.3194100499
 10
5.5648751986
 20
12.3153703554
 10
5.5277953193
 20
12.3090648049
 10
5.4913452174
 20
12.3006321884
 10
5.4553463231
 20
12.2901813563
 10
5.419559886
 20
12.2777719665
 10
5.3833521513
 20
12.263247947
 10
5.3462935754
 20
12.2464444835
 10
5.3154816817
 20
12.2310673916
  0
LWPOLYLINE
  5
5DD
100
AcDbEntity
  8
RACCORDO
100
AcDbPolyline
 62
7
  6
CONTINUOUS
 90
17
 70
0
 10
-1.8661693396
 20
16.7415890948
 10
-1.8822997518
 20
16.7504827626
 10
-1.9269566994
 20
16.7714582786
 10
-1.9708621408
 20
16.7873745188
 10
-2.0136738458
 20
16.7988509864
 10
-2.0557035184
 20
16.8065272231
 10
-2.0967312607
 20
16.8107802577
 10
-2.1364487937
 20
16.8119704787
 10
-2.1752763458
 20
16.8104305765
 10
-2.2132993945
 20
16.806390882
 10
-2.2503792738
 20
16.8000853315
 10
-2.2868293757
 20
16.791652715
 10
-2.3228282699
 20
16.7812018829
 10
-2.358614707
 20
16.7687924931
 10
-2.3948224418
 20
16.7542684736
 10
-2.4318810177
 20
16.7374650101
 10
-2.4626929114
 20
16.7220879182
  0
LWPOLYLINE
  5
5DE
100
AcDbEntity
  8
RACCORDO
100
AcDbPolyline
 62
250
  6
CONTINUOUS
 90
10
 70
0
 10
-2.2260738597
 20
16.6900969098
 10
-2.25580044
 20
16.7069012576
 10
-2.2853479515
 20
16.7204479478
 10
-2.3144917813
 20
16.7306340015
 10
-2.343010385
 20
16.7373819869
 10
-2.3706869709
 20
16.7406406074
 10
-2.3973111484
 20
16.7403850918
 10
-2.4226805269
 20
16.7366173823
 10
-2.4466022544
 20
16.7293661204
 10
-2.4625529569
 20
16.7221606345
  0
LINE
  5
5DF
100
AcDbEntity
  8
RACCORDO
100
AcDbLine
 62
7
  6
CONTINUOUS
 10
1.5277890876
 20
14.7820190578
 11
8.9314717554
 21
10.5074429902
  0
LINE
  5
5E0
100
AcDbEntity
  8
RACCORDO
100
AcDbLine
 62
250
  6
CONTINUOUS
 10
-7.406126494
 20
19.9402923505
 11
-7.4061630122
 21
19.9403134337
  0
LINE
  5
5E1
100
AcDbEntity
  8
RACCORDO
100
AcDbLine
 62
7
  6
CONTINUOUS
 10
-7.406126494
 20
19.9402923505
 11
1.5277890876
 21
14.7820190578
  0
LINE
  5
5E2
100
AcDbEntity
  8
0
100
AcDbLine
 62
7
  6
CONTINUOUS
 10
-3.8222192764
 20
18.1020436709
 11
-1.0293962969
 21
16.4896421791
  0
LINE
  5
5E3
100
AcDbEntity
  8
RACCORDO
100
AcDbLine
 62
7
  6
CONTINUOUS
 10
8.9314715164
 20
10.5074431281
 11
8.9318417532
 21
10.5072291626
  0
LWPOLYLINE
  5
5E4
100
AcDbEntity
  8
RACCORDO
100
AcDbPolyline
 62
250
  6
CONTINUOUS
 90
19
 70
0
 10
8.9318417532
 20
10.5072291626
 10
8.9775143852
 20
10.4777141883
 10
9.0217644852
 20
10.4426823898
 10
9.0638727089
 20
10.4025088522
 10
9.1035165039
 20
10.3573869368
 10
9.1403645037
 20
10.307560473
 10
9.1740771868
 20
10.2533210472
 10
9.204385853
 20
10.1949883926
 10
9.2310316783
 20
10.1329011639
 10
9.2537088667
 20
10.067421351
 10
9.2722494678
 20
9.9988803468
 10
9.2864266214
 20
9.9277920463
 10
9.2959011738
 20
9.8548386251
 10
9.3006199928
 20
9.7804807006
 10
9.3005213857
 20
9.7052875169
 10
9.2953798491
 20
9.6301401516
 10
9.2852175648
 20
9.5556976763
 10
9.2702585842
 20
9.4823942367
 10
9.2506877438
 20
9.4107732948
  0
LWPOLYLINE
  5
5E5
100
AcDbEntity
  8
RACCORDO
100
AcDbPolyline
 62
7
  6
CONTINUOUS
 90
10
 70
0
 10
-13.0177576148
 20
-31.061724217
 10
-12.9980488633
 20
-31.0485389136
 10
-12.9753359248
 20
-31.0292496111
 10
-12.9550961935
 20
-31.0070663077
 10
-12.9377266646
 20
-30.9823850915
 10
-12.9234940124
 20
-30.9556083064
 10
-12.91255399
 20
-30.9270860621
 10
-12.9050324874
 20
-30.8972863611
 10
-12.9009489557
 20
-30.8666299954
 10
-12.9001063563
 20
-30.8445821412
  0
LWPOLYLINE
  5
5E6
100
AcDbEntity
  8
RACCORDO
100
AcDbPolyline
 62
250
  6
CONTINUOUS
 90
7
 70
0
 10
-12.9586849821
 20
-30.926188039
 10
-12.94143567
 20
-30.9148313671
 10
-12.9269012572
 20
-30.9022718717
 10
-12.9153304315
 20
-30.8887244494
 10
-12.9069211728
 20
-30.8744209001
 10
-12.9018173659
 20
-30.8596059617
 10
-12.9001063563
 20
-30.8445821412
  0
LWPOLYLINE
  5
5E7
100
AcDbEntity
  8
RACCORDO
100
AcDbPolyline
 62
7
  6
CONTINUOUS
 90
6
 70
0
 10
-11.0017881077
 20
-26.6832120047
 10
-10.7556243844
 20
-26.5273132006
 10
-10.5141533184
 20
-26.3638061652
 10
-10.2774525477
 20
-26.1927400499
 10
-10.0454444343
 20
-26.0140657032
 10
-9.8181289782
 20
-25.8277831251
  0
LWPOLYLINE
  5
5E8
100
AcDbEntity
  8
RACCORDO
100
AcDbPolyline
 62
7
  6
CONTINUOUS
 90
10
 70
0
 10
-4.269697305
 20
-22.5768990173
 10
-4.1483999428
 20
-22.5021278787
 10
-4.0281730638
 20
-22.4255363291
 10
-3.9090264415
 20
-22.3471300595
 10
-3.7909715864
 20
-22.2669161753
 10
-3.6740162007
 20
-22.1848994472
 10
-3.5581643412
 20
-22.1010820225
 10
-3.4434237497
 20
-22.0154685643
 10
-3.3298056889
 20
-21.9280665395
 10
-3.2173194997
 20
-21.8388822611
  0
LWPOLYLINE
  5
5E9
100
AcDbEntity
  8
RACCORDO
100
AcDbPolyline
 62
250
  6
CONTINUOUS
 90
21
 70
0
 10
-13.0177587493
 20
-31.0617252015
 10
-13.0161223317
 20
-31.0607243606
 10
-13.0099721975
 20
-31.0565466706
 10
-13.0043256682
 20
-31.0520653563
 10
-12.9991511804
 20
-31.0473266399
 10
-12.9943584362
 20
-31.0423041604
 10
-12.9899373192
 20
-31.0370306901
 10
-12.985876102
 20
-31.0315373354
 10
-12.9821052006
 20
-31.0257605824
 10
-12.9786243546
 20
-31.01971544
 10
-12.9754325107
 20
-31.0134166691
 10
-12.9724834081
 20
-31.0067707298
 10
-12.9697885314
 20
-30.9997795776
 10
-12.967358937
 20
-30.9924453475
 10
-12.9651743982
 20
-30.9846486823
 10
-12.9632606436
 20
-30.9763820992
 10
-12.9616434526
 20
-30.9676382303
 10
-12.9603330483
 20
-30.9582746259
 10
-12.9593694502
 20
-30.9482295166
 10
-12.958804799
 20
-30.937536391
 10
-12.9586849821
 20
-30.926188039
  0
LINE
  5
5EA
100
AcDbEntity
  8
RACCORDO
100
AcDbLine
 62
7
  6
CONTINUOUS
 10
-11.035700671
 20
-26.7038739616
 11
-11.0017881077
 21
-26.6832120047
  0
LINE
  5
5EB
100
AcDbEntity
  8
SUPERFICI
100
AcDbLine
 62
7
  6
CONTINUOUS
 10
-4.269697305
 20
-22.5768990173
 11
-10.5038212358
 21
-26.3563390614
  0
LINE
  5
5EC
100
AcDbEntity
  8
ASSI
100
AcDbLine
 62
7
  6
CONTINUOUS
 10
-11.0357313648
 20
-26.7038925698
 11
-13.8602461281
 21
-28.4162557374
  0
LINE
  5
5ED
100
AcDbEntity
  8
RACCORDO
100
AcDbLine
 62
250
  6
CONTINUOUS
 10
-13.8602461281
 20
-28.0119202224
 11
-9.6916610096
 21
-25.4892087987
  0
LINE
  5
5EE
100
AcDbEntity
  8
RACCORDO
100
AcDbLine
 62
250
  6
CONTINUOUS
 10
-13.8602461281
 20
-28.2738485408
 11
-9.8181289782
 21
-25.8277831251
  0
LINE
  5
5EF
100
AcDbEntity
  8
RACCORDO
100
AcDbLine
 62
250
  6
CONTINUOUS
 10
-9.857379341
 20
-25.8599483765
 11
-3.2389360925
 21
-21.8540293922
  0
LWPOLYLINE
  5
5F0
100
AcDbEntity
  8
RACCORDO
100
AcDbPolyline
 62
7
  6
CONTINUOUS
 90
9
 70
0
 10
-13.1505645873
 20
-27.8619041415
 10
-13.1343272098
 20
-27.852373299
 10
-13.1199125586
 20
-27.8442432756
 10
-13.1075509064
 20
-27.8376470329
 10
-13.0974257689
 20
-27.8327147001
 10
-13.0897065123
 20
-27.8295199164
 10
-13.0845420437
 20
-27.828076188
 10
-13.0819967523
 20
-27.8284335163
 10
-13.081856297
 20
-27.8286197009
  0
LINE
  5
5F1
100
AcDbEntity
  8
0
100
AcDbLine
 62
7
  6
CONTINUOUS
 10
-13.4657370028
 20
-28.8343877225
 11
-13.8602461281
 21
-29.0542211248
  0
LINE
  5
5F2
100
AcDbEntity
  8
0
100
AcDbLine
 62
7
  6
CONTINUOUS
 10
-13.8526880645
 20
-28.6109670291
 11
-13.8602461281
 21
-28.6151170725
  0
LWPOLYLINE
  5
5F3
100
AcDbEntity
  8
SUPERFICI
100
AcDbPolyline
 62
7
  6
CONTINUOUS
 90
10
 70
0
 10
-13.4657370028
 20
-28.8343877225
 10
-13.4480182008
 20
-28.8254004231
 10
-13.4306792193
 20
-28.8182434894
 10
-13.4137200583
 20
-28.8129169213
 10
-13.3970302906
 20
-28.8094093635
 10
-13.3807203435
 20
-28.8077321713
 10
-13.3651214984
 20
-28.8079194114
 10
-13.3503441826
 20
-28.8099824391
 10
-13.3362779688
 20
-28.8139098991
 10
-13.3229228571
 20
-28.8197017912
  0
LWPOLYLINE
  5
5F4
100
AcDbEntity
  8
ASSI
100
AcDbPolyline
 62
250
  6
CONTINUOUS
 90
12
 70
0
 10
-14.8521701703
 20
15.8427397918
 10
-14.8592050038
 20
15.84074691
 10
-14.8663055789
 20
15.8385627995
 10
-14.8734691726
 20
15.8361866556
 10
-14.8806568747
 20
15.8336307788
 10
-14.8879016885
 20
15.8308834138
 10
-14.8953098025
 20
15.8278994005
 10
-14.9028884006
 20
15.8246653363
 10
-14.9106258538
 20
15.8211764023
 10
-14.9186013031
 20
15.8173856296
 10
-14.926839257
 20
15.8132643844
 10
-14.9353089378
 20
15.8088094842
  0
LWPOLYLINE
  5
5F5
100
AcDbEntity
  8
ASSI
100
AcDbPolyline
 62
250
  6
CONTINUOUS
 90
13
 70
0
 10
-14.4667490951
 20
15.6202024934
 10
-14.4738896373
 20
15.6182468712
 10
-14.4810734102
 20
15.6160943649
 10
-14.4882975236
 20
15.6137449729
 10
-14.4955195837
 20
15.6112132784
 10
-14.5027757929
 20
15.60848702
 10
-14.5101823452
 20
15.6055168226
 10
-14.5177492665
 20
15.6022887509
 10
-14.525462144
 20
15.5987983205
 10
-14.5334018282
 20
15.5949944529
 10
-14.5415934327
 20
15.5908466867
 10
-14.5500056424
 20
15.5863527015
 10
-14.5586342612
 20
15.5814968714
  0
LINE
  5
5F6
100
AcDbEntity
  8
ASSI
100
AcDbLine
 62
250
  6
CONTINUOUS
 10
-13.3396544328
 20
16.2557042299
 11
-14.8521701703
 21
15.8427397918
  0
LINE
  5
5F7
100
AcDbEntity
  8
ASSI
100
AcDbLine
 62
7
  6
CONTINUOUS
 10
-13.4289350853
 20
16.269778293
 11
-14.9414508228
 21
15.8568138549
  0
LWPOLYLINE
  5
5F8
100
AcDbEntity
  8
ASSI
100
AcDbPolyline
 62
250
  6
CONTINUOUS
 90
13
 70
0
 10
-14.3621240923
 20
15.3683418371
 10
-14.3664342679
 20
15.3671816064
 10
-14.37076502
 20
15.3659022658
 10
-14.3751163486
 20
15.3645038152
 10
-14.3794660493
 20
15.3629978781
 10
-14.3838363266
 20
15.3613728309
 10
-14.3882937935
 20
15.3595938036
 10
-14.3928456945
 20
15.357664371
 10
-14.397484785
 20
15.3555809583
 10
-14.4022559446
 20
15.3532979697
 10
-14.4071741333
 20
15.3508002067
 10
-14.4122243911
 20
15.3481028678
 10
-14.417406718
 20
15.3452059531
  0
LINE
  5
5F9
100
AcDbEntity
  8
ASSI
100
AcDbLine
 62
250
  6
CONTINUOUS
 10
-13.3344941851
 20
16.2570481206
 11
-13.3396544328
 21
16.2557042299
  0
LINE
  5
5FA
100
AcDbEntity
  8
RACCORDO
100
AcDbLine
 62
250
  6
CONTINUOUS
 10
-20.3360833062
 20
15.0401389575
 11
-20.2871273649
 21
15.0528609316
  0
LINE
  5
5FB
100
AcDbEntity
  8
RACCORDO
100
AcDbLine
 62
250
  6
CONTINUOUS
 10
-12.0448391887
 20
15.9622372774
 11
-14.3621240923
 21
15.3683418371
  0
LINE
  5
5FC
100
AcDbEntity
  8
ASSI
100
AcDbLine
 62
250
  6
CONTINUOUS
 10
-11.8363242879
 20
16.2943523559
 11
-14.4667490951
 21
15.6202024934
  0
LINE
  5
5FD
100
AcDbEntity
  8
ASSI
100
AcDbLine
 62
250
  6
CONTINUOUS
 10
-13.4114544722
 20
16.2729368053
 11
-13.4289350853
 21
16.269778293
  0
LWPOLYLINE
  5
5FE
100
AcDbEntity
  8
RACCORDO
100
AcDbPolyline
 62
250
  6
CONTINUOUS
 90
11
 70
0
 10
-20.2871273649
 20
15.0528609316
 10
-20.2361423656
 20
15.060856215
 10
-20.1832266507
 20
15.0641055943
 10
-20.1286705771
 20
15.0625872346
 10
-20.0729826092
 20
15.0563616425
 10
-20.0163937663
 20
15.0455387164
 10
-19.9591264026
 20
15.0302404788
 10
-19.9017086871
 20
15.010715548
 10
-19.8444665709
 20
14.9872262004
 10
-19.7875084522
 20
14.9599683486
 10
-19.7310316382
 20
14.9291734378
  0
LWPOLYLINE
  5
5FF
100
AcDbEntity
  8
ASSI
100
AcDbPolyline
 62
250
  6
CONTINUOUS
 90
5
 70
0
 10
-15.8739288122
 20
15.3213373197
 10
-15.9111739589
 20
15.3159308333
 10
-15.9491980249
 20
15.3126874791
 10
-15.9879673182
 20
15.3115145464
 10
-16.0262672936
 20
15.3124151189
  0
LWPOLYLINE
  5
600
100
AcDbEntity
  8
ASSI
100
AcDbPolyline
 62
7
  6
CONTINUOUS
 90
6
 70
0
 10
-13.3335803115
 20
16.2866098993
 10
-13.3440019291
 20
16.2855601444
 10
-13.3695389852
 20
16.2822349964
 10
-13.394604453
 20
16.2778448419
 10
-13.4192094724
 20
16.2723243112
 10
-13.4289964
 20
16.2697615314
  0
LWPOLYLINE
  5
601
100
AcDbEntity
  8
ASSI
100
AcDbPolyline
 62
250
  6
CONTINUOUS
 90
12
 70
0
 10
-13.2785678525
 20
16.2663228133
 10
-13.2838215964
 20
16.2658056112
 10
-13.2890149422
 20
16.2652308482
 10
-13.2941478899
 20
16.2645985246
 10
-13.2991984114
 20
16.2639139061
 10
-13.3041885348
 20
16.2631717268
 10
-13.3091843438
 20
16.2623561889
 10
-13.3141988418
 20
16.2614689375
 10
-13.3192190255
 20
16.2605083275
 10
-13.3242719691
 20
16.2594536251
 10
-13.3293666971
 20
16.258297919
 10
-13.3344941851
 20
16.2570481206
  0
LINE
  5
602
100
AcDbEntity
  8
ASSI
100
AcDbLine
 62
250
  6
CONTINUOUS
 10
-11.9938080193
 20
16.3852814887
 11
-13.2785678525
 21
16.2663228133
  0
LINE
  5
603
100
AcDbEntity
  8
ASSI
100
AcDbLine
 62
7
  6
CONTINUOUS
 10
-12.063576017
 20
16.4042023352
 11
-13.3336099461
 21
16.2866071629
  0
LINE
  5
604
100
AcDbEntity
  8
RACCORDO
100
AcDbLine
 62
250
  6
CONTINUOUS
 10
-12.9586849821
 20
-30.926188039
 11
-13.8602461281
 21
-31.4649088612
  0
LINE
  5
605
100
AcDbEntity
  8
RACCORDO
100
AcDbLine
 62
7
  6
CONTINUOUS
 10
-13.0177587493
 20
-31.0617252015
 11
-13.8602461281
 21
-31.5651469686
  0
LWPOLYLINE
  5
606
100
AcDbEntity
  8
RACCORDO
100
AcDbPolyline
 62
250
  6
CONTINUOUS
 90
11
 70
0
 10
-15.8513971123
 20
17.4828101068
 10
-15.79749929
 20
17.4927249019
 10
-15.7417199678
 20
17.4977271361
 10
-15.6841726793
 20
17.4978141086
 10
-15.6247584613
 20
17.4929574904
 10
-15.563690141
 20
17.483094924
 10
-15.5011728596
 20
17.4681826891
 10
-15.437077005
 20
17.4481013258
 10
-15.3715122726
 20
17.4227305754
 10
-15.3048427696
 20
17.3920360871
 10
-15.2373321208
 20
17.3559850935
  0
LINE
  5
607
100
AcDbEntity
  8
0
100
AcDbLine
 62
250
  6
CONTINUOUS
 10
-16.2642994051
 20
-36.1614267921
 11
-13.8602461281
 21
-34.9150312453
  0
LINE
  5
608
100
AcDbEntity
  8
0
100
AcDbLine
 62
7
  6
CONTINUOUS
 10
-16.3783400255
 20
-36.395904385
 11
-13.9703620154
 21
-35.1474740373
  0
LWPOLYLINE
  5
609
100
AcDbEntity
  8
0
100
AcDbPolyline
 62
250
  6
CONTINUOUS
 90
16
 70
0
 10
-16.2642994051
 20
-36.1614267921
 10
-16.303526378
 20
-36.1807991603
 10
-16.3460033465
 20
-36.1977331283
 10
-16.39127757
 20
-36.2120482401
 10
-16.4388719637
 20
-36.2235930903
 10
-16.4882742061
 20
-36.2322428763
 10
-16.5389404059
 20
-36.2379040199
 10
-16.5903186843
 20
-36.2405190551
 10
-16.6418726444
 20
-36.2400648162
 10
-16.6930698693
 20
-36.2365477044
 10
-16.7434349071
 20
-36.2299942623
 10
-16.7923595193
 20
-36.2204774016
 10
-16.8391460611
 20
-36.2081517892
 10
-16.883269827
 20
-36.1932011752
 10
-16.9243614249
 20
-36.1757985333
 10
-16.9620300836
 20
-36.1561530534
  0
ARC
  5
60A
100
AcDbEntity
  8
RACCORDO
100
AcDbCircle
 62
7
  6
CONTINUOUS
 10
-7.806126494
 20
19.2474720282
 40
0.8
100
AcDbArc
 50
60.0030199817
 51
118.2845005597
  0
ARC
  5
60B
100
AcDbEntity
  8
RACCORDO
100
AcDbCircle
 62
7
  6
CONTINUOUS
 10
6.1092517802
 20
-13.6309918368
 40
0.8
100
AcDbArc
 50
301.723716309
 51
330.5774656651
  0
ARC
  5
60C
100
AcDbEntity
  8
0
100
AcDbCircle
 62
7
  6
CONTINUOUS
 10
-16.608476693
 20
-35.9520157567
 40
0.5
100
AcDbArc
 50
239.9984015654
 51
297.4194204711
  0
ARC
  5
60D
100
AcDbEntity
  8
0
100
AcDbCircle
 62
7
  6
CONTINUOUS
 10
-31.4766908613
 20
-27.3672952384
 40
0.5
100
AcDbArc
 50
179.9840060021
 51
239.998401565
  0
ARC
  5
60E
100
AcDbEntity
  8
0
100
AcDbCircle
 62
7
  6
CONTINUOUS
 10
-31.4766908613
 20
14.7844770438
 40
0.5
100
AcDbArc
 50
122.599295423
 51
180.0013071272
  0
ARC
  5
60F
100
AcDbEntity
  8
ASSI
100
AcDbCircle
 62
7
  6
CONTINUOUS
 10
-13.504325904
 20
13.6370233827
 40
0.25
100
AcDbArc
 50
121.733268332
 51
141.921904304
  0
ARC
  5
610
100
AcDbEntity
  8
RACCORDO
100
AcDbCircle
 62
7
  6
CONTINUOUS
 10
-9.8509320431
 20
8.6907508994
 40
0.2
100
AcDbArc
 50
301.2425547428
 51
31.9325136808
  0
ARC
  5
611
100
AcDbEntity
  8
RACCORDO
100
AcDbCircle
 62
7
  6
CONTINUOUS
 10
-20.4151446253
 20
14.7903948436
 40
0.2
100
AcDbArc
 50
114.221267307
 51
118.7191233492
  0
ARC
  5
612
100
AcDbEntity
  8
ASSI
100
AcDbCircle
 62
7
  6
CONTINUOUS
 10
-20.5419261353
 20
13.6392513492
 40
0.2
100
AcDbArc
 50
119.0851069672
 51
154.7491247991
  0
ARC
  5
613
100
AcDbEntity
  8
ASSI
100
AcDbCircle
 62
7
  6
CONTINUOUS
 10
-24.7274523453
 20
14.5858274291
 40
0.2
100
AcDbArc
 50
59.9984015652
 51
118.2824903446
  0
ARC
  5
614
100
AcDbEntity
  8
ASSI
100
AcDbCircle
 62
7
  6
CONTINUOUS
 10
-14.0239056973
 20
8.036422752
 40
0.2
100
AcDbArc
 50
315.7312260649
 51
0.0244884557
  0
ARC
  5
615
100
AcDbEntity
  8
ASSI
100
AcDbCircle
 62
7
  6
CONTINUOUS
 10
-14.0239056973
 20
8.4057337416
 40
0.2
100
AcDbArc
 50
359.9837886302
 51
59.9984015652
  0
ARC
  5
616
100
AcDbEntity
  8
ASSI
100
AcDbCircle
 62
7
  6
CONTINUOUS
 10
-23.2002484796
 20
13.7040390574
 40
0.2
100
AcDbArc
 50
359.9895357921
 51
59.9984015652
  0
ARC
  5
617
100
AcDbEntity
  8
ASSI
100
AcDbCircle
 62
7
  6
CONTINUOUS
 10
-23.2002484796
 20
13.3347280679
 40
0.2
100
AcDbArc
 50
315.7300112916
 51
0.027209445
  0
ARC
  5
618
100
AcDbEntity
  8
ASSI
100
AcDbCircle
 62
7
  6
CONTINUOUS
 10
-15.5511095631
 20
9.2875221133
 40
0.2
100
AcDbArc
 50
59.9984015652
 51
118.2824903446
  0
ELLIPSE
  5
619
100
AcDbEntity
  8
0
100
AcDbEllipse
 62
7
  6
CONTINUOUS
 10
-14.2139207141
 20
-34.71054414
 30
0.0
 11
-0.2501834304
 21
0.4333025529
 31
0.0
 40
0.5769361983
 41
-3.1677535987
 42
-2.3565853618
  0
ELLIPSE
  5
61A
100
AcDbEntity
  8
0
100
AcDbEllipse
 62
7
  6
CONTINUOUS
 10
-14.2139207141
 20
7.582336318
 30
0.0
 11
-0.2500121049
 21
0.4330057129
 31
0.0
 40
0.5777274115
 41
-2.3559002616
 42
-0.7857891675
  0
ELLIPSE
  5
61B
100
AcDbEntity
  8
RACCORDO
100
AcDbEllipse
 62
7
  6
CONTINUOUS
 10
-13.1001063383
 20
2.6380431672
 30
0.0
 11
0.143107575
 21
0.2366201515
 31
0.0
 40
0.5904602253
 41
-1.5588007257
 42
-0.7734027151
  0
ELLIPSE
  5
61C
100
AcDbEntity
  8
DRAFT
100
AcDbEllipse
 62
7
  6
CONTINUOUS
 10
-23.5983232357
 20
-15.1842676146
 30
0.0
 11
-1.3763290134
 21
2.2665398572
 31
0.0
 40
0.5620244585
 41
0.202731693
 42
0.7733860515
  0
ELLIPSE
  5
61D
100
AcDbEntity
  8
0
100
AcDbEllipse
 62
7
  6
CONTINUOUS
 10
-29.2043420844
 20
16.2376177431
 30
0.0
 11
-0.2501834304
 21
0.4333025529
 31
0.0
 40
0.5769361983
 41
-0.7851038024
 42
0.0261609458
  0
ELLIPSE
  5
61E
100
AcDbEntity
  8
SUPERFICI
100
AcDbEllipse
 62
7
  6
CONTINUOUS
 10
-14.0685813945
 20
-28.735491928
 30
0.0
 11
0.3037200246
 21
0.1710449014
 31
0.0
 40
0.0105151745
 41
0.6673087948
 42
0.7742146559
  0
ELLIPSE
  5
61F
100
AcDbEntity
  8
SUPERFICI
100
AcDbEllipse
 62
7
  6
CONTINUOUS
 10
-14.1451164326
 20
-28.6913015562
 30
0.0
 11
0.4568380168
 21
0.0702030008
 31
0.0
 40
0.2209951355
 41
0.2918164413
 42
0.3503969549
  0
ELLIPSE
  5
620
100
AcDbEntity
  8
RACCORDO
100
AcDbEllipse
 62
7
  6
CONTINUOUS
 10
-13.1001063383
 20
-28.9294280264
 30
0.0
 11
0.1999879242
 21
-0.1103320873
 31
0.0
 40
0.0199195284
 41
-0.7744091265
 42
0.7963872003
  0
ELLIPSE
  5
621
100
AcDbEntity
  8
ASSI
100
AcDbEllipse
 62
7
  6
CONTINUOUS
 10
-8.80662052
 20
14.3759849255
 30
0.0
 11
-0.0997443216
 21
0.1733547677
 31
0.0
 40
0.6165007174
 41
-2.2349887316
 42
-0.8165063841
  0
ELLIPSE
  5
622
100
AcDbEntity
  8
RACCORDO
100
AcDbEllipse
 62
7
  6
CONTINUOUS
 10
-125.0117285154
 20
-59.6964859817
 30
0.0
 11
402.8595621856
 21
232.6078586167
 31
0.0
 40
0.0628494143
 41
-1.3277255145
 42
-1.3258935879
  0
ELLIPSE
  5
623
100
AcDbEntity
  8
ASSI
100
AcDbEllipse
 62
7
  6
CONTINUOUS
 10
-11.9842252806
 20
16.2106940895
 30
0.0
 11
-0.1065746657
 21
0.1850801844
 31
0.0
 40
0.5406488238
 41
-0.7513003416
 42
-0.2431306586
  0
ELLIPSE
  5
624
100
AcDbEntity
  8
RACCORDO
100
AcDbEllipse
 62
7
  6
CONTINUOUS
 10
-125.0117285154
 20
-71.6211286637
 30
0.0
 11
403.1242860915
 21
268.5419470062
 31
0.0
 40
0.0022336512
 41
-1.2929406363
 42
-1.2911087097
  0
ELLIPSE
  5
625
100
AcDbEntity
  8
ASSI
100
AcDbEllipse
 62
7
  6
CONTINUOUS
 10
-13.8040684008
 20
9.8336539162
 30
0.0
 11
0.999867518
 21
-0.0292282715
 31
0.0
 40
0.5568983954
 41
5.6013315027
 42
7.0848613669
  0
ELLIPSE
  5
626
100
AcDbEntity
  8
0
100
AcDbEllipse
 62
7
  6
CONTINUOUS
 10
-1002.4489830271
 20
-545.0586289486
 30
0.0
 11
1091.3872670356
 21
588.1465940607
 31
0.0
 40
0.0261556157
 41
-0.4518153808
 42
-0.4513581923
  0
ELLIPSE
  5
627
100
AcDbEntity
  8
ASSI
100
AcDbEllipse
 62
7
  6
CONTINUOUS
 10
-9.796122057
 20
13.3028937933
 30
0.0
 11
0.5013109713
 21
-0.0090323087
 31
0.0
 40
0.5663187271
 41
-0.7565983455
 42
-0.4971873728
  0
ELLIPSE
  5
628
100
AcDbEntity
  8
ASSI
100
AcDbEllipse
 62
7
  6
CONTINUOUS
 10
-13.7686974933
 20
9.3504700138
 30
0.0
 11
-0.100004872
 21
0.1732022678
 31
0.0
 40
0.5789151826
 41
-2.3548735497
 42
-0.7868162787
  0
ELLIPSE
  5
629
100
AcDbEntity
  8
RACCORDO
100
AcDbEllipse
 62
7
  6
CONTINUOUS
 10
-8.719029546
 20
13.6197968003
 30
0.0
 11
0.0528833778
 21
0.1988141098
 31
0.0
 40
0.4377348049
 41
-0.1176148805
 42
0.6503781016
  0
ELLIPSE
  5
62A
100
AcDbEntity
  8
RACCORDO
100
AcDbEllipse
 62
7
  6
CONTINUOUS
 10
-6.8841269646
 20
12.2755232619
 30
0.0
 11
0.1387555033
 21
0.2662037777
 31
0.0
 40
0.5463614449
 41
-0.0235765391
 42
0.709509901
  0
ELLIPSE
  5
62B
100
AcDbEntity
  8
DRAFT
100
AcDbEllipse
 62
7
  6
CONTINUOUS
 10
-0.0009532168
 20
11.101549184
 30
0.0
 11
2.7499747151
 21
-0.0206046944
 31
0.0
 40
0.5723275643
 41
8.6785746263
 42
9.3363917221
  0
ELLIPSE
  5
62C
100
AcDbEntity
  8
DRAFT
100
AcDbEllipse
 62
7
  6
CONTINUOUS
 10
-7.7791278099
 20
15.5925697106
 30
0.0
 11
2.7499747151
 21
-0.0206046944
 31
0.0
 40
0.5723275643
 41
8.6785746263
 42
9.3363917221
  0
ELLIPSE
  5
62D
100
AcDbEntity
  8
ASSI
100
AcDbEllipse
 62
7
  6
CONTINUOUS
 10
-12.7642036892
 20
14.0947260624
 30
0.0
 11
-0.1250441155
 21
0.2165688207
 31
0.0
 40
0.5771558487
 41
-0.7852941622
 42
0.0174472731
  0
ELLIPSE
  5
62E
100
AcDbEntity
  8
DRAFT
100
AcDbEllipse
 62
7
  6
CONTINUOUS
 10
0.7061535644
 20
11.0944634108
 30
0.0
 11
2.7999742554
 21
-0.0209793252
 31
0.0
 40
0.5723275643
 41
0.1368742661
 42
2.3604827341
  0
ELLIPSE
  5
62F
100
AcDbEntity
  8
DRAFT
100
AcDbEllipse
 62
7
  6
CONTINUOUS
 10
-7.0720210287
 20
15.5854839374
 30
0.0
 11
2.7999742554
 21
-0.0209793252
 31
0.0
 40
0.5723275643
 41
0.1368742661
 42
2.3604827341
  0
ELLIPSE
  5
630
100
AcDbEntity
  8
RACCORDO
100
AcDbEllipse
 62
7
  6
CONTINUOUS
 10
-14.3309829047
 20
16.5752445507
 30
0.0
 11
0.16239016
 21
0.2525073425
 31
0.0
 40
0.6067084637
 41
6.0135653195
 42
7.0453413213
  0
ELLIPSE
  5
631
100
AcDbEntity
  8
0
100
AcDbEllipse
 62
7
  6
CONTINUOUS
 10
-18.8559524359
 20
15.022751656
 30
0.0
 11
0.3998888124
 21
-0.01725912
 31
0.0
 40
0.5464172455
 41
-2.3326156034
 42
-0.8141791541
  0
ELLIPSE
  5
632
100
AcDbEntity
  8
0
100
AcDbEllipse
 62
7
  6
CONTINUOUS
 10
-10.4201747389
 20
10.1520393389
 30
0.0
 11
0.3998888124
 21
-0.01725912
 31
0.0
 40
0.5464172455
 41
2.4321332546
 42
3.9505697038
  0
ELLIPSE
  5
633
100
AcDbEntity
  8
RACCORDO
100
AcDbEllipse
 62
7
  6
CONTINUOUS
 10
1.03651928
 20
14.4882846206
 30
0.0
 11
0.5988663776
 21
0.1669721776
 31
0.0
 40
0.5283017181
 41
-1.0684104363
 42
0.4777057143
  0
ELLIPSE
  5
634
100
AcDbEntity
  8
RACCORDO
100
AcDbEllipse
 62
7
  6
CONTINUOUS
 10
-6.741655313
 20
18.9793051472
 30
0.0
 11
0.5988663776
 21
0.1669721776
 31
0.0
 40
0.5283017181
 41
-1.0684104363
 42
0.4777057143
  0
ENDSEC
  0
SECTION
  2
OBJECTS
  0
DICTIONARY
  5
C
100
AcDbDictionary
280
0
281
1
  3
ACAD_GROUP
350
D
  3
ACAD_MLINESTYLE
350
17
  3
ACAD_LAYOUT
350
1A
  3
ACAD_PLOTSETTINGS
350
19
  3
ACAD_PLOTSTYLENAME
350
E
  0
DICTIONARY
  5
D
102
{ACAD_REACTORS
330
C
102
}
100
AcDbDictionary
280
0
281
1
  0
ACDBDICTIONARYWDFLT
  5
E
102
{ACAD_REACTORS
330
C
102
}
100
AcDbDictionary
281
1
  3
Normal
350
F
100
AcDbDictionaryWithDefault
340
F
  0
DICTIONARY
  5
17
102
{ACAD_REACTORS
330
C
102
}
100
AcDbDictionary
280
0
281
1
  3
Standard
350
18
  0
DICTIONARY
  5
19
102
{ACAD_REACTORS
330
C
102
}
100
AcDbDictionary
281
1
  0
DICTIONARY
  5
1A
102
{ACAD_REACTORS
330
C
102
}
100
AcDbDictionary
281
1
  3
Model
350
635
  3
Layout1
350
636
  0
ACDBPLACEHOLDER
  5
F
102
{ACAD_REACTORS
330
E
102
}
  0
MLINESTYLE
  5
18
102
{ACAD_REACTORS
330
17
102
}
100
AcDbMlineStyle
  2
STANDARD
 70
0
  3

 62
256
 51
90.0
 52
90.0
 71
2
 49
0.5
 62
256
  6
BYLAYER
 49
-0.5
 62
256
  6
BYLAYER
  0
LAYOUT
  5
635
102
{ACAD_REACTORS
330
1A
102
}
100
AcDbPlotSettings
  1

  2
none_device
  4

  6

 40
0.0
 41
0.0
 42
0.0
 43
0.0
 44
210.0
 45
297.0
 46
0.0
 47
0.0
 48
0.0
 49
0.0
140
0.0
141
0.0
142
1.0
143
1.0
 70
1024
 72
1
 73
0
 74
0
  7

 75
0
147
1.0
148
0.0
149
0.0
100
AcDbLayout
  1
Model
 70
0
 71
0
 10
0.0
 20
0.0
 11
210.0
 21
297.0
 12
0.0
 22
0.0
 32
0.0
 14
0.0
 24
0.0
 34
0.0
 15
0.0
 25
0.0
 35
0.0
146
0.0
 13
0.0
 23
0.0
 33
0.0
 16
1.0
 26
0.0
 36
0.0
 17
0.0
 27
1.0
 37
0.0
 76
0
330
219
345
0
346
0
  0
LAYOUT
  5
636
102
{ACAD_REACTORS
330
1A
102
}
100
AcDbPlotSettings
  1

  2
none_device
  4

  6

 40
0.0
 41
0.0
 42
0.0
 43
0.0
 44
210.0
 45
297.0
 46
0.0
 47
0.0
 48
0.0
 49
0.0
140
0.0
141
0.0
142
1.0
143
1.0
 70
0
 72
1
 73
0
 74
0
  7

 75
0
147
1.0
148
0.0
149
0.0
100
AcDbLayout
  1
Layout1
 70
0
 71
1
 10
0.0
 20
0.0
 11
210.0
 21
297.0
 12
0.0
 22
0.0
 32
0.0
 14
0.0
 24
0.0
 34
0.0
 15
0.0
 25
0.0
 35
0.0
146
0.0
 13
0.0
 23
0.0
 33
0.0
 16
1.0
 26
0.0
 36
0.0
 17
0.0
 27
1.0
 37
0.0
 76
0
330
21A
345
0
346
0
  0
ENDSEC
  0
EOF
