  0
SECTION
  2
HEADER
  9
$ACADVER
  1
AC1024
  9
$DWGCODEPAGE
  3
ANSI_1252
  9
$EXTMAX
 10
297.0
 20
210.0
 30
0.0
  9
$EXTMIN
 10
0.0
 20
0.0
 30
0.0
  9
$LIMMIN
 10
0.0
 20
0.0
  9
$LIMMAX
 10
297.0
 20
210.0
  9
$VIEWCTR
 10
148.5
 20
105.0
  9
$VIEWSIZE
 40
210.0
  9
$CLAYER
  8
0
  9
$LTSCALE
 40
16.335
  9
$CELTYPE
  6
BYLAYER
  9
$DIMSCALE
 40
1.0
  9
$DIMASZ
 40
3.0
  9
$DIMEXO
 40
0.5
  9
$DIMDLI
 40
11.286
  9
$DIMEXE
 40
1.5
  9
$DIMCEN
 40
2.673
  9
$DIMLFAC
 40
1.0
  9
$DIMBLK
  1
_FILLED
  9
$DIMALT
 70
0
  9
$DIMALTF
 40
0.0393700787
  9
$DIMTXT
 40
3.0
  9
$DIMTOL
 70
1
  9
$DIMLIM
 70
0
  9
$DIMTFAC
 40
1.0
  9
$DIMTP
 40
0.01
  9
$DIMTM
 40
0.01
  9
$DIMGAP
 40
0.625
  9
$DIMDSEP
 70
44
  9
$AUNITS
 70
0
  9
$PDMODE
 70
3
  9
$PDSIZE
 40
3.0
  9
$HANDSEED
  5
422
  9
$TILEMODE
 70
1
  9
$MEASUREMENT
 70
1
  9
$INSUNITS
 70
4
  0
ENDSEC
  0
SECTION
  2
CLASSES
  0
CLASS
  1
ACDBDICTIONARYWDFLT
  2
AcDbDictionaryWithDefault
  3
AutoCAD 2000
 90
0
 91
1
280
0
281
0
  0
CLASS
  1
ACDBPLACEHOLDER
  2
AcDbPlaceHolder
  3
AutoCAD 2000
 90
0
 91
1
280
0
281
0
  0
CLASS
  1
LAYOUT
  2
AcDbLayout
  3
AutoCAD 2000
 90
0
 91
0
280
0
281
0
  0
ENDSEC
  0
SECTION
  2
TABLES
  0
TABLE
  2
VPORT
  5
8
100
AcDbSymbolTable
 70
2
  0
VPORT
  5
1F4
100
AcDbSymbolTableRecord
100
AcDbViewportTableRecord
  2
*ACTIVE
 70
0
 10
0.0
 20
0.0
 11
1.0
 21
1.0
 12
148.5
 22
105.0
 13
0.0
 23
0.0
 14
1.0
 24
1.0
 15
0.0
 25
0.0
 16
0.0
 26
0.0
 36
1.0
 17
0.0
 27
0.0
 37
0.0
 40
210.0
 41
1.4142857143
 42
50.0
 43
0.0
 44
0.0
 50
0.0
 51
0.0
 71
0
 72
100
 73
1
 74
1
 75
0
 76
0
 77
0
 78
0
  0
ENDTAB
  0
TABLE
  2
LTYPE
  5
5
100
AcDbSymbolTable
 70
6
  0
LTYPE
  5
14
100
AcDbSymbolTableRecord
100
AcDbLinetypeTableRecord
  2
BYBLOCK
 70
0
  3

 72
65
 73
0
 40
0.0
  0
LTYPE
  5
15
100
AcDbSymbolTableRecord
100
AcDbLinetypeTableRecord
  2
BYLAYER
 70
0
  3

 72
65
 73
0
 40
0.0
  0
LTYPE
  5
16
100
AcDbSymbolTableRecord
100
AcDbLinetypeTableRecord
  2
CONTINUOUS
 70
64
  3
Solid line
 72
65
 73
0
 40
0.0
  0
LTYPE
  5
1F5
100
AcDbSymbolTableRecord
100
AcDbLinetypeTableRecord
  2
CENTER
 70
64
  3
____ _ ____ _ ____ _ ____ _ ____ _ ____ _ ____
 72
65
 73
4
 40
0.6
 49
0.375
 74
0
 49
-0.075
 74
0
 49
0.075
 74
0
 49
-0.075
 74
0
  0
LTYPE
  5
1F6
100
AcDbSymbolTableRecord
100
AcDbLinetypeTableRecord
  2
HIDDEN
 70
64
  3
- - - - - - - - - - - - - - - - - - - -
 72
65
 73
2
 40
0.2
 49
0.1
 74
0
 49
-0.1
 74
0
  0
LTYPE
  5
1F7
100
AcDbSymbolTableRecord
100
AcDbLinetypeTableRecord
  2
PHANTOM
 70
64
  3
_____ _ _ _____ _ _ _____ _ _ _____
 72
65
 73
6
 40
0.8
 49
0.45
 74
0
 49
-0.05
 74
0
 49
0.1
 74
0
 49
-0.05
 74
0
 49
0.1
 74
0
 49
-0.05
 74
0
  0
LTYPE
  5
1F8
100
AcDbSymbolTableRecord
100
AcDbLinetypeTableRecord
  2
DOT
 70
64
  3
. . . . . . . . . . . . . . . . . . . .
 72
65
 73
2
 40
0.2
 49
0.1
 74
0
 49
-0.1
 74
0
  0
LTYPE
  5
1F9
100
AcDbSymbolTableRecord
100
AcDbLinetypeTableRecord
  2
DASHED
 70
64
  3
- - - - - - - - - - - - - - - - - - - -
 72
65
 73
2
 40
0.2
 49
0.1
 74
0
 49
-0.1
 74
0
  0
ENDTAB
  0
TABLE
  2
LAYER
  5
2
100
AcDbSymbolTable
 70
36
  0
LAYER
  5
10
100
AcDbSymbolTableRecord
100
AcDbLayerTableRecord
  2
0
 70
0
 62
7
  6
CONTINUOUS
370
-3
390
F
  0
LAYER
  5
1FA
100
AcDbSymbolTableRecord
100
AcDbLayerTableRecord
  2
DEFAULT_1
 70
0
 62
7
  6
CENTER
370
-3
390
F
  0
LAYER
  5
1FB
100
AcDbSymbolTableRecord
100
AcDbLayerTableRecord
  2
DEFAULT_2
 70
0
 62
7
  6
HIDDEN
370
-3
390
F
  0
LAYER
  5
1FC
100
AcDbSymbolTableRecord
100
AcDbLayerTableRecord
  2
DEFAULT_3
 70
0
 62
7
  6
PHANTOM
370
-3
390
F
  0
LAYER
  5
1FD
100
AcDbSymbolTableRecord
100
AcDbLayerTableRecord
  2
ASSI
 70
0
 62
7
  6
CONTINUOUS
370
-3
390
F
  0
LAYER
  5
1FE
100
AcDbSymbolTableRecord
100
AcDbLayerTableRecord
  2
COORDINATE
 70
0
 62
7
  6
CONTINUOUS
370
-3
390
F
  0
LAYER
  5
1FF
100
AcDbSymbolTableRecord
100
AcDbLayerTableRecord
  2
COPY_PUBLISH
 70
0
 62
7
  6
CONTINUOUS
370
-3
390
F
  0
LAYER
  5
200
100
AcDbSymbolTableRecord
100
AcDbLayerTableRecord
  2
COSMETICI
 70
0
 62
7
  6
CONTINUOUS
370
-3
390
F
  0
LAYER
  5
201
100
AcDbSymbolTableRecord
100
AcDbLayerTableRecord
  2
CURVE
 70
0
 62
7
  6
CONTINUOUS
370
-3
390
F
  0
LAYER
  5
202
100
AcDbSymbolTableRecord
100
AcDbLayerTableRecord
  2
DRAFT
 70
0
 62
7
  6
CONTINUOUS
370
-3
390
F
  0
LAYER
  5
203
100
AcDbSymbolTableRecord
100
AcDbLayerTableRecord
  2
IMPORT_IGES
 70
0
 62
7
  6
CONTINUOUS
370
-3
390
F
  0
LAYER
  5
204
100
AcDbSymbolTableRecord
100
AcDbLayerTableRecord
  2
INTF_11
 70
0
 62
7
  6
CONTINUOUS
370
-3
390
F
  0
LAYER
  5
205
100
AcDbSymbolTableRecord
100
AcDbLayerTableRecord
  2
INTF_9
 70
0
 62
7
  6
CONTINUOUS
370
-3
390
F
  0
LAYER
  5
206
100
AcDbSymbolTableRecord
100
AcDbLayerTableRecord
  2
NOTE
 70
0
 62
7
  6
CONTINUOUS
370
-3
390
F
  0
LAYER
  5
207
100
AcDbSymbolTableRecord
100
AcDbLayerTableRecord
  2
PIANI
 70
0
 62
7
  6
CONTINUOUS
370
-3
390
F
  0
LAYER
  5
208
100
AcDbSymbolTableRecord
100
AcDbLayerTableRecord
  2
PUNTI
 70
0
 62
7
  6
CONTINUOUS
370
-3
390
F
  0
LAYER
  5
209
100
AcDbSymbolTableRecord
100
AcDbLayerTableRecord
  2
RACCORDO
 70
0
 62
7
  6
CONTINUOUS
370
-3
390
F
  0
LAYER
  5
20A
100
AcDbSymbolTableRecord
100
AcDbLayerTableRecord
  2
SIMBOLI
 70
0
 62
7
  6
CONTINUOUS
370
-3
390
F
  0
LAYER
  5
20B
100
AcDbSymbolTableRecord
100
AcDbLayerTableRecord
  2
SMUSSO
 70
0
 62
7
  6
CONTINUOUS
370
-3
390
F
  0
LAYER
  5
20C
100
AcDbSymbolTableRecord
100
AcDbLayerTableRecord
  2
SUPERFICI
 70
0
 62
7
  6
CONTINUOUS
370
-3
390
F
  0
LAYER
  5
20D
100
AcDbSymbolTableRecord
100
AcDbLayerTableRecord
  2
TRASH
 70
0
 62
7
  6
CONTINUOUS
370
-3
390
F
  0
ENDTAB
  0
TABLE
  2
STYLE
  5
3
100
AcDbSymbolTable
 70
1
  0
STYLE
  5
11
100
AcDbSymbolTableRecord
100
AcDbTextStyleTableRecord
  2
STANDARD
 70
0
 40
0.0
 41
0.8
 50
0.0
 71
0
 42
0.2
  3
txt
  4

  0
STYLE
  5
20E
100
AcDbSymbolTableRecord
100
AcDbTextStyleTableRecord
  2
TEXTSTYLE_1
 70
0
 40
0.0
 41
0.8
 50
0.0
 71
0
 42
0.2
  3
gdt
  4

  0
ENDTAB
  0
TABLE
  2
VIEW
  5
6
100
AcDbSymbolTable
 70
0
  0
ENDTAB
  0
TABLE
  2
UCS
  5
7
100
AcDbSymbolTable
 70
0
  0
ENDTAB
  0
TABLE
  2
APPID
  5
9
100
AcDbSymbolTable
 70
1
  0
APPID
  5
20F
100
AcDbSymbolTableRecord
100
AcDbRegAppTableRecord
  2
ACAD
 70
0
  0
ENDTAB
  0
TABLE
  2
BLOCK_RECORD
  5
1
100
AcDbSymbolTable
 70
0
  0
BLOCK_RECORD
  5
210
100
AcDbSymbolTableRecord
100
AcDbBlockTableRecord
  2
*Model_Space
  0
BLOCK_RECORD
  5
211
100
AcDbSymbolTableRecord
100
AcDbBlockTableRecord
  2
*Paper_Space
  0
BLOCK_RECORD
  5
212
100
AcDbSymbolTableRecord
100
AcDbBlockTableRecord
  2
_FILLED
  0
ENDTAB
  0
TABLE
  2
DIMSTYLE
  5
A
100
AcDbSymbolTable
 70
1
100
AcDbDimStyleTable
 71
0
  0
DIMSTYLE
105
213
100
AcDbSymbolTableRecord
100
AcDbDimStyleTableRecord
  2
STANDARD
 70
0
  3

  4

 40
1.0
 41
3.0
 42
0.5
 43
0.38
 44
1.5
 45
0.0
 46
0.0
 47
0.01
 48
0.01
140
3.0
141
0.09
142
0.0
143
25.4
144
1.0
145
0.0
146
1.0
147
0.625
 71
1
 72
0
 73
0
 74
0
 75
0
 76
0
 77
1
 78
8
 79
2
170
0
171
1
172
0
173
0
174
0
175
0
176
0
177
0
178
0
270
2
179
2
271
2
272
2
273
2
274
2
275
0
280
0
281
0
282
0
283
1
284
8
285
0
286
0
287
3
288
0
340
11
278
44
341
212
342
212
343
212
344
212
  0
ENDTAB
  0
ENDSEC
  0
SECTION
  2
BLOCKS
  0
BLOCK
  5
20
100
AcDbEntity
  8
0
100
AcDbBlockBegin
  2
*Model_Space
 70
0
 10
0.0
 20
0.0
 30
0.0
  3
*Model_Space
  1

  0
ENDBLK
  5
21
100
AcDbEntity
  8
0
100
AcDbBlockEnd
  0
BLOCK
  5
1C
100
AcDbEntity
  8
0
100
AcDbBlockBegin
  2
*Paper_Space
 70
0
 10
0.0
 20
0.0
 30
0.0
  3
*Paper_Space
  1

  0
ENDBLK
  5
1D
100
AcDbEntity
  8
0
100
AcDbBlockEnd
  0
BLOCK
  5
214
100
AcDbEntity
  8
0
100
AcDbBlockBegin
  2
_FILLED
 70
64
 10
0.0
 20
0.0
  3
_FILLED
  1

  0
SOLID
  5
215
100
AcDbEntity
  8
0
  6
BYBLOCK
 62
0
100
AcDbTrace
 10
0.0
 20
0.0
 11
-1.0
 21
0.3166666667
 12
-1.0
 22
-0.3166666667
 13
-1.0
 23
-0.3166666667
  0
ENDBLK
  5
216
100
AcDbEntity
  8
0
  6
BYBLOCK
 62
0
100
AcDbBlockEnd
  0
ENDSEC
  0
SECTION
  2
ENTITIES
  0
LINE
  5
217
100
AcDbEntity
  8
0
100
AcDbLine
 62
7
  6
CONTINUOUS
 10
119.3416564921
 20
135.8332389443
 11
121.626742269
 21
137.2945248073
  0
LINE
  5
218
100
AcDbEntity
  8
0
100
AcDbLine
 62
250
  6
CONTINUOUS
 10
119.6017754934
 20
135.8147569832
 11
121.8831368698
 21
137.2736611353
  0
LWPOLYLINE
  5
219
100
AcDbEntity
  8
0
100
AcDbPolyline
 62
250
  6
CONTINUOUS
 90
9
 70
0
 10
119.3416564921
 20
135.8332389443
 10
119.3621584394
 20
135.8444119273
 10
119.3911558648
 20
135.8546903848
 10
119.4226151449
 20
135.8601098897
 10
119.4561503805
 20
135.8605926281
 10
119.4912521832
 20
135.856160088
 10
119.5274711906
 20
135.846932922
 10
119.5644473394
 20
135.8330642102
 10
119.6017754934
 20
135.8147569832
  0
LINE
  5
21A
100
AcDbEntity
  8
RACCORDO
100
AcDbLine
 62
7
  6
CONTINUOUS
 10
125.6866977419
 20
135.0775327576
 11
126.3395729534
 21
135.4044475833
  0
LINE
  5
21B
100
AcDbEntity
  8
RACCORDO
100
AcDbLine
 62
250
  6
CONTINUOUS
 10
125.7285858795
 20
135.0533470719
 11
126.4085845195
 21
135.3938434379
  0
LWPOLYLINE
  5
21C
100
AcDbEntity
  8
RACCORDO
100
AcDbPolyline
 62
250
  6
CONTINUOUS
 90
7
 70
0
 10
126.4085845195
 20
135.3938434379
 10
126.422258379
 20
135.4004381733
 10
126.4356724641
 20
135.4048557276
 10
126.4486023209
 20
135.4070221833
 10
126.4608315984
 20
135.4069012897
 10
126.4721556677
 20
135.4044950697
 10
126.4817370363
 20
135.4002244613
  0
LWPOLYLINE
  5
21D
100
AcDbEntity
  8
RACCORDO
100
AcDbPolyline
 62
250
  6
CONTINUOUS
 90
7
 70
0
 10
126.3395729534
 20
135.4044475833
 10
126.3474983706
 20
135.4075486298
 10
126.3586566129
 20
135.4094524644
 10
126.3705707965
 20
135.4089564623
 10
126.3829971076
 20
135.4061220819
 10
126.3957407602
 20
135.4010422001
 10
126.4085845195
 20
135.3938434379
  0
LINE
  5
21E
100
AcDbEntity
  8
RACCORDO
100
AcDbLine
 62
7
  6
CONTINUOUS
 10
137.5628479656
 20
87.6414751109
 11
137.2274751755
 21
87.651622375
  0
LINE
  5
21F
100
AcDbEntity
  8
RACCORDO
100
AcDbLine
 62
250
  6
CONTINUOUS
 10
137.5688965317
 20
87.7259061337
 11
137.2274751755
 21
87.7362364072
  0
LINE
  5
220
100
AcDbEntity
  8
RACCORDO
100
AcDbLine
 62
7
  6
CONTINUOUS
 10
130.1900392406
 20
134.5411958243
 11
130.4597633515
 21
134.6814205374
  0
LINE
  5
221
100
AcDbEntity
  8
RACCORDO
100
AcDbLine
 62
250
  6
CONTINUOUS
 10
130.2466516816
 20
134.5085085104
 11
130.5611726821
 21
134.6720223205
  0
LINE
  5
222
100
AcDbEntity
  8
RACCORDO
100
AcDbLine
 62
7
  6
CONTINUOUS
 10
126.8967580183
 20
133.8225331288
 11
128.0927723216
 21
134.4214145088
  0
LINE
  5
223
100
AcDbEntity
  8
RACCORDO
100
AcDbLine
 62
250
  6
CONTINUOUS
 10
128.2679800804
 20
134.060205709
 11
128.2024489036
 21
134.0276829349
  0
LWPOLYLINE
  5
224
100
AcDbEntity
  8
RACCORDO
100
AcDbPolyline
 62
7
  6
CONTINUOUS
 90
4
 70
0
 10
130.4597760123
 20
134.6814213872
 10
130.4725771699
 20
134.6868499414
 10
130.4892241869
 20
134.6906482373
 10
130.4996565949
 20
134.6913455884
  0
LINE
  5
225
100
AcDbEntity
  8
ASSI
100
AcDbLine
 62
7
  6
CONTINUOUS
 10
133.0585108781
 20
134.2282738563
 11
133.3918443439
 21
134.3451807757
  0
LINE
  5
226
100
AcDbEntity
  8
0
100
AcDbLine
 62
7
  6
CONTINUOUS
 10
119.3610183621
 20
92.8272274188
 11
134.2292325305
 21
84.2425069005
  0
LWPOLYLINE
  5
227
100
AcDbEntity
  8
0
100
AcDbPolyline
 62
250
  6
CONTINUOUS
 90
9
 70
0
 10
119.3610183621
 20
92.8272274188
 10
119.3454184598
 20
92.837436245
 10
119.3228392456
 20
92.8573522325
 10
119.3033132343
 20
92.8815364878
 10
119.2870472916
 20
92.909732794
 10
119.274213745
 20
92.9416424291
 10
119.2649485577
 20
92.9769273305
 10
119.2593498885
 20
93.0152136771
 10
119.2574770516
 20
93.0560958494
  0
LINE
  5
228
100
AcDbEntity
  8
ASSI
100
AcDbLine
 62
7
  6
CONTINUOUS
 10
128.6592513006
 20
132.6761176795
 11
129.6320676637
 21
133.3206310434
  0
LINE
  5
229
100
AcDbEntity
  8
ASSI
100
AcDbLine
 62
250
  6
CONTINUOUS
 10
128.72089452
 20
132.6405256572
 11
129.7770235787
 21
133.3402838265
  0
LINE
  5
22A
100
AcDbEntity
  8
RACCORDO
100
AcDbLine
 62
7
  6
CONTINUOUS
 10
129.6321409153
 20
133.3206795724
 11
129.6322741891
 21
133.3207677661
  0
LWPOLYLINE
  5
22B
100
AcDbEntity
  8
RACCORDO
100
AcDbPolyline
 62
250
  6
CONTINUOUS
 90
7
 70
0
 10
129.6322741891
 20
133.3207677661
 10
129.6339172728
 20
133.3218333379
 10
129.6444714467
 20
133.3278209988
 10
129.6560547423
 20
133.3330315699
 10
129.6686491572
 20
133.3374605615
 10
129.6817179659
 20
133.340715254
 10
129.6952586854
 20
133.3427581033
  0
LINE
  5
22C
100
AcDbEntity
  8
RACCORDO
100
AcDbLine
 62
250
  6
CONTINUOUS
 10
129.3385148812
 20
133.442092332
 11
128.5652599526
 21
133.011799722
  0
LINE
  5
22D
100
AcDbEntity
  8
RACCORDO
100
AcDbLine
 62
250
  6
CONTINUOUS
 10
129.2684663212
 20
133.0797367356
 11
128.706509048
 21
132.7670247789
  0
LINE
  5
22E
100
AcDbEntity
  8
RACCORDO
100
AcDbLine
 62
7
  6
CONTINUOUS
 10
128.4358600292
 20
132.8051009999
 11
128.706509048
 21
132.9302442646
  0
LINE
  5
22F
100
AcDbEntity
  8
0
100
AcDbLine
 62
7
  6
CONTINUOUS
 10
130.9909791587
 20
131.202335976
 11
131.8604217902
 21
131.512901867
  0
LINE
  5
230
100
AcDbEntity
  8
RACCORDO
100
AcDbLine
 62
250
  6
CONTINUOUS
 10
137.2274751755
 20
91.5988394388
 11
137.5688965317
 21
91.6516558048
  0
LINE
  5
231
100
AcDbEntity
  8
RACCORDO
100
AcDbLine
 62
250
  6
CONTINUOUS
 10
137.2274751755
 20
91.8565752798
 11
137.5322939913
 21
91.9037293955
  0
LINE
  5
232
100
AcDbEntity
  8
0
100
AcDbLine
 62
250
  6
CONTINUOUS
 10
119.2574770516
 20
93.0560958494
 11
134.12569122
 21
84.4713753311
  0
LINE
  5
233
100
AcDbEntity
  8
0
100
AcDbLine
 62
7
  6
CONTINUOUS
 10
126.394785081
 20
133.8561208326
 11
126.8967580183
 21
134.3788591196
  0
LINE
  5
234
100
AcDbEntity
  8
ASSI
100
AcDbLine
 62
7
  6
CONTINUOUS
 10
127.779462703
 20
133.4405472798
 11
128.10451983
 21
133.7393452664
  0
LWPOLYLINE
  5
235
100
AcDbEntity
  8
ASSI
100
AcDbPolyline
 62
250
  6
CONTINUOUS
 90
9
 70
0
 10
129.7770235787
 20
133.3402838265
 10
129.7932955627
 20
133.3533592576
 10
129.8090826552
 20
133.3683285388
 10
129.8241678345
 20
133.38498589
 10
129.8383437278
 20
133.403102326
 10
129.8514154612
 20
133.4224288054
 10
129.8632033402
 20
133.4426996514
 10
129.8735453197
 20
133.4636362042
 10
129.8822992309
 20
133.4849506532
  0
LINE
  5
236
100
AcDbEntity
  8
ASSI
100
AcDbLine
 62
7
  6
CONTINUOUS
 10
129.6356936345
 20
133.3234296954
 11
129.6322879627
 21
133.3207701128
  0
LINE
  5
237
100
AcDbEntity
  8
ASSI
100
AcDbLine
 62
7
  6
CONTINUOUS
 10
131.5595038742
 20
134.0955984023
 11
131.281543605
 21
133.9109748841
  0
LINE
  5
238
100
AcDbEntity
  8
ASSI
100
AcDbLine
 62
7
  6
CONTINUOUS
 10
132.9432374231
 20
134.1213829488
 11
129.7309228722
 21
132.0573479453
  0
LINE
  5
239
100
AcDbEntity
  8
ASSI
100
AcDbLine
 62
7
  6
CONTINUOUS
 10
132.2845874353
 20
131.2679939396
 11
132.8345227212
 21
131.55437425
  0
LINE
  5
23A
100
AcDbEntity
  8
ASSI
100
AcDbLine
 62
7
  6
CONTINUOUS
 10
133.7030583213
 20
132.8579369295
 11
133.3833016091
 21
132.6974461537
  0
LINE
  5
23B
100
AcDbEntity
  8
ASSI
100
AcDbLine
 62
7
  6
CONTINUOUS
 10
132.2455536155
 20
131.2905315779
 11
132.9034181484
 21
131.6083313219
  0
LWPOLYLINE
  5
23C
100
AcDbEntity
  8
RACCORDO
100
AcDbPolyline
 62
250
  6
CONTINUOUS
 90
10
 70
0
 10
136.2304466511
 20
132.3968378947
 10
136.2265120801
 20
132.3954438052
 10
136.2226019112
 20
132.394170486
 10
136.2187179945
 20
132.3930182165
 10
136.2148637577
 20
132.3919874932
 10
136.2110393964
 20
132.3910781278
 10
136.2072419907
 20
132.3902896937
 10
136.2034718732
 20
132.3896225234
 10
136.1997325114
 20
132.3890772605
 10
136.1960257802
 20
132.3886542697
  0
LINE
  5
23D
100
AcDbEntity
  8
RACCORDO
100
AcDbLine
 62
250
  6
CONTINUOUS
 10
138.4977598447
 20
133.1531269828
 11
136.2304466511
 21
132.3968378947
  0
LINE
  5
23E
100
AcDbEntity
  8
RACCORDO
100
AcDbLine
 62
250
  6
CONTINUOUS
 10
138.6117649952
 20
132.8975416237
 11
136.3444518015
 21
132.1412525355
  0
LINE
  5
23F
100
AcDbEntity
  8
ASSI
100
AcDbLine
 62
7
  6
CONTINUOUS
 10
136.463138961
 20
131.0839564938
 11
137.7720426669
 21
131.5205567804
  0
LWPOLYLINE
  5
240
100
AcDbEntity
  8
RACCORDO
100
AcDbPolyline
 62
250
  6
CONTINUOUS
 90
10
 70
0
 10
136.3444518015
 20
132.1412525355
 10
136.3376378384
 20
132.1390734968
 10
136.3308724636
 20
132.1370954847
 10
136.3241556773
 20
132.1353184992
 10
136.317487028
 20
132.1337424266
 10
136.3108669672
 20
132.1323673806
 10
136.3042968484
 20
132.131193702
 10
136.2977771227
 20
132.1302215042
 10
136.2913073391
 20
132.1294506739
 10
136.2848874975
 20
132.1288812108
  0
LINE
  5
241
100
AcDbEntity
  8
ASSI
100
AcDbLine
 62
7
  6
CONTINUOUS
 10
129.6394437894
 20
133.3271579452
 11
129.6356936345
 21
133.3234296954
  0
LINE
  5
242
100
AcDbEntity
  8
RACCORDO
100
AcDbLine
 62
250
  6
CONTINUOUS
 10
129.6744758853
 20
133.3700304671
 11
129.678893588
 21
133.3744069716
  0
LWPOLYLINE
  5
243
100
AcDbEntity
  8
RACCORDO
100
AcDbPolyline
 62
250
  6
CONTINUOUS
 90
10
 70
0
 10
129.712871912
 20
133.4070332098
 10
129.7181412669
 20
133.412185987
 10
129.7234908445
 20
133.4175268969
 10
129.7289239413
 20
133.4230842613
 10
129.734419224
 20
133.4288501001
 10
129.7399116165
 20
133.4348049942
 10
129.7453767322
 20
133.4409597992
 10
129.7508076984
 20
133.4473183461
 10
129.7561578822
 20
133.4538473951
 10
129.7613804179
 20
133.4605161391
  0
LINE
  5
244
100
AcDbEntity
  8
RACCORDO
100
AcDbLine
 62
250
  6
CONTINUOUS
 10
129.678893588
 20
133.3744069716
 11
129.6834365828
 21
133.3788278274
  0
LINE
  5
245
100
AcDbEntity
  8
RACCORDO
100
AcDbLine
 62
250
  6
CONTINUOUS
 10
129.702654559
 20
133.3971867136
 11
129.712871912
 21
133.4070332098
  0
LINE
  5
246
100
AcDbEntity
  8
RACCORDO
100
AcDbLine
 62
250
  6
CONTINUOUS
 10
129.6834365828
 20
133.3788278274
 11
129.702654559
 21
133.3971867136
  0
LINE
  5
247
100
AcDbEntity
  8
RACCORDO
100
AcDbLine
 62
250
  6
CONTINUOUS
 10
134.7013895134
 20
132.2815130113
 11
134.4181935325
 21
132.0999125274
  0
LINE
  5
248
100
AcDbEntity
  8
RACCORDO
100
AcDbLine
 62
250
  6
CONTINUOUS
 10
134.8203092262
 20
132.0218982614
 11
134.5598089678
 21
131.8548514946
  0
LWPOLYLINE
  5
249
100
AcDbEntity
  8
ASSI
100
AcDbPolyline
 62
7
  6
CONTINUOUS
 90
12
 70
0
 10
136.8196491596
 20
132.2733902256
 10
136.8363176387
 20
132.2829547927
 10
136.8520960236
 20
132.2904668984
 10
136.8669843144
 20
132.2959265429
 10
136.8810410106
 20
132.2991446944
 10
136.8942076125
 20
132.3003103846
 10
136.9063086214
 20
132.2999907087
 10
136.917229168
 20
132.2982104565
 10
136.9270841214
 20
132.2949448383
 10
136.9360425897
 20
132.2906865802
 10
136.9441142254
 20
132.285490517
 10
136.9501993599
 20
132.2803418644
  0
LINE
  5
24A
100
AcDbEntity
  8
ASSI
100
AcDbLine
 62
250
  6
CONTINUOUS
 10
133.3375991069
 20
130.6599981978
 11
133.8785297261
 21
130.9515776898
  0
LINE
  5
24B
100
AcDbEntity
  8
RACCORDO
100
AcDbLine
 62
250
  6
CONTINUOUS
 10
133.6252395764
 20
130.4939181956
 11
134.0322228938
 21
130.7132956624
  0
LWPOLYLINE
  5
24C
100
AcDbEntity
  8
RACCORDO
100
AcDbPolyline
 62
250
  6
CONTINUOUS
 90
7
 70
0
 10
137.2274751755
 20
96.87175631
 10
137.2372902753
 20
96.8740459733
 10
137.2498372594
 20
96.8775793378
 10
137.2619268001
 20
96.8816094442
 10
137.2734999984
 20
96.8861166582
 10
137.2845004708
 20
96.891079021
 10
137.2948746241
 20
96.8964723566
  0
LWPOLYLINE
  5
24D
100
AcDbEntity
  8
RACCORDO
100
AcDbPolyline
 62
250
  6
CONTINUOUS
 90
8
 70
0
 10
129.6485497125
 20
133.3395751935
 10
129.6516539602
 20
133.343972081
 10
129.6549841325
 20
133.3483368174
 10
129.6585041495
 20
133.3526683489
 10
129.6622190739
 20
133.3570075963
 10
129.6661186667
 20
133.3613442619
 10
129.6702074045
 20
133.3656797335
 10
129.6744758853
 20
133.3700304671
  0
LWPOLYLINE
  5
24E
100
AcDbEntity
  8
ASSI
100
AcDbPolyline
 62
7
  6
CONTINUOUS
 90
3
 70
0
 10
129.6468106537
 20
133.336924775
 10
129.6411455232
 20
133.3291135704
 10
129.6394437894
 20
133.3271579452
  0
LWPOLYLINE
  5
24F
100
AcDbEntity
  8
RACCORDO
100
AcDbPolyline
 62
250
  6
CONTINUOUS
 90
9
 70
0
 10
129.7613804179
 20
133.4605161391
 10
129.7664806
 20
133.4673566346
 10
129.7714888692
 20
133.4744273444
 10
129.7763760364
 20
133.4817009659
 10
129.7811262151
 20
133.4891976589
 10
129.7857890602
 20
133.4970456988
 10
129.790361302
 20
133.5052812302
 10
129.7947871499
 20
133.5138470993
 10
129.7990332555
 20
133.5227270184
  0
LWPOLYLINE
  5
250
100
AcDbEntity
  8
ASSI
100
AcDbPolyline
 62
250
  6
CONTINUOUS
 90
10
 70
0
 10
133.8785297261
 20
130.9515776898
 10
133.8950581712
 20
130.9625769053
 10
133.9113266849
 20
130.975649451
 10
133.9271116411
 20
130.990616037
 10
133.9421959086
 20
131.0072711917
 10
133.9563721153
 20
131.0253863481
 10
133.9694454471
 20
131.0447130546
 10
133.9812359713
 20
131.0649859587
 10
133.9915811783
 20
131.0859263727
 10
134.0003384618
 20
131.1072464268
  0
LWPOLYLINE
  5
251
100
AcDbEntity
  8
ASSI
100
AcDbPolyline
 62
7
  6
CONTINUOUS
 90
19
 70
0
 10
136.9501877622
 20
131.6505136665
 10
136.9788557661
 20
131.6693300903
 10
137.0059882224
 20
131.692028578
 10
137.0309730524
 20
131.7185512118
 10
137.0532098635
 20
131.7487342915
 10
137.0721134544
 20
131.7822611787
 10
137.0872089272
 20
131.8187803891
 10
137.0981830674
 20
131.8582518955
 10
137.1045782519
 20
131.8999440069
 10
137.1061817619
 20
131.9426763832
 10
137.1029831567
 20
131.9867933616
 10
137.0949168549
 20
132.0316273084
 10
137.0826303029
 20
132.0747744215
 10
137.0667105912
 20
132.1158387192
 10
137.0471995561
 20
132.1554133502
 10
137.024628254
 20
132.1927013833
 10
136.9992870178
 20
132.227460601
 10
136.9709458245
 20
132.2599437912
 10
136.9502032554
 20
132.280348036
  0
LWPOLYLINE
  5
252
100
AcDbEntity
  8
ASSI
100
AcDbPolyline
 62
7
  6
CONTINUOUS
 90
25
 70
0
 10
134.5653045915
 20
130.273512034
 10
134.5733515476
 20
130.2785674365
 10
134.5858339792
 20
130.2880894024
 10
134.5972562627
 20
130.2990782518
 10
134.6076609224
 20
130.3115976326
 10
134.617005434
 20
130.3255838967
 10
134.6251622241
 20
130.3408461009
 10
134.6321150036
 20
130.3574017442
 10
134.6378800616
 20
130.3752333274
 10
134.6423786924
 20
130.39409741
 10
134.6455935273
 20
130.4140081524
 10
134.647541935
 20
130.4349513942
 10
134.6481973154
 20
130.4566412137
 10
134.647541935
 20
130.4790878501
 10
134.6455935273
 20
130.5022810642
 10
134.6423786924
 20
130.5259042174
 10
134.6378800616
 20
130.5499632061
 10
134.6321150036
 20
130.5744521339
 10
134.6251622241
 20
130.5990366726
 10
134.617005434
 20
130.6237181335
 10
134.6076609224
 20
130.6484952054
 10
134.5972562627
 20
130.6730296264
 10
134.5858339792
 20
130.6972086424
 10
134.5733515476
 20
130.7211450075
 10
134.5598089678
 20
130.7448387217
  0
LINE
  5
253
100
AcDbEntity
  8
ASSI
100
AcDbLine
 62
7
  6
CONTINUOUS
 10
134.574978189
 20
129.9455510238
 11
136.2346104786
 21
130.974497055
  0
LINE
  5
254
100
AcDbEntity
  8
RACCORDO
100
AcDbLine
 62
7
  6
CONTINUOUS
 10
135.4057251354
 20
130.199007207
 11
134.7934516098
 21
129.8194072087
  0
LWPOLYLINE
  5
255
100
AcDbEntity
  8
ASSI
100
AcDbPolyline
 62
250
  6
CONTINUOUS
 90
24
 70
0
 10
137.5567110892
 20
130.5265435403
 10
137.5119537626
 20
130.5000548285
 10
137.4700289599
 20
130.4738824555
 10
137.4308214901
 20
130.4480888705
 10
137.3944465442
 20
130.4226116243
 10
137.3612496957
 20
130.3972633687
 10
137.3315026034
 20
130.3719284115
 10
137.3049336085
 20
130.3467224449
 10
137.2810733077
 20
130.3218051973
 10
137.2597821484
 20
130.297191539
 10
137.2411996833
 20
130.2728665997
 10
137.2252751665
 20
130.2489454967
 10
137.2118540067
 20
130.2253915931
 10
137.2010907953
 20
130.2022415258
 10
137.1933985606
 20
130.1797203234
 10
137.1888441269
 20
130.1577514081
 10
137.18736067
 20
130.1364113577
 10
137.1891607453
 20
130.1161549341
 10
137.1944160864
 20
130.097090463
 10
137.2029549597
 20
130.0791096188
 10
137.2144747198
 20
130.0623421863
 10
137.2288744848
 20
130.0468314273
 10
137.2462551365
 20
130.03253408
 10
137.266616675
 20
130.0194501446
  0
LINE
  5
256
100
AcDbEntity
  8
ASSI
100
AcDbLine
 62
7
  6
CONTINUOUS
 10
136.9501877622
 20
131.6505136665
 11
134.565364267
 21
130.2735464693
  0
LINE
  5
257
100
AcDbEntity
  8
ASSI
100
AcDbLine
 62
250
  6
CONTINUOUS
 10
137.6043009399
 20
130.5533485907
 11
137.5567110892
 21
130.5265435403
  0
LINE
  5
258
100
AcDbEntity
  8
ASSI
100
AcDbLine
 62
7
  6
CONTINUOUS
 10
134.5598089678
 20
130.270512354
 11
134.5653045915
 21
130.273512034
  0
LINE
  5
259
100
AcDbEntity
  8
RACCORDO
100
AcDbLine
 62
250
  6
CONTINUOUS
 10
137.5975102329
 20
98.8038731522
 11
137.5974669073
 21
98.8038621588
  0
LINE
  5
25A
100
AcDbEntity
  8
RACCORDO
100
AcDbLine
 62
7
  6
CONTINUOUS
 10
137.5974669073
 20
98.8038621588
 11
138.2279132059
 21
98.9636760593
  0
LINE
  5
25B
100
AcDbEntity
  8
RACCORDO
100
AcDbLine
 62
250
  6
CONTINUOUS
 10
137.6872543199
 20
98.9146627053
 11
138.2881353472
 21
99.0669820081
  0
LINE
  5
25C
100
AcDbEntity
  8
0
100
AcDbLine
 62
250
  6
CONTINUOUS
 10
137.2586828436
 20
93.8613630635
 11
137.2274751755
 21
93.871801941
  0
LWPOLYLINE
  5
25D
100
AcDbEntity
  8
0
100
AcDbPolyline
 62
250
  6
CONTINUOUS
 90
9
 70
0
 10
119.1110304422
 20
93.260233146
 10
119.1121451273
 20
93.2409667153
 10
119.118233189
 20
93.2114076447
 10
119.1295800951
 20
93.182327414
 10
119.1460601408
 20
93.1540776395
 10
119.1674062739
 20
93.1270610113
 10
119.1933009957
 20
93.1015806549
 10
119.2234452108
 20
93.077850265
 10
119.2574770516
 20
93.0560958494
  0
LWPOLYLINE
  5
25E
100
AcDbEntity
  8
0
100
AcDbPolyline
 62
250
  6
CONTINUOUS
 90
16
 70
0
 10
119.2574770516
 20
135.2078681316
 10
119.2593498885
 20
135.2509130089
 10
119.2649485577
 20
135.2956645585
 10
119.274213745
 20
135.3416486659
 10
119.2870472916
 20
135.3883781589
 10
119.3033132343
 20
135.4353579681
 10
119.3228392456
 20
135.4820903718
 10
119.3454184598
 20
135.5280802698
 10
119.3708116644
 20
135.5728404284
 10
119.3987498347
 20
135.6158966423
 10
119.4289369835
 20
135.6567927583
 10
119.4610532972
 20
135.695095508
 10
119.4947585236
 20
135.7303990977
 10
119.5296955773
 20
135.7623295083
 10
119.5654943222
 20
135.7905484574
 10
119.6017754934
 20
135.8147569832
  0
LWPOLYLINE
  5
25F
100
AcDbEntity
  8
RACCORDO
100
AcDbPolyline
 62
250
  6
CONTINUOUS
 90
7
 70
0
 10
139.674370451
 20
131.9165343419
 10
139.6900708219
 20
131.9279820268
 10
139.7031435777
 20
131.9404822117
 10
139.7133796787
 20
131.9538350206
 10
139.7206154432
 20
131.967826944
 10
139.7247351634
 20
131.9822342508
 10
139.7257414557
 20
131.9937404389
  0
LWPOLYLINE
  5
260
100
AcDbEntity
  8
RACCORDO
100
AcDbPolyline
 62
250
  6
CONTINUOUS
 90
7
 70
0
 10
139.674370451
 20
131.7632062244
 10
139.6900708735
 20
131.7746539522
 10
139.7031436525
 20
131.7871541771
 10
139.7133797531
 20
131.8005070194
 10
139.7206154988
 20
131.8144989657
 10
139.7247351895
 20
131.8289062834
 10
139.7257414859
 20
131.8404757496
  0
LINE
  5
261
100
AcDbEntity
  8
ASSI
100
AcDbLine
 62
250
  6
CONTINUOUS
 10
137.6209732268
 20
130.5640197154
 11
137.6648283102
 21
130.5937023772
  0
LWPOLYLINE
  5
262
100
AcDbEntity
  8
0
100
AcDbPolyline
 62
250
  6
CONTINUOUS
 90
16
 70
0
 10
134.4699896617
 20
127.2300364649
 10
134.4337084905
 20
127.2058279391
 10
134.3979097456
 20
127.17760899
 10
134.362972692
 20
127.1456785794
 10
134.3292674656
 20
127.1103749897
 10
134.2971511519
 20
127.07207224
 10
134.266964003
 20
127.0311761239
 10
134.2390258328
 20
126.98811991
 10
134.2136326281
 20
126.9433597514
 10
134.191053414
 20
126.8973698535
 10
134.1715274027
 20
126.8506374497
 10
134.15526146
 20
126.8036576406
 10
134.1424279134
 20
126.7569281476
 10
134.1331627261
 20
126.7109440401
 10
134.1275640569
 20
126.6661924906
 10
134.12569122
 20
126.6231476133
  0
LINE
  5
263
100
AcDbEntity
  8
RACCORDO
100
AcDbLine
 62
7
  6
CONTINUOUS
 10
136.9828629568
 20
129.3370059648
 11
137.6653960418
 21
129.789199936
  0
LINE
  5
264
100
AcDbEntity
  8
ASSI
100
AcDbLine
 62
250
  6
CONTINUOUS
 10
137.6043009399
 20
130.5533485907
 11
137.6209731635
 21
130.5640197519
  0
LINE
  5
265
100
AcDbEntity
  8
RACCORDO
100
AcDbLine
 62
250
  6
CONTINUOUS
 10
137.0899129375
 20
129.2265782778
 11
136.4776394119
 21
128.8469782796
  0
LINE
  5
266
100
AcDbEntity
  8
RACCORDO
100
AcDbLine
 62
250
  6
CONTINUOUS
 10
137.1995335541
 20
129.0451054392
 11
136.6859589186
 21
128.7266972073
  0
LINE
  5
267
100
AcDbEntity
  8
0
100
AcDbLine
 62
250
  6
CONTINUOUS
 10
136.8740429388
 20
128.6180998513
 11
134.4699896617
 21
127.2300364649
  0
LINE
  5
268
100
AcDbEntity
  8
0
100
AcDbLine
 62
250
  6
CONTINUOUS
 10
137.2274751755
 20
128.0059372609
 11
134.8234218984
 21
126.6178738746
  0
LINE
  5
269
100
AcDbEntity
  8
RACCORDO
100
AcDbLine
 62
250
  6
CONTINUOUS
 10
137.9993344526
 20
128.441443657
 11
137.2265501197
 21
128.0254944722
  0
LINE
  5
26A
100
AcDbEntity
  8
RACCORDO
100
AcDbLine
 62
250
  6
CONTINUOUS
 10
138.0904575545
 20
128.3503449597
 11
137.2274751755
 21
127.8860394548
  0
LWPOLYLINE
  5
26B
100
AcDbEntity
  8
0
100
AcDbPolyline
 62
250
  6
CONTINUOUS
 90
16
 70
0
 10
134.8234218984
 20
126.6178738746
 10
134.7841976521
 20
126.5985027179
 10
134.7417236751
 20
126.5815695746
 10
134.6964525903
 20
126.5672548929
 10
134.6488611676
 20
126.555710039
 10
134.5994618036
 20
126.5470598935
 10
134.5487989212
 20
126.5413981084
 10
134.4974253313
 20
126.5387820884
 10
134.4458763235
 20
126.5392347816
 10
134.3946818098
 20
126.5427499522
 10
134.3443166176
 20
126.5493015135
 10
134.2953897253
 20
126.5588168854
 10
134.2485985673
 20
126.5711418751
 10
134.2044681386
 20
126.5860931629
 10
134.1633685456
 20
126.6034980549
 10
134.12569122
 20
126.6231476133
  0
LWPOLYLINE
  5
26C
100
AcDbEntity
  8
RACCORDO
100
AcDbPolyline
 62
250
  6
CONTINUOUS
 90
8
 70
0
 10
137.5177472178
 20
98.8000812218
 10
137.518553814
 20
98.8000948948
 10
137.5213380714
 20
98.8018850298
 10
137.5244846738
 20
98.8063017743
 10
137.5279490342
 20
98.8132813896
 10
137.5316870046
 20
98.822733884
 10
137.535647622
 20
98.83453065
 10
137.5397774289
 20
98.848511891
  0
LINE
  5
26D
100
AcDbEntity
  8
0
100
AcDbLine
 62
250
  6
CONTINUOUS
 10
137.2274751755
 20
94.4003319355
 11
137.2524801821
 21
94.3887918102
  0
LINE
  5
26E
100
AcDbEntity
  8
RACCORDO
100
AcDbLine
 62
7
  6
CONTINUOUS
 10
138.146713991
 20
92.448583888
 11
137.6778674373
 21
92.7192900121
  0
LWPOLYLINE
  5
26F
100
AcDbEntity
  8
RACCORDO
100
AcDbPolyline
 62
250
  6
CONTINUOUS
 90
13
 70
0
 10
137.5322939913
 20
91.9037293955
 10
137.5510678373
 20
91.8919016591
 10
137.5701467715
 20
91.8779387723
 10
137.5892042962
 20
91.8620796862
 10
137.6079143302
 20
91.8445957521
 10
137.6259566387
 20
91.8257862162
 10
137.6430223342
 20
91.8059731294
 10
137.6588197526
 20
91.785495093
 10
137.6730781815
 20
91.7647030095
 10
137.685552775
 20
91.7439542823
 10
137.6960303361
 20
91.7236043792
 10
137.7043325131
 20
91.7040007278
 10
137.7103178879
 20
91.6854783796
  0
LWPOLYLINE
  5
270
100
AcDbEntity
  8
0
100
AcDbPolyline
 62
250
  6
CONTINUOUS
 90
9
 70
0
 10
119.1110304426
 20
135.4119940214
 10
119.1121469784
 20
135.3927230245
 10
119.1182384024
 20
135.3631623884
 10
119.1295885657
 20
135.3340822469
 10
119.14607119
 20
135.3058337889
 10
119.1674184015
 20
135.2788198261
 10
119.1933119562
 20
135.2533433166
 10
119.2234522744
 20
135.229617543
 10
119.2574770516
 20
135.2078681316
  0
LINE
  5
271
100
AcDbEntity
  8
0
100
AcDbLine
 62
7
  6
CONTINUOUS
 10
119.1110304422
 20
93.260233146
 11
119.1110304422
 21
135.4120054283
  0
LINE
  5
272
100
AcDbEntity
  8
0
100
AcDbLine
 62
250
  6
CONTINUOUS
 10
119.2574770516
 20
93.0560958494
 11
119.2574770516
 21
135.2078681316
  0
LWPOLYLINE
  5
273
100
AcDbEntity
  8
RACCORDO
100
AcDbPolyline
 62
7
  6
CONTINUOUS
 90
9
 70
0
 10
129.7526901758
 20
133.5141309406
 10
129.7399698232
 20
133.4858794391
 10
129.7256664898
 20
133.4582138473
 10
129.7095694448
 20
133.4305295053
 10
129.6924605141
 20
133.4037879423
 10
129.6766867384
 20
133.3806613049
 10
129.6643523565
 20
133.3629828862
 10
129.6540614762
 20
133.3479698544
 10
129.6464587896
 20
133.3363729044
  0
LWPOLYLINE
  5
274
100
AcDbEntity
  8
RACCORDO
100
AcDbPolyline
 62
250
  6
CONTINUOUS
 90
22
 70
0
 10
134.0765008784
 20
130.7969251663
 10
134.0728681015
 20
130.7923875273
 10
134.0695207282
 20
130.788163982
 10
134.0664000492
 20
130.7841330641
 10
134.0634909031
 20
130.7802657948
 10
134.0608084515
 20
130.7765911529
 10
134.0583394688
 20
130.7730746079
 10
134.0561236818
 20
130.7697820601
 10
134.0541213639
 20
130.7666476091
 10
134.0522001099
 20
130.7634390242
 10
134.0503338888
 20
130.7600933655
 10
134.0485487317
 20
130.7566735729
 10
134.0467903266
 20
130.7531362346
 10
134.0450425801
 20
130.7494832591
 10
134.0433215856
 20
130.7457127379
 10
134.0416213109
 20
130.7417755341
 10
134.0399256645
 20
130.7377018627
 10
134.038250738
 20
130.7334615086
 10
134.0366387735
 20
130.7289146897
 10
134.0351038516
 20
130.7240148121
 10
134.0336318917
 20
130.7188084696
 10
134.0322228938
 20
130.7132956624
  0
LINE
  5
275
100
AcDbEntity
  8
RACCORDO
100
AcDbLine
 62
250
  6
CONTINUOUS
 10
134.0989919482
 20
130.8247194701
 11
134.0765008784
 21
130.7969251663
  0
LWPOLYLINE
  5
276
100
AcDbEntity
  8
RACCORDO
100
AcDbPolyline
 62
250
  6
CONTINUOUS
 90
7
 70
0
 10
137.1995335541
 20
129.0451054392
 10
137.2109773051
 20
129.0534164088
 10
137.2206319847
 20
129.0625368525
 10
137.2283114448
 20
129.0723416246
 10
137.2338522584
 20
129.0826834859
 10
137.2371292539
 20
129.0934149841
 10
137.2380618269
 20
129.1030393626
  0
LWPOLYLINE
  5
277
100
AcDbEntity
  8
RACCORDO
100
AcDbPolyline
 62
250
  6
CONTINUOUS
 90
25
 70
0
 10
138.2918251198
 20
129.1623174094
 10
138.3912037603
 20
129.2330528852
 10
138.4879490412
 20
129.3094900439
 10
138.5820609627
 20
129.3916288856
 10
138.6734891172
 20
129.4795593998
 10
138.7622839122
 20
129.573191597
 10
138.8485965699
 20
129.6722555081
 10
138.9328941778
 20
129.7772137651
 10
139.0147096484
 20
129.8876037359
 10
139.092792942
 20
130.0017675557
 10
139.1670180064
 20
130.1196571879
 10
139.2375108938
 20
130.2413206689
 10
139.3033997213
 20
130.3652442435
 10
139.3646910372
 20
130.4916539431
 10
139.4213782933
 20
130.6203237363
 10
139.4725699622
 20
130.7490617738
 10
139.5181804207
 20
130.8784917199
 10
139.5582952921
 20
131.0079899103
 10
139.5922799187
 20
131.1334935032
 10
139.619619517
 20
131.2548073515
 10
139.6408288704
 20
131.3721266022
 10
139.6568176713
 20
131.4819738548
 10
139.6678891504
 20
131.583189976
 10
139.673740077
 20
131.6769340992
 10
139.674370451
 20
131.7632062244
  0
LWPOLYLINE
  5
278
100
AcDbEntity
  8
RACCORDO
100
AcDbPolyline
 62
7
  6
CONTINUOUS
 90
25
 70
0
 10
138.2535965509
 20
129.0728184037
 10
138.3023802211
 20
129.1060819887
 10
138.4056803272
 20
129.1827768473
 10
138.5074559706
 20
129.266816387
 10
138.6072635882
 20
129.3577369655
 10
138.704767437
 20
129.4551367756
 10
138.7997206199
 20
129.5586611181
 10
138.8918054569
 20
129.6679093533
 10
138.9806702721
 20
129.7824132203
 10
139.0659823981
 20
129.9016857197
 10
139.1473986062
 20
130.0252372103
 10
139.2245928157
 20
130.1525553033
 10
139.2972573873
 20
130.2830937071
 10
139.3650888589
 20
130.4163192706
 10
139.4278096306
 20
130.5516910905
 10
139.4851619898
 20
130.6886437494
 10
139.5368875313
 20
130.8266194179
 10
139.5827607291
 20
130.9650618035
 10
139.6225872757
 20
131.1034209855
 10
139.6561602351
 20
131.2411273433
 10
139.6833117578
 20
131.3776454831
 10
139.7039060547
 20
131.5125149305
 10
139.7177863577
 20
131.6452380418
 10
139.7248243168
 20
131.7752395075
 10
139.7257414635
 20
131.8405304254
  0
LINE
  5
279
100
AcDbEntity
  8
RACCORDO
100
AcDbLine
 62
250
  6
CONTINUOUS
 10
137.6220771557
 20
128.7185938766
 11
138.2918251198
 21
129.1623174094
  0
LINE
  5
27A
100
AcDbEntity
  8
RACCORDO
100
AcDbLine
 62
7
  6
CONTINUOUS
 10
137.6738322883
 20
128.6887111117
 11
138.253657463
 21
129.0728587144
  0
LINE
  5
27B
100
AcDbEntity
  8
RACCORDO
100
AcDbLine
 62
250
  6
CONTINUOUS
 10
137.5614951098
 20
126.7567320501
 11
138.146713991
 21
127.1300436475
  0
LWPOLYLINE
  5
27C
100
AcDbEntity
  8
RACCORDO
100
AcDbPolyline
 62
250
  6
CONTINUOUS
 90
10
 70
0
 10
137.7103178879
 20
126.5162803531
 10
137.697555997
 20
126.5095238031
 10
137.6837934828
 20
126.5034151788
 10
137.6691270014
 20
126.4980057752
 10
137.6536479902
 20
126.4933385555
 10
137.6374811954
 20
126.4894599409
 10
137.6207888906
 20
126.486412493
 10
137.6037135432
 20
126.4842210482
 10
137.5863718729
 20
126.4828994403
 10
137.5688965317
 20
126.4824577784
  0
LINE
  5
27D
100
AcDbEntity
  8
RACCORDO
100
AcDbLine
 62
7
  6
CONTINUOUS
 10
137.5177472178
 20
98.8000812218
 11
137.2274751755
 21
98.8449850164
  0
LINE
  5
27E
100
AcDbEntity
  8
RACCORDO
100
AcDbLine
 62
250
  6
CONTINUOUS
 10
137.5483226458
 20
98.8822527689
 11
137.2274751755
 21
98.9318864463
  0
LWPOLYLINE
  5
27F
100
AcDbEntity
  8
0
100
AcDbPolyline
 62
250
  6
CONTINUOUS
 90
4
 70
0
 10
138.5882767944
 20
99.1955204675
 10
138.6353251644
 20
99.1862135567
 10
138.6960360415
 20
99.1660910738
 10
138.7571040007
 20
99.1363143944
  0
LINE
  5
280
100
AcDbEntity
  8
RACCORDO
100
AcDbLine
 62
7
  6
CONTINUOUS
 10
129.7673416639
 20
133.5540729308
 11
129.763339863
 21
133.5420189719
  0
LWPOLYLINE
  5
281
100
AcDbEntity
  8
RACCORDO
100
AcDbPolyline
 62
7
  6
CONTINUOUS
 90
4
 70
0
 10
129.7707211788
 20
133.5640650066
 10
129.7695152565
 20
133.5606452393
 10
129.768368186
 20
133.5572482598
 10
129.7673470888
 20
133.5540901554
  0
LINE
  5
282
100
AcDbEntity
  8
RACCORDO
100
AcDbLine
 62
7
  6
CONTINUOUS
 10
129.7707211788
 20
133.5640650066
 11
130.1170444338
 21
134.5170800028
  0
LINE
  5
283
100
AcDbEntity
  8
RACCORDO
100
AcDbLine
 62
250
  6
CONTINUOUS
 10
129.803181487
 20
133.5346233068
 11
129.8037356576
 21
133.5361093891
  0
LINE
  5
284
100
AcDbEntity
  8
RACCORDO
100
AcDbLine
 62
7
  6
CONTINUOUS
 10
129.763339863
 20
133.5420189719
 11
129.7526901758
 21
133.5141309406
  0
LINE
  5
285
100
AcDbEntity
  8
RACCORDO
100
AcDbLine
 62
250
  6
CONTINUOUS
 10
137.7103178879
 20
126.5162803531
 11
138.2881353472
 21
126.8848705775
  0
LINE
  5
286
100
AcDbEntity
  8
RACCORDO
100
AcDbLine
 62
250
  6
CONTINUOUS
 10
138.2881353472
 20
124.6944753138
 11
139.7422271888
 21
125.5904759647
  0
LINE
  5
287
100
AcDbEntity
  8
RACCORDO
100
AcDbLine
 62
250
  6
CONTINUOUS
 10
138.2881353472
 20
124.5371313609
 11
139.7806744685
 21
125.4564388188
  0
LWPOLYLINE
  5
288
100
AcDbEntity
  8
0
100
AcDbPolyline
 62
250
  6
CONTINUOUS
 90
21
 70
0
 10
138.26305976
 20
122.5428882194
 10
138.3305079108
 20
122.5713648888
 10
138.3961431696
 20
122.5932103622
 10
138.4601032383
 20
122.6083787428
 10
138.522250415
 20
122.6169159275
 10
138.5821715949
 20
122.6189596068
 10
138.6400678011
 20
122.6144906547
 10
138.6957380104
 20
122.6035281973
 10
138.7481660486
 20
122.5862673028
 10
138.7974271519
 20
122.5622469323
 10
138.843446084
 20
122.5319281246
 10
138.8849809615
 20
122.4968890642
 10
138.9214421003
 20
122.4575597517
 10
138.9534191846
 20
122.4135101864
 10
138.9814393838
 20
122.3650285507
 10
139.0057543165
 20
122.3127090965
 10
139.0261123642
 20
122.2559575719
 10
139.0422858412
 20
122.1932794045
 10
139.0541988525
 20
122.1241764033
 10
139.0619272931
 20
122.0491467591
 10
139.0654711632
 20
121.9681904721
  0
LWPOLYLINE
  5
289
100
AcDbEntity
  8
0
100
AcDbPolyline
 62
250
  6
CONTINUOUS
 90
9
 70
0
 10
138.2881353472
 20
122.8520475427
 10
138.2888936474
 20
122.8522958556
 10
138.3629904976
 20
122.8696105079
 10
138.4346078804
 20
122.8793799892
 10
138.5040503224
 20
122.8817129261
 10
138.5711725936
 20
122.8765419756
 10
138.6353251644
 20
122.8638515837
 10
138.6960360415
 20
122.8437291008
 10
138.7571040007
 20
122.8139524214
  0
LWPOLYLINE
  5
28A
100
AcDbEntity
  8
RACCORDO
100
AcDbPolyline
 62
250
  6
CONTINUOUS
 90
3
 70
0
 10
129.526439347
 20
133.250649838
 10
129.5299565018
 20
133.2623455682
 10
129.5311134576
 20
133.2747335359
  0
LWPOLYLINE
  5
28B
100
AcDbEntity
  8
RACCORDO
100
AcDbPolyline
 62
250
  6
CONTINUOUS
 90
9
 70
0
 10
129.7990338276
 20
133.5227266733
 10
129.7995244287
 20
133.5242137254
 10
129.8000230363
 20
133.5257009703
 10
129.800529616
 20
133.5271883107
 10
129.8010440916
 20
133.5286756321
 10
129.8015664686
 20
133.5301628548
 10
129.8020968361
 20
133.5316499337
 10
129.8026352012
 20
133.5331367893
 10
130.172634656
 20
134.5512450134
  0
LINE
  5
28C
100
AcDbEntity
  8
ASSI
100
AcDbLine
 62
7
  6
CONTINUOUS
 10
130.9194647909
 20
132.8919013709
 11
131.281543605
 21
133.9109748841
  0
LWPOLYLINE
  5
28D
100
AcDbEntity
  8
RACCORDO
100
AcDbPolyline
 62
7
  6
CONTINUOUS
 90
9
 70
0
 10
137.1762145049
 20
128.5365144495
 10
137.1842836381
 20
128.5457500745
 10
137.1981596283
 20
128.5643398286
 10
137.2104458472
 20
128.5847399733
 10
137.2208967898
 20
128.6068271614
 10
137.2289225565
 20
128.6294934437
 10
137.2344768856
 20
128.6525062963
 10
137.2375594374
 20
128.6765464471
 10
137.2380615889
 20
128.690934496
  0
LINE
  5
28E
100
AcDbEntity
  8
RACCORDO
100
AcDbLine
 62
250
  6
CONTINUOUS
 10
137.1774896206
 20
128.5803296763
 11
137.0584293012
 21
128.4511778029
  0
LINE
  5
28F
100
AcDbEntity
  8
RACCORDO
100
AcDbLine
 62
7
  6
CONTINUOUS
 10
137.176305122
 20
128.5366121199
 11
137.0760400317
 21
128.4278485595
  0
LINE
  5
290
100
AcDbEntity
  8
0
100
AcDbLine
 62
250
  6
CONTINUOUS
 10
137.2274751755
 20
122.2932975904
 11
137.5503142553
 21
122.4730751069
  0
LINE
  5
291
100
AcDbEntity
  8
0
100
AcDbLine
 62
250
  6
CONTINUOUS
 10
137.2421114342
 20
121.9778198043
 11
138.1937987174
 21
122.5077803541
  0
LWPOLYLINE
  5
292
100
AcDbEntity
  8
RACCORDO
100
AcDbPolyline
 62
250
  6
CONTINUOUS
 90
10
 70
0
 10
137.7103178879
 20
122.590530682
 10
137.6975256667
 20
122.5837594205
 10
137.683739475
 20
122.5776436288
 10
137.669058554
 20
122.5722332271
 10
137.6535805136
 20
122.5675706662
 10
137.6374279859
 20
122.5636990592
 10
137.6207512931
 20
122.5606569919
 10
137.6036881205
 20
122.558468783
 10
137.5863590819
 20
122.5571491216
 10
137.5688965317
 20
122.5567081072
  0
LINE
  5
293
100
AcDbEntity
  8
0
100
AcDbLine
 62
250
  6
CONTINUOUS
 10
138.1937987174
 20
122.5077803541
 11
138.26305976
 21
122.5428882194
  0
LINE
  5
294
100
AcDbEntity
  8
0
100
AcDbLine
 62
250
  6
CONTINUOUS
 10
137.2274751755
 20
121.9706012461
 11
137.2421114342
 21
121.9778198043
  0
LINE
  5
295
100
AcDbEntity
  8
0
100
AcDbLine
 62
7
  6
CONTINUOUS
 10
138.6192197313
 20
99.2159270434
 11
138.757099835
 21
99.1363167995
  0
LWPOLYLINE
  5
296
100
AcDbEntity
  8
RACCORDO
100
AcDbPolyline
 62
250
  6
CONTINUOUS
 90
6
 70
0
 10
129.7673416659
 20
133.5540729372
 10
129.7670377287
 20
133.5521374658
 10
129.7683437634
 20
133.5472595495
 10
129.7723472647
 20
133.5417141644
 10
129.7789337625
 20
133.5356598679
 10
129.7879149306
 20
133.5292697641
  0
LWPOLYLINE
  5
297
100
AcDbEntity
  8
RACCORDO
100
AcDbPolyline
 62
250
  6
CONTINUOUS
 90
10
 70
0
 10
134.0825067137
 20
131.0656006068
 10
134.0819228143
 20
131.0641320473
 10
134.0813472292
 20
131.0626627831
 10
134.0807799948
 20
131.0611929113
 10
134.0802211933
 20
131.0597225387
 10
134.0796708126
 20
131.0582517528
 10
134.0791287483
 20
131.0567806214
 10
134.0785949898
 20
131.0553092319
 10
134.0780696184
 20
131.0538376911
 10
134.0775526685
 20
131.0523660963
  0
LWPOLYLINE
  5
298
100
AcDbEntity
  8
RACCORDO
100
AcDbPolyline
 62
250
  6
CONTINUOUS
 90
10
 70
0
 10
134.2106570179
 20
131.0172264591
 10
134.2103575863
 20
131.0164964012
 10
134.2100624523
 20
131.0157660276
 10
134.2097716161
 20
131.0150353383
 10
134.2094850615
 20
131.0143043067
 10
134.2092028047
 20
131.0135729594
 10
134.2089248932
 20
131.0128413763
 10
134.2086513431
 20
131.012109584
 10
134.2083821384
 20
131.0113775559
 10
134.2081172791
 20
131.0106452919
  0
LINE
  5
299
100
AcDbEntity
  8
RACCORDO
100
AcDbLine
 62
250
  6
CONTINUOUS
 10
134.4922105581
 20
132.0571760245
 11
134.0825067137
 21
131.0656006068
  0
LINE
  5
29A
100
AcDbEntity
  8
RACCORDO
100
AcDbLine
 62
7
  6
CONTINUOUS
 10
134.5598089678
 20
131.855778547
 11
134.2106570179
 21
131.0172264591
  0
LINE
  5
29B
100
AcDbEntity
  8
ASSI
100
AcDbLine
 62
7
  6
CONTINUOUS
 10
132.9667775804
 20
131.709808625
 11
133.3833016091
 21
132.6974461537
  0
LWPOLYLINE
  5
29C
100
AcDbEntity
  8
RACCORDO
100
AcDbPolyline
 62
250
  6
CONTINUOUS
 90
6
 70
0
 10
137.176305122
 20
128.5366121199
 10
137.1798520465
 20
128.5418455354
 10
137.1821733393
 20
128.5493935106
 10
137.1825521576
 20
128.5584279703
 10
137.1809821663
 20
128.5687978308
 10
137.1774896206
 20
128.5803296763
  0
LINE
  5
29D
100
AcDbEntity
  8
0
100
AcDbLine
 62
7
  6
CONTINUOUS
 10
137.2586828436
 20
120.6423393849
 11
137.5577458823
 21
120.8214713426
  0
LINE
  5
29E
100
AcDbEntity
  8
RACCORDO
100
AcDbLine
 62
250
  6
CONTINUOUS
 10
137.2948746241
 20
120.5741103836
 11
137.6163839051
 21
120.7597451975
  0
LINE
  5
29F
100
AcDbEntity
  8
0
100
AcDbLine
 62
250
  6
CONTINUOUS
 10
137.2524801821
 20
94.3887918102
 11
137.5577458823
 21
94.0398520184
  0
LINE
  5
2A0
100
AcDbEntity
  8
0
100
AcDbLine
 62
250
  6
CONTINUOUS
 10
137.6163839051
 20
95.010026712
 11
137.9231263038
 21
94.6593989517
  0
LINE
  5
2A1
100
AcDbEntity
  8
0
100
AcDbLine
 62
7
  6
CONTINUOUS
 10
126.8967580183
 20
133.6937592115
 11
126.8967580183
 21
134.3788591196
  0
LINE
  5
2A2
100
AcDbEntity
  8
RACCORDO
100
AcDbLine
 62
7
  6
CONTINUOUS
 10
128.2024489036
 20
133.9437030488
 11
128.2024489036
 21
134.3559815021
  0
LWPOLYLINE
  5
2A3
100
AcDbEntity
  8
RACCORDO
100
AcDbPolyline
 62
250
  6
CONTINUOUS
 90
6
 70
0
 10
129.7709863878
 20
133.5647980719
 10
129.770759724
 20
133.5630662267
 10
129.7723619009
 20
133.5590024951
 10
129.7766182999
 20
133.5541259972
 10
129.7834069329
 20
133.5485764931
 10
129.7925332385
 20
133.542513031
  0
LWPOLYLINE
  5
2A4
100
AcDbEntity
  8
RACCORDO
100
AcDbPolyline
 62
250
  6
CONTINUOUS
 90
27
 70
0
 10
134.0480742722
 20
130.9518113471
 10
134.0455786773
 20
130.9436035943
 10
134.0431519243
 20
130.93539766
 10
134.040815136
 20
130.9272081778
 10
134.0385811234
 20
130.9189757005
 10
134.0364421446
 20
130.9106558207
 10
134.0344231568
 20
130.9022920418
 10
134.0325856674
 20
130.8939516939
 10
134.0309517992
 20
130.8856140321
 10
134.0295112985
 20
130.877275878
 10
134.0282803899
 20
130.8690197803
 10
134.0272505622
 20
130.860899535
 10
134.0264396566
 20
130.8528364281
 10
134.0258998187
 20
130.8447186152
 10
134.0256375722
 20
130.8364338497
 10
134.0256000518
 20
130.8280902741
 10
134.025751774
 20
130.8198961015
 10
134.026098204
 20
130.8118244044
 10
134.0266104577
 20
130.8038495738
 10
134.0272350751
 20
130.7961665666
 10
134.0280732096
 20
130.78872533
 10
134.0290031691
 20
130.7815151702
 10
134.0297184576
 20
130.7748026276
 10
134.0301958224
 20
130.7687848027
 10
134.0305799426
 20
130.7632902362
 10
134.0308627057
 20
130.7580369775
 10
134.0310395066
 20
130.7530302129
  0
LWPOLYLINE
  5
2A5
100
AcDbEntity
  8
RACCORDO
100
AcDbPolyline
 62
250
  6
CONTINUOUS
 90
3
 70
0
 10
134.0614724546
 20
130.9943666435
 10
134.0532779824
 20
130.9683902766
 10
134.0480742722
 20
130.9518113471
  0
LWPOLYLINE
  5
2A6
100
AcDbEntity
  8
RACCORDO
100
AcDbPolyline
 62
250
  6
CONTINUOUS
 90
20
 70
0
 10
134.2081172791
 20
131.0106452919
 10
134.2028683745
 20
130.9968971566
 10
134.1974732854
 20
130.983667573
 10
134.1919320118
 20
130.9709565411
 10
134.1862107733
 20
130.9587806878
 10
134.1803433503
 20
130.9471233863
 10
134.1744310838
 20
130.935934756
 10
134.1684885892
 20
130.9252217147
 10
134.1625012511
 20
130.9149773446
 10
134.1565265647
 20
130.9051310122
 10
134.1505790347
 20
130.8956910012
 10
134.1446441564
 20
130.8866490278
 10
134.1387359107
 20
130.8779096084
 10
134.1328452491
 20
130.8694516285
 10
134.1269812203
 20
130.8612962025
 10
134.1211849507
 20
130.8534111895
 10
134.1154235639
 20
130.8457551865
 10
134.1097299363
 20
130.8383695965
 10
134.1042438246
 20
130.8313464873
 10
134.0989919482
 20
130.8247194701
  0
LINE
  5
2A7
100
AcDbEntity
  8
0
100
AcDbLine
 62
7
  6
CONTINUOUS
 10
137.2586828436
 20
117.5390010905
 11
137.5577458823
 21
117.7174900454
  0
LINE
  5
2A8
100
AcDbEntity
  8
RACCORDO
100
AcDbLine
 62
250
  6
CONTINUOUS
 10
139.7806744685
 20
118.2942501837
 11
139.0125564297
 21
117.8507437141
  0
LINE
  5
2A9
100
AcDbEntity
  8
0
100
AcDbLine
 62
250
  6
CONTINUOUS
 10
137.2274751755
 20
118.052461672
 11
137.2524801821
 21
118.0664298372
  0
LWPOLYLINE
  5
2AA
100
AcDbEntity
  8
RACCORDO
100
AcDbPolyline
 62
250
  6
CONTINUOUS
 90
8
 70
0
 10
137.250724419
 20
118.3709280873
 10
137.2524545486
 20
118.3718941071
 10
137.2646837392
 20
118.3809406222
 10
137.2750509504
 20
118.3928332794
 10
137.2833728894
 20
118.4073574597
 10
137.2895100978
 20
118.4242553666
 10
137.2933644085
 20
118.4432372152
 10
137.2948746241
 20
118.46397545
  0
LINE
  5
2AB
100
AcDbEntity
  8
RACCORDO
100
AcDbLine
 62
250
  6
CONTINUOUS
 10
137.2506681468
 20
118.3708977911
 11
137.250724419
 21
118.3709280873
  0
LINE
  5
2AC
100
AcDbEntity
  8
RACCORDO
100
AcDbLine
 62
250
  6
CONTINUOUS
 10
137.6163839051
 20
118.6368727369
 11
137.2948746241
 21
118.46397545
  0
LINE
  5
2AD
100
AcDbEntity
  8
RACCORDO
100
AcDbLine
 62
7
  6
CONTINUOUS
 10
137.573216533
 20
118.5443538751
 11
137.2506681468
 21
118.3708977911
  0
LWPOLYLINE
  5
2AE
100
AcDbEntity
  8
RACCORDO
100
AcDbPolyline
 62
250
  6
CONTINUOUS
 90
7
 70
0
 10
137.2948746241
 20
118.46397545
 10
137.2845004726
 20
118.4585821152
 10
137.2735000016
 20
118.4536197529
 10
137.2619268044
 20
118.4491125392
 10
137.2498372644
 20
118.4450824328
 10
137.2372902805
 20
118.441549068
 10
137.2274751755
 20
118.4392594033
  0
LINE
  5
2AF
100
AcDbEntity
  8
0
100
AcDbLine
 62
250
  6
CONTINUOUS
 10
137.9231263038
 20
96.9612099162
 11
137.7443656589
 21
97.1995610888
  0
LWPOLYLINE
  5
2B0
100
AcDbEntity
  8
RACCORDO
100
AcDbPolyline
 62
250
  6
CONTINUOUS
 90
13
 70
0
 10
129.4770689243
 20
133.2179407899
 10
129.477059535
 20
133.2185944173
 10
129.4742228664
 20
133.2421652522
 10
129.4689220163
 20
133.2663002107
 10
129.4612469119
 20
133.2905848926
 10
129.4513289819
 20
133.314600021
 10
129.4393398245
 20
133.337928844
 10
129.4254573018
 20
133.3602113767
 10
129.4099428377
 20
133.3810159811
 10
129.3931686119
 20
133.3998760107
 10
129.375479286
 20
133.416473372
 10
129.3571563319
 20
133.4306088499
 10
129.3385148812
 20
133.442092332
  0
LINE
  5
2B1
100
AcDbEntity
  8
RACCORDO
100
AcDbLine
 62
7
  6
CONTINUOUS
 10
128.706509048
 20
132.7074270313
 11
128.706509048
 21
132.9302442646
  0
LINE
  5
2B2
100
AcDbEntity
  8
RACCORDO
100
AcDbLine
 62
7
  6
CONTINUOUS
 10
129.5311134593
 20
133.2537465456
 11
129.5311134593
 21
133.2747485772
  0
LWPOLYLINE
  5
2B3
100
AcDbEntity
  8
RACCORDO
100
AcDbPolyline
 62
250
  6
CONTINUOUS
 90
7
 70
0
 10
134.0775521313
 20
131.0523667621
 10
134.075079562
 20
131.0420748206
 10
134.0724735458
 20
131.0320156628
 10
134.0697726225
 20
131.0222057951
 10
134.0670229385
 20
131.0126799842
 10
134.0642544961
 20
131.0034212818
 10
134.0614724546
 20
130.9943666435
  0
LWPOLYLINE
  5
2B4
100
AcDbEntity
  8
ASSI
100
AcDbPolyline
 62
7
  6
CONTINUOUS
 90
47
 70
0
 10
137.6760669532
 20
130.6224229283
 10
137.674502034
 20
130.6185263121
 10
137.6729015475
 20
130.6146201729
 10
137.6712674179
 20
130.6107096738
 10
137.6696013536
 20
130.6067991855
 10
137.6679036646
 20
130.6028896538
 10
137.6661739232
 20
130.598980388
 10
137.6644134734
 20
130.5950747251
 10
137.6626228109
 20
130.5911740068
 10
137.6607999048
 20
130.5872741965
 10
137.6589458108
 20
130.5833780423
 10
137.6570611279
 20
130.5794872384
 10
137.655142828
 20
130.5755961394
 10
137.6531917626
 20
130.5717072265
 10
137.6512086293
 20
130.5678225893
 10
137.6491899417
 20
130.5639362664
 10
137.6471363961
 20
130.5600506291
 10
137.6450488918
 20
130.5561683532
 10
137.6429241697
 20
130.5522844881
 10
137.640762767
 20
130.5484012803
 10
137.6385660313
 20
130.5445223532
 10
137.6363320823
 20
130.540645645
 10
137.6340615859
 20
130.5367736625
 10
137.631756448
 20
130.5329109367
 10
137.6294170825
 20
130.5290593945
 10
137.6270450866
 20
130.5252228747
 10
137.6246424856
 20
130.521405753
 10
137.6222110134
 20
130.517611788
 10
137.6197525135
 20
130.5138448015
 10
137.6172701692
 20
130.5101105167
 10
137.614768939
 20
130.5064170292
 10
137.6122510847
 20
130.5027681706
 10
137.6097218384
 20
130.4991718879
 10
137.6071928188
 20
130.4956445912
 10
137.6046701157
 20
130.4921941953
 10
137.6021590906
 20
130.4888272881
 10
137.5996733377
 20
130.4855609347
 10
137.5972151173
 20
130.4823966291
 10
137.594798796
 20
130.4793509777
 10
137.5924600969
 20
130.4764655617
 10
137.5902038078
 20
130.4737417633
 10
137.5880488453
 20
130.4711975759
 10
137.5860558056
 20
130.4688972415
 10
137.5842453818
 20
130.4668549445
 10
137.582625042
 20
130.4650690356
 10
137.5812369007
 20
130.4635744639
 10
137.5802074855
 20
130.4624905701
  0
LWPOLYLINE
  5
2B5
100
AcDbEntity
  8
ASSI
100
AcDbPolyline
 62
250
  6
CONTINUOUS
 90
12
 70
0
 10
137.6653553152
 20
130.4964883883
 10
137.639607346
 20
130.4422876557
 10
137.6110190944
 20
130.3891557898
 10
137.5798033281
 20
130.3374882253
 10
137.5461923705
 20
130.2876694995
 10
137.5104363708
 20
130.2400703886
 10
137.472801443
 20
130.1950451503
 10
137.4335676854
 20
130.1529288868
 10
137.3930270956
 20
130.1140350499
 10
137.3514813977
 20
130.0786531087
 10
137.3092397961
 20
130.0470463953
 10
137.266616675
 20
130.0194501446
  0
LWPOLYLINE
  5
2B6
100
AcDbEntity
  8
0
100
AcDbPolyline
 62
250
  6
CONTINUOUS
 90
12
 70
0
 10
137.2524826235
 20
118.0664270466
 10
137.2826937942
 20
118.0917770296
 10
137.3125234974
 20
118.1197220627
 10
137.3416711902
 20
118.1500435739
 10
137.369772711
 20
118.1825309772
 10
137.3966653183
 20
118.2169080176
 10
137.422371666
 20
118.2528653326
 10
137.4466714633
 20
118.2901401557
 10
137.4693664434
 20
118.3285056932
 10
137.4905005264
 20
118.3677454017
 10
137.5098738437
 20
118.4075893662
 10
137.5273341515
 20
118.4478181067
  0
LINE
  5
2B7
100
AcDbEntity
  8
0
100
AcDbLine
 62
250
  6
CONTINUOUS
 10
137.2421114342
 20
116.183704506
 11
137.2274751755
 21
116.173531488
  0
LWPOLYLINE
  5
2B8
100
AcDbEntity
  8
0
100
AcDbPolyline
 62
7
  6
CONTINUOUS
 90
22
 70
0
 10
138.1575683583
 20
116.7034283075
 10
138.2091516627
 20
116.7379026049
 10
138.2861905051
 20
116.7951021328
 10
138.3615694575
 20
116.857921368
 10
138.4349166418
 20
116.9259551186
 10
138.5059654328
 20
116.9988455789
 10
138.5744967489
 20
117.0762669078
 10
138.6402487704
 20
117.1578735292
 10
138.7029249017
 20
117.2432403917
 10
138.762211504
 20
117.3319111271
 10
138.8178223919
 20
117.4234519163
 10
138.8695082136
 20
117.5174157359
 10
138.916996802
 20
117.6133198959
 10
138.9600465099
 20
117.7107120651
 10
138.9984475925
 20
117.8091180425
 10
139.0319765694
 20
117.9080394607
 10
139.0604339511
 20
118.0070040028
 10
139.0836674369
 20
118.1056005061
 10
139.1015162341
 20
118.203469308
 10
139.1138187739
 20
118.3001989945
 10
139.1204307134
 20
118.3952718743
 10
139.1216031748
 20
118.4539943512
  0
LINE
  5
2B9
100
AcDbEntity
  8
0
100
AcDbLine
 62
250
  6
CONTINUOUS
 10
138.1937987174
 20
116.7917758444
 11
137.2421114342
 21
116.183704506
  0
LINE
  5
2BA
100
AcDbEntity
  8
0
100
AcDbLine
 62
7
  6
CONTINUOUS
 10
138.1576147632
 20
116.7034579295
 11
137.2274751755
 21
116.1091542816
  0
LINE
  5
2BB
100
AcDbEntity
  8
RACCORDO
100
AcDbLine
 62
250
  6
CONTINUOUS
 10
138.8072454755
 20
117.4060413101
 11
139.9219020117
 21
118.0496369038
  0
LINE
  5
2BC
100
AcDbEntity
  8
RACCORDO
100
AcDbLine
 62
250
  6
CONTINUOUS
 10
138.1468216409
 20
116.1261597593
 11
140.7941977788
 21
117.5459842603
  0
LINE
  5
2BD
100
AcDbEntity
  8
RACCORDO
100
AcDbLine
 62
250
  6
CONTINUOUS
 10
138.2894118172
 20
115.8818827891
 11
140.930664317
 21
117.2984230981
  0
LWPOLYLINE
  5
2BE
100
AcDbEntity
  8
RACCORDO
100
AcDbPolyline
 62
250
  6
CONTINUOUS
 90
10
 70
0
 10
137.6872543199
 20
115.3585210795
 10
137.6745547907
 20
115.3520182793
 10
137.6609222577
 20
115.3461513132
 10
137.6464508791
 20
115.3409659694
 10
137.6312330194
 20
115.3365011514
 10
137.6153841253
 20
115.3327962764
 10
137.5990450789
 20
115.329886566
 10
137.5823447433
 20
115.3277942281
 10
137.565396019
 20
115.3265326837
 10
137.5483226458
 20
115.3261111431
  0
LWPOLYLINE
  5
2BF
100
AcDbEntity
  8
RACCORDO
100
AcDbPolyline
 62
250
  6
CONTINUOUS
 90
13
 70
0
 10
136.2848874975
 20
132.1288812108
 10
136.2909221124
 20
132.1532374707
 10
136.2943842944
 20
132.1784738073
 10
136.2952164589
 20
132.2041704789
 10
136.2934047651
 20
132.2299000869
 10
136.2889793458
 20
132.2552346853
 10
136.2820138065
 20
132.2797528977
 10
136.2726240013
 20
132.3030469266
 10
136.2609661054
 20
132.3247293352
 10
136.2472340182
 20
132.3444394923
 10
136.2316561377
 20
132.3618495697
 10
136.2144915621
 20
132.3766699955
 10
136.1960257802
 20
132.3886542697
  0
LWPOLYLINE
  5
2C0
100
AcDbEntity
  8
ASSI
100
AcDbPolyline
 62
7
  6
CONTINUOUS
 90
16
 70
0
 10
137.6945454837
 20
130.677169832
 10
137.6937054778
 20
130.6741022504
 10
137.6927519101
 20
130.6707398513
 10
137.6917371032
 20
130.6672778969
 10
137.6906865709
 20
130.6638017054
 10
137.6895875001
 20
130.6602669619
 10
137.688434856
 20
130.6566591036
 10
137.6872245396
 20
130.6529685123
 10
137.6859642048
 20
130.6492214874
 10
137.6846626805
 20
130.645445539
 10
137.683325352
 20
130.6416563027
 10
137.6819509172
 20
130.6378499751
 10
137.6805370855
 20
130.6340206679
 10
137.6790841587
 20
130.6301699843
 10
137.6775943217
 20
130.626304394
 10
137.6760669532
 20
130.6224229283
  0
LINE
  5
2C1
100
AcDbEntity
  8
ASSI
100
AcDbLine
 62
250
  6
CONTINUOUS
 10
137.7237553158
 20
130.661448144
 11
137.7075864517
 21
130.6064779317
  0
LWPOLYLINE
  5
2C2
100
AcDbEntity
  8
ASSI
100
AcDbPolyline
 62
250
  6
CONTINUOUS
 90
3
 70
0
 10
137.7075864517
 20
130.6064779317
 10
137.6880713735
 20
130.5513545996
 10
137.6653553152
 20
130.4964883883
  0
LINE
  5
2C3
100
AcDbEntity
  8
RACCORDO
100
AcDbLine
 62
250
  6
CONTINUOUS
 10
138.1473313483
 20
116.1258654607
 11
137.5117201054
 21
115.5781847338
  0
LINE
  5
2C4
100
AcDbEntity
  8
RACCORDO
100
AcDbLine
 62
250
  6
CONTINUOUS
 10
138.2881353472
 20
115.8762761719
 11
137.6872543199
 21
115.3585210795
  0
LWPOLYLINE
  5
2C5
100
AcDbEntity
  8
0
100
AcDbPolyline
 62
250
  6
CONTINUOUS
 90
7
 70
0
 10
138.1576147632
 20
116.7034579295
 10
138.1670413502
 20
116.7107903457
 10
138.176961769
 20
116.7223949652
 10
138.1847103349
 20
116.7365572711
 10
138.1901545703
 20
116.75303513
 10
138.193201395
 20
116.7715468194
 10
138.1937987174
 20
116.7917758444
  0
LWPOLYLINE
  5
2C6
100
AcDbEntity
  8
0
100
AcDbPolyline
 62
250
  6
CONTINUOUS
 90
3
 70
0
 10
138.1668319335
 20
98.9481923671
 10
138.1670424515
 20
98.9477819096
 10
138.1769626154
 20
98.9238963796
  0
LWPOLYLINE
  5
2C7
100
AcDbEntity
  8
0
100
AcDbPolyline
 62
250
  6
CONTINUOUS
 90
9
 70
0
 10
134.12569122
 20
84.4713753311
 10
134.1275640569
 20
84.4304931588
 10
134.1331627261
 20
84.3922068122
 10
134.1424279134
 20
84.3569219108
 10
134.15526146
 20
84.3250122757
 10
134.1715274027
 20
84.2968159694
 10
134.191053414
 20
84.2726317141
 10
134.2136326281
 20
84.2527157267
 10
134.2292325305
 20
84.2425069005
  0
LINE
  5
2C8
100
AcDbEntity
  8
0
100
AcDbLine
 62
250
  6
CONTINUOUS
 10
134.12569122
 20
126.6231476133
 11
134.12569122
 21
84.4713753311
  0
LWPOLYLINE
  5
2C9
100
AcDbEntity
  8
RACCORDO
100
AcDbPolyline
 62
7
  6
CONTINUOUS
 90
13
 70
0
 10
134.8203092262
 20
132.0218982614
 10
134.8230272336
 20
132.0468535922
 10
134.8229547274
 20
132.0724813887
 10
134.8202116731
 20
132.0983611266
 10
134.815018608
 20
132.12406717
 10
134.8075150791
 20
132.1492143765
 10
134.7977184383
 20
132.1734566343
 10
134.7858686366
 20
132.1963690666
 10
134.7721993987
 20
132.2176666658
 10
134.7566764342
 20
132.2371813908
 10
134.7394512562
 20
132.2545883841
 10
134.7209138252
 20
132.2694753861
 10
134.7013895134
 20
132.2815130113
  0
LWPOLYLINE
  5
2CA
100
AcDbEntity
  8
RACCORDO
100
AcDbPolyline
 62
250
  6
CONTINUOUS
 90
13
 70
0
 10
136.3444518015
 20
132.1412525355
 10
136.3474373146
 20
132.165118751
 10
136.347870813
 20
132.1898839267
 10
136.3457449808
 20
132.215131212
 10
136.3410955813
 20
132.2404356399
 10
136.3340008571
 20
132.2653712685
 10
136.3245802177
 20
132.2895183519
 10
136.3129922225
 20
132.3124704267
 10
136.2994319174
 20
132.3338411358
 10
136.284127561
 20
132.3532707258
 10
136.2673367673
 20
132.3704321296
 10
136.2493421648
 20
132.3850364672
 10
136.2304466511
 20
132.3968378947
  0
LWPOLYLINE
  5
2CB
100
AcDbEntity
  8
ASSI
100
AcDbPolyline
 62
7
  6
CONTINUOUS
 90
7
 70
0
 10
137.6967546044
 20
130.6860058786
 10
137.6967109924
 20
130.6858068436
 10
137.6965890238
 20
130.6852673908
 10
137.6963307278
 20
130.6841649953
 10
137.6958874747
 20
130.6823460989
 10
137.6952755982
 20
130.6799356838
 10
137.6945454837
 20
130.677169832
  0
LINE
  5
2CC
100
AcDbEntity
  8
0
100
AcDbLine
 62
7
  6
CONTINUOUS
 10
137.4852194027
 20
118.4970318662
 11
137.4785927671
 21
118.4825102912
  0
LWPOLYLINE
  5
2CD
100
AcDbEntity
  8
0
100
AcDbPolyline
 62
7
  6
CONTINUOUS
 90
9
 70
0
 10
137.4785927671
 20
118.4825102912
 10
137.4533452091
 20
118.4341801289
 10
137.4250613378
 20
118.3863389282
 10
137.3941208801
 20
118.3397316944
 10
137.3608720004
 20
118.2949045447
 10
137.3257179326
 20
118.2523895376
 10
137.2892402925
 20
118.2128118405
 10
137.251888487
 20
118.176527271
 10
137.2274751755
 20
118.1553998028
  0
LWPOLYLINE
  5
2CE
100
AcDbEntity
  8
0
100
AcDbPolyline
 62
250
  6
CONTINUOUS
 90
5
 70
0
 10
137.2274751755
 20
116.1183461817
 10
137.2330219982
 20
116.1284834866
 10
137.238466776
 20
116.1449616865
 10
137.2415139894
 20
116.1634741811
 10
137.2421114342
 20
116.183704506
  0
LINE
  5
2CF
100
AcDbEntity
  8
RACCORDO
100
AcDbLine
 62
250
  6
CONTINUOUS
 10
137.2274751755
 20
115.2764774658
 11
137.5483226458
 21
115.3261111431
  0
LINE
  5
2D0
100
AcDbEntity
  8
RACCORDO
100
AcDbLine
 62
250
  6
CONTINUOUS
 10
137.2274751755
 20
115.5342133067
 11
137.5117201054
 21
115.5781847338
  0
LWPOLYLINE
  5
2D1
100
AcDbEntity
  8
RACCORDO
100
AcDbPolyline
 62
250
  6
CONTINUOUS
 90
4
 70
0
 10
137.2790751238
 20
96.9769158699
 10
137.2833727583
 20
96.9646277757
 10
137.2895100308
 20
96.9411089267
 10
137.2933643888
 20
96.9182611095
  0
LWPOLYLINE
  5
2D2
100
AcDbEntity
  8
0
100
AcDbPolyline
 62
250
  6
CONTINUOUS
 90
5
 70
0
 10
137.2274751755
 20
98.3870885648
 10
137.2330230516
 20
98.3698210347
 10
137.238467287
 20
98.3458848059
 10
137.2415141118
 20
98.3225386702
 10
137.2421114342
 20
98.3001817773
  0
LINE
  5
2D3
100
AcDbEntity
  8
RACCORDO
100
AcDbLine
 62
7
  6
CONTINUOUS
 10
137.6105898348
 20
97.161606878
 11
137.6080659304
 21
97.169514749
  0
LWPOLYLINE
  5
2D4
100
AcDbEntity
  8
0
100
AcDbPolyline
 62
250
  6
CONTINUOUS
 90
16
 70
0
 10
134.8234218984
 20
126.6178738746
 10
134.8205319507
 20
126.6612507966
 10
134.8138832498
 20
126.7064561922
 10
134.8035490571
 20
126.7529921778
 10
134.7896414056
 20
126.8003517506
 10
134.7723145224
 20
126.8480078609
 10
134.7517670069
 20
126.8954191165
 10
134.72823388
 20
126.9420538666
 10
134.7019727002
 20
126.9874109938
 10
134.6732652277
 20
127.0310073048
 10
134.6423823211
 20
127.072420451
 10
134.6097031896
 20
127.1111316681
 10
134.5757233729
 20
127.1465825854
 10
134.540875192
 20
127.178385382
 10
134.5055022237
 20
127.206287558
 10
134.4699896569
 20
127.2300364621
  0
LWPOLYLINE
  5
2D5
100
AcDbEntity
  8
RACCORDO
100
AcDbPolyline
 62
250
  6
CONTINUOUS
 90
5
 70
0
 10
134.0314621629
 20
130.7339590223
 10
134.0316144119
 20
130.7290522658
 10
134.0318355399
 20
130.7240009598
 10
134.0321266093
 20
130.7188497443
 10
134.0325024733
 20
130.7136056689
  0
LINE
  5
2D6
100
AcDbEntity
  8
RACCORDO
100
AcDbLine
 62
250
  6
CONTINUOUS
 10
134.0310395066
 20
130.7530302129
 11
134.0314621629
 21
130.7339590223
  0
LINE
  5
2D7
100
AcDbEntity
  8
RACCORDO
100
AcDbLine
 62
7
  6
CONTINUOUS
 10
134.5598089678
 20
131.8548514946
 11
134.5598089678
 21
130.7448387217
  0
LINE
  5
2D8
100
AcDbEntity
  8
ASSI
100
AcDbLine
 62
7
  6
CONTINUOUS
 10
134.5598089678
 20
130.7448387217
 11
134.5598089678
 21
129.954309542
  0
LINE
  5
2D9
100
AcDbEntity
  8
0
100
AcDbLine
 62
250
  6
CONTINUOUS
 10
134.8234218984
 20
126.6178738746
 11
134.8234218984
 21
84.4661015923
  0
LINE
  5
2DA
100
AcDbEntity
  8
RACCORDO
100
AcDbLine
 62
7
  6
CONTINUOUS
 10
134.5598089678
 20
131.8622526781
 11
134.5597524772
 21
131.855211816
  0
LWPOLYLINE
  5
2DB
100
AcDbEntity
  8
RACCORDO
100
AcDbPolyline
 62
250
  6
CONTINUOUS
 90
13
 70
0
 10
138.6117649952
 20
132.8975416237
 10
138.6147505291
 20
132.9214081343
 10
138.6151839883
 20
132.9461735595
 10
138.6130580766
 20
132.9714210314
 10
138.6084085788
 20
132.9967255679
 10
138.6013137582
 20
133.0216612266
 10
138.5918930396
 20
133.045808274
 10
138.5803049985
 20
133.0687602513
 10
138.5667446926
 20
133.0901308158
 10
138.5514403777
 20
133.109560244
 10
138.5346496662
 20
133.1267214871
 10
138.5166551902
 20
133.1413256758
 10
138.4977598447
 20
133.1531269828
  0
LWPOLYLINE
  5
2DC
100
AcDbEntity
  8
RACCORDO
100
AcDbPolyline
 62
250
  6
CONTINUOUS
 90
9
 70
0
 10
137.7103178879
 20
122.590530682
 10
137.7043305229
 20
122.5678831595
 10
137.696026004
 20
122.5470204218
 10
137.685546482
 20
122.5282993617
 10
137.6730714786
 20
122.512040397
 10
137.6588143593
 20
122.4985213716
 10
137.6430184738
 20
122.4879731532
 10
137.625953623
 20
122.4805763505
 10
137.6207565592
 20
122.4790262641
  0
LINE
  5
2DD
100
AcDbEntity
  8
0
100
AcDbLine
 62
250
  6
CONTINUOUS
 10
137.5566027956
 20
118.5290808686
 11
137.55870631
 21
118.5365507468
  0
LWPOLYLINE
  5
2DE
100
AcDbEntity
  8
0
100
AcDbPolyline
 62
250
  6
CONTINUOUS
 90
3
 70
0
 10
137.5273341515
 20
118.4478181067
 10
137.5429419173
 20
118.488325661
 10
137.5566027956
 20
118.5290808686
  0
LWPOLYLINE
  5
2DF
100
AcDbEntity
  8
0
100
AcDbPolyline
 62
250
  6
CONTINUOUS
 90
3
 70
0
 10
138.1769626154
 20
98.9238963796
 10
138.1847108851
 20
98.8997795919
 10
138.1901548385
 20
98.8758438749
  0
LINE
  5
2E0
100
AcDbEntity
  8
RACCORDO
100
AcDbLine
 62
250
  6
CONTINUOUS
 10
137.2933643888
 20
96.9182611095
 11
137.2948746241
 21
96.8964723566
  0
LINE
  5
2E1
100
AcDbEntity
  8
RACCORDO
100
AcDbLine
 62
250
  6
CONTINUOUS
 10
137.2933643888
 20
120.5958991365
 11
137.2948746241
 21
120.5741103836
  0
LWPOLYLINE
  5
2E2
100
AcDbEntity
  8
RACCORDO
100
AcDbPolyline
 62
250
  6
CONTINUOUS
 90
13
 70
0
 10
137.5322939913
 20
91.9037293955
 10
137.5333012298
 20
91.8866670178
 10
137.534775218
 20
91.867967277
 10
137.5367037236
 20
91.847851391
 10
137.5390712152
 20
91.8265385976
 10
137.541850319
 20
91.8043224946
 10
137.5449972499
 20
91.781576002
 10
137.5484691243
 20
91.7586160098
 10
137.5522218304
 20
91.7357405175
 10
137.556196959
 20
91.7133070749
 10
137.5603373639
 20
91.6916324185
 10
137.5645896836
 20
91.67099037
 10
137.5688965317
 20
91.6516558048
  0
LWPOLYLINE
  5
2E3
100
AcDbEntity
  8
RACCORDO
100
AcDbPolyline
 62
250
  6
CONTINUOUS
 90
13
 70
0
 10
137.5117201054
 20
115.5781847338
 10
137.5127273712
 20
115.5611219615
 10
137.51420135
 20
115.5424224104
 10
137.5161297647
 20
115.5223074334
 10
137.5184969933
 20
115.5009967786
 10
137.5212756639
 20
115.4787836688
 10
137.5244221631
 20
115.4560396337
 10
137.5278936742
 20
115.4330812722
 10
137.5316460984
 20
115.4102066798
 10
137.535621202
 20
115.3877725823
 10
137.5397619254
 20
115.3660955848
 10
137.5440148721
 20
115.3454500311
 10
137.5483226458
 20
115.3261111431
  0
LINE
  5
2E4
100
AcDbEntity
  8
RACCORDO
100
AcDbLine
 62
250
  6
CONTINUOUS
 10
137.562565257
 20
126.677505028
 11
137.5637474786
 21
126.6283744521
  0
LWPOLYLINE
  5
2E5
100
AcDbEntity
  8
RACCORDO
100
AcDbPolyline
 62
250
  6
CONTINUOUS
 90
4
 70
0
 10
137.5614951098
 20
126.7567320501
 10
137.5615888369
 20
126.7401416148
 10
137.5618002106
 20
126.721215033
 10
137.562565257
 20
126.677505028
  0
LINE
  5
2E6
100
AcDbEntity
  8
ASSI
100
AcDbLine
 62
7
  6
CONTINUOUS
 10
137.6943742777
 20
130.6701798879
 11
137.6943742842
 21
130.6701362162
  0
LINE
  5
2E7
100
AcDbEntity
  8
RACCORDO
100
AcDbLine
 62
250
  6
CONTINUOUS
 10
137.1995335541
 20
129.0451054392
 11
137.1995335541
 21
128.632826986
  0
LINE
  5
2E8
100
AcDbEntity
  8
0
100
AcDbLine
 62
7
  6
CONTINUOUS
 10
137.2274751755
 20
85.7124971391
 11
137.2274751755
 21
128.0059372609
  0
LINE
  5
2E9
100
AcDbEntity
  8
RACCORDO
100
AcDbLine
 62
7
  6
CONTINUOUS
 10
137.2380618302
 20
129.1030575831
 11
137.2380618302
 21
128.6907791307
  0
LINE
  5
2EA
100
AcDbEntity
  8
RACCORDO
100
AcDbLine
 62
250
  6
CONTINUOUS
 10
137.2948746241
 20
94.786337423
 11
137.2948746241
 21
96.8964723566
  0
LINE
  5
2EB
100
AcDbEntity
  8
RACCORDO
100
AcDbLine
 62
250
  6
CONTINUOUS
 10
137.2948746241
 20
118.46397545
 11
137.2948746241
 21
120.5741103836
  0
LINE
  5
2EC
100
AcDbEntity
  8
RACCORDO
100
AcDbLine
 62
250
  6
CONTINUOUS
 10
137.5483226458
 20
115.3261111431
 11
137.5483226458
 21
98.8822527689
  0
LINE
  5
2ED
100
AcDbEntity
  8
RACCORDO
100
AcDbLine
 62
250
  6
CONTINUOUS
 10
137.5688965317
 20
126.4824577784
 11
137.5688965317
 21
122.5567081072
  0
LINE
  5
2EE
100
AcDbEntity
  8
RACCORDO
100
AcDbLine
 62
250
  6
CONTINUOUS
 10
137.5688965317
 20
91.6516558048
 11
137.5688965317
 21
87.7259061337
  0
LINE
  5
2EF
100
AcDbEntity
  8
RACCORDO
100
AcDbLine
 62
7
  6
CONTINUOUS
 10
137.6163839051
 20
97.1279953948
 11
137.6163839051
 21
94.9133464855
  0
LINE
  5
2F0
100
AcDbEntity
  8
RACCORDO
100
AcDbLine
 62
7
  6
CONTINUOUS
 10
137.6163839051
 20
118.5909845125
 11
137.6163839051
 21
120.8056334218
  0
LINE
  5
2F1
100
AcDbEntity
  8
RACCORDO
100
AcDbLine
 62
250
  6
CONTINUOUS
 10
137.6872543199
 20
115.3585210795
 11
137.6872543199
 21
98.9146627053
  0
LINE
  5
2F2
100
AcDbEntity
  8
ASSI
100
AcDbLine
 62
7
  6
CONTINUOUS
 10
137.6943742776
 20
131.4946495721
 11
137.6943742776
 21
130.6765446116
  0
LINE
  5
2F3
100
AcDbEntity
  8
RACCORDO
100
AcDbLine
 62
250
  6
CONTINUOUS
 10
137.7103178879
 20
126.5162803531
 11
137.7103178879
 21
122.590530682
  0
LINE
  5
2F4
100
AcDbEntity
  8
RACCORDO
100
AcDbLine
 62
250
  6
CONTINUOUS
 10
137.7103178879
 20
91.6854783796
 11
137.7103178879
 21
87.7597287084
  0
LINE
  5
2F5
100
AcDbEntity
  8
ASSI
100
AcDbLine
 62
250
  6
CONTINUOUS
 10
137.7529529213
 20
131.4090882239
 11
137.7529529213
 21
130.8716967451
  0
LINE
  5
2F6
100
AcDbEntity
  8
0
100
AcDbLine
 62
7
  6
CONTINUOUS
 10
137.9231263038
 20
120.6388479432
 11
137.9231263038
 21
118.3370369787
  0
LINE
  5
2F7
100
AcDbEntity
  8
0
100
AcDbLine
 62
7
  6
CONTINUOUS
 10
137.9231263038
 20
94.6593989517
 11
137.9231263038
 21
96.9612099162
  0
LINE
  5
2F8
100
AcDbEntity
  8
ASSI
100
AcDbLine
 62
250
  6
CONTINUOUS
 10
137.6943944708
 20
130.6729928522
 11
137.6943742777
 21
130.6701798879
  0
LINE
  5
2F9
100
AcDbEntity
  8
ASSI
100
AcDbLine
 62
7
  6
CONTINUOUS
 10
137.6943740117
 20
130.6701232586
 11
137.6943657617
 21
130.669537706
  0
LWPOLYLINE
  5
2FA
100
AcDbEntity
  8
RACCORDO
100
AcDbPolyline
 62
250
  6
CONTINUOUS
 90
25
 70
0
 10
137.1995335541
 20
128.632826986
 10
137.1995014591
 20
128.6310611638
 10
137.1994109281
 20
128.6292739188
 10
137.1992619612
 20
128.627465251
 10
137.1990562848
 20
128.6256422788
 10
137.1987921725
 20
128.6237978838
 10
137.1984644446
 20
128.6219107109
 10
137.1980748012
 20
128.6199762544
 10
137.1976215422
 20
128.61799902
 10
137.1970943884
 20
128.6159711697
 10
137.1964946705
 20
128.6138910125
 10
137.1958210577
 20
128.6117602394
 10
137.1950592792
 20
128.609576086
 10
137.1942102867
 20
128.6073359107
 10
137.1932731284
 20
128.605042355
 10
137.1922306784
 20
128.6027005788
 10
137.191082891
 20
128.6003059694
 10
137.1898298118
 20
128.5978631396
 10
137.1884544528
 20
128.595391088
 10
137.1869552557
 20
128.5928833119
 10
137.1853337786
 20
128.5903463139
 10
137.183577708
 20
128.5878186007
 10
137.1816829391
 20
128.5853130078
 10
137.1796535767
 20
128.5828166997
 10
137.1774896206
 20
128.5803296763
  0
LINE
  5
2FB
100
AcDbEntity
  8
ASSI
100
AcDbLine
 62
250
  6
CONTINUOUS
 10
137.6945777724
 20
130.6794327966
 11
137.6943944708
 21
130.6729928522
  0
LWPOLYLINE
  5
2FC
100
AcDbEntity
  8
ASSI
100
AcDbPolyline
 62
250
  6
CONTINUOUS
 90
5
 70
0
 10
137.7529529213
 20
130.8716967451
 10
137.7511109818
 20
130.8213731371
 10
137.7455988765
 20
130.7692970838
 10
137.7364576388
 20
130.7158561678
 10
137.7237553158
 20
130.661448144
  0
LWPOLYLINE
  5
2FD
100
AcDbEntity
  8
RACCORDO
100
AcDbPolyline
 62
250
  6
CONTINUOUS
 90
7
 70
0
 10
138.2918251198
 20
129.1623174094
 10
138.2908593969
 20
129.1418749147
 10
138.287370193
 20
129.1231021045
 10
138.2814170804
 20
129.1063198371
 10
138.2731017361
 20
129.0918149574
 10
138.2625662202
 20
129.0798354176
 10
138.253657463
 20
129.0728587144
  0
LWPOLYLINE
  5
2FE
100
AcDbEntity
  8
RACCORDO
100
AcDbPolyline
 62
250
  6
CONTINUOUS
 90
6
 70
0
 10
137.2380618302
 20
128.6907791307
 10
137.2378080503
 20
128.6857432797
 10
137.234217327
 20
128.6712965102
 10
137.2264761795
 20
128.6574029988
 10
137.2148044389
 20
128.6444572832
 10
137.1995335541
 20
128.632826986
  0
LWPOLYLINE
  5
2FF
100
AcDbEntity
  8
0
100
AcDbPolyline
 62
250
  6
CONTINUOUS
 90
9
 70
0
 10
134.8234218984
 20
84.4661015923
 10
134.8205322706
 20
84.4239437914
 10
134.8138843606
 20
84.3845562802
 10
134.8035513749
 20
84.3483727973
 10
134.7896452131
 20
84.3157880998
 10
134.7723200734
 20
84.2871656667
 10
134.7517747822
 20
84.2628287695
 10
134.7282449191
 20
84.2430447433
 10
134.7094949376
 20
84.2316829824
  0
LWPOLYLINE
  5
300
100
AcDbEntity
  8
0
100
AcDbPolyline
 62
250
  6
CONTINUOUS
 90
7
 70
0
 10
139.1216031233
 20
122.0483046944
 10
139.1201476738
 20
122.0345014313
 10
139.115377577
 20
122.019819957
 10
139.1073651137
 20
122.0056168355
 10
139.0962443541
 20
121.9921297232
 10
139.0822013783
 20
121.9795842958
 10
139.0654711632
 20
121.9681904721
  0
LWPOLYLINE
  5
301
100
AcDbEntity
  8
RACCORDO
100
AcDbPolyline
 62
7
  6
CONTINUOUS
 90
7
 70
0
 10
138.2894118172
 20
115.8818827891
 10
138.2890338567
 20
115.8807927463
 10
138.2887219824
 20
115.8797649462
 10
138.2884761943
 20
115.8787993887
 10
138.2882964924
 20
115.8778960738
 10
138.2881828767
 20
115.8770550015
 10
138.2881353472
 20
115.8762761719
  0
LWPOLYLINE
  5
302
100
AcDbEntity
  8
RACCORDO
100
AcDbPolyline
 62
250
  6
CONTINUOUS
 90
7
 70
0
 10
137.2274751755
 20
120.549394337
 10
137.2372902753
 20
120.5516840002
 10
137.2498372594
 20
120.5552173648
 10
137.2619268001
 20
120.5592474712
 10
137.2734999984
 20
120.5637546852
 10
137.2845004708
 20
120.568717048
 10
137.2948746241
 20
120.5741103836
  0
LWPOLYLINE
  5
303
100
AcDbEntity
  8
0
100
AcDbPolyline
 62
250
  6
CONTINUOUS
 90
3
 70
0
 10
138.1901548385
 20
98.8758438749
 10
138.19320146
 20
98.8524984204
 10
138.1937987174
 20
98.8301423271
  0
LWPOLYLINE
  5
304
100
AcDbEntity
  8
RACCORDO
100
AcDbPolyline
 62
7
  6
CONTINUOUS
 90
13
 70
0
 10
138.2881353472
 20
115.8811982006
 10
138.2869018347
 20
115.9032354688
 10
138.2832955983
 20
115.9263008414
 10
138.2773650728
 20
115.9499910872
 10
138.2691897122
 20
115.9738876558
 10
138.2589088755
 20
115.9975812652
 10
138.2467192702
 20
116.0206789378
 10
138.2328278714
 20
116.0427842133
 10
138.2174600678
 20
116.0635142576
 10
138.2008852602
 20
116.0825230589
 10
138.1833877598
 20
116.0994880508
 10
138.1652626732
 20
116.1141164193
 10
138.1468216409
 20
116.1261597593
  0
LINE
  5
305
100
AcDbEntity
  8
RACCORDO
100
AcDbLine
 62
250
  6
CONTINUOUS
 10
137.1988092015
 20
129.0617209285
 11
137.1995335541
 21
129.0451054392
  0
LINE
  5
306
100
AcDbEntity
  8
RACCORDO
100
AcDbLine
 62
250
  6
CONTINUOUS
 10
137.5670207914
 20
126.5275492806
 11
137.5688965317
 21
126.4824577784
  0
LINE
  5
307
100
AcDbEntity
  8
ASSI
100
AcDbLine
 62
250
  6
CONTINUOUS
 10
137.7529529214
 20
131.4090882238
 11
137.7510275806
 21
131.4583373928
  0
LINE
  5
308
100
AcDbEntity
  8
RACCORDO
100
AcDbLine
 62
250
  6
CONTINUOUS
 10
137.5652659587
 20
126.5772729717
 11
137.5670207914
 21
126.5275492806
  0
LINE
  5
309
100
AcDbEntity
  8
RACCORDO
100
AcDbLine
 62
250
  6
CONTINUOUS
 10
137.5637474786
 20
126.6283744521
 11
137.5652659587
 21
126.5772729717
  0
LWPOLYLINE
  5
30A
100
AcDbEntity
  8
0
100
AcDbPolyline
 62
7
  6
CONTINUOUS
 90
12
 70
0
 10
139.1216031233
 20
98.3706666666
 10
139.1210277647
 20
98.4111115198
 10
139.1144205755
 20
98.5108814493
 10
139.10048547
 20
98.6060737976
 10
139.0792433197
 20
98.6962359872
 10
139.0507630314
 20
98.7808931844
 10
139.0152042014
 20
98.8595133004
 10
138.9727236961
 20
98.9316605244
 10
138.9235332997
 20
98.9969163183
 10
138.8680409015
 20
99.0546694113
 10
138.8066951685
 20
99.1044311562
 10
138.7571929159
 20
99.1362547671
  0
LWPOLYLINE
  5
30B
100
AcDbEntity
  8
0
100
AcDbPolyline
 62
7
  6
CONTINUOUS
 90
12
 70
0
 10
139.1216031233
 20
122.0483046936
 10
139.1210277647
 20
122.0887495468
 10
139.1144205755
 20
122.1885194763
 10
139.10048547
 20
122.2837118246
 10
139.0792433197
 20
122.3738740142
 10
139.0507630314
 20
122.4585312114
 10
139.0152042014
 20
122.5371513274
 10
138.9727236961
 20
122.6092985514
 10
138.9235332997
 20
122.6745543453
 10
138.8680409015
 20
122.7323074383
 10
138.8066951685
 20
122.7820691832
 10
138.7571929159
 20
122.8138927941
  0
LINE
  5
30C
100
AcDbEntity
  8
ASSI
100
AcDbLine
 62
7
  6
CONTINUOUS
 10
138.1262444855
 20
131.1935543532
 11
138.1262444855
 21
130.6561628744
  0
LINE
  5
30D
100
AcDbEntity
  8
RACCORDO
100
AcDbLine
 62
7
  6
CONTINUOUS
 10
138.2881353472
 20
88.0583876025
 11
138.2881353472
 21
92.1978745234
  0
LINE
  5
30E
100
AcDbEntity
  8
RACCORDO
100
AcDbLine
 62
7
  6
CONTINUOUS
 10
138.2881353472
 20
99.0669820081
 11
138.2881353472
 21
115.8762761719
  0
LINE
  5
30F
100
AcDbEntity
  8
RACCORDO
100
AcDbLine
 62
7
  6
CONTINUOUS
 10
138.2881353472
 20
122.7453836566
 11
138.2881353472
 21
126.8848705775
  0
LINE
  5
310
100
AcDbEntity
  8
0
100
AcDbLine
 62
250
  6
CONTINUOUS
 10
139.0654711632
 20
121.9681904721
 11
139.0654711632
 21
118.3737155159
  0
LINE
  5
311
100
AcDbEntity
  8
0
100
AcDbLine
 62
250
  6
CONTINUOUS
 10
139.0654711632
 20
98.2905524451
 11
139.0654711632
 21
94.6960774889
  0
LINE
  5
312
100
AcDbEntity
  8
0
100
AcDbLine
 62
7
  6
CONTINUOUS
 10
139.1216032031
 20
122.0484078795
 11
139.1216032031
 21
118.4539329199
  0
LINE
  5
313
100
AcDbEntity
  8
0
100
AcDbLine
 62
7
  6
CONTINUOUS
 10
139.1216032031
 20
98.3707698525
 11
139.1216032031
 21
94.7762948929
  0
LINE
  5
314
100
AcDbEntity
  8
RACCORDO
100
AcDbLine
 62
250
  6
CONTINUOUS
 10
139.674370451
 20
131.7632062244
 11
139.674370451
 21
131.9165343419
  0
LINE
  5
315
100
AcDbEntity
  8
RACCORDO
100
AcDbLine
 62
7
  6
CONTINUOUS
 10
139.7257414859
 20
131.8404757496
 11
139.7257414859
 21
131.9938038671
  0
LINE
  5
316
100
AcDbEntity
  8
RACCORDO
100
AcDbLine
 62
250
  6
CONTINUOUS
 10
139.7806744685
 20
125.4564388188
 11
139.7806744685
 21
118.2942501837
  0
LINE
  5
317
100
AcDbEntity
  8
RACCORDO
100
AcDbLine
 62
250
  6
CONTINUOUS
 10
139.7806744685
 20
99.9818955196
 11
139.7806744685
 21
93.9861403674
  0
LINE
  5
318
100
AcDbEntity
  8
RACCORDO
100
AcDbLine
 62
7
  6
CONTINUOUS
 10
139.8320455034
 20
125.5337083439
 11
139.8320455034
 21
118.3715197033
  0
LINE
  5
319
100
AcDbEntity
  8
RACCORDO
100
AcDbLine
 62
7
  6
CONTINUOUS
 10
139.8320455034
 20
100.0157742339
 11
139.8320455034
 21
94.0634098926
  0
LINE
  5
31A
100
AcDbEntity
  8
RACCORDO
100
AcDbLine
 62
250
  6
CONTINUOUS
 10
139.8320455034
 20
125.5337083439
 11
139.8320454194
 21
125.5336024706
  0
LWPOLYLINE
  5
31B
100
AcDbEntity
  8
RACCORDO
100
AcDbPolyline
 62
250
  6
CONTINUOUS
 90
9
 70
0
 10
139.8069372863
 20
125.6307282562
 10
139.8069364767
 20
125.6306663913
 10
139.805465202
 20
125.6291148639
 10
139.8012254623
 20
125.6260000043
 10
139.7942037471
 20
125.6215153722
 10
139.78465717
 20
125.615593059
 10
139.7727689932
 20
125.6083118625
 10
139.7585861309
 20
125.5998927147
 10
139.7422271888
 20
125.5904759647
  0
LWPOLYLINE
  5
31C
100
AcDbEntity
  8
0
100
AcDbPolyline
 62
250
  6
CONTINUOUS
 90
22
 70
0
 10
139.0654711632
 20
118.3737155159
 10
139.0625520555
 20
118.2907070232
 10
139.0548826079
 20
118.2067715879
 10
139.0424628202
 20
118.1219092098
 10
139.0251912755
 20
118.0358957298
 10
139.0031693908
 20
117.948955307
 10
138.9767014174
 20
117.8617604192
 10
138.9456734737
 20
117.7739982778
 10
138.9101994413
 20
117.6859816713
 10
138.8709252159
 20
117.5993214428
 10
138.8274613013
 20
117.5137026775
 10
138.7801971937
 20
117.4294402902
 10
138.7309472778
 20
117.3490898672
 10
138.6803338716
 20
117.2736975982
 10
138.6277346571
 20
117.2022172935
 10
138.5730970642
 20
117.1340659703
 10
138.5167206699
 20
117.0691279982
 10
138.4583058973
 20
117.0075190075
 10
138.3969014459
 20
116.949002906
 10
138.3321902153
 20
116.8935009963
 10
138.2644893058
 20
116.8410919758
 10
138.1937987174
 20
116.7917758444
  0
LWPOLYLINE
  5
31D
100
AcDbEntity
  8
0
100
AcDbPolyline
 62
250
  6
CONTINUOUS
 90
22
 70
0
 10
139.0654711632
 20
94.6960774889
 10
139.0625520555
 20
94.6130689962
 10
139.0548826079
 20
94.5291335609
 10
139.0424628202
 20
94.4442711828
 10
139.0251912755
 20
94.3582577028
 10
139.0031693908
 20
94.27131728
 10
138.9767014174
 20
94.1841223922
 10
138.9456734737
 20
94.0963602508
 10
138.9101994413
 20
94.0083436443
 10
138.8709252159
 20
93.9216834158
 10
138.8274613013
 20
93.8360646505
 10
138.7801971937
 20
93.7518022632
 10
138.7309472778
 20
93.6714518402
 10
138.6803338716
 20
93.5960595712
 10
138.6277346571
 20
93.5245792665
 10
138.5730970642
 20
93.4564279433
 10
138.5167206699
 20
93.3914899712
 10
138.4583058973
 20
93.3298809805
 10
138.3969014459
 20
93.271364879
 10
138.3321902153
 20
93.2158629693
 10
138.2644893058
 20
93.1634539488
 10
138.1937987174
 20
93.1141378174
  0
LWPOLYLINE
  5
31E
100
AcDbEntity
  8
RACCORDO
100
AcDbPolyline
 62
7
  6
CONTINUOUS
 90
8
 70
0
 10
138.2881634454
 20
99.0669891308
 10
138.287168143
 20
99.0466324762
 10
138.2840243793
 20
99.0283426275
 10
138.2790039481
 20
99.0122626168
 10
138.2724834927
 20
98.9985931376
 10
138.2646481029
 20
98.9871930788
 10
138.2553729054
 20
98.9777686691
 10
138.2496990334
 20
98.9734573147
  0
LWPOLYLINE
  5
31F
100
AcDbEntity
  8
RACCORDO
100
AcDbPolyline
 62
250
  6
CONTINUOUS
 90
7
 70
0
 10
139.8320455034
 20
118.3715197033
 10
139.8310391686
 20
118.3599500166
 10
139.8269194402
 20
118.3455427295
 10
139.8196836747
 20
118.3315508245
 10
139.8094475772
 20
118.3181980304
 10
139.796374829
 20
118.3056978582
 10
139.7806744685
 20
118.2942501837
  0
LWPOLYLINE
  5
320
100
AcDbEntity
  8
RACCORDO
100
AcDbPolyline
 62
250
  6
CONTINUOUS
 90
7
 70
0
 10
139.8320454194
 20
125.5336024706
 10
139.8310277961
 20
125.5220736325
 10
139.8268875976
 20
125.5076518619
 10
139.8196328811
 20
125.4936600577
 10
139.8093918526
 20
125.4803249071
 10
139.7963339252
 20
125.4678524638
 10
139.7806744685
 20
125.4564388188
  0
LWPOLYLINE
  5
321
100
AcDbEntity
  8
0
100
AcDbPolyline
 62
250
  6
CONTINUOUS
 90
7
 70
0
 10
139.1216032031
 20
118.4539329199
 10
139.1201473266
 20
118.440024819
 10
139.1153769002
 20
118.4253434682
 10
139.1073642337
 20
118.4111406028
 10
139.0962434806
 20
118.3976538611
 10
139.0822007819
 20
118.3851088744
 10
139.0654711632
 20
118.3737155159
  0
LINE
  5
322
100
AcDbEntity
  8
RACCORDO
100
AcDbLine
 62
250
  6
CONTINUOUS
 10
137.6207565592
 20
122.4790262641
 11
137.6206688419
 21
122.4790027135
  0
LINE
  5
323
100
AcDbEntity
  8
RACCORDO
100
AcDbLine
 62
7
  6
CONTINUOUS
 10
137.6206688419
 20
122.4790027135
 11
138.228370835
 21
122.6418646343
  0
LINE
  5
324
100
AcDbEntity
  8
RACCORDO
100
AcDbLine
 62
250
  6
CONTINUOUS
 10
137.7103178879
 20
122.590530682
 11
138.2881353472
 21
122.7453836566
  0
LINE
  5
325
100
AcDbEntity
  8
0
100
AcDbLine
 62
250
  6
CONTINUOUS
 10
137.2586828436
 20
117.5390010905
 11
137.2274751755
 21
117.5494399679
  0
LINE
  5
326
100
AcDbEntity
  8
0
100
AcDbLine
 62
250
  6
CONTINUOUS
 10
137.2274751755
 20
118.0779699625
 11
137.2524801821
 21
118.0664298372
  0
LINE
  5
327
100
AcDbEntity
  8
RACCORDO
100
AcDbLine
 62
7
  6
CONTINUOUS
 10
137.6778674373
 20
116.3969280391
 11
138.1468216409
 21
116.1261597593
  0
LWPOLYLINE
  5
328
100
AcDbEntity
  8
RACCORDO
100
AcDbPolyline
 62
250
  6
CONTINUOUS
 90
13
 70
0
 10
137.5117201054
 20
115.5781847338
 10
137.5301369413
 20
115.5661299299
 10
137.5488629171
 20
115.5519563188
 10
137.567579418
 20
115.5359051442
 10
137.5859681964
 20
115.5182493912
 10
137.603716228
 20
115.4992896643
 10
137.6205211131
 20
115.4793491887
 10
137.636096477
 20
115.4587681933
 10
137.650178343
 20
115.437895946
 10
137.6625285832
 20
115.4170853658
 10
137.672937146
 20
115.3966897847
 10
137.6812261871
 20
115.377056963
 10
137.6872543199
 20
115.3585210795
  0
LWPOLYLINE
  5
329
100
AcDbEntity
  8
0
100
AcDbPolyline
 62
250
  6
CONTINUOUS
 90
3
 70
0
 10
138.1901548385
 20
122.5534819019
 10
138.19320146
 20
122.5301364474
 10
138.1937987174
 20
122.5077803541
  0
LWPOLYLINE
  5
32A
100
AcDbEntity
  8
RACCORDO
100
AcDbPolyline
 62
250
  6
CONTINUOUS
 90
19
 70
0
 10
139.780673564
 20
118.2942496615
 10
139.7818477643
 20
118.2796870447
 10
139.7840705027
 20
118.2645533907
 10
139.7873319577
 20
118.2489745276
 10
139.7916282382
 20
118.2330398976
 10
139.7969213649
 20
118.2169188846
 10
139.8031110275
 20
118.2008609021
 10
139.8101260926
 20
118.1849720275
 10
139.8178944386
 20
118.1693934217
 10
139.8262503394
 20
118.1544068791
 10
139.8349798863
 20
118.1402569615
 10
139.8440663712
 20
118.1268421534
 10
139.8536581238
 20
118.113932771
 10
139.8636760037
 20
118.101660549
 10
139.8740695207
 20
118.0900688345
 10
139.8851091182
 20
118.0789111864
 10
139.8968651139
 20
118.0682648482
 10
139.9091592777
 20
118.0584402129
 10
139.9219012551
 20
118.0496364669
  0
LWPOLYLINE
  5
32B
100
AcDbEntity
  8
RACCORDO
100
AcDbPolyline
 62
250
  6
CONTINUOUS
 90
25
 70
0
 10
139.674370451
 20
131.9165343419
 10
139.6733100822
 20
131.9926382073
 10
139.6689051555
 20
132.0679580335
 10
139.6611556708
 20
132.1424938204
 10
139.6503715716
 20
132.2163969717
 10
139.6362429144
 20
132.2895160838
 10
139.6178398691
 20
132.3613969455
 10
139.5948953371
 20
132.4327495132
 10
139.5676764171
 20
132.5028638304
 10
139.5360545755
 20
132.5691558174
 10
139.4997414639
 20
132.6313443809
 10
139.4590254307
 20
132.6897106141
 10
139.4146429875
 20
132.7425137172
 10
139.3664858868
 20
132.7893401606
 10
139.314662376
 20
132.830603474
 10
139.2602337092
 20
132.8658034467
 10
139.2038781476
 20
132.8947169068
 10
139.1449174299
 20
132.9175670263
 10
139.0823780261
 20
132.93452311
 10
139.0166123577
 20
132.9462075873
 10
138.9472680033
 20
132.9519980289
 10
138.8723141692
 20
132.9501964517
 10
138.7910739242
 20
132.9402368612
 10
138.7042241995
 20
132.9226852519
 10
138.6117649952
 20
132.8975416237
  0
LWPOLYLINE
  5
32C
100
AcDbEntity
  8
RACCORDO
100
AcDbPolyline
 62
7
  6
CONTINUOUS
 90
15
 70
0
 10
139.7257414557
 20
131.9937404389
 10
139.7250517654
 20
132.049525492
 10
139.7186878467
 20
132.1691740621
 10
139.7056660629
 20
132.2843731243
 10
139.6859561458
 20
132.3949308574
 10
139.6596007751
 20
132.5002968053
 10
139.6268129509
 20
132.5996198944
 10
139.587798932
 20
132.6925362691
 10
139.542661272
 20
132.7789345785
 10
139.4916359817
 20
132.8584657009
 10
139.4349992196
 20
132.9308450496
 10
139.372983915
 20
132.9958648796
 10
139.3058970629
 20
133.0532915261
 10
139.2340892455
 20
133.1029064398
 10
139.2134728551
 20
133.11520457
  0
LINE
  5
32D
100
AcDbEntity
  8
RACCORDO
100
AcDbLine
 62
250
  6
CONTINUOUS
 10
140.930664317
 20
117.2984230981
 11
140.930664317
 21
100.8047829829
  0
LINE
  5
32E
100
AcDbEntity
  8
RACCORDO
100
AcDbLine
 62
7
  6
CONTINUOUS
 10
140.9867963569
 20
117.3786405055
 11
140.9867963569
 21
100.8850003903
  0
LWPOLYLINE
  5
32F
100
AcDbEntity
  8
RACCORDO
100
AcDbPolyline
 62
250
  6
CONTINUOUS
 90
7
 70
0
 10
140.930664317
 20
100.8047829829
 10
140.9303833181
 20
100.7847628947
 10
140.9276483687
 20
100.7664558944
 10
140.9225062082
 20
100.7501748563
 10
140.9150447178
 20
100.7361980338
 10
140.9053914144
 20
100.7247642937
 10
140.8969055476
 20
100.7180394185
  0
LWPOLYLINE
  5
330
100
AcDbEntity
  8
RACCORDO
100
AcDbPolyline
 62
250
  6
CONTINUOUS
 90
10
 70
0
 10
139.7806744685
 20
93.9861403674
 10
139.7803850739
 20
93.9728878567
 10
139.7790533331
 20
93.9602714214
 10
139.7766886036
 20
93.9483797143
 10
139.7733075016
 20
93.9372962957
 10
139.7689337851
 20
93.9270990463
 10
139.7635981869
 20
93.9178596201
 10
139.7573381989
 20
93.9096429405
 10
139.7501978083
 20
93.9025067444
 10
139.7429781768
 20
93.8969949233
  0
LWPOLYLINE
  5
331
100
AcDbEntity
  8
RACCORDO
100
AcDbPolyline
 62
250
  6
CONTINUOUS
 90
7
 70
0
 10
139.8320455034
 20
94.0634098926
 10
139.831027696
 20
94.0517746103
 10
139.8268873908
 20
94.037352895
 10
139.8196326117
 20
94.0233611856
 10
139.8093915842
 20
94.0100261585
 10
139.7963337419
 20
93.9975538599
 10
139.7806744685
 20
93.9861403674
  0
LWPOLYLINE
  5
332
100
AcDbEntity
  8
RACCORDO
100
AcDbPolyline
 62
250
  6
CONTINUOUS
 90
8
 70
0
 10
137.7103178879
 20
87.7597287084
 10
137.7081420307
 20
87.7385851456
 10
137.7035837559
 20
87.7192002861
 10
137.6967210143
 20
87.7019058258
 10
137.6876711945
 20
87.6869977126
 10
137.6765890985
 20
87.6747310504
 10
137.6636642808
 20
87.6653157508
 10
137.6607296339
 20
87.6637134795
  0
LWPOLYLINE
  5
333
100
AcDbEntity
  8
0
100
AcDbPolyline
 62
250
  6
CONTINUOUS
 90
7
 70
0
 10
139.1216032031
 20
94.7762948929
 10
139.1201473266
 20
94.762386792
 10
139.1153769002
 20
94.7477054413
 10
139.1073642337
 20
94.7335025758
 10
139.0962434806
 20
94.7200158341
 10
139.0822007819
 20
94.7074708474
 10
139.0654711632
 20
94.6960774889
  0
LWPOLYLINE
  5
334
100
AcDbEntity
  8
0
100
AcDbPolyline
 62
250
  6
CONTINUOUS
 90
7
 70
0
 10
139.1216031233
 20
98.3706666674
 10
139.1201476738
 20
98.3568634044
 10
139.115377577
 20
98.34218193
 10
139.1073651137
 20
98.3279788085
 10
139.0962443541
 20
98.3144916962
 10
139.0822013783
 20
98.3019462689
 10
139.0654711632
 20
98.2905524451
  0
LWPOLYLINE
  5
335
100
AcDbEntity
  8
RACCORDO
100
AcDbPolyline
 62
250
  6
CONTINUOUS
 90
7
 70
0
 10
140.9867963569
 20
117.3786405055
 10
140.985233843
 20
117.3642339754
 10
140.9803069411
 20
117.3494629863
 10
140.9721573799
 20
117.3352737821
 10
140.9610077172
 20
117.3219200051
 10
140.9470839365
 20
117.309575957
 10
140.930664317
 20
117.2984230981
  0
LINE
  5
336
100
AcDbEntity
  8
RACCORDO
100
AcDbLine
 62
250
  6
CONTINUOUS
 10
137.5440213902
 20
98.8644907388
 11
137.5483226458
 21
98.8822527689
  0
LINE
  5
337
100
AcDbEntity
  8
RACCORDO
100
AcDbLine
 62
250
  6
CONTINUOUS
 10
137.5397774289
 20
98.848511891
 11
137.5440213902
 21
98.8644907388
  0
LWPOLYLINE
  5
338
100
AcDbEntity
  8
RACCORDO
100
AcDbPolyline
 62
250
  6
CONTINUOUS
 90
9
 70
0
 10
137.6872543199
 20
98.9146627053
 10
137.6812269464
 20
98.8921383703
 10
137.6729387785
 20
98.8714107013
 10
137.6625309233
 20
98.8528322004
 10
137.6501807795
 20
98.8367190568
 10
137.6360983382
 20
98.8233448437
 10
137.6205223029
 20
98.8129363975
 10
137.6037169681
 20
98.8056709561
 10
137.5975102329
 20
98.8038731522
  0
LINE
  5
339
100
AcDbEntity
  8
0
100
AcDbLine
 62
250
  6
CONTINUOUS
 10
137.5566027956
 20
94.8514428417
 11
137.55870631
 21
94.8589127198
  0
LWPOLYLINE
  5
33A
100
AcDbEntity
  8
RACCORDO
100
AcDbPolyline
 62
250
  6
CONTINUOUS
 90
10
 70
0
 10
137.5383211038
 20
122.4745365601
 10
137.5391282163
 20
122.4745503261
 10
137.5419124161
 20
122.4763408482
 10
137.5450589182
 20
122.4807577306
 10
137.5485231623
 20
122.4877372804
 10
137.5522609859
 20
122.4971894855
 10
137.5562214892
 20
122.5089859288
 10
137.5603512472
 20
122.5229669872
 10
137.5645952136
 20
122.5389458305
 10
137.5688965317
 20
122.5567081072
  0
LWPOLYLINE
  5
33B
100
AcDbEntity
  8
RACCORDO
100
AcDbPolyline
 62
250
  6
CONTINUOUS
 90
7
 70
0
 10
140.886780265
 20
117.5518548726
 10
140.8757845992
 20
117.5569348956
 10
140.8610947989
 20
117.5604822099
 10
140.8453047642
 20
117.5610863452
 10
140.8287238271
 20
117.558801509
 10
140.8115960942
 20
117.5537232573
 10
140.7941977788
 20
117.5459842603
  0
LWPOLYLINE
  5
33C
100
AcDbEntity
  8
RACCORDO
100
AcDbPolyline
 62
250
  6
CONTINUOUS
 90
7
 70
0
 10
140.0145054218
 20
118.0554954399
 10
140.0039786355
 20
118.0604103664
 10
139.9894424909
 20
118.0640448762
 10
139.9737080177
 20
118.0647731575
 10
139.9570268118
 20
118.0625835651
 10
139.9396656074
 20
118.0575111109
 10
139.9219020117
 20
118.0496369038
  0
LINE
  5
33D
100
AcDbEntity
  8
RACCORDO
100
AcDbLine
 62
250
  6
CONTINUOUS
 10
139.9219020117
 20
118.0496369038
 11
140.7941977788
 21
117.5459842603
  0
LINE
  5
33E
100
AcDbEntity
  8
RACCORDO
100
AcDbLine
 62
7
  6
CONTINUOUS
 10
140.0145054218
 20
118.0554954399
 11
140.8868011889
 21
117.5518427964
  0
LWPOLYLINE
  5
33F
100
AcDbEntity
  8
RACCORDO
100
AcDbPolyline
 62
7
  6
CONTINUOUS
 90
19
 70
0
 10
140.0145339525
 20
118.0554789573
 10
140.0083598254
 20
118.0592040239
 10
139.9947715213
 20
118.0684734024
 10
139.9798723474
 20
118.0802317044
 10
139.9641022366
 20
118.0944475885
 10
139.947780252
 20
118.1111192718
 10
139.9314718172
 20
118.129909304
 10
139.915531009
 20
118.1505815671
 10
139.9002795207
 20
118.1728701441
 10
139.8861240001
 20
118.1962693279
 10
139.8733085764
 20
118.2203942456
 10
139.8620447773
 20
118.2448295883
 10
139.8525600541
 20
118.2689455071
 10
139.844913281
 20
118.2923313682
 10
139.8391213971
 20
118.3145512175
 10
139.8351776336
 20
118.3349121096
 10
139.8328991736
 20
118.3531520409
 10
139.8320650502
 20
118.3688742214
 10
139.8320454974
 20
118.3715480152
  0
LWPOLYLINE
  5
340
100
AcDbEntity
  8
RACCORDO
100
AcDbPolyline
 62
250
  6
CONTINUOUS
 90
13
 70
0
 10
140.7941977788
 20
117.5459842603
 10
140.8129013006
 20
117.5340699374
 10
140.8311586805
 20
117.5194992714
 10
140.8486578937
 20
117.50252128
 10
140.8650998666
 20
117.4834261298
 10
140.8802036068
 20
117.4625401574
 10
140.8937109999
 20
117.4402202859
 10
140.9053912007
 20
117.4168479506
 10
140.9150445738
 20
117.3928226061
 10
140.9225061258
 20
117.3685548759
 10
140.9276483322
 20
117.3444595139
 10
140.9303833107
 20
117.3209483151
 10
140.930664317
 20
117.2984230981
  0
LINE
  5
341
100
AcDbEntity
  8
0
100
AcDbLine
 62
250
  6
CONTINUOUS
 10
137.2524801821
 20
118.0664298372
 11
137.5577458823
 21
117.7174900454
  0
LINE
  5
342
100
AcDbEntity
  8
0
100
AcDbLine
 62
250
  6
CONTINUOUS
 10
137.6163839051
 20
118.6876647389
 11
137.9231263038
 21
118.3370369787
  0
LWPOLYLINE
  5
343
100
AcDbEntity
  8
RACCORDO
100
AcDbPolyline
 62
250
  6
CONTINUOUS
 90
4
 70
0
 10
137.2790751238
 20
120.6545538969
 10
137.2833727583
 20
120.6422658027
 10
137.2895100308
 20
120.6187469537
 10
137.2933643888
 20
120.5958991365
  0
LWPOLYLINE
  5
344
100
AcDbEntity
  8
0
100
AcDbPolyline
 62
250
  6
CONTINUOUS
 90
5
 70
0
 10
137.2274751755
 20
122.0647265918
 10
137.2330230516
 20
122.0474590617
 10
137.238467287
 20
122.0235228329
 10
137.2415141118
 20
122.0001766972
 10
137.2421114342
 20
121.9778198043
  0
LWPOLYLINE
  5
345
100
AcDbEntity
  8
0
100
AcDbPolyline
 62
250
  6
CONTINUOUS
 90
3
 70
0
 10
138.1769626154
 20
122.6015344066
 10
138.1847108851
 20
122.5774176189
 10
138.1901548385
 20
122.5534819019
  0
LINE
  5
346
100
AcDbEntity
  8
RACCORDO
100
AcDbLine
 62
7
  6
CONTINUOUS
 10
137.6105898348
 20
120.839244905
 11
137.6080659304
 21
120.847152776
  0
LWPOLYLINE
  5
347
100
AcDbEntity
  8
ASSI
100
AcDbPolyline
 62
250
  6
CONTINUOUS
 90
3
 70
0
 10
137.7510275806
 20
131.4583373928
 10
137.7452665389
 20
131.5049800804
 10
137.7439119687
 20
131.5111734539
  0
LWPOLYLINE
  5
348
100
AcDbEntity
  8
RACCORDO
100
AcDbPolyline
 62
250
  6
CONTINUOUS
 90
7
 70
0
 10
140.9867963569
 20
100.8850003903
 10
140.9852300114
 20
100.8705762764
 10
140.9802995868
 20
100.8558066155
 10
140.9721479047
 20
100.8416201677
 10
140.960998338
 20
100.8282702873
 10
140.9470775461
 20
100.8159308977
 10
140.930664317
 20
100.8047829829
  0
LWPOLYLINE
  5
349
100
AcDbEntity
  8
0
100
AcDbPolyline
 62
250
  6
CONTINUOUS
 90
3
 70
0
 10
137.5273341515
 20
94.7701800797
 10
137.5429419173
 20
94.810687634
 10
137.5566027956
 20
94.8514428417
  0
LINE
  5
34A
100
AcDbEntity
  8
0
100
AcDbLine
 62
7
  6
CONTINUOUS
 10
137.4852194027
 20
94.8193938392
 11
137.4785927671
 21
94.8048722642
  0
LINE
  5
34B
100
AcDbEntity
  8
RACCORDO
100
AcDbLine
 62
7
  6
CONTINUOUS
 10
137.5383211038
 20
122.4745365601
 11
137.2274751755
 21
122.5226230434
  0
LINE
  5
34C
100
AcDbEntity
  8
RACCORDO
100
AcDbLine
 62
250
  6
CONTINUOUS
 10
137.5688965317
 20
122.5567081072
 11
137.2274751755
 21
122.6095244733
  0
LINE
  5
34D
100
AcDbEntity
  8
0
100
AcDbLine
 62
250
  6
CONTINUOUS
 10
137.9231263038
 20
120.6388479432
 11
137.7443656589
 21
120.8771991158
  0
LINE
  5
34E
100
AcDbEntity
  8
0
100
AcDbLine
 62
250
  6
CONTINUOUS
 10
138.167038432
 20
122.6254277737
 11
138.1769626154
 21
122.6015344066
  0
LWPOLYLINE
  5
34F
100
AcDbEntity
  8
ASSI
100
AcDbPolyline
 62
250
  6
CONTINUOUS
 90
11
 70
0
 10
137.725368129
 20
131.464255585
 10
137.7269598348
 20
131.4588135913
 10
137.7285480648
 20
131.4536651737
 10
137.7301340473
 20
131.4487992911
 10
137.731711066
 20
131.4442256472
 10
137.7332849263
 20
131.4399401761
 10
137.7348503692
 20
131.4359508116
 10
137.7364083616
 20
131.4322484639
 10
137.7379755454
 20
131.4288041107
 10
137.7395511279
 20
131.425612915
 10
137.741133824
 20
131.4226793495
  0
LWPOLYLINE
  5
350
100
AcDbEntity
  8
ASSI
100
AcDbPolyline
 62
250
  6
CONTINUOUS
 90
7
 70
0
 10
137.7159750218
 20
131.5018547553
 10
137.7171549414
 20
131.4965718378
 10
137.7188382092
 20
131.4893647451
 10
137.7204983934
 20
131.4825590617
 10
137.7221328068
 20
131.4761272023
 10
137.7237571978
 20
131.4700270001
 10
137.725368129
 20
131.464255585
  0
LWPOLYLINE
  5
351
100
AcDbEntity
  8
0
100
AcDbPolyline
 62
7
  6
CONTINUOUS
 90
9
 70
0
 10
137.4785927671
 20
94.8048722642
 10
137.4533452091
 20
94.756542102
 10
137.4250613378
 20
94.7087009012
 10
137.3941208801
 20
94.6620936674
 10
137.3608720004
 20
94.6172665178
 10
137.3257179326
 20
94.5747515106
 10
137.2892402925
 20
94.5351738135
 10
137.251888487
 20
94.4988892441
 10
137.2274751755
 20
94.4777617758
  0
LWPOLYLINE
  5
352
100
AcDbEntity
  8
0
100
AcDbPolyline
 62
250
  6
CONTINUOUS
 90
5
 70
0
 10
137.2274751755
 20
92.4407081547
 10
137.2330219982
 20
92.4508454596
 10
137.238466776
 20
92.4673236595
 10
137.2415139894
 20
92.4858361541
 10
137.2421114342
 20
92.506066479
  0
LINE
  5
353
100
AcDbEntity
  8
RACCORDO
100
AcDbLine
 62
250
  6
CONTINUOUS
 10
140.930664317
 20
100.8047829829
 11
138.2881353472
 21
99.0620599794
  0
LINE
  5
354
100
AcDbEntity
  8
RACCORDO
100
AcDbLine
 62
7
  6
CONTINUOUS
 10
140.8969055476
 20
100.7180394185
 11
138.2501930709
 21
98.9725574315
  0
LWPOLYLINE
  5
355
100
AcDbEntity
  8
RACCORDO
100
AcDbPolyline
 62
7
  6
CONTINUOUS
 90
4
 70
0
 10
138.2496990334
 20
98.9734573147
 10
138.2447208259
 20
98.9703676367
 10
138.2329448387
 20
98.9651513794
 10
138.2279132059
 20
98.9636760593
  0
LINE
  5
356
100
AcDbEntity
  8
0
100
AcDbLine
 62
7
  6
CONTINUOUS
 10
137.2586828436
 20
96.9647013579
 11
137.5577458823
 21
97.1438333156
  0
LINE
  5
357
100
AcDbEntity
  8
0
100
AcDbLine
 62
250
  6
CONTINUOUS
 10
137.2274751755
 20
98.6156595634
 11
137.5548755247
 21
98.7979770874
  0
LINE
  5
358
100
AcDbEntity
  8
0
100
AcDbLine
 62
250
  6
CONTINUOUS
 10
137.2421114342
 20
98.3001817773
 11
138.1937987174
 21
98.8301423271
  0
LWPOLYLINE
  5
359
100
AcDbEntity
  8
RACCORDO
100
AcDbPolyline
 62
250
  6
CONTINUOUS
 90
10
 70
0
 10
137.6872543199
 20
98.9146627053
 10
137.6745547908
 20
98.9081599051
 10
137.6609222578
 20
98.902292939
 10
137.6464508792
 20
98.8971075952
 10
137.6312330195
 20
98.8926427772
 10
137.6153841254
 20
98.8889379022
 10
137.599045079
 20
98.8860281918
 10
137.5823447433
 20
98.8839358539
 10
137.565396019
 20
98.8826743095
 10
137.5483226458
 20
98.8822527689
  0
LINE
  5
35A
100
AcDbEntity
  8
0
100
AcDbLine
 62
250
  6
CONTINUOUS
 10
138.1937987174
 20
98.8301423271
 11
138.26305976
 21
98.8652501924
  0
LINE
  5
35B
100
AcDbEntity
  8
0
100
AcDbLine
 62
250
  6
CONTINUOUS
 10
137.2274751755
 20
98.2929632192
 11
137.2421114342
 21
98.3001817773
  0
LWPOLYLINE
  5
35C
100
AcDbEntity
  8
0
100
AcDbPolyline
 62
250
  6
CONTINUOUS
 90
21
 70
0
 10
138.26305976
 20
98.8652501924
 10
138.3305079108
 20
98.8937268618
 10
138.3961431696
 20
98.9155723352
 10
138.4601032383
 20
98.9307407158
 10
138.522250415
 20
98.9392779005
 10
138.5821715949
 20
98.9413215798
 10
138.6400678011
 20
98.9368526278
 10
138.6957380104
 20
98.9258901704
 10
138.7481660486
 20
98.9086292758
 10
138.7974271519
 20
98.8846089053
 10
138.843446084
 20
98.8542900977
 10
138.8849809615
 20
98.8192510372
 10
138.9214421003
 20
98.7799217247
 10
138.9534191846
 20
98.7358721594
 10
138.9814393838
 20
98.6873905237
 10
139.0057543165
 20
98.6350710695
 10
139.0261123642
 20
98.5783195449
 10
139.0422858412
 20
98.5156413775
 10
139.0541988525
 20
98.4465383763
 10
139.0619272931
 20
98.3715087322
 10
139.0654711632
 20
98.2905524451
  0
LINE
  5
35D
100
AcDbEntity
  8
RACCORDO
100
AcDbLine
 62
250
  6
CONTINUOUS
 10
137.2274751755
 20
126.4721275048
 11
137.5688965317
 21
126.4824577784
  0
LINE
  5
35E
100
AcDbEntity
  8
0
100
AcDbLine
 62
250
  6
CONTINUOUS
 10
138.2881353472
 20
123.0677153996
 11
138.3214784641
 21
123.0570886224
  0
LINE
  5
35F
100
AcDbEntity
  8
0
100
AcDbLine
 62
7
  6
CONTINUOUS
 10
138.3282156601
 20
123.0558730071
 11
138.2881353472
 21
123.0705790442
  0
LINE
  5
360
100
AcDbEntity
  8
0
100
AcDbLine
 62
250
  6
CONTINUOUS
 10
138.3214784641
 20
123.0570886224
 11
138.3684085533
 21
123.0369469018
  0
LINE
  5
361
100
AcDbEntity
  8
0
100
AcDbLine
 62
7
  6
CONTINUOUS
 10
138.360196794
 20
123.0413135267
 11
138.3282156601
 21
123.0558730071
  0
LINE
  5
362
100
AcDbEntity
  8
0
100
AcDbLine
 62
7
  6
CONTINUOUS
 10
138.3601968126
 20
123.0413135177
 11
138.3604328186
 21
123.0411983017
  0
LWPOLYLINE
  5
363
100
AcDbEntity
  8
0
100
AcDbPolyline
 62
250
  6
CONTINUOUS
 90
3
 70
0
 10
138.3702176693
 20
123.0362945559
 10
138.3732008901
 20
123.0345647971
 10
138.3779919313
 20
123.0321139791
  0
LINE
  5
364
100
AcDbEntity
  8
0
100
AcDbLine
 62
250
  6
CONTINUOUS
 10
138.3604328186
 20
123.0411983017
 11
138.3684085535
 21
123.0369469017
  0
LINE
  5
365
100
AcDbEntity
  8
0
100
AcDbLine
 62
250
  6
CONTINUOUS
 10
138.3827838598
 20
123.0295987271
 11
138.3876002108
 21
123.0270109929
  0
LINE
  5
366
100
AcDbEntity
  8
0
100
AcDbLine
 62
250
  6
CONTINUOUS
 10
138.3924216227
 20
123.0243668548
 11
138.3971860512
 21
123.0217069013
  0
LWPOLYLINE
  5
367
100
AcDbEntity
  8
0
100
AcDbPolyline
 62
7
  6
CONTINUOUS
 90
5
 70
0
 10
138.4048763074
 20
123.0173240071
 10
138.3936328676
 20
123.0237125934
 10
138.3816334785
 20
123.0302958822
 10
138.3702176693
 20
123.0362945559
 10
138.3604328186
 20
123.0411983017
  0
LINE
  5
368
100
AcDbEntity
  8
0
100
AcDbLine
 62
250
  6
CONTINUOUS
 10
138.4018912795
 20
123.0190376424
 11
138.4048753671
 21
123.0173246003
  0
LINE
  5
369
100
AcDbEntity
  8
0
100
AcDbLine
 62
7
  6
CONTINUOUS
 10
138.4048753671
 20
123.0173246003
 11
138.757099835
 21
122.8139548265
  0
LWPOLYLINE
  5
36A
100
AcDbEntity
  8
RACCORDO
100
AcDbPolyline
 62
250
  6
CONTINUOUS
 90
6
 70
0
 10
137.1681566021
 20
129.1494003904
 10
137.1775884869
 20
129.1322572061
 10
137.1854903241
 20
129.1146149882
 10
137.1917270682
 20
129.0967752494
 10
137.1961921306
 20
129.0790428784
 10
137.1988092015
 20
129.0617209285
  0
LWPOLYLINE
  5
36B
100
AcDbEntity
  8
0
100
AcDbPolyline
 62
250
  6
CONTINUOUS
 90
12
 70
0
 10
137.2524826235
 20
94.3887890196
 10
137.2826937942
 20
94.4141390026
 10
137.3125234974
 20
94.4420840358
 10
137.3416711902
 20
94.4724055469
 10
137.369772711
 20
94.5048929502
 10
137.3966653183
 20
94.5392699906
 10
137.422371666
 20
94.5752273057
 10
137.4466714633
 20
94.6125021287
 10
137.4693664434
 20
94.6508676662
 10
137.4905005264
 20
94.6901073747
 10
137.5098738437
 20
94.7299513392
 10
137.5273341515
 20
94.7701800797
  0
LINE
  5
36C
100
AcDbEntity
  8
RACCORDO
100
AcDbLine
 62
250
  6
CONTINUOUS
 10
137.2948746241
 20
96.8964723566
 11
137.6163839051
 21
97.0821071705
  0
LINE
  5
36D
100
AcDbEntity
  8
RACCORDO
100
AcDbLine
 62
250
  6
CONTINUOUS
 10
137.6163839051
 20
94.9592347099
 11
137.2948746241
 21
94.786337423
  0
LINE
  5
36E
100
AcDbEntity
  8
RACCORDO
100
AcDbLine
 62
250
  6
CONTINUOUS
 10
137.2274751755
 20
126.7466257189
 11
137.5614951098
 21
126.7567320501
  0
LINE
  5
36F
100
AcDbEntity
  8
0
100
AcDbLine
 62
250
  6
CONTINUOUS
 10
134.12569122
 20
126.6231476133
 11
119.2574770516
 21
135.2078681316
  0
LINE
  5
370
100
AcDbEntity
  8
0
100
AcDbLine
 62
250
  6
CONTINUOUS
 10
134.4699896617
 20
127.2300364649
 11
119.6017754934
 21
135.8147569832
  0
LWPOLYLINE
  5
371
100
AcDbEntity
  8
RACCORDO
100
AcDbPolyline
 62
250
  6
CONTINUOUS
 90
9
 70
0
 10
138.1600732509
 20
128.382399793
 10
138.1599344553
 20
128.3825688655
 10
138.1573164942
 20
128.3829388364
 10
138.1520489544
 20
128.3815659591
 10
138.144215961
 20
128.3784713906
 10
138.133951979
 20
128.3737089649
 10
138.1214303314
 20
128.3673605491
 10
138.1068532701
 20
128.3595298669
 10
138.0904575545
 20
128.3503449597
  0
LWPOLYLINE
  5
372
100
AcDbEntity
  8
RACCORDO
100
AcDbPolyline
 62
250
  6
CONTINUOUS
 90
3
 70
0
 10
137.1453708635
 20
129.1810312577
 10
137.1573558646
 20
129.165751557
 10
137.1681566021
 20
129.1494003904
  0
LWPOLYLINE
  5
373
100
AcDbEntity
  8
RACCORDO
100
AcDbPolyline
 62
250
  6
CONTINUOUS
 90
10
 70
0
 10
138.0904575545
 20
128.3503449597
 10
138.2826376903
 20
128.0495618298
 10
138.4727249185
 20
127.747197943
 10
138.660688879
 20
127.4433015919
 10
138.846499551
 20
127.1379213136
 10
139.0301272575
 20
126.831105882
 10
139.2115426701
 20
126.5229043007
 10
139.3907168137
 20
126.2133657942
 10
139.5676210715
 20
125.9025398009
 10
139.7422271888
 20
125.5904759647
  0
LWPOLYLINE
  5
374
100
AcDbEntity
  8
ASSI
100
AcDbPolyline
 62
250
  6
CONTINUOUS
 90
8
 70
0
 10
137.741133824
 20
131.4226793495
 10
137.7427413028
 20
131.4199891401
 10
137.7443790941
 20
131.4175324659
 10
137.7460414327
 20
131.4153196177
 10
137.7477299369
 20
131.4133669198
 10
137.7494450846
 20
131.4116799862
 10
137.75118613
 20
131.4102536767
 10
137.7529529213
 20
131.4090882239
  0
LWPOLYLINE
  5
375
100
AcDbEntity
  8
RACCORDO
100
AcDbPolyline
 62
7
  6
CONTINUOUS
 90
10
 70
0
 10
139.8069376442
 20
125.6307276157
 10
139.6328510989
 20
125.9418628524
 10
139.4564735651
 20
126.2517633817
 10
139.2778329874
 20
126.5603801158
 10
139.0969577021
 20
126.8676641011
 10
138.913876317
 20
127.1735667233
 10
138.7286177012
 20
127.4780397128
 10
138.5412111378
 20
127.7810348904
 10
138.3516863248
 20
128.0825041762
 10
138.1600732509
 20
128.382399793
  0
LWPOLYLINE
  5
376
100
AcDbEntity
  8
RACCORDO
100
AcDbPolyline
 62
250
  6
CONTINUOUS
 90
10
 70
0
 10
139.7422271888
 20
125.5904759647
 10
139.7501978037
 20
125.5757734645
 10
139.7573381917
 20
125.5607753816
 10
139.7635981789
 20
125.545587104
 10
139.7689337776
 20
125.5303153558
 10
139.7733074956
 20
125.5150674482
 10
139.7766885996
 20
125.4999505244
 10
139.7790533311
 20
125.4850708076
 10
139.7803850734
 20
125.470532854
 10
139.7806744685
 20
125.4564388186
  0
LINE
  5
377
100
AcDbEntity
  8
RACCORDO
100
AcDbLine
 62
250
  6
CONTINUOUS
 10
137.5322939913
 20
91.9037293955
 11
138.146713991
 21
92.448583888
  0
LINE
  5
378
100
AcDbEntity
  8
RACCORDO
100
AcDbLine
 62
250
  6
CONTINUOUS
 10
137.7103178879
 20
91.6854783796
 11
138.2881353472
 21
92.1978745234
  0
LWPOLYLINE
  5
379
100
AcDbEntity
  8
0
100
AcDbPolyline
 62
250
  6
CONTINUOUS
 90
7
 70
0
 10
138.1576147632
 20
93.0258199025
 10
138.1670413502
 20
93.0331523187
 10
138.176961769
 20
93.0447569382
 10
138.1847103349
 20
93.0589192441
 10
138.1901545703
 20
93.075397103
 10
138.193201395
 20
93.0939087924
 10
138.1937987174
 20
93.1141378174
  0
LINE
  5
37A
100
AcDbEntity
  8
0
100
AcDbLine
 62
250
  6
CONTINUOUS
 10
137.2421114342
 20
92.506066479
 11
137.2274751755
 21
92.495893461
  0
LWPOLYLINE
  5
37B
100
AcDbEntity
  8
0
100
AcDbPolyline
 62
7
  6
CONTINUOUS
 90
22
 70
0
 10
138.1575683583
 20
93.0257902805
 10
138.2091516627
 20
93.0602645779
 10
138.2861905051
 20
93.1174641058
 10
138.3615694575
 20
93.180283341
 10
138.4349166418
 20
93.2483170916
 10
138.5059654328
 20
93.3212075519
 10
138.5744967489
 20
93.3986288809
 10
138.6402487704
 20
93.4802355022
 10
138.7029249017
 20
93.5656023647
 10
138.762211504
 20
93.6542731001
 10
138.8178223919
 20
93.7458138894
 10
138.8695082136
 20
93.8397777089
 10
138.916996802
 20
93.9356818689
 10
138.9600465099
 20
94.0330740381
 10
138.9984475925
 20
94.1314800155
 10
139.0319765694
 20
94.2304014337
 10
139.0604339511
 20
94.3293659758
 10
139.0836674369
 20
94.4279624792
 10
139.1015162341
 20
94.525831281
 10
139.1138187739
 20
94.6225609675
 10
139.1204307134
 20
94.7176338473
 10
139.1216031748
 20
94.7763563242
  0
LINE
  5
37C
100
AcDbEntity
  8
RACCORDO
100
AcDbLine
 62
250
  6
CONTINUOUS
 10
139.7806744685
 20
93.9861403674
 11
137.7862324217
 21
92.6567214282
  0
LINE
  5
37D
100
AcDbEntity
  8
RACCORDO
100
AcDbLine
 62
7
  6
CONTINUOUS
 10
139.7422271888
 20
93.8965011764
 11
137.8376966011
 21
92.627006656
  0
LINE
  5
37E
100
AcDbEntity
  8
0
100
AcDbLine
 62
250
  6
CONTINUOUS
 10
138.1937987174
 20
93.1141378174
 11
137.2421114342
 21
92.506066479
  0
LINE
  5
37F
100
AcDbEntity
  8
0
100
AcDbLine
 62
7
  6
CONTINUOUS
 10
138.1576147632
 20
93.0258199025
 11
137.2274751755
 21
92.4315162546
  0
LINE
  5
380
100
AcDbEntity
  8
0
100
AcDbLine
 62
7
  6
CONTINUOUS
 10
137.2586828436
 20
93.8613630635
 11
137.5577458823
 21
94.0398520184
  0
LINE
  5
381
100
AcDbEntity
  8
0
100
AcDbLine
 62
250
  6
CONTINUOUS
 10
137.2274751755
 20
94.374823645
 11
137.2524801821
 21
94.3887918102
  0
LWPOLYLINE
  5
382
100
AcDbEntity
  8
RACCORDO
100
AcDbPolyline
 62
250
  6
CONTINUOUS
 90
8
 70
0
 10
137.250724419
 20
94.6932900603
 10
137.2524545486
 20
94.6942560801
 10
137.2646837392
 20
94.7033025952
 10
137.2750509504
 20
94.7151952524
 10
137.2833728894
 20
94.7297194327
 10
137.2895100978
 20
94.7466173396
 10
137.2933644085
 20
94.7655991882
 10
137.2948746241
 20
94.786337423
  0
LINE
  5
383
100
AcDbEntity
  8
RACCORDO
100
AcDbLine
 62
250
  6
CONTINUOUS
 10
137.2506681468
 20
94.6932597641
 11
137.250724419
 21
94.6932900603
  0
LINE
  5
384
100
AcDbEntity
  8
RACCORDO
100
AcDbLine
 62
7
  6
CONTINUOUS
 10
137.573216533
 20
94.8667158481
 11
137.2506681468
 21
94.6932597641
  0
LWPOLYLINE
  5
385
100
AcDbEntity
  8
RACCORDO
100
AcDbPolyline
 62
250
  6
CONTINUOUS
 90
7
 70
0
 10
137.2948746241
 20
94.786337423
 10
137.2845004726
 20
94.7809440882
 10
137.2735000016
 20
94.7759817259
 10
137.2619268044
 20
94.7714745122
 10
137.2498372644
 20
94.7674444058
 10
137.2372902805
 20
94.763911041
 10
137.2274751755
 20
94.7616213763
  0
LINE
  5
386
100
AcDbEntity
  8
RACCORDO
100
AcDbLine
 62
250
  6
CONTINUOUS
 10
138.0919378627
 20
128.4473021932
 11
138.0918602387
 21
128.4473469428
  0
LINE
  5
387
100
AcDbEntity
  8
0
100
AcDbLine
 62
7
  6
CONTINUOUS
 10
126.394785081
 20
133.8561208326
 11
130.9909791587
 21
131.202335976
  0
LINE
  5
388
100
AcDbEntity
  8
RACCORDO
100
AcDbLine
 62
7
  6
CONTINUOUS
 10
138.146713991
 20
127.1300436475
 11
137.2274751755
 21
127.6608006188
  0
LINE
  5
389
100
AcDbEntity
  8
0
100
AcDbLine
 62
7
  6
CONTINUOUS
 10
126.8967580183
 20
133.6937592115
 11
131.1273720721
 21
131.2510556789
  0
LINE
  5
38A
100
AcDbEntity
  8
RACCORDO
100
AcDbLine
 62
7
  6
CONTINUOUS
 10
128.5652599526
 20
133.011799722
 11
128.706509048
 21
132.9302442646
  0
LINE
  5
38B
100
AcDbEntity
  8
0
100
AcDbLine
 62
7
  6
CONTINUOUS
 10
136.8740429388
 20
128.6180998513
 11
131.8604217902
 21
131.512901867
  0
LINE
  5
38C
100
AcDbEntity
  8
0
100
AcDbLine
 62
7
  6
CONTINUOUS
 10
126.8967580183
 20
134.3788591196
 11
121.8831368698
 21
137.2736611353
  0
LINE
  5
38D
100
AcDbEntity
  8
RACCORDO
100
AcDbLine
 62
250
  6
CONTINUOUS
 10
128.2679800804
 20
134.060205709
 11
129.3385148812
 21
133.442092332
  0
LINE
  5
38E
100
AcDbEntity
  8
RACCORDO
100
AcDbLine
 62
250
  6
CONTINUOUS
 10
137.2380618302
 20
128.8809929282
 11
137.9993344526
 21
128.441443657
  0
LINE
  5
38F
100
AcDbEntity
  8
RACCORDO
100
AcDbLine
 62
7
  6
CONTINUOUS
 10
128.3605834905
 20
134.0660642451
 11
129.4311182913
 21
133.4479508681
  0
LINE
  5
390
100
AcDbEntity
  8
RACCORDO
100
AcDbLine
 62
7
  6
CONTINUOUS
 10
137.2380618302
 20
128.9403195127
 11
138.0919378627
 21
128.4473021932
  0
LINE
  5
391
100
AcDbEntity
  8
ASSI
100
AcDbLine
 62
250
  6
CONTINUOUS
 10
129.7604903907
 20
133.329281991
 11
130.7875494612
 21
132.7362709557
  0
LINE
  5
392
100
AcDbEntity
  8
ASSI
100
AcDbLine
 62
250
  6
CONTINUOUS
 10
132.8345227212
 20
131.55437425
 11
133.8785297261
 21
130.9515776898
  0
LWPOLYLINE
  5
393
100
AcDbEntity
  8
RACCORDO
100
AcDbPolyline
 62
250
  6
CONTINUOUS
 90
10
 70
0
 10
137.9993344526
 20
128.441443657
 10
138.0105133859
 20
128.4346997158
 10
138.021579877
 20
128.4269838712
 10
138.0324669547
 20
128.4183428172
 10
138.0431087334
 20
128.4088288468
 10
138.0534408123
 20
128.3984995356
 10
138.0634006645
 20
128.3874173936
 10
138.0729280157
 20
128.3756494865
 10
138.0819652093
 20
128.3632670302
 10
138.0904575545
 20
128.3503449597
  0
LWPOLYLINE
  5
394
100
AcDbEntity
  8
RACCORDO
100
AcDbPolyline
 62
250
  6
CONTINUOUS
 90
13
 70
0
 10
137.5614951098
 20
126.7567320501
 10
137.5800187893
 20
126.7447145746
 10
137.5983521783
 20
126.7301853142
 10
137.6161815443
 20
126.7133928859
 10
137.6332019274
 20
126.6946244586
 10
137.6491218868
 20
126.6742013477
 10
137.6636685982
 20
126.6524736552
 10
137.67659321
 20
126.6298133487
 10
137.6876747471
 20
126.6066081603
 10
137.6967236068
 20
126.5832555752
 10
137.7035852105
 20
126.5601552573
 10
137.7081425227
 20
126.5377021937
 10
137.7103178879
 20
126.5162803531
  0
LWPOLYLINE
  5
395
100
AcDbEntity
  8
RACCORDO
100
AcDbPolyline
 62
250
  6
CONTINUOUS
 90
22
 70
0
 10
133.8785297261
 20
130.9515776898
 10
133.8904207961
 20
130.9437799778
 10
133.9011932862
 20
130.9346633362
 10
133.9107760671
 20
130.9243702142
 10
133.9188752289
 20
130.9129454913
 10
133.9256797821
 20
130.9006163698
 10
133.931855
 20
130.8877756876
 10
133.9374095069
 20
130.8745600407
 10
133.9422775286
 20
130.8610363349
 10
133.947009147
 20
130.8474584277
 10
133.9516029607
 20
130.8339430449
 10
133.9560226007
 20
130.820525067
 10
133.9607429398
 20
130.807307989
 10
133.9657025599
 20
130.7943440102
 10
133.9709055639
 20
130.7817022624
 10
133.9768819055
 20
130.7694997205
 10
133.9835662725
 20
130.7576774648
 10
133.9909105401
 20
130.7464334651
 10
133.9994595659
 20
130.73627348
 10
134.0093805074
 20
130.7274177999
 10
134.0204465978
 20
130.719804455
 10
134.0326314996
 20
130.7135159145
  0
LINE
  5
396
100
AcDbEntity
  8
RACCORDO
100
AcDbLine
 62
250
  6
CONTINUOUS
 10
137.1324064273
 20
129.1949783561
 11
137.1453708635
 21
129.1810312577
  0
LWPOLYLINE
  5
397
100
AcDbEntity
  8
RACCORDO
100
AcDbPolyline
 62
250
  6
CONTINUOUS
 90
9
 70
0
 10
137.5628479656
 20
87.6414751109
 10
137.5631089683
 20
87.64181138
 10
137.5637476806
 20
87.6449333617
 10
137.5644705168
 20
87.6512779418
 10
137.5652661266
 20
87.6607438862
 10
137.5661209987
 20
87.6731697852
 10
137.5670208833
 20
87.6883455819
 10
137.5679511463
 20
87.7060217101
 10
137.5688965317
 20
87.7259061337
  0
LWPOLYLINE
  5
398
100
AcDbEntity
  8
RACCORDO
100
AcDbPolyline
 62
250
  6
CONTINUOUS
 90
10
 70
0
 10
137.7103178879
 20
91.6854783796
 10
137.6975253353
 20
91.6787069574
 10
137.6837388481
 20
91.6725910726
 10
137.6690576891
 20
91.6671806357
 10
137.6535794767
 20
91.6625180839
 10
137.6374268676
 20
91.6586465213
 10
137.6207502286
 20
91.6556045245
 10
137.603687265
 20
91.6534163934
 10
137.5863585825
 20
91.652096794
 10
137.5688965317
 20
91.6516558048
  0
LINE
  5
399
100
AcDbEntity
  8
ASSI
100
AcDbLine
 62
7
  6
CONTINUOUS
 10
135.8109249089
 20
132.9484339757
 11
135.4274686208
 21
132.8604673457
  0
LINE
  5
39A
100
AcDbEntity
  8
RACCORDO
100
AcDbLine
 62
250
  6
CONTINUOUS
 10
136.2848874975
 20
132.1288812108
 11
134.8203092262
 21
132.0218982614
  0
LINE
  5
39B
100
AcDbEntity
  8
RACCORDO
100
AcDbLine
 62
250
  6
CONTINUOUS
 10
136.1960257802
 20
132.3886542697
 11
134.7045217821
 21
132.2797044785
  0
LWPOLYLINE
  5
39C
100
AcDbEntity
  8
RACCORDO
100
AcDbPolyline
 62
250
  6
CONTINUOUS
 90
10
 70
0
 10
134.2081172791
 20
131.0106452919
 10
134.1958923864
 20
131.0113993778
 10
134.1821037502
 20
131.0133588136
 10
134.1671456439
 20
131.0164675698
 10
134.1514457819
 20
131.0206367536
 10
134.1354530826
 20
131.0257471507
 10
134.1196248314
 20
131.031652636
 10
134.1044136161
 20
131.0381843499
 10
134.0902543853
 20
131.0451555251
 10
134.0775520047
 20
131.0523668289
  0
LWPOLYLINE
  5
39D
100
AcDbEntity
  8
RACCORDO
100
AcDbPolyline
 62
250
  6
CONTINUOUS
 90
10
 70
0
 10
134.2106570179
 20
131.0172264591
 10
134.1988456294
 20
131.0190926873
 10
134.1854550324
 20
131.0221351757
 10
134.1708690001
 20
131.026266727
 10
134.1555055666
 20
131.0313689313
 10
134.1398050463
 20
131.03729556
 10
134.1242174148
 20
131.0438767566
 10
134.1091894119
 20
131.0509239046
 10
134.0951517387
 20
131.0582350334
 10
132.9667775804
 20
131.709808625
  0
LWPOLYLINE
  5
39E
100
AcDbEntity
  8
ASSI
100
AcDbPolyline
 62
250
  6
CONTINUOUS
 90
3
 70
0
 10
137.6361785969
 20
130.5403838992
 10
137.6233645109
 20
130.5444692609
 10
137.6043009399
 20
130.5533485908
  0
LWPOLYLINE
  5
39F
100
AcDbEntity
  8
ASSI
100
AcDbPolyline
 62
250
  6
CONTINUOUS
 90
3
 70
0
 10
137.6438256914
 20
130.553932416
 10
137.6400374105
 20
130.5551401593
 10
137.6209731635
 20
130.5640197519
  0
LINE
  5
3A0
100
AcDbEntity
  8
0
100
AcDbLine
 62
7
  6
CONTINUOUS
 10
126.394785081
 20
133.8561208326
 11
126.8967580183
 21
133.6937592115
  0
LWPOLYLINE
  5
3A1
100
AcDbEntity
  8
RACCORDO
100
AcDbPolyline
 62
250
  6
CONTINUOUS
 90
3
 70
0
 10
129.7358280844
 20
133.3398969977
 10
129.7484224195
 20
133.3354451794
 10
129.7604903907
 20
133.329281991
  0
LWPOLYLINE
  5
3A2
100
AcDbEntity
  8
RACCORDO
100
AcDbPolyline
 62
250
  6
CONTINUOUS
 90
6
 70
0
 10
129.8126935424
 20
133.5178995812
 10
129.8264525115
 20
133.5124849937
 10
129.8402998522
 20
133.5064827175
 10
129.8542270914
 20
133.4998928107
 10
129.8682281145
 20
133.4927154315
 10
129.8822991264
 20
133.4849507279
  0
LWPOLYLINE
  5
3A3
100
AcDbEntity
  8
RACCORDO
100
AcDbPolyline
 62
250
  6
CONTINUOUS
 90
7
 70
0
 10
137.1630654543
 20
129.2329593012
 10
137.1531063175
 20
129.2373520195
 10
137.1416648502
 20
129.2396871671
 10
137.1293941949
 20
129.239711384
 10
137.1165426643
 20
129.2374747656
 10
137.103308215
 20
129.2330593228
 10
137.0899129375
 20
129.2265782778
  0
LWPOLYLINE
  5
3A4
100
AcDbEntity
  8
RACCORDO
100
AcDbPolyline
 62
250
  6
CONTINUOUS
 90
7
 70
0
 10
138.0918602387
 20
128.4473469428
 10
138.0813599075
 20
128.4522358251
 10
138.0668045461
 20
128.4558617407
 10
138.0510620405
 20
128.4565763422
 10
138.0343914177
 20
128.454375826
 10
138.0170563808
 20
128.4493024985
 10
137.9993344526
 20
128.441443657
  0
LWPOLYLINE
  5
3A5
100
AcDbEntity
  8
RACCORDO
100
AcDbPolyline
 62
250
  6
CONTINUOUS
 90
7
 70
0
 10
128.3605834905
 20
134.0660642451
 10
128.3500059423
 20
134.0709977285
 10
128.3354505807
 20
134.0746237344
 10
128.3197080342
 20
134.0753384109
 10
128.3030373311
 20
134.073137939
 10
128.2857021711
 20
134.0680646104
 10
128.2679800804
 20
134.060205709
  0
LWPOLYLINE
  5
3A6
100
AcDbEntity
  8
RACCORDO
100
AcDbPolyline
 62
250
  6
CONTINUOUS
 90
7
 70
0
 10
129.4311182913
 20
133.4479508681
 10
129.4205917746
 20
133.4528656959
 10
129.4060556069
 20
133.4565002688
 10
129.390321091
 20
133.4572285949
 10
129.3736398324
 20
133.4550390256
 10
129.3562785592
 20
133.4499665695
 10
129.3385148812
 20
133.442092332
  0
LINE
  5
3A7
100
AcDbEntity
  8
RACCORDO
100
AcDbLine
 62
250
  6
CONTINUOUS
 10
128.2571765862
 20
134.0661541456
 11
128.2679800804
 21
134.060205709
  0
LINE
  5
3A8
100
AcDbEntity
  8
RACCORDO
100
AcDbLine
 62
250
  6
CONTINUOUS
 10
137.0899129375
 20
129.2265782778
 11
135.4057251354
 21
130.199007207
  0
LINE
  5
3A9
100
AcDbEntity
  8
RACCORDO
100
AcDbLine
 62
250
  6
CONTINUOUS
 10
128.0927723216
 20
134.4214145088
 11
126.4085845195
 21
135.3938434379
  0
LINE
  5
3AA
100
AcDbEntity
  8
RACCORDO
100
AcDbLine
 62
7
  6
CONTINUOUS
 10
137.1630654543
 20
129.2329593012
 11
135.4750438912
 21
130.2076017959
  0
LINE
  5
3AB
100
AcDbEntity
  8
RACCORDO
100
AcDbLine
 62
7
  6
CONTINUOUS
 10
128.1697585994
 20
134.4255819667
 11
126.4817370363
 21
135.4002244613
  0
LINE
  5
3AC
100
AcDbEntity
  8
ASSI
100
AcDbLine
 62
250
  6
CONTINUOUS
 10
129.8822991264
 20
133.4849507279
 11
130.9177884348
 21
132.8870721789
  0
LINE
  5
3AD
100
AcDbEntity
  8
ASSI
100
AcDbLine
 62
250
  6
CONTINUOUS
 10
132.9648491534
 20
131.7051249757
 11
134.0003384618
 21
131.1072464268
  0
LINE
  5
3AE
100
AcDbEntity
  8
RACCORDO
100
AcDbLine
 62
250
  6
CONTINUOUS
 10
130.9194647909
 20
132.8919013709
 11
129.7925332385
 21
133.542513031
  0
LINE
  5
3AF
100
AcDbEntity
  8
ASSI
100
AcDbLine
 62
250
  6
CONTINUOUS
 10
137.6653960418
 20
129.789199936
 11
137.266616675
 21
130.0194501446
  0
LINE
  5
3B0
100
AcDbEntity
  8
RACCORDO
100
AcDbLine
 62
7
  6
CONTINUOUS
 10
130.172634656
 20
134.5512450134
 11
131.281543605
 21
133.9109748841
  0
LINE
  5
3B1
100
AcDbEntity
  8
RACCORDO
100
AcDbLine
 62
7
  6
CONTINUOUS
 10
133.3833016091
 20
132.6974461537
 11
134.4922105581
 21
132.0571760245
  0
LINE
  5
3B2
100
AcDbEntity
  8
ASSI
100
AcDbLine
 62
250
  6
CONTINUOUS
 10
137.6209731635
 20
130.5640197519
 11
136.6262459744
 21
131.1383627641
  0
LINE
  5
3B3
100
AcDbEntity
  8
RACCORDO
100
AcDbLine
 62
7
  6
CONTINUOUS
 10
130.5611726821
 20
134.6720223205
 11
131.5595038742
 21
134.0955984023
  0
LINE
  5
3B4
100
AcDbEntity
  8
RACCORDO
100
AcDbLine
 62
7
  6
CONTINUOUS
 10
133.7030583213
 20
132.8579369295
 11
134.7013895134
 21
132.2815130113
  0
LINE
  5
3B5
100
AcDbEntity
  8
ASSI
100
AcDbLine
 62
250
  6
CONTINUOUS
 10
137.7529529213
 20
130.8716967451
 11
138.1262444855
 21
130.6561628744
  0
LINE
  5
3B6
100
AcDbEntity
  8
RACCORDO
100
AcDbLine
 62
250
  6
CONTINUOUS
 10
129.7879149306
 20
133.5292697641
 11
129.7990339749
 21
133.5227265612
  0
LWPOLYLINE
  5
3B7
100
AcDbEntity
  8
RACCORDO
100
AcDbPolyline
 62
250
  6
CONTINUOUS
 90
4
 70
0
 10
137.0899129375
 20
129.2265782778
 10
137.1044384723
 20
129.2179481478
 10
137.1186841236
 20
129.2073544905
 10
137.1324064273
 20
129.1949783561
  0
LWPOLYLINE
  5
3B8
100
AcDbEntity
  8
RACCORDO
100
AcDbPolyline
 62
250
  6
CONTINUOUS
 90
7
 70
0
 10
134.0003384618
 20
131.1072464268
 10
134.0144652769
 20
131.0986936204
 10
134.0280817238
 20
131.0899034026
 10
134.0411915844
 20
131.0808756278
 10
134.0538008385
 20
131.0716101453
 10
134.0659177006
 20
131.0621069042
 10
134.0775526685
 20
131.0523660963
  0
LWPOLYLINE
  5
3B9
100
AcDbEntity
  8
ASSI
100
AcDbPolyline
 62
250
  6
CONTINUOUS
 90
23
 70
0
 10
136.8196491596
 20
132.2733902256
 10
136.8458356273
 20
132.2490304027
 10
136.8711246554
 20
132.2223087945
 10
136.8952793636
 20
132.193476071
 10
136.918073423
 20
132.1628028106
 10
136.9392935559
 20
132.1305764559
 10
136.9587414393
 20
132.0970985376
 10
136.9762351066
 20
132.0626825177
 10
136.9916106448
 20
132.0276511152
 10
137.0047240844
 20
131.9923327329
 10
137.015452348
 20
131.9570597787
 10
137.0236957704
 20
131.9221610654
 10
137.0293778984
 20
131.8879591387
 10
137.0324452366
 20
131.8547651363
 10
137.0328662012
 20
131.8229007201
 10
137.0306387115
 20
131.7926871086
 10
137.0257964101
 20
131.7644376944
 10
137.0183884049
 20
131.7383734099
 10
137.0084554074
 20
131.7146657857
 10
136.99610045
 20
131.6935940606
 10
136.9814052592
 20
131.6753244671
 10
136.9643311526
 20
131.6599264493
 10
136.9501877622
 20
131.6505136665
  0
LINE
  5
3BA
100
AcDbEntity
  8
RACCORDO
100
AcDbLine
 62
250
  6
CONTINUOUS
 10
132.2555328479
 20
134.6919033073
 11
134.7736392558
 21
135.3033875367
  0
LINE
  5
3BB
100
AcDbEntity
  8
RACCORDO
100
AcDbLine
 62
7
  6
CONTINUOUS
 10
132.1737136417
 20
134.7079392035
 11
134.6918200496
 21
135.3194234329
  0
LWPOLYLINE
  5
3BC
100
AcDbEntity
  8
RACCORDO
100
AcDbPolyline
 62
250
  6
CONTINUOUS
 90
9
 70
0
 10
134.7736392558
 20
135.3033875367
 10
134.8522511708
 20
135.3205188461
 10
134.9317193559
 20
135.3332177938
 10
135.0117657728
 20
135.3410632287
 10
135.0920842823
 20
135.3436221999
 10
135.1723419018
 20
135.3404858293
 10
135.2521741706
 20
135.3312600786
 10
135.3317329407
 20
135.3153924144
 10
135.4100029704
 20
135.2925167248
  0
LWPOLYLINE
  5
3BD
100
AcDbEntity
  8
RACCORDO
100
AcDbPolyline
 62
7
  6
CONTINUOUS
 90
4
 70
0
 10
132.1728793979
 20
134.7077394094
 10
132.1683993201
 20
134.7067656997
 10
132.164300781
 20
134.7060335322
 10
132.1605973216
 20
134.7055194564
  0
LINE
  5
3BE
100
AcDbEntity
  8
RACCORDO
100
AcDbLine
 62
250
  6
CONTINUOUS
 10
132.2508445465
 20
134.6909444123
 11
132.2555328479
 21
134.6919033073
  0
LWPOLYLINE
  5
3BF
100
AcDbEntity
  8
RACCORDO
100
AcDbPolyline
 62
250
  6
CONTINUOUS
 90
3
 70
0
 10
132.1737136417
 20
134.7079392035
 10
132.1843247229
 20
134.7098528057
 10
132.2019501896
 20
134.7102689907
  0
LINE
  5
3C0
100
AcDbEntity
  8
ASSI
100
AcDbLine
 62
7
  6
CONTINUOUS
 10
133.0234330287
 20
134.2204695625
 11
131.5595038742
 21
134.0955984023
  0
LWPOLYLINE
  5
3C1
100
AcDbEntity
  8
RACCORDO
100
AcDbPolyline
 62
250
  6
CONTINUOUS
 90
4
 70
0
 10
129.6952586854
 20
133.3427581033
 10
129.7091739449
 20
133.3435406591
 10
129.7227883282
 20
133.3426368433
 10
129.7358280844
 20
133.3398969977
  0
LINE
  5
3C2
100
AcDbEntity
  8
ASSI
100
AcDbLine
 62
7
  6
CONTINUOUS
 10
135.387116171
 20
132.8557085401
 11
133.7030583213
 21
132.8579369295
  0
LINE
  5
3C3
100
AcDbEntity
  8
RACCORDO
100
AcDbLine
 62
250
  6
CONTINUOUS
 10
129.7990338276
 20
133.5227266733
 11
129.8126935424
 21
133.5178995812
  0
LWPOLYLINE
  5
3C4
100
AcDbEntity
  8
RACCORDO
100
AcDbPolyline
 62
250
  6
CONTINUOUS
 90
3
 70
0
 10
128.2356966192
 20
134.074875224
 10
128.2463936808
 20
134.0710538678
 10
128.2571765862
 20
134.0661541456
  0
LINE
  5
3C5
100
AcDbEntity
  8
RACCORDO
100
AcDbLine
 62
250
  6
CONTINUOUS
 10
132.1966288866
 20
134.6965335662
 11
132.2145234198
 21
134.6875238328
  0
LWPOLYLINE
  5
3C6
100
AcDbEntity
  8
ASSI
100
AcDbPolyline
 62
250
  6
CONTINUOUS
 90
44
 70
0
 10
137.7529529213
 20
130.8716967451
 10
137.7511533763
 20
130.872611951
 10
137.7493843753
 20
130.8732556424
 10
137.747645924
 20
130.8736274896
 10
137.7459345679
 20
130.8737237867
 10
137.744253841
 20
130.8735476386
 10
137.7426137813
 20
130.8731087113
 10
137.7410173852
 20
130.8724016255
 10
137.7394606016
 20
130.8714306543
 10
137.7379424658
 20
130.8702197464
 10
137.7364659341
 20
130.8687724552
 10
137.7350269719
 20
130.8670842191
 10
137.733614629
 20
130.865167062
 10
137.7322311802
 20
130.8630301217
 10
137.7308742458
 20
130.8606637495
 10
137.7295272168
 20
130.8580523558
 10
137.7281911145
 20
130.8552024522
 10
137.7268665717
 20
130.8521077172
 10
137.7255381682
 20
130.8487339935
 10
137.7242065335
 20
130.8450793798
 10
137.7228747806
 20
130.8411466261
 10
137.7215329881
 20
130.8369091549
 10
137.720184299
 20
130.8323636478
 10
137.7188312952
 20
130.8275147065
 10
137.7174650886
 20
130.8223481795
 10
137.7160920346
 20
130.8168646499
 10
137.7147141479
 20
130.8110652521
 10
137.7133189161
 20
130.804937397
 10
137.7119144251
 20
130.7984755004
 10
137.7105059133
 20
130.7916876055
 10
137.7090812804
 20
130.7845825932
 10
137.7076510297
 20
130.7771435931
 10
137.7062260383
 20
130.7693907682
 10
137.7048012464
 20
130.761389661
 10
137.7033883193
 20
130.753102379
 10
137.7020087211
 20
130.7445705091
 10
137.7006774683
 20
130.7359792253
 10
137.6994067524
 20
130.72728758
 10
137.6982269926
 20
130.7185385199
 10
137.6971755236
 20
130.710041575
 10
137.6962647371
 20
130.7018169379
 10
137.6955140369
 20
130.6938414903
 10
137.6949506699
 20
130.6863572053
 10
137.6945777724
 20
130.6794327966
  0
LINE
  5
3C7
100
AcDbEntity
  8
ASSI
100
AcDbLine
 62
250
  6
CONTINUOUS
 10
135.1347301678
 20
132.8560425038
 11
132.9432374231
 21
134.1213829488
  0
LINE
  5
3C8
100
AcDbEntity
  8
ASSI
100
AcDbLine
 62
250
  6
CONTINUOUS
 10
138.1262444855
 20
131.1935543532
 11
137.7529529213
 21
131.4090882239
  0
LINE
  5
3C9
100
AcDbEntity
  8
RACCORDO
100
AcDbLine
 62
250
  6
CONTINUOUS
 10
132.2145234195
 20
134.6875238328
 11
133.0234330287
 21
134.2204695625
  0
LINE
  5
3CA
100
AcDbEntity
  8
RACCORDO
100
AcDbLine
 62
250
  6
CONTINUOUS
 10
135.387116171
 20
132.8557085401
 11
136.1960257802
 21
132.3886542697
  0
LINE
  5
3CB
100
AcDbEntity
  8
RACCORDO
100
AcDbLine
 62
250
  6
CONTINUOUS
 10
132.2555328479
 20
134.6919033073
 11
133.0585108781
 21
134.2282738563
  0
LINE
  5
3CC
100
AcDbEntity
  8
RACCORDO
100
AcDbLine
 62
250
  6
CONTINUOUS
 10
135.4274686208
 20
132.8604673457
 11
136.2304466511
 21
132.3968378947
  0
LINE
  5
3CD
100
AcDbEntity
  8
ASSI
100
AcDbLine
 62
250
  6
CONTINUOUS
 10
135.8109249089
 20
132.9484339757
 11
133.3918443439
 21
134.3451807757
  0
LWPOLYLINE
  5
3CE
100
AcDbEntity
  8
RACCORDO
100
AcDbPolyline
 62
250
  6
CONTINUOUS
 90
10
 70
0
 10
137.7103178879
 20
87.7597287084
 10
137.6975567257
 20
87.752972512
 10
137.6837948632
 20
87.7468640935
 10
137.6691289087
 20
87.7414547683
 10
137.6536502837
 20
87.7367875304
 10
137.6374836781
 20
87.7329088196
 10
137.6207912601
 20
87.7298612159
 10
137.6037154497
 20
87.7276695981
 10
137.5863729868
 20
87.7263478521
 10
137.5688965317
 20
87.7259061337
  0
LINE
  5
3CF
100
AcDbEntity
  8
RACCORDO
100
AcDbLine
 62
250
  6
CONTINUOUS
 10
137.7103178879
 20
87.7597287084
 11
138.2881353472
 21
88.0583876025
  0
LINE
  5
3D0
100
AcDbEntity
  8
RACCORDO
100
AcDbLine
 62
7
  6
CONTINUOUS
 10
137.6607296339
 20
87.6637134795
 11
138.2439228003
 21
87.9651509375
  0
LWPOLYLINE
  5
3D1
100
AcDbEntity
  8
RACCORDO
100
AcDbPolyline
 62
250
  6
CONTINUOUS
 90
6
 70
0
 10
134.6918200496
 20
135.3194234329
 10
134.7024309107
 20
135.3213370089
 10
134.7200564158
 20
135.3217532328
 10
134.7380010603
 20
135.3188587661
 10
134.7559627889
 20
135.3127023258
 10
134.7736392558
 20
135.3033875367
  0
LWPOLYLINE
  5
3D2
100
AcDbEntity
  8
RACCORDO
100
AcDbPolyline
 62
250
  6
CONTINUOUS
 90
5
 70
0
 10
128.2024489036
 20
134.0795149972
 10
128.2047629102
 20
134.07967127
 10
128.2148180585
 20
134.079197002
 10
128.2251501371
 20
134.0775950886
 10
128.2356966192
 20
134.074875224
  0
LWPOLYLINE
  5
3D3
100
AcDbEntity
  8
RACCORDO
100
AcDbPolyline
 62
250
  6
CONTINUOUS
 90
7
 70
0
 10
132.2233952972
 20
134.6876688563
 10
132.2278865779
 20
134.6879196361
 10
132.2324107037
 20
134.6882884711
 10
132.236967299
 20
134.6887750538
 10
132.2415591546
 20
134.6893798851
 10
132.246186032
 20
134.6901031784
 10
132.2508445465
 20
134.6909444123
  0
LINE
  5
3D4
100
AcDbEntity
  8
RACCORDO
100
AcDbLine
 62
250
  6
CONTINUOUS
 10
130.5580404134
 20
134.6738308532
 11
132.2145234195
 21
134.6875238328
  0
LINE
  5
3D5
100
AcDbEntity
  8
RACCORDO
100
AcDbLine
 62
7
  6
CONTINUOUS
 10
130.4996554528
 20
134.691345579
 11
132.1531029692
 21
134.7050134663
  0
LWPOLYLINE
  5
3D6
100
AcDbEntity
  8
RACCORDO
100
AcDbPolyline
 62
250
  6
CONTINUOUS
 90
3
 70
0
 10
132.2145234195
 20
134.6875238328
 10
132.2189402861
 20
134.6875368003
 10
132.2233952972
 20
134.6876688563
  0
LWPOLYLINE
  5
3D7
100
AcDbEntity
  8
RACCORDO
100
AcDbPolyline
 62
250
  6
CONTINUOUS
 90
4
 70
0
 10
132.1531029692
 20
134.7050134663
 10
132.1590596713
 20
134.7049002679
 10
132.1780379007
 20
134.702358005
 10
132.1966288866
 20
134.6965335662
  0
LINE
  5
3D8
100
AcDbEntity
  8
RACCORDO
100
AcDbLine
 62
7
  6
CONTINUOUS
 10
130.4996565949
 20
134.6913455884
 11
130.5063974502
 21
134.6911537214
  0
LWPOLYLINE
  5
3D9
100
AcDbEntity
  8
RACCORDO
100
AcDbPolyline
 62
7
  6
CONTINUOUS
 90
4
 70
0
 10
130.5063974502
 20
134.6911537214
 10
130.523781303
 20
134.6884353624
 10
130.5410874403
 20
134.6826083876
 10
130.5580404134
 20
134.6738308532
  0
LINE
  5
3DA
100
AcDbEntity
  8
RACCORDO
100
AcDbLine
 62
250
  6
CONTINUOUS
 10
132.2019501896
 20
134.7102689907
 11
132.2198947841
 21
134.7073745035
  0
LWPOLYLINE
  5
3DB
100
AcDbEntity
  8
RACCORDO
100
AcDbPolyline
 62
250
  6
CONTINUOUS
 90
3
 70
0
 10
132.2198947841
 20
134.7073745035
 10
132.237856451
 20
134.7012180659
 10
132.2555328479
 20
134.6919033073
  0
LINE
  5
3DC
100
AcDbEntity
  8
RACCORDO
100
AcDbLine
 62
250
  6
CONTINUOUS
 10
135.4100029704
 20
135.2925167248
 11
135.4850115782
 21
135.2629312142
  0
LWPOLYLINE
  5
3DD
100
AcDbEntity
  8
RACCORDO
100
AcDbPolyline
 62
250
  6
CONTINUOUS
 90
10
 70
0
 10
139.2134704347
 20
133.1152059416
 10
139.1491670885
 20
133.1479771988
 10
139.0844150503
 20
133.1730786027
 10
139.0156720266
 20
133.1921992516
 10
138.9431835754
 20
133.2049586942
 10
138.8669084011
 20
133.2110511245
 10
138.7844955466
 20
133.2100041942
 10
138.6950492404
 20
133.2006952211
 10
138.5994221109
 20
133.1820748991
 10
138.4977598447
 20
133.1531269828
  0
LINE
  5
3DE
100
AcDbEntity
  8
RACCORDO
100
AcDbLine
 62
250
  6
CONTINUOUS
 10
135.4850115782
 20
135.2629312142
 11
135.561489571
 21
135.2238139639
  0
LWPOLYLINE
  5
3DF
100
AcDbEntity
  8
RACCORDO
100
AcDbPolyline
 62
7
  6
CONTINUOUS
 90
12
 70
0
 10
135.56246422
 20
135.2232452605
 10
135.5389499872
 20
135.2364294269
 10
135.4620479461
 20
135.2739200064
 10
135.3810850963
 20
135.3050255744
 10
135.2964001302
 20
135.3294855557
 10
135.2084753591
 20
135.3470636927
 10
135.1176388142
 20
135.3576240591
 10
135.024135414
 20
135.3610887182
 10
134.9283008017
 20
135.3573888529
 10
134.8304237381
 20
135.3464841588
 10
134.7307871954
 20
135.3283697636
 10
134.69181947
 20
135.3194232922
  0
LINE
  5
3E0
100
AcDbEntity
  8
RACCORDO
100
AcDbLine
 62
7
  6
CONTINUOUS
 10
139.2136643488
 20
133.1150940197
 11
139.2134704347
 21
133.1152059416
  0
LINE
  5
3E1
100
AcDbEntity
  8
RACCORDO
100
AcDbLine
 62
250
  6
CONTINUOUS
 10
134.7736392558
 20
135.3033875367
 11
138.4977598447
 21
133.1531269828
  0
LINE
  5
3E2
100
AcDbEntity
  8
ASSI
100
AcDbLine
 62
7
  6
CONTINUOUS
 10
135.5614986541
 20
135.2238087194
 11
139.2136635551
 21
133.115094478
  0
LINE
  5
3E3
100
AcDbEntity
  8
RACCORDO
100
AcDbLine
 62
7
  6
CONTINUOUS
 10
135.561489571
 20
135.2238139639
 11
135.5624915065
 21
135.2232345395
  0
LINE
  5
3E4
100
AcDbEntity
  8
0
100
AcDbLine
 62
250
  6
CONTINUOUS
 10
134.8234218984
 20
84.4661015923
 11
137.2274751755
 21
85.7124971391
  0
LINE
  5
3E5
100
AcDbEntity
  8
0
100
AcDbLine
 62
7
  6
CONTINUOUS
 10
134.709381278
 20
84.2316239995
 11
137.1173592881
 21
85.4800543471
  0
LWPOLYLINE
  5
3E6
100
AcDbEntity
  8
0
100
AcDbPolyline
 62
250
  6
CONTINUOUS
 90
16
 70
0
 10
134.8234218984
 20
84.4661015923
 10
134.7841949255
 20
84.4467292241
 10
134.741717957
 20
84.4297952561
 10
134.6964437336
 20
84.4154801444
 10
134.6488493398
 20
84.4039352941
 10
134.5994470974
 20
84.3952855081
 10
134.5487808977
 20
84.3896243646
 10
134.4974026192
 20
84.3870093293
 10
134.4458486592
 20
84.3874635682
 10
134.3946514342
 20
84.3909806801
 10
134.3442863965
 20
84.3975341221
 10
134.2953617842
 20
84.4070509828
 10
134.2485752424
 20
84.4193765952
 10
134.2044514765
 20
84.4343272092
 10
134.1633598786
 20
84.4517298511
 10
134.12569122
 20
84.4713753311
  0
ARC
  5
3E7
100
AcDbEntity
  8
0
100
AcDbCircle
 62
7
  6
CONTINUOUS
 10
134.4792446105
 20
84.6755126277
 40
0.5
100
AcDbArc
 50
239.9984015654
 51
297.4194204711
  0
ARC
  5
3E8
100
AcDbEntity
  8
0
100
AcDbCircle
 62
7
  6
CONTINUOUS
 10
119.6110304422
 20
93.260233146
 40
0.5
100
AcDbArc
 50
179.9840060021
 51
239.998401565
  0
ARC
  5
3E9
100
AcDbEntity
  8
0
100
AcDbCircle
 62
7
  6
CONTINUOUS
 10
119.6110304422
 20
135.4120054283
 40
0.5
100
AcDbArc
 50
122.5992954228
 51
180.0013071281
  0
ARC
  5
3EA
100
AcDbEntity
  8
RACCORDO
100
AcDbCircle
 62
7
  6
CONTINUOUS
 10
129.3311134593
 20
133.2747485772
 40
0.2
100
AcDbArc
 50
359.9956909738
 51
59.9984015651
  0
ARC
  5
3EB
100
AcDbEntity
  8
RACCORDO
100
AcDbCircle
 62
7
  6
CONTINUOUS
 10
137.9919330306
 20
128.2740999023
 40
0.2
100
AcDbArc
 50
32.7836391128
 51
60.0240698408
  0
ARC
  5
3EC
100
AcDbEntity
  8
RACCORDO
100
AcDbCircle
 62
7
  6
CONTINUOUS
 10
139.6320455034
 20
125.5337083439
 40
0.2
100
AcDbArc
 50
359.9696695106
 51
29.0196719917
  0
ARC
  5
3ED
100
AcDbEntity
  8
RACCORDO
100
AcDbCircle
 62
7
  6
CONTINUOUS
 10
140.7867963569
 20
117.3786405055
 40
0.2
100
AcDbArc
 50
0.0064556082
 51
60.0053225502
  0
ARC
  5
3EE
100
AcDbEntity
  8
RACCORDO
100
AcDbCircle
 62
7
  6
CONTINUOUS
 10
140.7867963569
 20
100.8850003903
 40
0.2
100
AcDbArc
 50
303.4044757323
 51
0.0122973545
  0
ARC
  5
3EF
100
AcDbEntity
  8
RACCORDO
100
AcDbCircle
 62
7
  6
CONTINUOUS
 10
139.6320455034
 20
94.0634098926
 40
0.2
100
AcDbArc
 50
303.6875314417
 51
0.1208237568
  0
ARC
  5
3F0
100
AcDbEntity
  8
RACCORDO
100
AcDbCircle
 62
7
  6
CONTINUOUS
 10
128.2605786585
 20
133.8928619542
 40
0.2
100
AcDbArc
 50
59.9048896728
 51
106.9274852786
  0
ARC
  5
3F1
100
AcDbEntity
  8
RACCORDO
100
AcDbCircle
 62
7
  6
CONTINUOUS
 10
137.5688965317
 20
122.6721856006
 40
0.2
100
AcDbArc
 50
261.2030111778
 51
285.0285404321
  0
ARC
  5
3F2
100
AcDbEntity
  8
RACCORDO
100
AcDbCircle
 62
7
  6
CONTINUOUS
 10
137.5688965317
 20
87.8413836271
 40
0.2
100
AcDbArc
 50
268.266872388
 51
297.333272547
  0
ARC
  5
3F3
100
AcDbEntity
  8
RACCORDO
100
AcDbCircle
 62
7
  6
CONTINUOUS
 10
137.5483226458
 20
98.9977302623
 40
0.2
100
AcDbArc
 50
261.2019736418
 51
284.2372699679
  0
ARC
  5
3F4
100
AcDbEntity
  8
RACCORDO
100
AcDbCircle
 62
7
  6
CONTINUOUS
 10
137.15594295
 20
94.86940498
 40
0.2
100
AcDbArc
 50
290.9692786062
 51
298.2882343596
  0
ARC
  5
3F5
100
AcDbEntity
  8
RACCORDO
100
AcDbCircle
 62
7
  6
CONTINUOUS
 10
137.15594295
 20
118.547043007
 40
0.2
100
AcDbArc
 50
290.9692786062
 51
298.2882343596
  0
ARC
  5
3F6
100
AcDbEntity
  8
RACCORDO
100
AcDbCircle
 62
7
  6
CONTINUOUS
 10
126.4067334123
 20
135.2703227431
 40
0.15
100
AcDbArc
 50
59.9984015652
 51
116.6145989405
  0
ARC
  5
3F7
100
AcDbEntity
  8
RACCORDO
100
AcDbCircle
 62
7
  6
CONTINUOUS
 10
137.0880618302
 20
129.1030575831
 40
0.15
100
AcDbArc
 50
359.9930403107
 51
59.9919135042
  0
ELLIPSE
  5
3F8
100
AcDbEntity
  8
RACCORDO
100
AcDbEllipse
 62
7
  6
CONTINUOUS
 10
130.1758439639
 20
134.3860979438
 30
0.0
 11
-0.0237949514
 21
0.1698655584
 31
0.0
 40
0.3926035902
 41
-0.2973803101
 42
0.6371255444
  0
ELLIPSE
  5
3F9
100
AcDbEntity
  8
ASSI
100
AcDbEllipse
 62
7
  6
CONTINUOUS
 10
133.097816318
 20
131.6939319404
 30
0.0
 11
0.111204381
 21
0.166549841
 31
0.0
 40
0.6160813543
 41
-4.4104072033
 42
-4.3843254956
  0
ELLIPSE
  5
3FA
100
AcDbEntity
  8
ASSI
100
AcDbEllipse
 62
7
  6
CONTINUOUS
 10
135.4830360423
 20
133.1258441988
 30
0.0
 11
0.1668065716
 21
0.2498247615
 31
0.0
 40
0.6160813543
 41
-2.7523444139
 42
-2.5633537112
  0
ELLIPSE
  5
3FB
100
AcDbEntity
  8
ASSI
100
AcDbEllipse
 62
7
  6
CONTINUOUS
 10
128.0536159681
 20
133.8663274831
 30
0.0
 11
0.1082601067
 21
0.1683382284
 31
0.0
 40
0.6067084637
 41
-1.9780109115
 42
-0.7562804351
  0
ELLIPSE
  5
3FC
100
AcDbEntity
  8
RACCORDO
100
AcDbEllipse
 62
7
  6
CONTINUOUS
 10
135.4039710406
 20
130.0754304984
 30
0.0
 11
0.0693777517
 21
0.1331018888
 31
0.0
 40
0.5463614449
 41
-0.0235767122
 42
0.744416486
  0
ELLIPSE
  5
3FD
100
AcDbEntity
  8
RACCORDO
100
AcDbEllipse
 62
7
  6
CONTINUOUS
 10
138.146713991
 20
88.1400425212
 30
0.0
 11
-0.099867611
 21
0.1734399727
 31
0.0
 40
0.5773306601
 41
-3.1678058393
 42
-2.3548714754
  0
ELLIPSE
  5
3FE
100
AcDbEntity
  8
RACCORDO
100
AcDbEllipse
 62
7
  6
CONTINUOUS
 10
138.146713991
 20
92.2795294421
 30
0.0
 11
-0.0964839443
 21
0.1793083969
 31
0.0
 40
0.5766409222
 41
-2.3216245298
 42
-0.750828203
  0
ELLIPSE
  5
3FF
100
AcDbEntity
  8
RACCORDO
100
AcDbEllipse
 62
7
  6
CONTINUOUS
 10
138.146713991
 20
122.8270385753
 30
0.0
 11
-0.0964839443
 21
0.1793083969
 31
0.0
 40
0.5766409222
 41
-3.2768777549
 42
-2.3216245298
  0
ELLIPSE
  5
400
100
AcDbEntity
  8
RACCORDO
100
AcDbEllipse
 62
7
  6
CONTINUOUS
 10
138.146713991
 20
126.9665254962
 30
0.0
 11
-0.099867611
 21
0.1734399727
 31
0.0
 40
0.5773306601
 41
-2.3548714754
 42
-0.7840751486
  0
ELLIPSE
  5
401
100
AcDbEntity
  8
ASSI
100
AcDbEllipse
 62
7
  6
CONTINUOUS
 10
136.2170695304
 20
129.7387299696
 30
0.0
 11
0.6937775167
 21
1.3310188883
 31
0.0
 40
0.5463614449
 41
0.5145281682
 42
0.744416486
  0
ELLIPSE
  5
402
100
AcDbEntity
  8
DRAFT
100
AcDbEllipse
 62
7
  6
CONTINUOUS
 10
127.8303665649
 20
133.313565063
 30
0.0
 11
0.1082601067
 21
0.1683382284
 31
0.0
 40
0.6067084637
 41
1.1635817421
 42
2.359937185
  0
ELLIPSE
  5
403
100
AcDbEntity
  8
RACCORDO
100
AcDbEllipse
 62
7
  6
CONTINUOUS
 10
134.4890012501
 20
131.8957349833
 30
0.0
 11
-0.0171779466
 21
0.1663758829
 31
0.0
 40
0.4128749715
 41
-1.8158412636
 42
-0.290384737
  0
ELLIPSE
  5
404
100
AcDbEntity
  8
RACCORDO
100
AcDbEllipse
 62
7
  6
CONTINUOUS
 10
137.4314634473
 20
120.9071465236
 30
0.0
 11
0.1736849286
 21
-0.137403234
 31
0.0
 40
0.4619640879
 41
0.3503830815
 42
0.6013718518
  0
ELLIPSE
  5
405
100
AcDbEntity
  8
RACCORDO
100
AcDbEllipse
 62
7
  6
CONTINUOUS
 10
137.4314634473
 20
118.7030129202
 30
0.0
 11
0.1732869701
 21
-0.1477531569
 31
0.0
 40
0.4369034673
 41
5.8351688109
 42
6.6397850501
  0
ELLIPSE
  5
406
100
AcDbEntity
  8
RACCORDO
100
AcDbEllipse
 62
7
  6
CONTINUOUS
 10
137.4314634473
 20
95.0253748932
 30
0.0
 11
0.1732869701
 21
-0.1477531569
 31
0.0
 40
0.4369034673
 41
5.8351688109
 42
6.6397850501
  0
ELLIPSE
  5
407
100
AcDbEntity
  8
RACCORDO
100
AcDbEllipse
 62
7
  6
CONTINUOUS
 10
137.4314634473
 20
97.2295084966
 30
0.0
 11
0.1736849286
 21
-0.137403234
 31
0.0
 40
0.4619640879
 41
0.3503830815
 42
0.6013718518
  0
ELLIPSE
  5
408
100
AcDbEntity
  8
ASSI
100
AcDbEllipse
 62
7
  6
CONTINUOUS
 10
137.657210266
 20
130.3553929237
 30
0.0
 11
0.3237628411
 21
0.6211421479
 31
0.0
 40
0.5463614449
 41
-2.3622695825
 42
-0.8089265483
  0
ELLIPSE
  5
409
100
AcDbEntity
  8
ASSI
100
AcDbEllipse
 62
7
  6
CONTINUOUS
 10
132.8318819888
 20
131.716318011
 30
0.0
 11
0.111204381
 21
0.166549841
 31
0.0
 40
0.6160813543
 41
-2.2985588084
 42
-1.242732842
  0
ELLIPSE
  5
40A
100
AcDbEntity
  8
ASSI
100
AcDbEllipse
 62
7
  6
CONTINUOUS
 10
130.8022018421
 20
132.8882298899
 30
0.0
 11
0.0901461966
 21
0.1787881454
 31
0.0
 40
0.5357347082
 41
-1.8940623864
 42
-1.3132229612
  0
ELLIPSE
  5
40B
100
AcDbEntity
  8
ASSI
100
AcDbEllipse
 62
7
  6
CONTINUOUS
 10
137.657210266
 20
130.8927844025
 30
0.0
 11
0.3237628411
 21
0.6211421479
 31
0.0
 40
0.5463614449
 41
-0.8089265483
 42
0.5145281682
  0
ELLIPSE
  5
40C
100
AcDbEntity
  8
RACCORDO
100
AcDbEllipse
 62
7
  6
CONTINUOUS
 10
128.090824202
 20
134.2979498278
 30
0.0
 11
0.08119508
 21
0.1262536713
 31
0.0
 40
0.6067084637
 41
5.5269048721
 42
7.0802479064
  0
ELLIPSE
  5
40D
100
AcDbEntity
  8
RACCORDO
100
AcDbEllipse
 62
7
  6
CONTINUOUS
 10
137.4749410064
 20
120.8413628097
 30
0.0
 11
-0.1000048364
 21
0.1732022883
 31
0.0
 40
0.5775075436
 41
-2.3560905478
 42
-1.8785696842
  0
ELLIPSE
  5
40E
100
AcDbEntity
  8
RACCORDO
100
AcDbEllipse
 62
7
  6
CONTINUOUS
 10
137.4749410064
 20
118.7185898386
 30
0.0
 11
-0.1000352924
 21
0.1732550566
 31
0.0
 40
0.5771558487
 41
-3.1590392551
 42
-2.3563950755
  0
ELLIPSE
  5
40F
100
AcDbEntity
  8
RACCORDO
100
AcDbEllipse
 62
7
  6
CONTINUOUS
 10
137.4749410064
 20
95.0409518116
 30
0.0
 11
-0.1000352924
 21
0.1732550566
 31
0.0
 40
0.5771558487
 41
-3.1590392551
 42
-2.3563950755
  0
ELLIPSE
  5
410
100
AcDbEntity
  8
RACCORDO
100
AcDbEllipse
 62
7
  6
CONTINUOUS
 10
137.4749410064
 20
97.1637247828
 30
0.0
 11
-0.1000048364
 21
0.1732022883
 31
0.0
 40
0.5775075436
 41
-2.3560905478
 42
-1.8785696842
  0
ELLIPSE
  5
411
100
AcDbEntity
  8
ASSI
100
AcDbEllipse
 62
7
  6
CONTINUOUS
 10
132.9088041188
 20
131.649474289
 30
0.0
 11
1.3521929485
 21
2.6818221814
 31
0.0
 40
0.5357347082
 41
0.5077488231
 42
0.7376371409
  0
ELLIPSE
  5
412
100
AcDbEntity
  8
ASSI
100
AcDbEllipse
 62
7
  6
CONTINUOUS
 10
138.0757649177
 20
132.7622954644
 30
0.0
 11
5.111957105
 21
3.2875540328
 31
0.0
 40
0.0452139893
 41
1.7898833616
 42
2.2997676853
  0
ELLIPSE
  5
413
100
AcDbEntity
  8
ASSI
100
AcDbEllipse
 62
7
  6
CONTINUOUS
 10
131.0333750276
 20
132.885914468
 30
0.0
 11
0.0901461966
 21
0.1787881454
 31
0.0
 40
0.5357347082
 41
-4.4808973225
 42
-4.4548156148
  0
ELLIPSE
  5
414
100
AcDbEntity
  8
ASSI
100
AcDbEllipse
 62
7
  6
CONTINUOUS
 10
133.1068149007
 20
134.497844505
 30
0.0
 11
0.1352192949
 21
0.2681822181
 31
0.0
 40
0.5357347082
 41
-2.8228345331
 42
-2.6338438305
  0
ELLIPSE
  5
415
100
AcDbEntity
  8
0
100
AcDbEllipse
 62
7
  6
CONTINUOUS
 10
136.8738005894
 20
85.9169842444
 30
0.0
 11
-0.2501834304
 21
0.4333025529
 31
0.0
 40
0.5769361983
 41
-3.1677535987
 42
-2.3565853618
  0
ELLIPSE
  5
416
100
AcDbEntity
  8
0
100
AcDbEllipse
 62
7
  6
CONTINUOUS
 10
136.8738005894
 20
128.2098647024
 30
0.0
 11
-0.2500121049
 21
0.4330057129
 31
0.0
 40
0.5777274115
 41
-2.3559002616
 42
-0.7857891675
  0
ELLIPSE
  5
417
100
AcDbEntity
  8
0
100
AcDbEllipse
 62
7
  6
CONTINUOUS
 10
121.8833792192
 20
136.8651461275
 30
0.0
 11
-0.2501834304
 21
0.4333025529
 31
0.0
 40
0.5769361983
 41
-0.7851038024
 42
0.0261609458
  0
ELLIPSE
  5
418
100
AcDbEntity
  8
0
100
AcDbEllipse
 62
7
  6
CONTINUOUS
 10
137.2623063088
 20
120.2357143799
 30
0.0
 11
0.2499903797
 21
0.4353954413
 31
0.0
 40
0.5725088849
 41
0.7971096579
 42
0.8857705168
  0
ELLIPSE
  5
419
100
AcDbEntity
  8
0
100
AcDbEllipse
 62
7
  6
CONTINUOUS
 10
137.2623063088
 20
96.5580763529
 30
0.0
 11
0.2499903797
 21
0.4353954413
 31
0.0
 40
0.5725088849
 41
0.7971096579
 42
0.8857705168
  0
ELLIPSE
  5
41A
100
AcDbEntity
  8
0
100
AcDbEllipse
 62
7
  6
CONTINUOUS
 10
137.5510863859
 20
120.4086870775
 30
0.0
 11
0.2794306343
 21
0.4427179695
 31
0.0
 40
0.5548141223
 41
-0.721104434
 42
0.8317909855
  0
ELLIPSE
  5
41B
100
AcDbEntity
  8
0
100
AcDbEllipse
 62
7
  6
CONTINUOUS
 10
137.5510863859
 20
96.7310490505
 30
0.0
 11
0.2794306343
 21
0.4427179695
 31
0.0
 40
0.5548141223
 41
-0.721104434
 42
0.8317909855
  0
ELLIPSE
  5
41C
100
AcDbEntity
  8
0
100
AcDbEllipse
 62
7
  6
CONTINUOUS
 10
137.2623063088
 20
117.9499590514
 30
0.0
 11
0.2522525975
 21
0.4395263054
 31
0.0
 40
0.5619190464
 41
-2.4445548044
 42
-2.3558939456
  0
ELLIPSE
  5
41D
100
AcDbEntity
  8
0
100
AcDbEllipse
 62
7
  6
CONTINUOUS
 10
137.2623063088
 20
94.2723210244
 30
0.0
 11
0.2522525975
 21
0.4395263054
 31
0.0
 40
0.5619190464
 41
-2.4445548044
 42
-2.3558939456
  0
ELLIPSE
  5
41E
100
AcDbEntity
  8
0
100
AcDbEllipse
 62
7
  6
CONTINUOUS
 10
137.5510863859
 20
94.4446728281
 30
0.0
 11
0.2757850794
 21
0.4335104367
 31
0.0
 40
0.5760239996
 41
-2.2887190341
 42
-0.7358236146
  0
ELLIPSE
  5
41F
100
AcDbEntity
  8
0
100
AcDbEllipse
 62
7
  6
CONTINUOUS
 10
137.5510863859
 20
118.122310855
 30
0.0
 11
0.2757850794
 21
0.4335104367
 31
0.0
 40
0.5760239996
 41
-2.2887190341
 42
-0.7358236146
  0
ENDSEC
  0
SECTION
  2
OBJECTS
  0
DICTIONARY
  5
C
100
AcDbDictionary
280
0
281
1
  3
ACAD_GROUP
350
D
  3
ACAD_MLINESTYLE
350
17
  3
ACAD_LAYOUT
350
1A
  3
ACAD_PLOTSETTINGS
350
19
  3
ACAD_PLOTSTYLENAME
350
E
  0
DICTIONARY
  5
D
102
{ACAD_REACTORS
330
C
102
}
100
AcDbDictionary
280
0
281
1
  0
ACDBDICTIONARYWDFLT
  5
E
102
{ACAD_REACTORS
330
C
102
}
100
AcDbDictionary
281
1
  3
Normal
350
F
100
AcDbDictionaryWithDefault
340
F
  0
DICTIONARY
  5
17
102
{ACAD_REACTORS
330
C
102
}
100
AcDbDictionary
280
0
281
1
  3
Standard
350
18
  0
DICTIONARY
  5
19
102
{ACAD_REACTORS
330
C
102
}
100
AcDbDictionary
281
1
  0
DICTIONARY
  5
1A
102
{ACAD_REACTORS
330
C
102
}
100
AcDbDictionary
281
1
  3
Model
350
420
  3
Layout1
350
421
  0
ACDBPLACEHOLDER
  5
F
102
{ACAD_REACTORS
330
E
102
}
  0
MLINESTYLE
  5
18
102
{ACAD_REACTORS
330
17
102
}
100
AcDbMlineStyle
  2
STANDARD
 70
0
  3

 62
256
 51
90.0
 52
90.0
 71
2
 49
0.5
 62
256
  6
BYLAYER
 49
-0.5
 62
256
  6
BYLAYER
  0
LAYOUT
  5
420
102
{ACAD_REACTORS
330
1A
102
}
100
AcDbPlotSettings
  1

  2
none_device
  4
ISO_A4_(297.00_x_210.00_MM)
  6

 40
0.0
 41
0.0
 42
0.0
 43
0.0
 44
297.0
 45
210.0
 46
0.0
 47
0.0
 48
0.0
 49
0.0
140
0.0
141
0.0
142
1.0
143
1.0
 70
1024
 72
1
 73
0
 74
0
  7

 75
0
147
1.0
148
0.0
149
0.0
100
AcDbLayout
  1
Model
 70
0
 71
0
 10
0.0
 20
0.0
 11
297.0
 21
210.0
 12
0.0
 22
0.0
 32
0.0
 14
0.0
 24
0.0
 34
0.0
 15
0.0
 25
0.0
 35
0.0
146
0.0
 13
0.0
 23
0.0
 33
0.0
 16
1.0
 26
0.0
 36
0.0
 17
0.0
 27
1.0
 37
0.0
 76
0
330
210
345
0
346
0
  0
LAYOUT
  5
421
102
{ACAD_REACTORS
330
1A
102
}
100
AcDbPlotSettings
  1

  2
none_device
  4
ISO_A4_(297.00_x_210.00_MM)
  6

 40
0.0
 41
0.0
 42
0.0
 43
0.0
 44
297.0
 45
210.0
 46
0.0
 47
0.0
 48
0.0
 49
0.0
140
0.0
141
0.0
142
1.0
143
1.0
 70
0
 72
1
 73
0
 74
0
  7

 75
0
147
1.0
148
0.0
149
0.0
100
AcDbLayout
  1
Layout1
 70
0
 71
1
 10
0.0
 20
0.0
 11
297.0
 21
210.0
 12
0.0
 22
0.0
 32
0.0
 14
0.0
 24
0.0
 34
0.0
 15
0.0
 25
0.0
 35
0.0
146
0.0
 13
0.0
 23
0.0
 33
0.0
 16
1.0
 26
0.0
 36
0.0
 17
0.0
 27
1.0
 37
0.0
 76
0
330
211
345
0
346
0
  0
ENDSEC
  0
EOF
