  0
SECTION
  2
HEADER
  9
$ACADVER
  1
AC1024
  9
$DWGCODEPAGE
  3
ANSI_1252
  9
$EXTMAX
 10
297.0
 20
210.0
 30
0.0
  9
$EXTMIN
 10
0.0
 20
0.0
 30
0.0
  9
$LIMMIN
 10
0.0
 20
0.0
  9
$LIMMAX
 10
297.0
 20
210.0
  9
$VIEWCTR
 10
148.5
 20
105.0
  9
$VIEWSIZE
 40
210.0
  9
$CLAYER
  8
0
  9
$LTSCALE
 40
16.335
  9
$CELTYPE
  6
BYLAYER
  9
$DIMSCALE
 40
1.0
  9
$DIMASZ
 40
3.0
  9
$DIMEXO
 40
0.5
  9
$DIMDLI
 40
11.286
  9
$DIMEXE
 40
1.5
  9
$DIMCEN
 40
2.673
  9
$DIMLFAC
 40
1.0
  9
$DIMBLK
  1
_FILLED
  9
$DIMALT
 70
0
  9
$DIMALTF
 40
0.0393700787
  9
$DIMTXT
 40
3.0
  9
$DIMTOL
 70
1
  9
$DIMLIM
 70
0
  9
$DIMTFAC
 40
1.0
  9
$DIMTP
 40
0.01
  9
$DIMTM
 40
0.01
  9
$DIMGAP
 40
0.625
  9
$DIMDSEP
 70
44
  9
$AUNITS
 70
0
  9
$PDMODE
 70
3
  9
$PDSIZE
 40
3.0
  9
$HANDSEED
  5
414
  9
$TILEMODE
 70
1
  9
$MEASUREMENT
 70
1
  9
$INSUNITS
 70
4
  0
ENDSEC
  0
SECTION
  2
CLASSES
  0
CLASS
  1
ACDBDICTIONARYWDFLT
  2
AcDbDictionaryWithDefault
  3
AutoCAD 2000
 90
0
 91
1
280
0
281
0
  0
CLASS
  1
ACDBPLACEHOLDER
  2
AcDbPlaceHolder
  3
AutoCAD 2000
 90
0
 91
1
280
0
281
0
  0
CLASS
  1
LAYOUT
  2
AcDbLayout
  3
AutoCAD 2000
 90
0
 91
0
280
0
281
0
  0
ENDSEC
  0
SECTION
  2
TABLES
  0
TABLE
  2
VPORT
  5
8
100
AcDbSymbolTable
 70
2
  0
VPORT
  5
1F4
100
AcDbSymbolTableRecord
100
AcDbViewportTableRecord
  2
*ACTIVE
 70
0
 10
0.0
 20
0.0
 11
1.0
 21
1.0
 12
148.5
 22
105.0
 13
0.0
 23
0.0
 14
1.0
 24
1.0
 15
0.0
 25
0.0
 16
0.0
 26
0.0
 36
1.0
 17
0.0
 27
0.0
 37
0.0
 40
210.0
 41
1.4142857143
 42
50.0
 43
0.0
 44
0.0
 50
0.0
 51
0.0
 71
0
 72
100
 73
1
 74
1
 75
0
 76
0
 77
0
 78
0
  0
ENDTAB
  0
TABLE
  2
LTYPE
  5
5
100
AcDbSymbolTable
 70
6
  0
LTYPE
  5
14
100
AcDbSymbolTableRecord
100
AcDbLinetypeTableRecord
  2
BYBLOCK
 70
0
  3

 72
65
 73
0
 40
0.0
  0
LTYPE
  5
15
100
AcDbSymbolTableRecord
100
AcDbLinetypeTableRecord
  2
BYLAYER
 70
0
  3

 72
65
 73
0
 40
0.0
  0
LTYPE
  5
16
100
AcDbSymbolTableRecord
100
AcDbLinetypeTableRecord
  2
CONTINUOUS
 70
64
  3
Solid line
 72
65
 73
0
 40
0.0
  0
LTYPE
  5
1F5
100
AcDbSymbolTableRecord
100
AcDbLinetypeTableRecord
  2
CENTER
 70
64
  3
____ _ ____ _ ____ _ ____ _ ____ _ ____ _ ____
 72
65
 73
4
 40
0.6
 49
0.375
 74
0
 49
-0.075
 74
0
 49
0.075
 74
0
 49
-0.075
 74
0
  0
LTYPE
  5
1F6
100
AcDbSymbolTableRecord
100
AcDbLinetypeTableRecord
  2
HIDDEN
 70
64
  3
- - - - - - - - - - - - - - - - - - - -
 72
65
 73
2
 40
0.2
 49
0.1
 74
0
 49
-0.1
 74
0
  0
LTYPE
  5
1F7
100
AcDbSymbolTableRecord
100
AcDbLinetypeTableRecord
  2
PHANTOM
 70
64
  3
_____ _ _ _____ _ _ _____ _ _ _____
 72
65
 73
6
 40
0.8
 49
0.45
 74
0
 49
-0.05
 74
0
 49
0.1
 74
0
 49
-0.05
 74
0
 49
0.1
 74
0
 49
-0.05
 74
0
  0
LTYPE
  5
1F8
100
AcDbSymbolTableRecord
100
AcDbLinetypeTableRecord
  2
DOT
 70
64
  3
. . . . . . . . . . . . . . . . . . . .
 72
65
 73
2
 40
0.2
 49
0.1
 74
0
 49
-0.1
 74
0
  0
LTYPE
  5
1F9
100
AcDbSymbolTableRecord
100
AcDbLinetypeTableRecord
  2
DASHED
 70
64
  3
- - - - - - - - - - - - - - - - - - - -
 72
65
 73
2
 40
0.2
 49
0.1
 74
0
 49
-0.1
 74
0
  0
ENDTAB
  0
TABLE
  2
LAYER
  5
2
100
AcDbSymbolTable
 70
36
  0
LAYER
  5
10
100
AcDbSymbolTableRecord
100
AcDbLayerTableRecord
  2
0
 70
0
 62
7
  6
CONTINUOUS
370
-3
390
F
  0
LAYER
  5
1FA
100
AcDbSymbolTableRecord
100
AcDbLayerTableRecord
  2
DEFAULT_1
 70
0
 62
7
  6
CENTER
370
-3
390
F
  0
LAYER
  5
1FB
100
AcDbSymbolTableRecord
100
AcDbLayerTableRecord
  2
DEFAULT_2
 70
0
 62
7
  6
HIDDEN
370
-3
390
F
  0
LAYER
  5
1FC
100
AcDbSymbolTableRecord
100
AcDbLayerTableRecord
  2
DEFAULT_3
 70
0
 62
7
  6
PHANTOM
370
-3
390
F
  0
LAYER
  5
1FD
100
AcDbSymbolTableRecord
100
AcDbLayerTableRecord
  2
ASSI
 70
0
 62
7
  6
CONTINUOUS
370
-3
390
F
  0
LAYER
  5
1FE
100
AcDbSymbolTableRecord
100
AcDbLayerTableRecord
  2
COLOR9
 70
0
 62
7
  6
CONTINUOUS
370
-3
390
F
  0
LAYER
  5
1FF
100
AcDbSymbolTableRecord
100
AcDbLayerTableRecord
  2
COORDINATE
 70
0
 62
7
  6
CONTINUOUS
370
-3
390
F
  0
LAYER
  5
200
100
AcDbSymbolTableRecord
100
AcDbLayerTableRecord
  2
COORD_ORIGINE
 70
0
 62
7
  6
CONTINUOUS
370
-3
390
F
  0
LAYER
  5
201
100
AcDbSymbolTableRecord
100
AcDbLayerTableRecord
  2
COPY_PUBLISH
 70
0
 62
7
  6
CONTINUOUS
370
-3
390
F
  0
LAYER
  5
202
100
AcDbSymbolTableRecord
100
AcDbLayerTableRecord
  2
COSMETICI
 70
0
 62
7
  6
CONTINUOUS
370
-3
390
F
  0
LAYER
  5
203
100
AcDbSymbolTableRecord
100
AcDbLayerTableRecord
  2
CURVE
 70
0
 62
7
  6
CONTINUOUS
370
-3
390
F
  0
LAYER
  5
204
100
AcDbSymbolTableRecord
100
AcDbLayerTableRecord
  2
DRAFT
 70
0
 62
7
  6
CONTINUOUS
370
-3
390
F
  0
LAYER
  5
205
100
AcDbSymbolTableRecord
100
AcDbLayerTableRecord
  2
IMPORT_IGES
 70
0
 62
7
  6
CONTINUOUS
370
-3
390
F
  0
LAYER
  5
206
100
AcDbSymbolTableRecord
100
AcDbLayerTableRecord
  2
INTF_1
 70
0
 62
7
  6
CONTINUOUS
370
-3
390
F
  0
LAYER
  5
207
100
AcDbSymbolTableRecord
100
AcDbLayerTableRecord
  2
INTF_YELLOW
 70
0
 62
7
  6
CONTINUOUS
370
-3
390
F
  0
LAYER
  5
208
100
AcDbSymbolTableRecord
100
AcDbLayerTableRecord
  2
NOTE
 70
0
 62
7
  6
CONTINUOUS
370
-3
390
F
  0
LAYER
  5
209
100
AcDbSymbolTableRecord
100
AcDbLayerTableRecord
  2
PIANI
 70
0
 62
7
  6
CONTINUOUS
370
-3
390
F
  0
LAYER
  5
20A
100
AcDbSymbolTableRecord
100
AcDbLayerTableRecord
  2
PIANI_ORIGINE
 70
0
 62
7
  6
CONTINUOUS
370
-3
390
F
  0
LAYER
  5
20B
100
AcDbSymbolTableRecord
100
AcDbLayerTableRecord
  2
PIANI_RIFERIMENTO
 70
0
 62
7
  6
CONTINUOUS
370
-3
390
F
  0
LAYER
  5
20C
100
AcDbSymbolTableRecord
100
AcDbLayerTableRecord
  2
PUNTI
 70
0
 62
7
  6
CONTINUOUS
370
-3
390
F
  0
LAYER
  5
20D
100
AcDbSymbolTableRecord
100
AcDbLayerTableRecord
  2
RACCORDO
 70
0
 62
7
  6
CONTINUOUS
370
-3
390
F
  0
LAYER
  5
20E
100
AcDbSymbolTableRecord
100
AcDbLayerTableRecord
  2
SIMBOLI
 70
0
 62
7
  6
CONTINUOUS
370
-3
390
F
  0
LAYER
  5
20F
100
AcDbSymbolTableRecord
100
AcDbLayerTableRecord
  2
SMUSSO
 70
0
 62
7
  6
CONTINUOUS
370
-3
390
F
  0
LAYER
  5
210
100
AcDbSymbolTableRecord
100
AcDbLayerTableRecord
  2
SUPERFICI
 70
0
 62
7
  6
CONTINUOUS
370
-3
390
F
  0
LAYER
  5
211
100
AcDbSymbolTableRecord
100
AcDbLayerTableRecord
  2
TRASH
 70
0
 62
7
  6
CONTINUOUS
370
-3
390
F
  0
LAYER
  5
212
100
AcDbSymbolTableRecord
100
AcDbLayerTableRecord
  2
XSEC_DATUMS
 70
0
 62
7
  6
CONTINUOUS
370
-3
390
F
  0
ENDTAB
  0
TABLE
  2
STYLE
  5
3
100
AcDbSymbolTable
 70
1
  0
STYLE
  5
11
100
AcDbSymbolTableRecord
100
AcDbTextStyleTableRecord
  2
STANDARD
 70
0
 40
0.0
 41
0.8
 50
0.0
 71
0
 42
0.2
  3
txt
  4

  0
STYLE
  5
213
100
AcDbSymbolTableRecord
100
AcDbTextStyleTableRecord
  2
TEXTSTYLE_1
 70
0
 40
0.0
 41
0.8
 50
0.0
 71
0
 42
0.2
  3
gdt
  4

  0
ENDTAB
  0
TABLE
  2
VIEW
  5
6
100
AcDbSymbolTable
 70
0
  0
ENDTAB
  0
TABLE
  2
UCS
  5
7
100
AcDbSymbolTable
 70
0
  0
ENDTAB
  0
TABLE
  2
APPID
  5
9
100
AcDbSymbolTable
 70
1
  0
APPID
  5
214
100
AcDbSymbolTableRecord
100
AcDbRegAppTableRecord
  2
ACAD
 70
0
  0
ENDTAB
  0
TABLE
  2
BLOCK_RECORD
  5
1
100
AcDbSymbolTable
 70
0
  0
BLOCK_RECORD
  5
215
100
AcDbSymbolTableRecord
100
AcDbBlockTableRecord
  2
*Model_Space
  0
BLOCK_RECORD
  5
216
100
AcDbSymbolTableRecord
100
AcDbBlockTableRecord
  2
*Paper_Space
  0
BLOCK_RECORD
  5
217
100
AcDbSymbolTableRecord
100
AcDbBlockTableRecord
  2
_FILLED
  0
ENDTAB
  0
TABLE
  2
DIMSTYLE
  5
A
100
AcDbSymbolTable
 70
1
100
AcDbDimStyleTable
 71
0
  0
DIMSTYLE
105
218
100
AcDbSymbolTableRecord
100
AcDbDimStyleTableRecord
  2
STANDARD
 70
0
  3

  4

 40
1.0
 41
3.0
 42
0.5
 43
0.38
 44
1.5
 45
0.0
 46
0.0
 47
0.01
 48
0.01
140
3.0
141
0.09
142
0.0
143
25.4
144
1.0
145
0.0
146
1.0
147
0.625
 71
1
 72
0
 73
0
 74
0
 75
0
 76
0
 77
1
 78
8
 79
2
170
0
171
1
172
0
173
0
174
0
175
0
176
0
177
0
178
0
270
2
179
2
271
2
272
2
273
2
274
2
275
0
280
0
281
0
282
0
283
1
284
8
285
0
286
0
287
3
288
0
340
11
278
44
341
217
342
217
343
217
344
217
  0
ENDTAB
  0
ENDSEC
  0
SECTION
  2
BLOCKS
  0
BLOCK
  5
20
100
AcDbEntity
  8
0
100
AcDbBlockBegin
  2
*Model_Space
 70
0
 10
0.0
 20
0.0
 30
0.0
  3
*Model_Space
  1

  0
ENDBLK
  5
21
100
AcDbEntity
  8
0
100
AcDbBlockEnd
  0
BLOCK
  5
1C
100
AcDbEntity
  8
0
100
AcDbBlockBegin
  2
*Paper_Space
 70
0
 10
0.0
 20
0.0
 30
0.0
  3
*Paper_Space
  1

  0
ENDBLK
  5
1D
100
AcDbEntity
  8
0
100
AcDbBlockEnd
  0
BLOCK
  5
219
100
AcDbEntity
  8
0
100
AcDbBlockBegin
  2
_FILLED
 70
64
 10
0.0
 20
0.0
  3
_FILLED
  1

  0
SOLID
  5
21A
100
AcDbEntity
  8
0
  6
BYBLOCK
 62
0
100
AcDbTrace
 10
0.0
 20
0.0
 11
-1.0
 21
0.3166666667
 12
-1.0
 22
-0.3166666667
 13
-1.0
 23
-0.3166666667
  0
ENDBLK
  5
21B
100
AcDbEntity
  8
0
  6
BYBLOCK
 62
0
100
AcDbBlockEnd
  0
ENDSEC
  0
SECTION
  2
ENTITIES
  0
LWPOLYLINE
  5
21C
100
AcDbEntity
  8
RACCORDO
100
AcDbPolyline
 62
7
  6
CONTINUOUS
 90
13
 70
0
 10
134.6364126335
 20
140.3856585511
 10
134.4611589886
 20
140.2646393129
 10
134.2685612167
 20
140.1006189136
 10
134.0919256913
 20
139.9142558912
 10
133.9324644496
 20
139.7068826313
 10
133.7909422018
 20
139.479530888
 10
133.668280187
 20
139.2338608736
 10
133.5650034397
 20
138.9712404252
 10
133.4813887796
 20
138.6927070774
 10
133.4177436489
 20
138.3993411856
 10
133.3743581907
 20
138.0922419789
 10
133.3514855733
 20
137.7727445446
 10
133.3476971103
 20
137.5747419444
  0
LINE
  5
21D
100
AcDbEntity
  8
RACCORDO
100
AcDbLine
 62
7
  6
CONTINUOUS
 10
134.6363975566
 20
140.3856614316
 11
135.7386930825
 21
141.0724383089
  0
LINE
  5
21E
100
AcDbEntity
  8
RACCORDO
100
AcDbLine
 62
250
  6
CONTINUOUS
 10
137.0324987556
 20
140.3344377255
 11
138.1256175612
 21
141.015496994
  0
LINE
  5
21F
100
AcDbEntity
  8
RACCORDO
100
AcDbLine
 62
250
  6
CONTINUOUS
 10
139.1181350866
 20
139.7643215166
 11
139.8275191623
 21
140.1645461935
  0
LINE
  5
220
100
AcDbEntity
  8
RACCORDO
100
AcDbLine
 62
250
  6
CONTINUOUS
 10
139.4157806429
 20
139.2843661638
 11
140.1103618748
 21
139.6762392811
  0
LWPOLYLINE
  5
221
100
AcDbEntity
  8
RACCORDO
100
AcDbPolyline
 62
250
  6
CONTINUOUS
 90
16
 70
0
 10
139.1417699691
 20
139.2086699743
 10
139.1530706362
 20
139.2142803554
 10
139.1651978836
 20
139.2198417888
 10
139.1781601163
 20
139.2253361259
 10
139.1918989231
 20
139.2307097068
 10
139.2064820223
 20
139.2359769301
 10
139.2221298744
 20
139.2412221225
 10
139.2389498268
 20
139.2464480518
 10
139.2568979414
 20
139.2516055286
 10
139.2759928413
 20
139.2566979929
 10
139.2962751729
 20
139.2616876523
 10
139.3177610807
 20
139.2665455531
 10
139.3404341984
 20
139.2712825701
 10
139.3643062414
 20
139.2758720991
 10
139.3894148274
 20
139.280250373
 10
139.4157806429
 20
139.2843661638
  0
LWPOLYLINE
  5
222
100
AcDbEntity
  8
RACCORDO
100
AcDbPolyline
 62
250
  6
CONTINUOUS
 90
16
 70
0
 10
138.780569726
 20
139.4604022403
 10
138.7919781799
 20
139.4797803962
 10
138.8047403127
 20
139.4992245701
 10
138.8188561243
 20
139.5187347621
 10
138.8342103216
 20
139.5382427175
 10
138.8509181977
 20
139.5578166909
 10
138.8693256319
 20
139.5776614458
 10
138.8894919591
 20
139.5978848788
 10
138.9113578443
 20
139.6183790932
 10
138.9350911613
 20
139.6390251629
 10
138.9607074161
 20
139.6598401559
 10
138.9881911026
 20
139.6808070042
 10
139.0176635773
 20
139.7017555774
 10
139.0491652923
 20
139.7226291655
 10
139.0826557953
 20
139.7434844786
 10
139.1181350866
 20
139.7643215166
  0
LWPOLYLINE
  5
223
100
AcDbEntity
  8
RACCORDO
100
AcDbPolyline
 62
250
  6
CONTINUOUS
 90
16
 70
0
 10
138.6273666817
 20
138.6160408321
 10
138.6518179194
 20
138.6528746882
 10
138.6822630262
 20
138.692135925
 10
138.7179956678
 20
138.7329135652
 10
138.7581870377
 20
138.7742612237
 10
138.8019045782
 20
138.8152197299
 10
138.8481337061
 20
138.8548392816
 10
138.8958023112
 20
138.8922002137
 10
138.9438045169
 20
138.9264357716
 10
138.9910261159
 20
138.9567525276
 10
139.036372182
 20
138.9824464639
 10
139.0787909331
 20
139.0029212826
 10
139.1172976027
 20
139.0177029249
 10
139.1509990298
 20
139.0264482919
 10
139.1791139946
 20
139.0289537132
 10
139.2009902832
 20
139.0251610274
  0
LWPOLYLINE
  5
224
100
AcDbEntity
  8
0
100
AcDbPolyline
 62
7
  6
CONTINUOUS
 90
3
 70
0
 10
131.2001997351
 20
114.4821526833
 10
131.1568965229
 20
113.9417055205
 10
131.1514833764
 20
113.6595408363
  0
LWPOLYLINE
  5
225
100
AcDbEntity
  8
RACCORDO
100
AcDbPolyline
 62
250
  6
CONTINUOUS
 90
28
 70
0
 10
133.5234330026
 20
102.8579204515
 10
133.5341871736
 20
102.5581970207
 10
133.5607491746
 20
102.2591799303
 10
133.6031190055
 20
101.9608691805
 10
133.6626130912
 20
101.6611218712
 10
133.7379150067
 20
101.3620809024
 10
133.8250754777
 20
101.0701749738
 10
133.9248857638
 20
100.7851646433
 10
134.0365546053
 20
100.5072893529
 10
134.1537589489
 20
100.2436961287
 10
134.275787563
 20
99.9966994439
 10
134.403351679
 20
99.7639848253
 10
134.5322619386
 20
99.5457558788
 10
134.661631516
 20
99.3429513523
 10
134.7923472369
 20
99.1546324979
 10
134.92288022
 20
98.978186678
 10
135.0524956581
 20
98.81384054
 10
135.1819283583
 20
98.6613674365
 10
135.3118538605
 20
98.5174747879
 10
135.4412421956
 20
98.3823128507
 10
135.5711233326
 20
98.2557313685
 10
135.7052627192
 20
98.133986992
 10
135.8440493646
 20
98.0157758415
 10
135.9870942595
 20
97.9024017968
 10
136.1369958238
 20
97.7940331486
 10
136.2946201974
 20
97.6907259938
 10
136.4591012403
 20
97.5924242356
 10
136.6304389526
 20
97.4991278738
  0
LWPOLYLINE
  5
226
100
AcDbEntity
  8
0
100
AcDbPolyline
 62
7
  6
CONTINUOUS
 90
16
 70
0
 10
131.1514833764
 20
113.6595408363
 10
131.1568958691
 20
113.3719801618
 10
131.20019777
 20
112.7882303498
 10
131.2879723461
 20
112.1900769076
 10
131.4190494768
 20
111.5778990123
 10
131.5899187958
 20
110.9680879377
 10
131.8016573363
 20
110.3607056462
 10
132.0531880651
 20
109.7556901754
 10
132.3377695167
 20
109.1692469125
 10
132.656298926
 20
108.6018774535
 10
133.0078790581
 20
108.0530802022
 10
133.3830767429
 20
107.5375557581
 10
133.7825336115
 20
107.0562096355
 10
134.2056080328
 20
106.6081363199
 10
134.640941943
 20
106.2053198675
 10
135.0375204746
 20
105.8867924495
  0
LWPOLYLINE
  5
227
100
AcDbEntity
  8
RACCORDO
100
AcDbPolyline
 62
7
  6
CONTINUOUS
 90
22
 70
0
 10
133.3476971334
 20
103.070189024
 10
133.3510829724
 20
102.8802972136
 10
133.3733384338
 20
102.5401546273
 10
133.4160416375
 20
102.1948265473
 10
133.478841413
 20
101.8462933747
 10
133.5612646876
 20
101.4962936682
 10
133.6627704335
 20
101.1464698559
 10
133.7828578632
 20
100.7984557075
 10
133.920813153
 20
100.4541352084
 10
134.0757799885
 20
100.1156177349
 10
134.246955087
 20
99.784704647
 10
134.4334246375
 20
99.463121242
 10
134.6341053259
 20
99.152832124
 10
134.8479738454
 20
98.855446022
 10
135.0739800182
 20
98.5725715939
 10
135.31086542
 20
98.305899949
 10
135.5574744505
 20
98.0568975298
 10
135.8127045689
 20
97.8268581073
 10
136.0755069177
 20
97.6170167844
 10
136.3448993232
 20
97.428533017
 10
136.6196472743
 20
97.2626721389
 10
136.7865497396
 20
97.1745162507
  0
LWPOLYLINE
  5
228
100
AcDbEntity
  8
RACCORDO
100
AcDbPolyline
 62
7
  6
CONTINUOUS
 90
14
 70
0
 10
133.34769724
 20
127.2991618052
 10
133.348111001
 20
127.2698162915
 10
133.3560781575
 20
127.1664900677
 10
133.3745996803
 20
127.060200574
 10
133.4039812753
 20
126.9526423874
 10
133.4431981219
 20
126.8479935962
 10
133.4922077762
 20
126.7462487857
 10
133.5511103587
 20
126.6479956099
 10
133.6173510528
 20
126.5576106939
 10
133.6903284838
 20
126.475451192
 10
133.7702500396
 20
126.4014162708
 10
133.8543062106
 20
126.3380417922
 10
133.9409342632
 20
126.2858515372
 10
133.9618268889
 20
126.2750636303
  0
LINE
  5
229
100
AcDbEntity
  8
0
100
AcDbLine
 62
7
  6
CONTINUOUS
 10
131.150730277
 20
113.6599173861
 11
131.150730277
 21
114.3795860302
  0
LINE
  5
22A
100
AcDbEntity
  8
RACCORDO
100
AcDbLine
 62
7
  6
CONTINUOUS
 10
133.3476970713
 20
137.5748501031
 11
133.3476970713
 21
127.2989368458
  0
LINE
  5
22B
100
AcDbEntity
  8
RACCORDO
100
AcDbLine
 62
7
  6
CONTINUOUS
 10
133.3476970713
 20
107.5861676934
 11
133.3476970713
 21
103.0700524532
  0
LINE
  5
22C
100
AcDbEntity
  8
RACCORDO
100
AcDbLine
 62
250
  6
CONTINUOUS
 10
133.5234330026
 20
137.3627180687
 11
133.5234330026
 21
127.0868049055
  0
LINE
  5
22D
100
AcDbEntity
  8
RACCORDO
100
AcDbLine
 62
250
  6
CONTINUOUS
 10
133.5234330026
 20
107.3684262558
 11
133.5234330026
 21
102.8579204515
  0
LINE
  5
22E
100
AcDbEntity
  8
RACCORDO
100
AcDbLine
 62
7
  6
CONTINUOUS
 10
133.3476970713
 20
127.2989368458
 11
133.34769724
 21
127.2991618055
  0
LWPOLYLINE
  5
22F
100
AcDbEntity
  8
RACCORDO
100
AcDbPolyline
 62
250
  6
CONTINUOUS
 90
14
 70
0
 10
149.0220296486
 20
134.008765804
 10
148.9749742791
 20
133.9672875137
 10
148.9321476786
 20
133.926694594
 10
148.8931971539
 20
133.8876484275
 10
148.8579293005
 20
133.8499657968
 10
148.8261381953
 20
133.8140293887
 10
148.7974909427
 20
133.7802626029
 10
148.7717214694
 20
133.748335385
 10
148.7486100418
 20
133.7183973178
 10
148.7278750323
 20
133.6906257378
 10
148.7092801967
 20
133.6646492022
 10
148.6926390405
 20
133.6403782097
 10
148.6777521152
 20
133.6179976072
 10
148.6644248797
 20
133.5975117329
  0
LINE
  5
230
100
AcDbEntity
  8
RACCORDO
100
AcDbLine
 62
250
  6
CONTINUOUS
 10
149.073338758
 20
134.0500842448
 11
149.0220296486
 21
134.008765804
  0
LINE
  5
231
100
AcDbEntity
  8
RACCORDO
100
AcDbLine
 62
7
  6
CONTINUOUS
 10
150.3901722219
 20
134.7983359372
 11
149.6844104375
 21
134.400154907
  0
LINE
  5
232
100
AcDbEntity
  8
RACCORDO
100
AcDbLine
 62
250
  6
CONTINUOUS
 10
150.5755422364
 20
134.7905346564
 11
149.8661581606
 21
134.3903099795
  0
LWPOLYLINE
  5
233
100
AcDbEntity
  8
RACCORDO
100
AcDbPolyline
 62
250
  6
CONTINUOUS
 90
4
 70
0
 10
149.2499434106
 20
134.1636122053
 10
149.1875132806
 20
134.1289066074
 10
149.1285775257
 20
134.0905272622
 10
149.073338758
 20
134.0500842448
  0
LWPOLYLINE
  5
234
100
AcDbEntity
  8
RACCORDO
100
AcDbPolyline
 62
7
  6
CONTINUOUS
 90
7
 70
0
 10
149.6839840667
 20
134.3999133486
 10
149.6596522125
 20
134.3866106871
 10
149.5936666043
 20
134.3541772234
 10
149.5186640325
 20
134.3227142956
 10
149.4367256776
 20
134.2938413615
 10
149.3540895945
 20
134.2698515058
 10
149.2740798365
 20
134.2511729456
  0
LWPOLYLINE
  5
235
100
AcDbEntity
  8
RACCORDO
100
AcDbPolyline
 62
250
  6
CONTINUOUS
 90
9
 70
0
 10
149.8661581606
 20
134.3903099795
 10
149.8233869608
 20
134.3673171638
 10
149.7806515823
 20
134.3457646709
 10
149.7379520251
 20
134.325652501
 10
149.6955902852
 20
134.3071535024
 10
149.6532643665
 20
134.2900948268
 10
149.6100682809
 20
134.2739579291
 10
149.5662728041
 20
134.2586603466
 10
149.5216071603
 20
134.244284542
  0
LINE
  5
236
100
AcDbEntity
  8
RACCORDO
100
AcDbLine
 62
250
  6
CONTINUOUS
 10
151.0634124119
 20
133.3189808974
 11
152.2774438376
 21
133.9395838558
  0
LINE
  5
237
100
AcDbEntity
  8
RACCORDO
100
AcDbLine
 62
250
  6
CONTINUOUS
 10
149.3153284808
 20
134.1930228629
 11
149.2499434106
 21
134.1636122053
  0
LWPOLYLINE
  5
238
100
AcDbEntity
  8
RACCORDO
100
AcDbPolyline
 62
250
  6
CONTINUOUS
 90
3
 70
0
 10
149.5216071603
 20
134.244284542
 10
149.4743530337
 20
134.2305593589
 10
149.4239376524
 20
134.2173944119
  0
LWPOLYLINE
  5
239
100
AcDbEntity
  8
RACCORDO
100
AcDbPolyline
 62
250
  6
CONTINUOUS
 90
13
 70
0
 10
170.4471718352
 20
80.5907614325
 10
170.4619505741
 20
80.5932574651
 10
170.4770654524
 20
80.5949084155
 10
170.4925164704
 20
80.5957142838
 10
170.508186101
 20
80.5957459597
 10
170.5241918713
 20
80.5949325535
 10
170.5408863616
 20
80.5930613958
 10
170.5583443865
 20
80.5901867834
 10
170.5764911316
 20
80.5862544194
 10
170.5954547339
 20
80.5808887436
 10
170.615277906
 20
80.5739645692
 10
170.6359179354
 20
80.565607083
 10
170.6573748221
 20
80.5558162851
  0
LWPOLYLINE
  5
23A
100
AcDbEntity
  8
RACCORDO
100
AcDbPolyline
 62
250
  6
CONTINUOUS
 90
8
 70
0
 10
133.8061465523
 20
126.5994599201
 10
133.8096168833
 20
126.5348705398
 10
133.8199711039
 20
126.4748081273
 10
133.8370398264
 20
126.4202552614
 10
133.8605438186
 20
126.3721043886
 10
133.8900985717
 20
126.3311432235
 10
133.9252205906
 20
126.2980418618
 10
133.9618268886
 20
126.2750636304
  0
LWPOLYLINE
  5
23B
100
AcDbEntity
  8
RACCORDO
100
AcDbPolyline
 62
250
  6
CONTINUOUS
 90
8
 70
0
 10
134.7766341866
 20
126.114216103
 10
134.7801047948
 20
126.0496242476
 10
134.7904597209
 20
125.989560221
 10
134.8075293914
 20
125.9350065695
 10
134.8310343751
 20
125.8868556708
 10
134.8605899917
 20
125.8458950744
 10
134.895712636
 20
125.8127946569
 10
134.932570102
 20
125.7896918207
  0
LWPOLYLINE
  5
23C
100
AcDbEntity
  8
RACCORDO
100
AcDbPolyline
 62
250
  6
CONTINUOUS
 90
8
 70
0
 10
136.6304389526
 20
97.4991278738
 10
136.6338309652
 20
97.4352489722
 10
136.6439527644
 20
97.3757835132
 10
136.6606425017
 20
97.3216823555
 10
136.6836333063
 20
97.273810582
 10
136.7125575532
 20
97.2329336672
 10
136.7469527405
 20
97.199705237
 10
136.7863748658
 20
97.1746035927
  0
LWPOLYLINE
  5
23D
100
AcDbEntity
  8
RACCORDO
100
AcDbPolyline
 62
250
  6
CONTINUOUS
 90
34
 70
0
 10
133.5234330026
 20
127.0868049055
 10
133.5245284626
 20
127.0599472417
 10
133.5267792725
 20
127.033748227
 10
133.5301854322
 20
127.0082078615
 10
133.5348889062
 20
126.9832542159
 10
133.5407477301
 20
126.9589592195
 10
133.54733601
 20
126.9355386595
 10
133.5546186459
 20
126.9130393115
 10
133.5626307379
 20
126.8914143999
 10
133.5710516927
 20
126.870739385
 10
133.5798558674
 20
126.8510389293
 10
133.5890689049
 20
126.8322883703
 10
133.5984471403
 20
126.814489181
 10
133.6079563311
 20
126.7976756509
 10
133.6176307198
 20
126.7818134904
 10
133.627329369
 20
126.766801304
 10
133.637019454
 20
126.7526571511
 10
133.6467337995
 20
126.7393629723
 10
133.6564299426
 20
126.7267631946
 10
133.6660891172
 20
126.7148532419
 10
133.6757300894
 20
126.7036376902
 10
133.6853666947
 20
126.692974694
 10
133.6949867142
 20
126.6828541703
 10
133.7046023667
 20
126.6732862022
 10
133.7142641443
 20
126.6641591936
 10
133.7239646947
 20
126.6554594011
 10
133.7337113702
 20
126.6472005682
 10
133.7435767193
 20
126.6393123289
 10
133.7535574994
 20
126.6317773283
 10
133.7636569532
 20
126.6246129212
 10
133.7739573577
 20
126.617800807
 10
133.7844861386
 20
126.6113348852
 10
133.7952158701
 20
126.6052212563
 10
133.8061465523
 20
126.5994599201
  0
LINE
  5
23E
100
AcDbEntity
  8
RACCORDO
100
AcDbLine
 62
7
  6
CONTINUOUS
 10
135.4489094923
 20
124.8637451054
 11
135.4489094923
 21
119.8338705895
  0
LINE
  5
23F
100
AcDbEntity
  8
RACCORDO
100
AcDbLine
 62
250
  6
CONTINUOUS
 10
135.6246454236
 20
124.6516130711
 11
135.6246454236
 21
119.9266432643
  0
LWPOLYLINE
  5
240
100
AcDbEntity
  8
RACCORDO
100
AcDbPolyline
 62
250
  6
CONTINUOUS
 90
13
 70
0
 10
136.6304389526
 20
139.6145046964
 10
136.6338307308
 20
139.6817733277
 10
136.6439519459
 20
139.7513586721
 10
136.6606409048
 20
139.8221481481
 10
136.6836309052
 20
139.8930099151
 10
136.7125544641
 20
139.9628108706
 10
136.7469491624
 20
140.0304347759
 10
136.7862651219
 20
140.0948002884
 10
136.8298737367
 20
140.1548781039
 10
136.8770776431
 20
140.2097073573
 10
136.9271220181
 20
140.2584112069
 10
136.9792066766
 20
140.3002108223
 10
137.0324987611
 20
140.3344377227
  0
LWPOLYLINE
  5
241
100
AcDbEntity
  8
RACCORDO
100
AcDbPolyline
 62
250
  6
CONTINUOUS
 90
38
 70
0
 10
138.5592766235
 20
121.5783568159
 10
138.7550364061
 20
121.8370271728
 10
139.0143145243
 20
122.1142552551
 10
139.2974373744
 20
122.3585238184
 10
139.600235074
 20
122.5661963439
 10
139.9229701567
 20
122.7367042872
 10
140.2653800888
 20
122.8706161926
 10
140.622507387
 20
122.9660011755
 10
140.9945742875
 20
123.0223022734
 10
141.3813585542
 20
123.0400764487
 10
141.7772359953
 20
123.0190637039
 10
142.1823374651
 20
122.9586971672
 10
142.5965321095
 20
122.8595437104
 10
143.0138031744
 20
122.7230439515
 10
143.4341961236
 20
122.5486525626
 10
143.8576654934
 20
122.3369148715
 10
144.2780581384
 20
122.0909074809
 10
144.6953286374
 20
121.8101304735
 10
145.1095224116
 20
121.4950837665
 10
145.5146225793
 20
121.1503437135
 10
145.9104981231
 20
120.775474486
 10
146.2972800605
 20
120.3709119124
 10
146.6693445619
 20
119.9425398315
 10
147.0264696959
 20
119.4900230697
 10
147.368877394
 20
119.0136968006
 10
147.6916096202
 20
118.5204503844
 10
147.9944034132
 20
118.0099785421
 10
148.2775217344
 20
117.4825865528
 10
148.5367954326
 20
116.946079614
 10
148.7718227244
 20
116.4004842808
 10
148.9830053933
 20
115.8457739981
 10
149.1673796384
 20
115.2896742983
 10
149.3246225557
 20
114.731452805
 10
149.4550570492
 20
114.1718418947
 10
149.55668803
 20
113.6207642287
 10
149.6288504683
 20
113.0815273608
 10
149.672209394
 20
112.5508237372
 10
149.6867648069
 20
112.028653358
  0
LWPOLYLINE
  5
242
100
AcDbEntity
  8
RACCORDO
100
AcDbPolyline
 62
7
  6
CONTINUOUS
 90
3
 70
0
 10
137.4647361503
 20
120.9871417002
 10
137.1588076326
 20
120.7636718283
 10
137.0904626371
 20
120.7004621565
  0
LWPOLYLINE
  5
243
100
AcDbEntity
  8
RACCORDO
100
AcDbPolyline
 62
250
  6
CONTINUOUS
 90
9
 70
0
 10
138.6273664901
 20
96.5006639763
 10
138.65180738
 20
96.4459400988
 10
138.6822431454
 20
96.3957667478
 10
138.7179676802
 20
96.3513079317
 10
138.7581521736
 20
96.313595081
 10
138.8018643582
 20
96.2835031252
 10
138.8480901314
 20
96.2617301924
 10
138.8957570565
 20
96.2487814059
 10
138.9437592668
 20
96.2449571702
  0
LWPOLYLINE
  5
244
100
AcDbEntity
  8
RACCORDO
100
AcDbPolyline
 62
250
  6
CONTINUOUS
 90
7
 70
0
 10
138.8375696687
 20
96.4657188618
 10
138.8410519318
 20
96.413269505
 10
138.8514129764
 20
96.3655938887
 10
138.868397679
 20
96.3238659446
 10
138.89158782
 20
96.2891131533
 10
138.9204123812
 20
96.2621912437
 10
138.941526943
 20
96.2493693416
  0
LWPOLYLINE
  5
245
100
AcDbEntity
  8
RACCORDO
100
AcDbPolyline
 62
250
  6
CONTINUOUS
 90
15
 70
0
 10
138.8375696687
 20
138.4407829924
 10
138.8410519401
 20
138.4967146807
 10
138.8514130088
 20
138.5547514114
 10
138.8683977493
 20
138.6134641239
 10
138.8915879411
 20
138.6714071169
 10
138.9204125619
 20
138.7271536346
 10
138.954161845
 20
138.7793310009
 10
138.9920047661
 20
138.8266544355
 10
139.0330095036
 20
138.8679586815
 10
139.0761663762
 20
138.9022266904
 10
139.1204127155
 20
138.9286146773
 10
139.1646590308
 20
138.9464728926
 10
139.2078158306
 20
138.9553616174
 10
139.2488204548
 20
138.9550619938
 10
139.2866632406
 20
138.945581411
  0
LWPOLYLINE
  5
246
100
AcDbEntity
  8
0
100
AcDbPolyline
 62
7
  6
CONTINUOUS
 90
11
 70
0
 10
133.1428260761
 20
118.6164671518
 10
132.8800284438
 20
118.4599128878
 10
132.5136159698
 20
118.1725899522
 10
132.1853828045
 20
117.8256380932
 10
131.8983020194
 20
117.4221947107
 10
131.6549810004
 20
116.9659199013
 10
131.4576253587
 20
116.460949422
 10
131.3080220381
 20
115.911855251
 10
131.2075269726
 20
115.3236129464
 10
131.1570506584
 20
114.7015517771
 10
131.150730277
 20
114.3795860302
  0
LINE
  5
247
100
AcDbEntity
  8
RACCORDO
100
AcDbLine
 62
7
  6
CONTINUOUS
 10
137.6990239747
 20
121.1242200101
 11
137.4647361503
 21
120.9871417002
  0
LINE
  5
248
100
AcDbEntity
  8
DRAFT
100
AcDbLine
 62
7
  6
CONTINUOUS
 10
139.6662949109
 20
122.1627623318
 11
137.7012917235
 21
121.1254184013
  0
LINE
  5
249
100
AcDbEntity
  8
0
100
AcDbLine
 62
7
  6
CONTINUOUS
 10
137.6051065369
 20
120.9721475814
 11
133.1428260761
 21
118.6164671518
  0
LWPOLYLINE
  5
24A
100
AcDbEntity
  8
RACCORDO
100
AcDbPolyline
 62
250
  6
CONTINUOUS
 90
32
 70
0
 10
139.6662949109
 20
122.1627623318
 10
139.7778931957
 20
122.2187894552
 10
140.1243546539
 20
122.3587260365
 10
140.4889558196
 20
122.4570071167
 10
140.8696576995
 20
122.5130830671
 10
141.264331265
 20
122.5266402861
 10
141.6707693368
 20
122.4976029528
 10
142.0866989281
 20
122.4261334581
 10
142.5097939789
 20
122.3126314972
 10
142.9376883857
 20
122.1577318214
 10
143.3679892114
 20
121.9623006861
 10
143.7982900478
 20
121.7274310156
 10
144.2261844747
 20
121.4544362964
 10
144.6492795376
 20
121.1448432212
 10
145.0652091208
 20
120.8003831556
 10
145.4716471777
 20
120.4229824576
 10
145.8663207414
 20
120.0147517039
 10
146.2470226424
 20
119.5779738796
 10
146.611623839
 20
119.1150916239
 10
146.9580853237
 20
118.6286935759
 10
147.284469548
 20
118.1214998671
 10
147.5889512404
 20
117.5963469316
 10
147.8698276066
 20
117.0561716615
 10
148.1255278144
 20
116.5039950837
 10
148.3546219706
 20
115.9429050484
 10
148.5558290365
 20
115.3760389671
 10
148.7280237944
 20
114.8065667162
 10
148.8702431022
 20
114.2376732746
 10
148.9816914894
 20
113.6725404816
 10
149.0617456696
 20
113.1143289122
 10
149.1099579653
 20
112.5661602078
 10
149.1260587462
 20
112.0310999618
  0
LINE
  5
24B
100
AcDbEntity
  8
0
100
AcDbLine
 62
7
  6
CONTINUOUS
 10
137.7681784926
 20
121.0520218861
 11
137.6047927497
 21
120.9719819064
  0
LWPOLYLINE
  5
24C
100
AcDbEntity
  8
RACCORDO
100
AcDbPolyline
 62
250
  6
CONTINUOUS
 90
28
 70
0
 10
182.4811577623
 20
74.573768469
 10
182.7214905468
 20
74.4667731926
 10
182.9547930873
 20
74.3826535969
 10
183.1810653835
 20
74.3214096818
 10
183.4015196779
 20
74.2840476109
 10
183.6149437282
 20
74.2695612206
 10
183.8177008076
 20
74.2749320208
 10
184.0096633893
 20
74.3011928659
 10
184.1909590002
 20
74.3473109014
 10
184.3583334936
 20
74.4071690734
 10
184.5101874692
 20
74.4806960048
 10
184.6481203273
 20
74.5679630728
 10
184.7736761228
 20
74.6630673543
 10
184.8864504165
 20
74.7651249338
 10
184.9868476477
 20
74.875019727
 10
185.0776251892
 20
74.9895005578
 10
185.158897968
 20
75.1076100115
 10
185.2305510571
 20
75.2303055027
 10
185.2949970485
 20
75.3572080996
 10
185.3525337415
 20
75.4869074528
 10
185.4028633368
 20
75.6208139116
 10
185.4475050286
 20
75.7627795915
 10
185.4873646181
 20
75.9128280289
 10
185.5215363042
 20
76.0709356873
 10
185.5488218775
 20
76.2408840727
 10
185.5688219352
 20
76.4239336871
 10
185.5819358801
 20
76.6188240284
 10
185.5881637123
 20
76.8255550966
  0
LWPOLYLINE
  5
24D
100
AcDbEntity
  8
RACCORDO
100
AcDbPolyline
 62
7
  6
CONTINUOUS
 90
12
 70
0
 10
182.6370352245
 20
74.2492734239
 10
182.7703263863
 20
74.1856293987
 10
183.0246373187
 20
74.0806770408
 10
183.2777191065
 20
73.9976276654
 10
183.5285992854
 20
73.9366469081
 10
183.7761755355
 20
73.8978779746
 10
184.0192018602
 20
73.8812230944
 10
184.2568668397
 20
73.886484306
 10
184.4879564405
 20
73.9134290567
 10
184.7104979593
 20
73.961375528
 10
184.9231357421
 20
74.0293825199
 10
184.9547978317
 20
74.0415207256
  0
LWPOLYLINE
  5
24E
100
AcDbEntity
  8
RACCORDO
100
AcDbPolyline
 62
250
  6
CONTINUOUS
 90
14
 70
0
 10
138.6048938977
 20
96.2653440847
 10
138.5961681048
 20
96.2705636396
 10
138.5830283196
 20
96.2831733665
 10
138.5743471567
 20
96.2984036891
 10
138.5692043047
 20
96.3158809671
 10
138.5672682505
 20
96.3349537955
 10
138.5683316884
 20
96.354928674
 10
138.5717784081
 20
96.375694515
 10
138.5773211329
 20
96.3968482309
 10
138.5847457782
 20
96.4179646288
 10
138.593668592
 20
96.4391051535
 10
138.6038539102
 20
96.4601482269
 10
138.6151514539
 20
96.4807341387
 10
138.6273666818
 20
96.5006640092
  0
LINE
  5
24F
100
AcDbEntity
  8
RACCORDO
100
AcDbLine
 62
7
  6
CONTINUOUS
 10
140.1103618748
 20
138.7809719782
 11
140.1103618748
 21
139.6762392811
  0
LWPOLYLINE
  5
250
100
AcDbEntity
  8
0
100
AcDbPolyline
 62
7
  6
CONTINUOUS
 90
17
 70
0
 10
140.5992310308
 20
106.9877919821
 10
140.730309471
 20
107.468891804
 10
140.8180853528
 20
107.9792698219
 10
140.861388565
 20
108.5197169847
 10
140.8613892187
 20
109.0894423435
 10
140.8180873179
 20
109.6731921554
 10
140.7303127418
 20
110.2713455976
 10
140.5992356111
 20
110.883523493
 10
140.4283662921
 20
111.4933345676
 10
140.2166277516
 20
112.1007168591
 10
139.9650970228
 20
112.7057323298
 10
139.6805155711
 20
113.2921755927
 10
139.3619861618
 20
113.8595450518
 10
139.0104060297
 20
114.408342303
 10
138.635208345
 20
114.9238667471
 10
138.2357514764
 20
115.4052128698
 10
137.8126770551
 20
115.8532861853
  0
LINE
  5
251
100
AcDbEntity
  8
0
100
AcDbLine
 62
7
  6
CONTINUOUS
 10
140.428360361
 20
106.5488512521
 11
140.5992310308
 21
106.9877919821
  0
LINE
  5
252
100
AcDbEntity
  8
RACCORDO
100
AcDbLine
 62
250
  6
CONTINUOUS
 10
154.5941009915
 20
127.2294438772
 11
155.8081324172
 21
127.8500468357
  0
LWPOLYLINE
  5
253
100
AcDbEntity
  8
RACCORDO
100
AcDbPolyline
 62
7
  6
CONTINUOUS
 90
3
 70
0
 10
176.0450127317
 20
90.4999831432
 10
176.0806074971
 20
90.5057765188
 10
176.4459919342
 20
90.6093396231
  0
LWPOLYLINE
  5
254
100
AcDbEntity
  8
RACCORDO
100
AcDbPolyline
 62
250
  6
CONTINUOUS
 90
13
 70
0
 10
185.5881637123
 20
76.8255550966
 10
185.645097413
 20
76.8004802589
 10
185.7079047633
 20
76.7791983829
 10
185.7755814672
 20
76.7620497679
 10
185.8470453676
 20
76.7493086222
 10
185.9211537493
 20
76.7411786778
 10
185.9967216121
 20
76.7377899335
 10
186.072540618
 20
76.7391965755
 10
186.1473984137
 20
76.7453761115
 10
186.2200980153
 20
76.7562297302
 10
186.289476949
 20
76.771583881
 10
186.3544258386
 20
76.7911930496
 10
186.4139061449
 20
76.8147436833
  0
LWPOLYLINE
  5
255
100
AcDbEntity
  8
RACCORDO
100
AcDbPolyline
 62
250
  6
CONTINUOUS
 90
28
 70
0
 10
150.6613526089
 20
90.4836710457
 10
150.9016853935
 20
90.3766757693
 10
151.1349879339
 20
90.2925561736
 10
151.3612602301
 20
90.2313122585
 10
151.5817145245
 20
90.1939501876
 10
151.7951385748
 20
90.1794637973
 10
151.9978956542
 20
90.1848345975
 10
152.189858236
 20
90.2110954426
 10
152.3711538468
 20
90.2572134781
 10
152.5385283402
 20
90.3170716501
 10
152.6903823158
 20
90.3905985815
 10
152.8283151739
 20
90.4778656495
 10
152.9538709694
 20
90.572969931
 10
153.0666452632
 20
90.6750275105
 10
153.1670424943
 20
90.7849223037
 10
153.2578200358
 20
90.8994031345
 10
153.3390928146
 20
91.0175125882
 10
153.4107459037
 20
91.1402080794
 10
153.4751918951
 20
91.2671106763
 10
153.5327285881
 20
91.3968100295
 10
153.5830581834
 20
91.5307164883
 10
153.6276998752
 20
91.6726821682
 10
153.6675594647
 20
91.8227306056
 10
153.7017311508
 20
91.980838264
 10
153.7290167241
 20
92.1507866494
 10
153.7490167818
 20
92.3338362638
 10
153.7621307267
 20
92.5287266051
 10
153.768358559
 20
92.7354576733
  0
LWPOLYLINE
  5
256
100
AcDbEntity
  8
RACCORDO
100
AcDbPolyline
 62
7
  6
CONTINUOUS
 90
12
 70
0
 10
150.8172300712
 20
90.1591760006
 10
150.9505212329
 20
90.0955319754
 10
151.2048321653
 20
89.9905796175
 10
151.4579139531
 20
89.9075302421
 10
151.708794132
 20
89.8465494848
 10
151.9563703821
 20
89.8077805513
 10
152.1993967068
 20
89.7911256711
 10
152.4370616863
 20
89.7963868827
 10
152.6681512871
 20
89.8233316334
 10
152.8906928059
 20
89.8712781047
 10
153.1033305887
 20
89.9392850966
 10
153.1349926783
 20
89.9514233023
  0
LWPOLYLINE
  5
257
100
AcDbEntity
  8
RACCORDO
100
AcDbPolyline
 62
7
  6
CONTINUOUS
 90
13
 70
0
 10
170.4247172751
 20
80.3554222506
 10
170.4330592664
 20
80.3513737876
 10
170.4703710045
 20
80.3359756665
 10
170.5077871248
 20
80.3245992045
 10
170.5447085331
 20
80.3169927076
 10
170.5796062028
 20
80.3128764219
 10
170.6126454874
 20
80.3115794709
 10
170.6436899268
 20
80.3125362596
 10
170.6711690107
 20
80.315008556
 10
170.6946437441
 20
80.3181780945
 10
170.7157302925
 20
80.3216974502
 10
170.7358780125
 20
80.3254780207
 10
170.7740223691
 20
80.3331216285
  0
LWPOLYLINE
  5
258
100
AcDbEntity
  8
RACCORDO
100
AcDbPolyline
 62
7
  6
CONTINUOUS
 90
13
 70
0
 10
138.6049121217
 20
96.2653248273
 10
138.613254113
 20
96.2612763643
 10
138.6505658511
 20
96.2458782432
 10
138.6879819714
 20
96.2345017812
 10
138.7249033797
 20
96.2268952843
 10
138.7598010494
 20
96.2227789986
 10
138.792840334
 20
96.2214820476
 10
138.8238847734
 20
96.2224388363
 10
138.8513638574
 20
96.2249111327
 10
138.8748385907
 20
96.2280806712
 10
138.8959251391
 20
96.2316000269
 10
138.9160728591
 20
96.2353805974
 10
138.9542172157
 20
96.2430242052
  0
LINE
  5
259
100
AcDbEntity
  8
RACCORDO
100
AcDbLine
 62
7
  6
CONTINUOUS
 10
136.7863748658
 20
97.1746035927
 11
138.6046548154
 21
96.2654636179
  0
LINE
  5
25A
100
AcDbEntity
  8
RACCORDO
100
AcDbLine
 62
7
  6
CONTINUOUS
 10
148.9988264183
 20
91.068377821
 11
150.8172885458
 21
90.1591467527
  0
LINE
  5
25B
100
AcDbEntity
  8
RACCORDO
100
AcDbLine
 62
7
  6
CONTINUOUS
 10
168.6061800192
 20
81.264701016
 11
170.4244599688
 21
80.3555610412
  0
LINE
  5
25C
100
AcDbEntity
  8
RACCORDO
100
AcDbLine
 62
7
  6
CONTINUOUS
 10
180.8186847763
 20
75.1584486374
 11
182.6370936991
 21
74.249244176
  0
LINE
  5
25D
100
AcDbEntity
  8
RACCORDO
100
AcDbLine
 62
7
  6
CONTINUOUS
 10
138.941526943
 20
96.2493693416
 11
148.5581791671
 21
91.4410432295
  0
LINE
  5
25E
100
AcDbEntity
  8
RACCORDO
100
AcDbLine
 62
7
  6
CONTINUOUS
 10
170.7613320964
 20
80.3394667649
 11
180.3779843205
 21
75.5311406528
  0
LINE
  5
25F
100
AcDbEntity
  8
RACCORDO
100
AcDbLine
 62
250
  6
CONTINUOUS
 10
136.6304389526
 20
97.4991278738
 11
138.6273666818
 21
96.5006640092
  0
LINE
  5
260
100
AcDbEntity
  8
RACCORDO
100
AcDbLine
 62
250
  6
CONTINUOUS
 10
148.6644248797
 20
91.4821349103
 11
150.6613526089
 21
90.4836710457
  0
LINE
  5
261
100
AcDbEntity
  8
RACCORDO
100
AcDbLine
 62
250
  6
CONTINUOUS
 10
168.450244106
 20
81.5892252971
 11
170.4471718352
 21
80.5907614325
  0
LINE
  5
262
100
AcDbEntity
  8
RACCORDO
100
AcDbLine
 62
250
  6
CONTINUOUS
 10
180.4842300331
 20
75.5722323336
 11
182.4811577623
 21
74.573768469
  0
LINE
  5
263
100
AcDbEntity
  8
RACCORDO
100
AcDbLine
 62
250
  6
CONTINUOUS
 10
138.8375696687
 20
96.4657188618
 11
148.4542218928
 21
91.6573927497
  0
LINE
  5
264
100
AcDbEntity
  8
RACCORDO
100
AcDbLine
 62
250
  6
CONTINUOUS
 10
170.6573748221
 20
80.5558162851
 11
180.2740270462
 21
75.747490173
  0
LWPOLYLINE
  5
265
100
AcDbEntity
  8
RACCORDO
100
AcDbPolyline
 62
7
  6
CONTINUOUS
 90
7
 70
0
 10
148.5583480846
 20
91.4409589036
 10
148.5591766509
 20
91.4405333436
 10
148.5661676237
 20
91.4364743988
 10
148.5777005225
 20
91.4284934765
 10
148.5922789518
 20
91.4166924388
 10
148.608927748
 20
91.4012576813
 10
148.6270517417
 20
91.3823060537
  0
LWPOLYLINE
  5
266
100
AcDbEntity
  8
RACCORDO
100
AcDbPolyline
 62
7
  6
CONTINUOUS
 90
8
 70
0
 10
180.378153238
 20
75.5310563269
 10
180.3789818043
 20
75.5306307669
 10
180.3859727771
 20
75.5265718221
 10
180.3975056759
 20
75.5185908998
 10
180.4120841052
 20
75.5067898621
 10
180.4287329014
 20
75.4913551046
 10
180.4468568951
 20
75.472403477
 10
180.4604594143
 20
75.4567718683
  0
LWPOLYLINE
  5
267
100
AcDbEntity
  8
RACCORDO
100
AcDbPolyline
 62
250
  6
CONTINUOUS
 90
12
 70
0
 10
148.4542218928
 20
91.6573927497
 10
148.4724493367
 20
91.6476985988
 10
148.4903708806
 20
91.6372593498
 10
148.5079865245
 20
91.6260750025
 10
148.5251733019
 20
91.6142298636
 10
148.5420541793
 20
91.6016396265
 10
148.5589980567
 20
91.5880513712
 10
148.5760648356
 20
91.5734890393
 10
148.5931946146
 20
91.5579286893
 10
148.6105765889
 20
91.5410455758
 10
148.6282738237
 20
91.5227314507
 10
148.646223254
 20
91.5030945622
  0
LWPOLYLINE
  5
268
100
AcDbEntity
  8
RACCORDO
100
AcDbPolyline
 62
250
  6
CONTINUOUS
 90
12
 70
0
 10
180.2740270462
 20
75.747490173
 10
180.2922544901
 20
75.7377960221
 10
180.310176034
 20
75.7273567731
 10
180.3277916779
 20
75.7161724258
 10
180.3449784553
 20
75.7043272869
 10
180.3618593327
 20
75.6917370498
 10
180.3788032101
 20
75.6781487945
 10
180.395869989
 20
75.6635864626
 10
180.4129997679
 20
75.6480261126
 10
180.4303817423
 20
75.6311429991
 10
180.4480789771
 20
75.612828874
 10
180.4660284074
 20
75.5931919855
  0
LWPOLYLINE
  5
269
100
AcDbEntity
  8
RACCORDO
100
AcDbPolyline
 62
250
  6
CONTINUOUS
 90
14
 70
0
 10
170.4246990511
 20
80.355441508
 10
170.4159732582
 20
80.3606610629
 10
170.402833473
 20
80.3732707898
 10
170.3941523101
 20
80.3885011124
 10
170.3890094581
 20
80.4059783904
 10
170.3870734039
 20
80.4250512188
 10
170.3881368418
 20
80.4450260973
 10
170.3915835615
 20
80.4657919383
 10
170.3971262863
 20
80.4869456542
 10
170.4045509316
 20
80.5080620521
 10
170.4134737454
 20
80.5292025768
 10
170.4236590636
 20
80.5502456502
 10
170.4349566073
 20
80.570831562
 10
170.4471718352
 20
80.5907614325
  0
LWPOLYLINE
  5
26A
100
AcDbEntity
  8
RACCORDO
100
AcDbPolyline
 62
250
  6
CONTINUOUS
 90
5
 70
0
 10
148.9445877684
 20
91.0980475306
 10
148.9562761214
 20
91.0924035742
 10
148.9760069256
 20
91.0805692629
 10
148.9958238212
 20
91.0698928927
 10
148.9988264183
 20
91.068377821
  0
LWPOLYLINE
  5
26B
100
AcDbEntity
  8
RACCORDO
100
AcDbPolyline
 62
7
  6
CONTINUOUS
 90
6
 70
0
 10
148.6731658283
 20
91.3290115306
 10
148.7376983652
 20
91.260863423
 10
148.8044725747
 20
91.1993195936
 10
148.8732342243
 20
91.1450529522
 10
148.9445877684
 20
91.0980475306
 10
148.9988224453
 20
91.0683798426
  0
LINE
  5
26C
100
AcDbEntity
  8
RACCORDO
100
AcDbLine
 62
250
  6
CONTINUOUS
 10
148.646223254
 20
91.5030945622
 11
148.6644248797
 21
91.4821349103
  0
LINE
  5
26D
100
AcDbEntity
  8
RACCORDO
100
AcDbLine
 62
7
  6
CONTINUOUS
 10
148.6270517417
 20
91.3823060537
 11
148.6731658283
 21
91.3290115306
  0
LINE
  5
26E
100
AcDbEntity
  8
RACCORDO
100
AcDbLine
 62
250
  6
CONTINUOUS
 10
148.635580796
 20
91.3749026544
 11
148.6406546344
 21
91.3666740038
  0
LWPOLYLINE
  5
26F
100
AcDbEntity
  8
RACCORDO
100
AcDbPolyline
 62
250
  6
CONTINUOUS
 90
12
 70
0
 10
148.727942377
 20
91.3462840686
 10
148.7453942251
 20
91.3163747813
 10
148.7633464418
 20
91.2881182897
 10
148.781712718
 20
91.2615261384
 10
148.8004174656
 20
91.2365891413
 10
148.8194262693
 20
91.2132679264
 10
148.8386526306
 20
91.1915565482
 10
148.8580305492
 20
91.1714224237
 10
148.8775646566
 20
91.1527839008
 10
148.8971745299
 20
91.1356262417
 10
148.9168080103
 20
91.1199046448
 10
148.9365280607
 20
91.1055041284
  0
LWPOLYLINE
  5
270
100
AcDbEntity
  8
RACCORDO
100
AcDbPolyline
 62
250
  6
CONTINUOUS
 90
5
 70
0
 10
135.5679043403
 20
125.0551909139
 10
135.5910597208
 20
124.9579301557
 10
135.6080659058
 20
124.8581797229
 10
135.6192611401
 20
124.756074028
 10
135.6246454236
 20
124.6516130711
  0
LWPOLYLINE
  5
271
100
AcDbEntity
  8
RACCORDO
100
AcDbPolyline
 62
250
  6
CONTINUOUS
 90
13
 70
0
 10
153.768358559
 20
92.7354576733
 10
153.8252922596
 20
92.7103828356
 10
153.8880996099
 20
92.6891009595
 10
153.9557763138
 20
92.6719523446
 10
154.0272402142
 20
92.6592111989
 10
154.101348596
 20
92.6510812545
 10
154.1769164587
 20
92.6476925102
 10
154.2527354646
 20
92.6490991522
 10
154.3275932603
 20
92.6552786882
 10
154.4002928619
 20
92.6661323069
 10
154.4696717956
 20
92.6814864577
 10
154.5346206852
 20
92.7010956263
 10
154.5941009915
 20
92.72464626
  0
LWPOLYLINE
  5
272
100
AcDbEntity
  8
RACCORDO
100
AcDbPolyline
 62
250
  6
CONTINUOUS
 90
8
 70
0
 10
133.5234330026
 20
102.8579204515
 10
133.4732848765
 20
102.8863862909
 10
133.430721877
 20
102.9177890041
 10
133.3964247193
 20
102.9516265407
 10
133.3709419643
 20
102.9873579178
 10
133.354681279
 20
103.0244118189
 10
133.3479028672
 20
103.0621957229
 10
133.3476970713
 20
103.0700524532
  0
LWPOLYLINE
  5
273
100
AcDbEntity
  8
RACCORDO
100
AcDbPolyline
 62
250
  6
CONTINUOUS
 90
8
 70
0
 10
165.3432381559
 20
86.9480178748
 10
165.2930900299
 20
86.9764837142
 10
165.2505270304
 20
87.0078864274
 10
165.2162298727
 20
87.041723964
 10
165.1907471177
 20
87.0774553411
 10
165.1744864324
 20
87.1145092422
 10
165.1677080206
 20
87.1522931462
 10
165.1675022247
 20
87.1601498765
  0
LWPOLYLINE
  5
274
100
AcDbEntity
  8
RACCORDO
100
AcDbPolyline
 62
250
  6
CONTINUOUS
 90
5
 70
0
 10
180.7643929218
 20
75.1881449539
 10
180.7760812748
 20
75.1825009975
 10
180.795812079
 20
75.1706666862
 10
180.8156289745
 20
75.159990316
 10
180.8186315717
 20
75.1584752443
  0
LWPOLYLINE
  5
275
100
AcDbEntity
  8
0
100
AcDbPolyline
 62
7
  6
CONTINUOUS
 90
4
 70
0
 10
135.0375204746
 20
105.8867924495
 10
135.084749321
 20
105.8517549637
 10
135.540816188
 20
105.543446923
 10
136.0091425439
 20
105.2803957456
  0
LWPOLYLINE
  5
276
100
AcDbEntity
  8
0
100
AcDbPolyline
 62
7
  6
CONTINUOUS
 90
4
 70
0
 10
135.6131950058
 20
105.4546565725
 10
135.6736568771
 20
105.4097358864
 10
136.1988666841
 20
105.0546930083
 10
136.728811188
 20
104.7588195866
  0
LINE
  5
277
100
AcDbEntity
  8
0
100
AcDbLine
 62
7
  6
CONTINUOUS
 10
135.0374600905
 20
105.886457759
 11
135.6131950058
 21
105.4546565725
  0
LWPOLYLINE
  5
278
100
AcDbEntity
  8
RACCORDO
100
AcDbPolyline
 62
250
  6
CONTINUOUS
 90
5
 70
0
 10
148.6644248797
 20
91.4821349103
 10
148.6792017909
 20
91.4458104704
 10
148.6947668318
 20
91.4110314191
 10
148.7110431314
 20
91.3778431446
 10
148.727942377
 20
91.3462840686
  0
LWPOLYLINE
  5
279
100
AcDbEntity
  8
0
100
AcDbPolyline
 62
7
  6
CONTINUOUS
 90
26
 70
0
 10
146.8793397638
 20
111.5992372438
 10
146.8449329758
 20
111.996031455
 10
146.7934074345
 20
112.4000193342
 10
146.7253226461
 20
112.8067878162
 10
146.6406194799
 20
113.2158634451
 10
146.5393570666
 20
113.6277196769
 10
146.4222723055
 20
114.0393638144
 10
146.2890734071
 20
114.4512845598
 10
146.1400521609
 20
114.8629932108
 10
145.9768208345
 20
115.2700309644
 10
145.7994333009
 20
115.6719043156
 10
145.6078356872
 20
116.0691067694
 10
145.4034786419
 20
116.4586600366
 10
145.1860459144
 20
116.8408730258
 10
144.9558537554
 20
117.2154368284
 10
144.715301565
 20
117.5784464307
 10
144.4644981544
 20
117.9294907937
 10
144.2033347124
 20
118.2689809564
 10
143.9338842054
 20
118.5942450216
 10
143.6558940286
 20
118.9053750259
 10
143.3696167868
 20
119.2022789328
 10
143.0778832598
 20
119.4820087355
 10
142.7807788538
 20
119.7442716086
 10
142.4782181626
 20
119.9893603775
 10
142.172775748
 20
120.2152055115
 10
141.865309797
 20
120.421117167
  0
LWPOLYLINE
  5
27A
100
AcDbEntity
  8
RACCORDO
100
AcDbPolyline
 62
250
  6
CONTINUOUS
 90
7
 70
0
 10
148.4542218928
 20
91.6573927497
 10
148.4577041642
 20
91.6049433335
 10
148.4680652325
 20
91.557267672
 10
148.4850499726
 20
91.5155397003
 10
148.5082401638
 20
91.4807868993
 10
148.5370647839
 20
91.4538650022
 10
148.5581791671
 20
91.4410432295
  0
LWPOLYLINE
  5
27B
100
AcDbEntity
  8
RACCORDO
100
AcDbPolyline
 62
250
  6
CONTINUOUS
 90
22
 70
0
 10
147.1040668198
 20
111.0547925087
 10
147.0880630656
 20
111.5866288655
 10
147.0401413765
 20
112.1314940907
 10
146.9605698601
 20
112.6863410402
 10
146.8497936893
 20
113.2480664564
 10
146.7084324376
 20
113.8135292477
 10
146.5372764461
 20
114.3795680687
 10
146.33728265
 20
114.9430179175
 10
146.1095695857
 20
115.5007272676
 10
145.8554109351
 20
116.049576649
 10
145.5762281933
 20
116.5864965122
 10
145.2735826008
 20
117.1084844268
 10
144.9491666589
 20
117.6126213255
 10
144.6047945719
 20
118.0960880107
 10
144.2423922744
 20
118.5561806907
 10
143.8639866532
 20
118.9903261922
 10
143.4716951306
 20
119.3960955103
 10
143.0677104242
 20
119.7712208997
 10
142.6542881584
 20
120.1136074429
 10
142.2337381352
 20
120.4213409841
 10
141.8084140968
 20
120.6926979835
 10
141.3806970517
 20
120.9261587747
  0
LWPOLYLINE
  5
27C
100
AcDbEntity
  8
0
100
AcDbPolyline
 62
7
  6
CONTINUOUS
 90
3
 70
0
 10
146.8964241802
 20
110.8283502275
 10
146.8964413487
 20
111.2101969016
 10
146.8793397638
 20
111.5992372438
  0
LINE
  5
27D
100
AcDbEntity
  8
RACCORDO
100
AcDbLine
 62
250
  6
CONTINUOUS
 10
147.0880630857
 20
110.5389602248
 11
147.1040668198
 21
111.0547925087
  0
LINE
  5
27E
100
AcDbEntity
  8
0
100
AcDbLine
 62
7
  6
CONTINUOUS
 10
146.8792881013
 20
110.4564296828
 11
146.8964241802
 21
110.8283502275
  0
LWPOLYLINE
  5
27F
100
AcDbEntity
  8
RACCORDO
100
AcDbPolyline
 62
250
  6
CONTINUOUS
 90
15
 70
0
 10
148.4542218928
 20
133.6324568803
 10
148.457704156
 20
133.6883885002
 10
148.4680652005
 20
133.7464251611
 10
148.4850499032
 20
133.8051378078
 10
148.5082400442
 20
133.8630807401
 10
148.5370646053
 20
133.9188272108
 10
148.5708138302
 20
133.9710045567
 10
148.6086567009
 20
134.0183279983
 10
148.6496614004
 20
134.0596322755
 10
148.6928182569
 20
134.0939003399
 10
148.7370646053
 20
134.120288398
 10
148.7813109537
 20
134.1381466883
 10
148.8244678102
 20
134.1470354804
 10
148.8654725097
 20
134.1467359027
 10
148.9033153804
 20
134.1372553318
  0
LINE
  5
280
100
AcDbEntity
  8
RACCORDO
100
AcDbLine
 62
250
  6
CONTINUOUS
 10
152.6183292131
 20
116.9254818543
 11
152.6443588841
 21
116.9418029926
  0
LWPOLYLINE
  5
281
100
AcDbEntity
  8
0
100
AcDbPolyline
 62
7
  6
CONTINUOUS
 90
13
 70
0
 10
167.8289476973
 20
89.3704931689
 10
168.2972721037
 20
89.1652187981
 10
168.7533370518
 20
89.0174602415
 10
169.1971425415
 20
88.927217499
 10
169.6324743654
 20
88.8946991341
 10
170.0555467309
 20
88.9196965834
 10
170.4550022606
 20
89.0015841569
 10
170.8301996662
 20
89.1419089267
 10
171.1817802358
 20
89.3391238207
 10
171.5003104568
 20
89.5879619332
 10
171.7848931183
 20
89.8898223377
 10
172.0364254311
 20
90.2433059606
 10
172.2481655144
 20
90.6389486754
  0
LWPOLYLINE
  5
282
100
AcDbEntity
  8
0
100
AcDbPolyline
 62
7
  6
CONTINUOUS
 90
13
 70
0
 10
136.0091425439
 20
105.2803957456
 10
136.4774669503
 20
105.0751213748
 10
136.9335318984
 20
104.9273628182
 10
137.3773373881
 20
104.8371200757
 10
137.812669212
 20
104.8046017108
 10
138.2357415775
 20
104.8295991601
 10
138.6351971072
 20
104.9114867336
 10
139.0103945128
 20
105.0518115034
 10
139.3619750824
 20
105.2490263974
 10
139.6805053034
 20
105.4978645099
 10
139.9650879649
 20
105.7997249144
 10
140.2166202777
 20
106.1532085373
 10
140.428360361
 20
106.5488512521
  0
LWPOLYLINE
  5
283
100
AcDbEntity
  8
0
100
AcDbPolyline
 62
7
  6
CONTINUOUS
 90
8
 70
0
 10
168.5486163414
 20
88.84891701
 10
169.078558596
 20
88.6148467894
 10
169.6037666187
 20
88.4446800639
 10
170.1194856692
 20
88.3399787952
 10
170.6210529434
 20
88.3017131497
 10
171.1039128986
 20
88.3302548737
 10
171.5636622555
 20
88.4253615927
 10
172.017762536
 20
88.5963019621
  0
LWPOLYLINE
  5
284
100
AcDbEntity
  8
0
100
AcDbPolyline
 62
7
  6
CONTINUOUS
 90
8
 70
0
 10
136.728811188
 20
104.7588195866
 10
137.2587534427
 20
104.5247493661
 10
137.7839614653
 20
104.3545826406
 10
138.2996805158
 20
104.2498813719
 10
138.80124779
 20
104.2116157264
 10
139.2841077452
 20
104.2401574504
 10
139.7438571021
 20
104.3352641694
 10
140.1979573826
 20
104.5062045388
  0
LWPOLYLINE
  5
285
100
AcDbEntity
  8
RACCORDO
100
AcDbPolyline
 62
250
  6
CONTINUOUS
 90
8
 70
0
 10
150.6613526089
 20
90.4836710457
 10
150.6647444042
 20
90.4197942011
 10
150.674865633
 20
90.3603300787
 10
150.6915546025
 20
90.3062295668
 10
150.7145446103
 20
90.2583578039
 10
150.7434681734
 20
90.2174804094
 10
150.7778628724
 20
90.1842512028
 10
150.8172300665
 20
90.1591760029
  0
LWPOLYLINE
  5
286
100
AcDbEntity
  8
RACCORDO
100
AcDbPolyline
 62
250
  6
CONTINUOUS
 90
19
 70
0
 10
149.6867648069
 20
112.028653358
 10
149.6722051787
 20
111.5210064121
 10
149.6288418304
 20
111.0336382482
 10
149.556674762
 20
110.5665488662
 10
149.455038754
 20
110.1170982079
 10
149.3245990259
 20
109.6879263315
 10
149.1673512361
 20
109.286953412
 10
148.9829728277
 20
108.9152326535
 10
148.7717863575
 20
108.5717108518
 10
148.5367551554
 20
108.2611485692
 10
148.2774770372
 20
107.9839204869
 10
147.9943541871
 20
107.7396519236
 10
147.6915564875
 20
107.5319793981
 10
147.3688214048
 20
107.3614714549
 10
147.0264114727
 20
107.2275595494
 10
146.6692841745
 20
107.1321745665
 10
146.297217274
 20
107.0758734686
 10
145.9104330073
 20
107.0580992934
 10
145.8188789115
 20
107.0629588854
  0
LWPOLYLINE
  5
287
100
AcDbEntity
  8
RACCORDO
100
AcDbPolyline
 62
250
  6
CONTINUOUS
 90
13
 70
0
 10
149.1260587462
 20
112.0310999618
 10
149.1099579768
 20
111.5121406782
 10
149.0617457135
 20
111.0121844223
 10
148.9816915834
 20
110.5340271562
 10
148.8702432685
 20
110.0803428698
 10
148.7280240476
 20
109.6536688227
 10
148.555829354
 20
109.2563913151
 10
148.3546222735
 20
108.8907321418
 10
148.1255280338
 20
108.558736056
 10
147.8698277501
 20
108.2622595503
 10
147.5889513726
 20
108.0029606062
 10
147.2844697061
 20
107.7822893554
 10
146.9490748275
 20
107.5972024987
  0
LWPOLYLINE
  5
288
100
AcDbEntity
  8
RACCORDO
100
AcDbPolyline
 62
250
  6
CONTINUOUS
 90
19
 70
0
 10
151.6671461379
 20
116.6303627139
 10
151.6705847683
 20
116.7207500181
 10
151.6803143789
 20
116.8059754732
 10
151.6963349696
 20
116.8860390792
 10
151.7189915333
 20
116.9615886008
 10
151.7479390771
 20
117.0319762734
 10
151.7821426226
 20
117.0952588029
 10
151.8217995964
 20
117.1510165263
 10
151.8667125717
 20
117.1996691067
 10
151.9152542905
 20
117.2405322395
 10
151.9669079582
 20
117.2733313661
 10
152.0221903694
 20
117.298341045
 10
152.0810246494
 20
117.3157006473
 10
152.1431373384
 20
117.3259948107
 10
152.2088018963
 20
117.3286388974
 10
152.2787618284
 20
117.3220183648
 10
152.3532649697
 20
117.3055950321
 10
152.4320634852
 20
117.2799070801
 10
152.5151573749
 20
117.2449545088
  0
LWPOLYLINE
  5
289
100
AcDbEntity
  8
RACCORDO
100
AcDbPolyline
 62
250
  6
CONTINUOUS
 90
13
 70
0
 10
150.6613526089
 20
132.5990478682
 10
150.6647446214
 20
132.6663187824
 10
150.6748664204
 20
132.7359060405
 10
150.6915561572
 20
132.8066969352
 10
150.7145469613
 20
132.8775595131
 10
150.7434712074
 20
132.9473606744
 10
150.777866394
 20
133.0149842915
 10
150.8171825385
 20
133.0793490561
 10
150.8607909719
 20
133.1394257689
 10
150.9079943913
 20
133.1942537971
 10
150.9580380094
 20
133.2429564349
 10
151.0101216237
 20
133.2847549223
 10
151.0634124119
 20
133.3189808974
  0
LWPOLYLINE
  5
28A
100
AcDbEntity
  8
RACCORDO
100
AcDbPolyline
 62
7
  6
CONTINUOUS
 90
13
 70
0
 10
166.4562177869
 20
124.4757559744
 10
166.280964142
 20
124.3547367362
 10
166.0883663701
 20
124.1907163369
 10
165.9117308447
 20
124.0043533145
 10
165.752269603
 20
123.7969800546
 10
165.6107473552
 20
123.5696283113
 10
165.4880853404
 20
123.3239582969
 10
165.3848085931
 20
123.0613378485
 10
165.301193933
 20
122.7828045007
 10
165.2375488023
 20
122.4894386089
 10
165.1941633441
 20
122.1823394022
 10
165.1712907267
 20
121.8628419679
 10
165.1675022637
 20
121.6648393677
  0
LINE
  5
28B
100
AcDbEntity
  8
RACCORDO
100
AcDbLine
 62
7
  6
CONTINUOUS
 10
166.45620271
 20
124.4757588549
 11
167.5584982359
 21
125.1625357323
  0
LINE
  5
28C
100
AcDbEntity
  8
RACCORDO
100
AcDbLine
 62
250
  6
CONTINUOUS
 10
168.852303909
 20
124.4245351488
 11
169.9454227145
 21
125.1055944174
  0
LINE
  5
28D
100
AcDbEntity
  8
RACCORDO
100
AcDbLine
 62
250
  6
CONTINUOUS
 10
170.93794024
 20
123.8544189399
 11
171.6473243157
 21
124.2546436168
  0
LWPOLYLINE
  5
28E
100
AcDbEntity
  8
RACCORDO
100
AcDbPolyline
 62
250
  6
CONTINUOUS
 90
10
 70
0
 10
156.2898792679
 20
115.7982336293
 10
156.3267309575
 20
115.8184548842
 10
156.3609670515
 20
115.8395269513
 10
156.392533034
 20
115.8613634544
 10
156.4213661699
 20
115.883860481
 10
156.4474573042
 20
115.9069491193
 10
156.4708322304
 20
115.9306008075
 10
156.4914763569
 20
115.9547547358
 10
156.5093527874
 20
115.9793130862
 10
156.5244513926
 20
116.0041970081
  0
LWPOLYLINE
  5
28F
100
AcDbEntity
  8
RACCORDO
100
AcDbPolyline
 62
250
  6
CONTINUOUS
 90
16
 70
0
 10
170.9615751225
 20
123.2987673976
 10
170.9728757896
 20
123.3043777787
 10
170.985003037
 20
123.3099392121
 10
170.9979652697
 20
123.3154335492
 10
171.0117040765
 20
123.3208071301
 10
171.0262871757
 20
123.3260743534
 10
171.0419350278
 20
123.3313195458
 10
171.0587549802
 20
123.3365454751
 10
171.0767030948
 20
123.341702952
 10
171.0957979947
 20
123.3467954162
 10
171.1160803263
 20
123.3517850756
 10
171.137566234
 20
123.3566429764
 10
171.1602393518
 20
123.3613799934
 10
171.1841113948
 20
123.3659695224
 10
171.2092199808
 20
123.3703477963
 10
171.2355857963
 20
123.3744635871
  0
LINE
  5
290
100
AcDbEntity
  8
RACCORDO
100
AcDbLine
 62
250
  6
CONTINUOUS
 10
155.3077704546
 20
116.2550221816
 11
155.8658736493
 21
116.5295351452
  0
LINE
  5
291
100
AcDbEntity
  8
RACCORDO
100
AcDbLine
 62
250
  6
CONTINUOUS
 10
155.8788430953
 20
115.5960581911
 11
156.2898792679
 21
115.7982336293
  0
LWPOLYLINE
  5
292
100
AcDbEntity
  8
RACCORDO
100
AcDbPolyline
 62
250
  6
CONTINUOUS
 90
13
 70
0
 10
154.3070152757
 20
116.4009552668
 10
154.3225431571
 20
116.4077970851
 10
154.3686701179
 20
116.4336417306
 10
154.4098947477
 20
116.4650254795
 10
154.4458115715
 20
116.5005370288
 10
154.4771025883
 20
116.5397016908
 10
154.5049373861
 20
116.5834140623
 10
154.5291497791
 20
116.6313003347
 10
154.5496563769
 20
116.6831131438
 10
154.5669763478
 20
116.7409342973
 10
154.580683782
 20
116.8056970487
 10
154.5899245676
 20
116.876613864
 10
154.5941009915
 20
116.953530714
  0
LWPOLYLINE
  5
293
100
AcDbEntity
  8
RACCORDO
100
AcDbPolyline
 62
250
  6
CONTINUOUS
 90
6
 70
0
 10
156.2980090394
 20
117.2055992027
 10
156.3489301846
 20
117.2274277587
 10
156.4000585395
 20
117.2398705124
 10
156.4498713184
 20
117.2428440543
 10
156.4963778793
 20
117.2367452294
 10
156.5362393958
 20
117.2229303392
  0
LINE
  5
294
100
AcDbEntity
  8
RACCORDO
100
AcDbLine
 62
250
  6
CONTINUOUS
 10
152.5006092226
 20
116.6230886378
 11
152.9142437068
 21
116.7988550183
  0
LINE
  5
295
100
AcDbEntity
  8
RACCORDO
100
AcDbLine
 62
7
  6
CONTINUOUS
 10
155.1757934564
 20
116.2872993449
 11
153.9693160976
 21
115.7746289398
  0
LINE
  5
296
100
AcDbEntity
  8
RACCORDO
100
AcDbLine
 62
250
  6
CONTINUOUS
 10
154.5941009915
 20
116.953530714
 11
155.8081324172
 21
117.4507528243
  0
LINE
  5
297
100
AcDbEntity
  8
RACCORDO
100
AcDbLine
 62
7
  6
CONTINUOUS
 10
154.3060146071
 20
116.4005436923
 11
155.5231001547
 21
116.8990166573
  0
LINE
  5
298
100
AcDbEntity
  8
RACCORDO
100
AcDbLine
 62
7
  6
CONTINUOUS
 10
187.127575608
 20
92.3305602456
 11
186.9955986098
 21
92.3598249673
  0
LWPOLYLINE
  5
299
100
AcDbEntity
  8
0
100
AcDbPolyline
 62
7
  6
CONTINUOUS
 90
4
 70
0
 10
166.857325628
 20
89.9768898728
 10
166.9045544744
 20
89.941852387
 10
167.3606213414
 20
89.6335443464
 10
167.8289476973
 20
89.3704931689
  0
LWPOLYLINE
  5
29A
100
AcDbEntity
  8
0
100
AcDbPolyline
 62
7
  6
CONTINUOUS
 90
4
 70
0
 10
167.4330001592
 20
89.5447539958
 10
167.4934620305
 20
89.4998333097
 10
168.0186718375
 20
89.1447904316
 10
168.5486163414
 20
88.84891701
  0
LINE
  5
29B
100
AcDbEntity
  8
0
100
AcDbLine
 62
7
  6
CONTINUOUS
 10
166.8572652439
 20
89.9765551823
 11
167.4330001592
 21
89.5447539958
  0
LWPOLYLINE
  5
29C
100
AcDbEntity
  8
0
100
AcDbPolyline
 62
7
  6
CONTINUOUS
 90
5
 70
0
 10
137.8126770551
 20
115.8532861853
 10
137.3773431448
 20
116.2561026377
 10
136.9335357668
 20
116.6096675415
 10
136.4774688999
 20
116.9179755822
 10
136.0091425439
 20
117.1810267597
  0
LWPOLYLINE
  5
29D
100
AcDbEntity
  8
RACCORDO
100
AcDbPolyline
 62
250
  6
CONTINUOUS
 90
34
 70
0
 10
138.6273666818
 20
138.6160408318
 10
138.6139700785
 20
138.6530554256
 10
138.6024459391
 20
138.6898549277
 10
138.5927173927
 20
138.7263170788
 10
138.5847156331
 20
138.7623248978
 10
138.5783508102
 20
138.7977776977
 10
138.5735121706
 20
138.8325909778
 10
138.5701207521
 20
138.866670558
 10
138.5680936197
 20
138.8999463627
 10
138.5673157972
 20
138.9323830681
 10
138.56771152
 20
138.9639054885
 10
138.5692040541
 20
138.9944748393
 10
138.5716852678
 20
139.0241210227
 10
138.5750832901
 20
139.0527826297
 10
138.5793374105
 20
139.0804480269
 10
138.5843721734
 20
139.1072259499
 10
138.5901280731
 20
139.1330784844
 10
138.5965607888
 20
139.1579945556
 10
138.6036380886
 20
139.1821180235
 10
138.6113125063
 20
139.2054191674
 10
138.6195544457
 20
139.2278855171
 10
138.6283788113
 20
139.2496721889
 10
138.6377488176
 20
139.2707477574
 10
138.6476454609
 20
139.2910918112
 10
138.6581285077
 20
139.3108517043
 10
138.6691664377
 20
139.3299855483
 10
138.6807483592
 20
139.348457551
 10
138.6929796379
 20
139.3663893331
 10
138.7058315322
 20
139.3837179422
 10
138.7192933264
 20
139.4003845867
 10
138.7335069302
 20
139.4164694616
 10
138.7485050834
 20
139.4319245385
 10
138.7642041931
 20
139.4466021801
 10
138.780569726
 20
139.4604022403
  0
LWPOLYLINE
  5
29E
100
AcDbEntity
  8
RACCORDO
100
AcDbPolyline
 62
250
  6
CONTINUOUS
 90
8
 70
0
 10
152.5151573749
 20
117.2449545088
 10
152.5186277058
 20
117.1803651285
 10
152.5289819265
 20
117.120302716
 10
152.546050649
 20
117.0657498501
 10
152.5695546412
 20
117.0175989774
 10
152.5991093942
 20
116.9766378122
 10
152.6342314131
 20
116.9435364505
 10
152.6709908137
 20
116.9204814975
  0
LWPOLYLINE
  5
29F
100
AcDbEntity
  8
RACCORDO
100
AcDbPolyline
 62
250
  6
CONTINUOUS
 90
8
 70
0
 10
153.4856450092
 20
116.7597106917
 10
153.4891150463
 20
116.6951238491
 10
153.4994685306
 20
116.6350631169
 10
153.5165362563
 20
116.5805110995
 10
153.5400391793
 20
116.5323603163
 10
153.5695929646
 20
116.4913986229
 10
153.6047142569
 20
116.4582963029
 10
153.6415808825
 20
116.4351864305
  0
LWPOLYLINE
  5
2A0
100
AcDbEntity
  8
RACCORDO
100
AcDbPolyline
 62
250
  6
CONTINUOUS
 90
34
 70
0
 10
154.5941009915
 20
103.0005594232
 10
154.5909618464
 20
103.0664467054
 10
154.5842559137
 20
103.1316515917
 10
154.574404702
 20
103.1956702011
 10
154.5618419993
 20
103.2579515378
 10
154.5469625589
 20
103.3182495623
 10
154.5300672372
 20
103.3766260862
 10
154.5114743845
 20
103.4328715257
 10
154.4915030856
 20
103.4867635099
 10
154.4703589158
 20
103.538418553
 10
154.4482809087
 20
103.5877512908
 10
154.4255167996
 20
103.6346467775
 10
154.4022200686
 20
103.6792157453
 10
154.3786034056
 20
103.7213895606
 10
154.354825247
 20
103.761189324
 10
154.3309039641
 20
103.7988720248
 10
154.306996457
 20
103.834414008
 10
154.2832039508
 20
103.8678674122
 10
154.2594078837
 20
103.8995834779
 10
154.235696628
 20
103.9295785341
 10
154.212148033
 20
103.9578765869
 10
154.1885843452
 20
103.9847999937
 10
154.1650623663
 20
104.0103576074
 10
154.1416326252
 20
104.0345621298
 10
154.1180779494
 20
104.057691449
 10
154.0944369032
 20
104.0797354119
 10
154.0707436249
 20
104.1006868575
 10
154.0467550338
 20
104.1207699318
 10
154.0225018062
 20
104.1399470746
 10
153.9980109042
 20
104.1581831102
 10
153.973023812
 20
104.1756385935
 10
153.9474731926
 20
104.1923017587
 10
153.9214874887
 20
104.2080285744
 10
153.8951024754
 20
104.2227432618
  0
LWPOLYLINE
  5
2A1
100
AcDbEntity
  8
RACCORDO
100
AcDbPolyline
 62
250
  6
CONTINUOUS
 90
34
 70
0
 10
153.768358559
 20
103.0113708365
 10
153.7672630989
 20
103.0382285003
 10
153.765012289
 20
103.064427515
 10
153.7616061293
 20
103.0899678806
 10
153.7569026553
 20
103.1149215261
 10
153.7510438314
 20
103.1392165225
 10
153.7444555515
 20
103.1626370826
 10
153.7371729156
 20
103.1851364306
 10
153.7291608236
 20
103.2067613422
 10
153.7207398688
 20
103.2274363571
 10
153.7119356941
 20
103.2471368128
 10
153.7027226566
 20
103.2658873717
 10
153.6933444212
 20
103.283686561
 10
153.6838352304
 20
103.3005000912
 10
153.6741608417
 20
103.3163622517
 10
153.6644621925
 20
103.331374438
 10
153.6547721075
 20
103.345518591
 10
153.645057762
 20
103.3588127697
 10
153.6353616189
 20
103.3714125475
 10
153.6257024443
 20
103.3833225002
 10
153.6160614721
 20
103.3945380519
 10
153.6064248668
 20
103.405201048
 10
153.5968048473
 20
103.4153215717
 10
153.5871891948
 20
103.4248895399
 10
153.5775274172
 20
103.4340165485
 10
153.5678268668
 20
103.4427163409
 10
153.5580801913
 20
103.4509751738
 10
153.5482148422
 20
103.4588634131
 10
153.5382340621
 20
103.4663984138
 10
153.5281346083
 20
103.4735628208
 10
153.5178342038
 20
103.4803749351
 10
153.5073054229
 20
103.4868408568
 10
153.4965756914
 20
103.4929544858
 10
153.4856450092
 20
103.4987158219
  0
LINE
  5
2A2
100
AcDbEntity
  8
RACCORDO
100
AcDbLine
 62
250
  6
CONTINUOUS
 10
151.6671461379
 20
105.446562671
 11
151.6671461379
 21
116.6303627139
  0
LINE
  5
2A3
100
AcDbEntity
  8
RACCORDO
100
AcDbLine
 62
250
  6
CONTINUOUS
 10
152.5006092226
 20
105.4392885949
 11
152.5006092226
 21
116.6230886378
  0
LINE
  5
2A4
100
AcDbEntity
  8
RACCORDO
100
AcDbLine
 62
7
  6
CONTINUOUS
 10
153.6868120736
 20
116.4153804443
 11
153.6868120736
 21
115.9891084455
  0
LINE
  5
2A5
100
AcDbEntity
  8
RACCORDO
100
AcDbLine
 62
7
  6
CONTINUOUS
 10
153.6868120736
 20
107.179420841
 11
153.6868120736
 21
106.0413855234
  0
LINE
  5
2A6
100
AcDbEntity
  8
RACCORDO
100
AcDbLine
 62
250
  6
CONTINUOUS
 10
153.768358559
 20
92.7354576733
 11
153.768358559
 21
103.0113708365
  0
LINE
  5
2A7
100
AcDbEntity
  8
RACCORDO
100
AcDbLine
 62
250
  6
CONTINUOUS
 10
153.768358559
 20
116.9643421273
 11
153.768358559
 21
127.2402552905
  0
LWPOLYLINE
  5
2A8
100
AcDbEntity
  8
RACCORDO
100
AcDbPolyline
 62
250
  6
CONTINUOUS
 90
10
 70
0
 10
152.5006111313
 20
116.6230894488
 10
152.500929596
 20
116.6672009778
 10
152.5046557252
 20
116.7094364641
 10
152.5117500741
 20
116.7494592129
 10
152.5221736061
 20
116.7870409011
 10
152.5358302261
 20
116.8217728546
 10
152.5524920384
 20
116.8531504899
 10
152.5719612265
 20
116.8809848006
 10
152.5940295378
 20
116.9051636773
 10
152.6183292131
 20
116.9254818543
  0
LWPOLYLINE
  5
2A9
100
AcDbEntity
  8
RACCORDO
100
AcDbPolyline
 62
250
  6
CONTINUOUS
 90
13
 70
0
 10
152.5151573749
 20
103.9839596391
 10
152.5186279772
 20
104.0520220997
 10
152.5289828993
 20
104.1224410504
 10
152.5460525675
 20
104.1940643712
 10
152.5695575515
 20
104.2657202539
 10
152.5991131702
 20
104.3362364679
 10
152.6342358162
 20
104.4044595305
 10
152.6743507865
 20
104.4692733973
 10
152.7188017546
 20
104.529617875
 10
152.7668615876
 20
104.5845060155
 10
152.8177440857
 20
104.6330400324
 10
152.8706168157
 20
104.6744260238
 10
152.9246148411
 20
104.7079870789
  0
LWPOLYLINE
  5
2AA
100
AcDbEntity
  8
RACCORDO
100
AcDbPolyline
 62
250
  6
CONTINUOUS
 90
13
 70
0
 10
153.4856450092
 20
103.4987158219
 10
153.4891153401
 20
103.5667755332
 10
153.4994695608
 20
103.6371921663
 10
153.5165382833
 20
103.7088137548
 10
153.5400422755
 20
103.7804686197
 10
153.5695970285
 20
103.8509845379
 10
153.6047190474
 20
103.9192079185
 10
153.6448337606
 20
103.984022675
 10
153.6892849197
 20
104.0443684835
 10
153.7373453348
 20
104.0992581291
 10
153.7882287715
 20
104.1477936556
 10
153.8411028124
 20
104.1891810561
 10
153.8951024754
 20
104.2227432618
  0
LWPOLYLINE
  5
2AB
100
AcDbEntity
  8
RACCORDO
100
AcDbPolyline
 62
7
  6
CONTINUOUS
 90
3
 70
0
 10
155.8081324172
 20
122.4171718441
 10
155.8188751931
 20
122.4825040955
 10
155.8246282168
 20
122.5892022484
  0
LWPOLYLINE
  5
2AC
100
AcDbEntity
  8
RACCORDO
100
AcDbPolyline
 62
250
  6
CONTINUOUS
 90
4
 70
0
 10
156.8627579327
 20
116.6012514813
 10
156.8772291572
 20
116.6366708534
 10
156.883074546
 20
116.6727033939
 10
156.8832024369
 20
116.6788971948
  0
LINE
  5
2AD
100
AcDbEntity
  8
RACCORDO
100
AcDbLine
 62
250
  6
CONTINUOUS
 10
155.9597024994
 20
116.6085447297
 11
156.2980090394
 21
117.2055992027
  0
LINE
  5
2AE
100
AcDbEntity
  8
RACCORDO
100
AcDbLine
 62
250
  6
CONTINUOUS
 10
156.5244513926
 20
116.0041970081
 11
156.8627579327
 21
116.6012514813
  0
LWPOLYLINE
  5
2AF
100
AcDbEntity
  8
RACCORDO
100
AcDbPolyline
 62
250
  6
CONTINUOUS
 90
10
 70
0
 10
155.9597024994
 20
116.6085447297
 10
155.9536501672
 20
116.5988782972
 10
155.9465009451
 20
116.5894149233
 10
155.9382548331
 20
116.5801546082
 10
155.92890701
 20
116.5710722334
 10
155.9184622969
 20
116.5621929173
 10
155.9069351579
 20
116.553592015
 10
155.8943304143
 20
116.5452946447
 10
155.8806432448
 20
116.5372756881
 10
155.8658736493
 20
116.5295351452
  0
LWPOLYLINE
  5
2B0
100
AcDbEntity
  8
0
100
AcDbPolyline
 62
7
  6
CONTINUOUS
 90
15
 70
0
 10
144.9558096031
 20
106.764427823
 10
145.1859655536
 20
106.9087703941
 10
145.4033634918
 20
107.0735111241
 10
145.6076878036
 20
107.2586550469
 10
145.7992541031
 20
107.4641971286
 10
145.9766179169
 20
107.6886148782
 10
146.1398345463
 20
107.932345544
 10
146.28884869
 20
108.1949518776
 10
146.4220499695
 20
108.4735996423
 10
146.5391489491
 20
108.7680943937
 10
146.6404350647
 20
109.0786305762
 10
146.7251662448
 20
109.4029572867
 10
146.793283124
 20
109.7416123569
 10
146.8448450679
 20
110.0940579551
 10
146.8792881013
 20
110.4564296828
  0
LWPOLYLINE
  5
2B1
100
AcDbEntity
  8
0
100
AcDbPolyline
 62
7
  6
CONTINUOUS
 90
27
 70
0
 10
140.1979573826
 20
104.5062045388
 10
140.5775939323
 20
104.7211782616
 10
140.9440064063
 20
105.0085011971
 10
141.2722395715
 20
105.3554530561
 10
141.5593203567
 20
105.7588964386
 10
141.8026413756
 20
106.215171248
 10
141.9999970173
 20
106.7201417274
 10
142.1496003379
 20
107.2692358984
 10
142.2500954035
 20
107.8574782029
 10
142.3005717177
 20
108.4795393722
 10
142.3005719832
 20
109.1297842906
 10
142.2500962158
 20
109.802321406
 10
142.1496017571
 20
110.4910582284
 10
141.9999991301
 20
111.1897550614
 10
141.8026442296
 20
111.8920806345
 10
141.5593239742
 20
112.591676061
 10
141.2722439627
 20
113.2821999634
 10
140.9440114908
 20
113.9573850068
 10
140.5775995682
 20
114.6111207456
 10
140.1763319265
 20
115.2374817256
 10
139.7438633175
 20
115.8307730676
 10
139.2841139844
 20
116.3856300841
 10
138.8012538132
 20
116.8970328573
 10
138.2996858361
 20
117.3603358771
 10
137.783965499
 20
117.771355263
 10
137.258755692
 20
118.126398141
 10
136.728811188
 20
118.4222715627
  0
LINE
  5
2B2
100
AcDbEntity
  8
RACCORDO
100
AcDbLine
 62
250
  6
CONTINUOUS
 10
171.2355857963
 20
123.3744635871
 11
171.9301670282
 21
123.7663367044
  0
LWPOLYLINE
  5
2B3
100
AcDbEntity
  8
RACCORDO
100
AcDbPolyline
 62
250
  6
CONTINUOUS
 90
12
 70
0
 10
144.9401977706
 20
106.6476063071
 10
145.273577495
 20
106.8315815603
 10
145.5762239639
 20
107.0509236638
 10
145.8554073559
 20
107.308660546
 10
146.1095663271
 20
107.6033507596
 10
146.337279601
 20
107.9333463262
 10
146.5372739167
 20
108.2968021543
 10
146.7084308534
 20
108.6916860004
 10
146.849793023
 20
109.1157893789
 10
146.9605697084
 20
109.566740199
 10
147.0401413827
 20
110.0420164177
 10
147.0880630857
 20
110.5389602248
  0
LINE
  5
2B4
100
AcDbEntity
  8
0
100
AcDbLine
 62
7
  6
CONTINUOUS
 10
144.7600374409
 20
106.6626998041
 11
144.9558096031
 21
106.764427823
  0
LINE
  5
2B5
100
AcDbEntity
  8
0
100
AcDbLine
 62
7
  6
CONTINUOUS
 10
144.7598700027
 20
106.6626206497
 11
140.1979573826
 21
104.5062045388
  0
LINE
  5
2B6
100
AcDbEntity
  8
DRAFT
100
AcDbLine
 62
7
  6
CONTINUOUS
 10
146.9490748275
 20
107.5972024987
 11
144.9401977706
 21
106.6476063071
  0
LWPOLYLINE
  5
2B7
100
AcDbEntity
  8
RACCORDO
100
AcDbPolyline
 62
250
  6
CONTINUOUS
 90
13
 70
0
 10
138.6273666818
 20
96.5006640092
 10
138.6421454207
 20
96.5031600418
 10
138.6572602991
 20
96.5048109922
 10
138.672711317
 20
96.5056168605
 10
138.6883809477
 20
96.5056485364
 10
138.7043867179
 20
96.5048351302
 10
138.7210812082
 20
96.5029639725
 10
138.7385392331
 20
96.5000893601
 10
138.7566859782
 20
96.4961569961
 10
138.7756495805
 20
96.4907913203
 10
138.7954727526
 20
96.4838671459
 10
138.816112782
 20
96.4755096597
 10
138.8375696687
 20
96.4657188618
  0
LWPOLYLINE
  5
2B8
100
AcDbEntity
  8
RACCORDO
100
AcDbPolyline
 62
250
  6
CONTINUOUS
 90
13
 70
0
 10
183.4869512913
 20
89.5366600943
 10
183.5445753871
 20
89.5113183773
 10
183.608197455
 20
89.489861564
 10
183.6767766829
 20
89.4726406726
 10
183.7491911627
 20
89.4599374249
 10
183.8242562444
 20
89.4519596371
 10
183.9007439161
 20
89.4488378201
 10
183.9774028933
 20
89.4506230447
 10
184.052979089
 20
89.4572861059
 10
184.1262361297
 20
89.4687180007
 10
184.1959755818
 20
89.4847317113
 10
184.2610565569
 20
89.5050652647
 10
184.320414376
 20
89.5293860182
  0
LWPOLYLINE
  5
2B9
100
AcDbEntity
  8
RACCORDO
100
AcDbPolyline
 62
250
  6
CONTINUOUS
 90
13
 70
0
 10
185.5881637123
 20
87.1014682598
 10
185.6450945308
 20
87.0763945667
 10
185.7078990843
 20
87.055113271
 10
185.7755733475
 20
87.0379647461
 10
185.8470353995
 20
87.0252232985
 10
185.9211426769
 20
87.0170927851
 10
185.9967102357
 20
87.01370334
 10
186.0725298017
 20
87.0151092848
 10
186.1473889562
 20
87.0212882645
 10
186.2200904882
 20
87.0321415726
 10
186.2894717448
 20
87.0474957393
 10
186.3544232153
 20
87.0671053299
 10
186.4139061449
 20
87.0906568465
  0
LWPOLYLINE
  5
2BA
100
AcDbEntity
  8
RACCORDO
100
AcDbPolyline
 62
250
  6
CONTINUOUS
 90
13
 70
0
 10
153.768358559
 20
103.0113708365
 10
153.8252893774
 20
102.9862971434
 10
153.8880939309
 20
102.9650158477
 10
153.9557681941
 20
102.9478673228
 10
154.0272302461
 20
102.9351258752
 10
154.1013375235
 20
102.9269953618
 10
154.1769050823
 20
102.9236059167
 10
154.2527246483
 20
102.9250118615
 10
154.3275838028
 20
102.9311908412
 10
154.4002853348
 20
102.9420441493
 10
154.4696665914
 20
102.957398316
 10
154.5346180619
 20
102.9770079066
 10
154.5941009915
 20
103.0005594232
  0
LINE
  5
2BB
100
AcDbEntity
  8
RACCORDO
100
AcDbLine
 62
250
  6
CONTINUOUS
 10
185.3054501626
 20
87.5888132452
 11
184.3349625283
 21
88.0740570624
  0
LINE
  5
2BC
100
AcDbEntity
  8
RACCORDO
100
AcDbLine
 62
250
  6
CONTINUOUS
 10
153.4856450092
 20
103.4987158219
 11
152.5151573749
 21
103.9839596391
  0
LINE
  5
2BD
100
AcDbEntity
  8
RACCORDO
100
AcDbLine
 62
250
  6
CONTINUOUS
 10
185.7149076288
 20
88.3128406851
 11
184.7444199945
 21
88.7980845022
  0
LINE
  5
2BE
100
AcDbEntity
  8
RACCORDO
100
AcDbLine
 62
250
  6
CONTINUOUS
 10
153.8951024754
 20
104.2227432618
 11
152.9246148411
 21
104.7079870789
  0
LWPOLYLINE
  5
2BF
100
AcDbEntity
  8
RACCORDO
100
AcDbPolyline
 62
250
  6
CONTINUOUS
 90
19
 70
0
 10
152.9246167498
 20
104.7079880477
 10
152.8861721499
 20
104.727884664
 10
152.8481495144
 20
104.7517090073
 10
152.810823796
 20
104.7792772783
 10
152.7743667429
 20
104.8104595809
 10
152.7391537804
 20
104.8449501993
 10
152.7057328034
 20
104.8821907687
 10
152.6743650796
 20
104.9218051402
 10
152.6452006228
 20
104.9634665347
 10
152.6185352251
 20
105.00657936
 10
152.5946920581
 20
105.0503670948
 10
152.5735194278
 20
105.0948526765
 10
152.554672603
 20
105.1406913521
 10
152.5383564107
 20
105.1874777183
 10
152.5247343353
 20
105.2350076385
 10
152.5137428098
 20
105.2842731125
 10
152.5057325669
 20
105.3353050685
 10
152.5012194373
 20
105.3871677566
 10
152.5006110075
 20
105.4392895008
  0
LWPOLYLINE
  5
2C0
100
AcDbEntity
  8
RACCORDO
100
AcDbPolyline
 62
250
  6
CONTINUOUS
 90
19
 70
0
 10
152.5151573749
 20
103.9839596391
 10
152.4399526351
 20
104.025773454
 10
152.3663942455
 20
104.0744689394
 10
152.2944822062
 20
104.1300460954
 10
152.2235467767
 20
104.1932623203
 10
152.1542576974
 20
104.2633602159
 10
152.0886241894
 20
104.3380675868
 10
152.0269083072
 20
104.4174952031
 10
151.9688479962
 20
104.5015322948
 10
151.9156663143
 20
104.5875743569
 10
151.8677984181
 20
104.6747708696
 10
151.8248091508
 20
104.7639723527
 10
151.7866161007
 20
104.8551258605
 10
151.7528535524
 20
104.948079332
 10
151.7238872212
 20
105.0429848281
 10
151.7007318407
 20
105.1402455863
 10
151.6837256557
 20
105.2399960191
 10
151.6725304214
 20
105.342101714
 10
151.6671461379
 20
105.446562671
  0
LWPOLYLINE
  5
2C1
100
AcDbEntity
  8
RACCORDO
100
AcDbPolyline
 62
7
  6
CONTINUOUS
 90
6
 70
0
 10
180.4929709817
 20
75.4191089539
 10
180.5575035186
 20
75.3509608463
 10
180.6242777281
 20
75.2894170169
 10
180.6930393777
 20
75.2351503755
 10
180.7643929218
 20
75.1881449539
 10
180.8186275987
 20
75.1584772659
  0
LWPOLYLINE
  5
2C2
100
AcDbEntity
  8
RACCORDO
100
AcDbPolyline
 62
250
  6
CONTINUOUS
 90
13
 70
0
 10
156.5244513926
 20
116.0041970081
 10
156.5202085649
 20
116.0730208448
 10
156.5063391761
 20
116.1419922957
 10
156.4830752993
 20
116.209957279
 10
156.4508062028
 20
116.2757785539
 10
156.4100718375
 20
116.3383547497
 10
156.361553801
 20
116.3966387947
 10
156.3060639334
 20
116.4496554368
 10
156.2445307325
 20
116.4965175619
 10
156.1779838179
 20
116.536441038
 10
156.1075367022
 20
116.5687578357
 10
156.0343681591
 20
116.5929272062
 10
155.9597024993
 20
116.6085447296
  0
LWPOLYLINE
  5
2C3
100
AcDbEntity
  8
RACCORDO
100
AcDbPolyline
 62
7
  6
CONTINUOUS
 90
3
 70
0
 10
155.8246282168
 20
100.9385671534
 10
155.818029047
 20
101.0541472619
 10
155.8081324172
 20
101.1128160688
  0
LWPOLYLINE
  5
2C4
100
AcDbEntity
  8
RACCORDO
100
AcDbPolyline
 62
7
  6
CONTINUOUS
 90
3
 70
0
 10
155.8246282168
 20
122.589202248
 10
155.818029047
 20
122.7047823565
 10
155.8081324172
 20
122.7634511634
  0
LWPOLYLINE
  5
2C5
100
AcDbEntity
  8
RACCORDO
100
AcDbPolyline
 62
250
  6
CONTINUOUS
 90
28
 70
0
 10
154.5941008225
 20
127.2294437909
 10
154.5820116715
 20
127.5656527689
 10
154.5499320464
 20
127.9053997865
 10
154.4989097365
 20
128.2464489017
 10
154.4298934255
 20
128.5873176185
 10
154.3441555595
 20
128.9254154531
 10
154.2435843748
 20
129.2570156559
 10
154.1292227193
 20
129.5814172424
 10
154.0028928622
 20
129.8961826507
 10
153.8684951354
 20
130.1953857698
 10
153.7288044281
 20
130.4764235782
 10
153.5848190612
 20
130.7405988288
 10
153.4381025273
 20
130.9883588189
 10
153.2905354998
 20
131.2189263307
 10
153.1429448978
 20
131.433088035
 10
152.994866391
 20
131.6336552123
 10
152.8474894384
 20
131.8204179788
 10
152.7012695497
 20
131.9939612459
 10
152.5541344798
 20
132.1578476118
 10
152.407360012
 20
132.311330124
 10
152.2605990855
 20
132.4552518549
 10
152.1088808497
 20
132.5945503086
 10
151.9518493322
 20
132.7291120193
 10
151.7903047486
 20
132.8576694493
 10
151.6207466891
 20
132.9821249827
 10
151.4421852382
 20
133.1019323146
 10
151.2562489071
 20
133.2147233011
 10
151.0634124119
 20
133.3189808974
  0
LWPOLYLINE
  5
2C6
100
AcDbEntity
  8
RACCORDO
100
AcDbPolyline
 62
250
  6
CONTINUOUS
 90
28
 70
0
 10
153.768358559
 20
127.2402552905
 10
153.7576043879
 20
127.5399787214
 10
153.7310423869
 20
127.8389958117
 10
153.688672556
 20
128.1373065616
 10
153.6291784703
 20
128.4370538708
 10
153.5538765548
 20
128.7360948396
 10
153.4667160838
 20
129.0280007682
 10
153.3669057977
 20
129.3130110988
 10
153.2552369562
 20
129.5908863891
 10
153.1380326126
 20
129.8544796134
 10
153.0160039985
 20
130.1014762981
 10
152.8884398825
 20
130.3341909167
 10
152.7595296229
 20
130.5524198632
 10
152.6301600455
 20
130.7552243897
 10
152.4994443246
 20
130.9435432442
 10
152.3689113415
 20
131.1199890641
 10
152.2392959034
 20
131.2843352021
 10
152.1098632032
 20
131.4368083056
 10
151.979937701
 20
131.5807009542
 10
151.8505493659
 20
131.7158628913
 10
151.7206682289
 20
131.8424443736
 10
151.5865288423
 20
131.96418875
 10
151.4477421969
 20
132.0823999006
 10
151.304697302
 20
132.1957739453
 10
151.1547957377
 20
132.3041425934
 10
150.9971713641
 20
132.4074497482
 10
150.8326903212
 20
132.5057515065
 10
150.6613526089
 20
132.5990478682
  0
LWPOLYLINE
  5
2C7
100
AcDbEntity
  8
RACCORDO
100
AcDbPolyline
 62
250
  6
CONTINUOUS
 90
13
 70
0
 10
156.2898792679
 20
115.7982336293
 10
156.287992433
 20
115.8687092549
 10
156.278641256
 20
115.9414762249
 10
156.2619854906
 20
116.0152914037
 10
156.2383096802
 20
116.088893748
 10
156.2080182976
 20
116.1610258508
 10
156.1716288343
 20
116.2304554223
 10
156.1297629604
 20
116.2959963422
 10
156.0831359037
 20
116.3565289232
 10
156.0325442312
 20
116.4110190392
 10
155.9788522402
 20
116.4585357924
 10
155.9229771938
 20
116.4982674167
 10
155.8658736494
 20
116.5295351452
  0
LINE
  5
2C8
100
AcDbEntity
  8
RACCORDO
100
AcDbLine
 62
250
  6
CONTINUOUS
 10
154.5941009915
 20
92.72464626
 11
154.5941009915
 21
103.0005594232
  0
LINE
  5
2C9
100
AcDbEntity
  8
RACCORDO
100
AcDbLine
 62
250
  6
CONTINUOUS
 10
154.5941009915
 20
116.953530714
 11
154.5941009915
 21
127.2294438772
  0
LINE
  5
2CA
100
AcDbEntity
  8
DRAFT
100
AcDbLine
 62
7
  6
CONTINUOUS
 10
155.1757934564
 20
116.2872993449
 11
155.1757934564
 21
108.269727544
  0
LINE
  5
2CB
100
AcDbEntity
  8
RACCORDO
100
AcDbLine
 62
7
  6
CONTINUOUS
 10
155.8081324172
 20
93.1971621072
 11
155.8081324172
 21
103.5964561186
  0
LINE
  5
2CC
100
AcDbEntity
  8
RACCORDO
100
AcDbLine
 62
7
  6
CONTINUOUS
 10
155.8081324172
 20
117.4507528243
 11
155.8081324172
 21
127.8500468357
  0
LINE
  5
2CD
100
AcDbEntity
  8
RACCORDO
100
AcDbLine
 62
7
  6
CONTINUOUS
 10
155.8788430953
 20
115.5960581911
 11
155.8788430953
 21
108.6331312671
  0
LINE
  5
2CE
100
AcDbEntity
  8
RACCORDO
100
AcDbLine
 62
250
  6
CONTINUOUS
 10
156.2898792679
 20
108.8717381591
 11
156.2898792679
 21
115.7982336293
  0
LINE
  5
2CF
100
AcDbEntity
  8
RACCORDO
100
AcDbLine
 62
250
  6
CONTINUOUS
 10
156.5244513926
 20
109.0889540953
 11
156.5244513926
 21
116.0041970081
  0
LINE
  5
2D0
100
AcDbEntity
  8
RACCORDO
100
AcDbLine
 62
250
  6
CONTINUOUS
 10
156.8627579327
 20
109.7544768183
 11
156.8627579327
 21
116.6012514813
  0
LINE
  5
2D1
100
AcDbEntity
  8
RACCORDO
100
AcDbLine
 62
7
  6
CONTINUOUS
 10
156.8832024369
 20
109.8321225319
 11
156.8832024369
 21
116.6788971948
  0
LINE
  5
2D2
100
AcDbEntity
  8
RACCORDO
100
AcDbLine
 62
250
  6
CONTINUOUS
 10
156.8832024369
 20
109.8321225319
 11
156.8830745465
 21
109.8259287417
  0
LWPOLYLINE
  5
2D3
100
AcDbEntity
  8
RACCORDO
100
AcDbPolyline
 62
250
  6
CONTINUOUS
 90
8
 70
0
 10
156.2898792679
 20
108.8717381591
 10
156.287992433
 20
108.806754033
 10
156.278641256
 20
108.7463754174
 10
156.2619854906
 20
108.691633808
 10
156.2383096802
 20
108.643464399
 10
156.2080182976
 20
108.6026901065
 10
156.1716288343
 20
108.57000751
 10
156.153017437
 20
108.5578544877
  0
LINE
  5
2D4
100
AcDbEntity
  8
RACCORDO
100
AcDbLine
 62
250
  6
CONTINUOUS
 10
156.8585860102
 20
109.6897174329
 11
156.8627579327
 21
109.7544768183
  0
LWPOLYLINE
  5
2D5
100
AcDbEntity
  8
RACCORDO
100
AcDbPolyline
 62
250
  6
CONTINUOUS
 90
5
 70
0
 10
156.5244513926
 20
109.0889540953
 10
156.5202085649
 20
109.0236909206
 10
156.5063391761
 20
108.9608190042
 10
156.4830752993
 20
108.9013903658
 10
156.4797577672
 20
108.8947123697
  0
LWPOLYLINE
  5
2D6
100
AcDbEntity
  8
RACCORDO
100
AcDbPolyline
 62
250
  6
CONTINUOUS
 90
3
 70
0
 10
156.8830745465
 20
109.8259287417
 10
156.8772291589
 20
109.7898961966
 10
156.8627579327
 20
109.7544768183
  0
LWPOLYLINE
  5
2D7
100
AcDbEntity
  8
RACCORDO
100
AcDbPolyline
 62
7
  6
CONTINUOUS
 90
3
 70
0
 10
155.8081324172
 20
100.7665367495
 10
155.8188751931
 20
100.8318690009
 10
155.8246282168
 20
100.9385671538
  0
LWPOLYLINE
  5
2D8
100
AcDbEntity
  8
RACCORDO
100
AcDbPolyline
 62
250
  6
CONTINUOUS
 90
3
 70
0
 10
156.8218366042
 20
109.5678536415
 10
156.8448922811
 20
109.6271568425
 10
156.8585860102
 20
109.6897174329
  0
LINE
  5
2D9
100
AcDbEntity
  8
RACCORDO
100
AcDbLine
 62
250
  6
CONTINUOUS
 10
156.8180643073
 20
109.5602350928
 11
156.8218366042
 21
109.5678536415
  0
LINE
  5
2DA
100
AcDbEntity
  8
RACCORDO
100
AcDbLine
 62
250
  6
CONTINUOUS
 10
156.8627579327
 20
109.7544768183
 11
156.5244513926
 21
109.0889540953
  0
LINE
  5
2DB
100
AcDbEntity
  8
RACCORDO
100
AcDbLine
 62
7
  6
CONTINUOUS
 10
156.8180643073
 20
109.5602350928
 11
156.4797577672
 21
108.8947123697
  0
LWPOLYLINE
  5
2DC
100
AcDbEntity
  8
RACCORDO
100
AcDbPolyline
 62
250
  6
CONTINUOUS
 90
7
 70
0
 10
156.5244513926
 20
109.0889540953
 10
156.5093572339
 20
109.0629422467
 10
156.491485401
 20
109.0372234976
 10
156.4708454567
 20
109.0118767499
 10
156.4474737396
 20
108.986997693
 10
156.4213843045
 20
108.9626494591
 10
156.3925508473
 20
108.9388673824
  0
LWPOLYLINE
  5
2DD
100
AcDbEntity
  8
RACCORDO
100
AcDbPolyline
 62
250
  6
CONTINUOUS
 90
3
 70
0
 10
156.3925508473
 20
108.9388673824
 10
156.3609820349
 20
108.9157227556
 10
156.3267401428
 20
108.89331748
  0
LWPOLYLINE
  5
2DE
100
AcDbEntity
  8
RACCORDO
100
AcDbPolyline
 62
7
  6
CONTINUOUS
 90
7
 70
0
 10
156.153017437
 20
108.5578544877
 10
156.199772724
 20
108.5868748253
 10
156.2799796015
 20
108.646527474
 10
156.3511749409
 20
108.713316014
 10
156.412769634
 20
108.7866287249
 10
156.4636738163
 20
108.864782559
 10
156.4793650071
 20
108.8939417658
  0
LINE
  5
2DF
100
AcDbEntity
  8
RACCORDO
100
AcDbLine
 62
250
  6
CONTINUOUS
 10
156.3267401428
 20
108.89331748
 11
155.8788430953
 21
108.6331312671
  0
LINE
  5
2E0
100
AcDbEntity
  8
RACCORDO
100
AcDbLine
 62
7
  6
CONTINUOUS
 10
156.153017437
 20
108.5578544877
 11
155.6856316113
 21
108.2865347769
  0
LINE
  5
2E1
100
AcDbEntity
  8
RACCORDO
100
AcDbLine
 62
7
  6
CONTINUOUS
 10
155.1757934564
 20
108.269727544
 11
153.9693160976
 21
107.6573396109
  0
LINE
  5
2E2
100
AcDbEntity
  8
RACCORDO
100
AcDbLine
 62
7
  6
CONTINUOUS
 10
144.6261867808
 20
106.5192421998
 11
144.9391920498
 21
106.6471311282
  0
LWPOLYLINE
  5
2E3
100
AcDbEntity
  8
RACCORDO
100
AcDbPolyline
 62
250
  6
CONTINUOUS
 90
3
 70
0
 10
181.3414123137
 20
118.3343819653
 10
181.2941581871
 20
118.3206567822
 10
181.2437428058
 20
118.3074918352
  0
LWPOLYLINE
  5
2E4
100
AcDbEntity
  8
RACCORDO
100
AcDbPolyline
 62
7
  6
CONTINUOUS
 90
7
 70
0
 10
184.4369112912
 20
101.0304936552
 10
184.436426699
 20
101.0305172465
 10
184.4381232751
 20
101.0302335646
 10
184.4468932596
 20
101.0281881345
 10
184.4618052144
 20
101.0233079569
 10
184.4816033918
 20
101.01500529
 10
184.4907959236
 20
101.0105789426
  0
LWPOLYLINE
  5
2E5
100
AcDbEntity
  8
0
100
AcDbPolyline
 62
7
  6
CONTINUOUS
 90
15
 70
0
 10
167.3606232909
 20
101.4763985538
 10
166.9045583429
 20
101.6241571104
 10
166.4607528532
 20
101.7143998528
 10
166.0254210293
 20
101.7469182177
 10
165.6023486637
 20
101.7219207685
 10
165.2028931341
 20
101.640033195
 10
164.8276957285
 20
101.4997084252
 10
164.4761151588
 20
101.3024935311
 10
164.1575849379
 20
101.0536554186
 10
163.8730022763
 20
100.7517950142
 10
163.6214699635
 20
100.3983113913
 10
163.4097298803
 20
100.0026686764
 10
163.2388592105
 20
99.5637279465
 10
163.1077807702
 20
99.0826281245
 10
163.0200048885
 20
98.5722501066
  0
LINE
  5
2E6
100
AcDbEntity
  8
0
100
AcDbLine
 62
7
  6
CONTINUOUS
 10
167.8289476973
 20
101.271124183
 11
167.3606232909
 21
101.4763985538
  0
LWPOLYLINE
  5
2E7
100
AcDbEntity
  8
RACCORDO
100
AcDbPolyline
 62
250
  6
CONTINUOUS
 90
13
 70
0
 10
151.6671461379
 20
105.446562671
 10
151.7247702337
 20
105.421220954
 10
151.7883923016
 20
105.3997641407
 10
151.8569715295
 20
105.3825432493
 10
151.9293860093
 20
105.3698400016
 10
152.004451091
 20
105.3618622138
 10
152.0809387627
 20
105.3587403968
 10
152.1575977399
 20
105.3605256214
 10
152.2331739356
 20
105.3671886826
 10
152.3064309763
 20
105.3786205774
 10
152.3761704284
 20
105.394634288
 10
152.4412514035
 20
105.4149678414
 10
152.5006092226
 20
105.4392885949
  0
LINE
  5
2E8
100
AcDbEntity
  8
RACCORDO
100
AcDbLine
 62
7
  6
CONTINUOUS
 10
186.9211536961
 20
88.9049160055
 11
185.9306228455
 21
89.4001814308
  0
LINE
  5
2E9
100
AcDbEntity
  8
RACCORDO
100
AcDbLine
 62
7
  6
CONTINUOUS
 10
155.1013485427
 20
104.8148185822
 11
154.1108176921
 21
105.3100840075
  0
LWPOLYLINE
  5
2EA
100
AcDbEntity
  8
RACCORDO
100
AcDbPolyline
 62
250
  6
CONTINUOUS
 90
19
 70
0
 10
184.7444219032
 20
88.798085471
 10
184.7059773033
 20
88.8179820873
 10
184.6679546678
 20
88.8418064306
 10
184.6306289494
 20
88.8693747016
 10
184.5941718963
 20
88.9005570042
 10
184.5589589338
 20
88.9350476226
 10
184.5255379568
 20
88.9722881921
 10
184.494170233
 20
89.0119025635
 10
184.4650057762
 20
89.053563958
 10
184.4383403785
 20
89.0966767833
 10
184.4144972115
 20
89.1404645181
 10
184.3933245812
 20
89.1849500998
 10
184.3744777564
 20
89.2307887754
 10
184.3581615641
 20
89.2775751416
 10
184.3445394887
 20
89.3251050618
 10
184.3335479632
 20
89.3743705358
 10
184.3255377203
 20
89.4254024918
 10
184.3210245907
 20
89.4772651799
 10
184.3204161609
 20
89.5293869241
  0
LWPOLYLINE
  5
2EB
100
AcDbEntity
  8
RACCORDO
100
AcDbPolyline
 62
250
  6
CONTINUOUS
 90
19
 70
0
 10
184.3349625283
 20
88.0740570624
 10
184.2597577885
 20
88.1158708773
 10
184.1861993989
 20
88.1645663627
 10
184.1142873596
 20
88.2201435187
 10
184.0433519301
 20
88.2833597436
 10
183.9740628508
 20
88.3534576392
 10
183.9084293428
 20
88.4281650101
 10
183.8467134606
 20
88.5075926264
 10
183.7886531496
 20
88.5916297181
 10
183.7354714677
 20
88.6776717802
 10
183.6876035715
 20
88.7648682929
 10
183.6446143042
 20
88.854069776
 10
183.6064212541
 20
88.9452232838
 10
183.5726587058
 20
89.0381767553
 10
183.5436923746
 20
89.1330822514
 10
183.5205369941
 20
89.2303430096
 10
183.5035308091
 20
89.3300934424
 10
183.4923355748
 20
89.4321991373
 10
183.4869512913
 20
89.5366600943
  0
LWPOLYLINE
  5
2EC
100
AcDbEntity
  8
RACCORDO
100
AcDbPolyline
 62
250
  6
CONTINUOUS
 90
11
 70
0
 10
135.0682447848
 20
125.9049134217
 10
135.1375338641
 20
125.8348155262
 10
135.2031673721
 20
125.7601081553
 10
135.2648832543
 20
125.680680539
 10
135.3229435653
 20
125.5966434473
 10
135.3761252472
 20
125.5106013852
 10
135.4239931434
 20
125.4234048724
 10
135.4669824107
 20
125.3342033893
 10
135.5051754608
 20
125.2430498815
 10
135.5389380091
 20
125.1500964101
 10
135.5679043403
 20
125.0551909139
  0
LINE
  5
2ED
100
AcDbEntity
  8
RACCORDO
100
AcDbLine
 62
250
  6
CONTINUOUS
 10
180.4660284074
 20
75.5931919855
 11
180.4842300331
 21
75.5722323336
  0
LINE
  5
2EE
100
AcDbEntity
  8
RACCORDO
100
AcDbLine
 62
7
  6
CONTINUOUS
 10
180.4607236063
 20
75.4564605323
 11
180.4929709817
 21
75.4191089539
  0
LWPOLYLINE
  5
2EF
100
AcDbEntity
  8
RACCORDO
100
AcDbPolyline
 62
250
  6
CONTINUOUS
 90
13
 70
0
 10
148.6644250717
 20
133.5975117658
 10
148.6465460633
 20
133.6555165839
 10
148.6356437089
 20
133.7154566403
 10
148.6319709433
 20
133.7759413409
 10
148.6356129833
 20
133.8355674582
 10
148.6464853303
 20
133.8929516797
 10
148.6643357358
 20
133.9467627019
 10
148.6887500808
 20
133.9957521235
 10
148.7191619657
 20
134.0387834069
 10
148.7548658371
 20
134.0748582396
 10
148.7950333672
 20
134.1031396935
 10
148.838732686
 20
134.1229716478
 10
148.8712752735
 20
134.1316482037
  0
LINE
  5
2F0
100
AcDbEntity
  8
RACCORDO
100
AcDbLine
 62
250
  6
CONTINUOUS
 10
156.8585866897
 20
116.6695284181
 11
156.8627579327
 21
116.6012514813
  0
LWPOLYLINE
  5
2F1
100
AcDbEntity
  8
RACCORDO
100
AcDbPolyline
 62
250
  6
CONTINUOUS
 90
5
 70
0
 10
148.6644248798
 20
91.4821349099
 10
148.6465357701
 20
91.4485821179
 10
148.6356247121
 20
91.4190879055
 10
148.6319447079
 20
91.3943365839
 10
148.635580796
 20
91.3749026544
  0
LINE
  5
2F2
100
AcDbEntity
  8
RACCORDO
100
AcDbLine
 62
250
  6
CONTINUOUS
 10
152.5006092226
 20
105.4392885949
 11
153.6868120736
 21
106.0413855234
  0
LINE
  5
2F3
100
AcDbEntity
  8
RACCORDO
100
AcDbLine
 62
250
  6
CONTINUOUS
 10
152.9246148411
 20
104.7079870789
 11
154.1108176921
 21
105.3100840075
  0
LINE
  5
2F4
100
AcDbEntity
  8
RACCORDO
100
AcDbLine
 62
250
  6
CONTINUOUS
 10
155.1013485427
 20
104.8148185822
 11
153.8951024754
 21
104.2227432618
  0
LINE
  5
2F5
100
AcDbEntity
  8
RACCORDO
100
AcDbLine
 62
250
  6
CONTINUOUS
 10
181.1351336342
 20
118.2831202862
 11
181.069748564
 21
118.2537096286
  0
LINE
  5
2F6
100
AcDbEntity
  8
RACCORDO
100
AcDbLine
 62
250
  6
CONTINUOUS
 10
188.1178141928
 20
101.295696626
 11
188.1926574999
 21
101.2800312664
  0
LINE
  5
2F7
100
AcDbEntity
  8
RACCORDO
100
AcDbLine
 62
7
  6
CONTINUOUS
 10
155.3077704546
 20
108.2404628223
 11
155.1757934564
 21
108.269727544
  0
LINE
  5
2F8
100
AcDbEntity
  8
RACCORDO
100
AcDbLine
 62
7
  6
CONTINUOUS
 10
187.127575608
 20
100.3451196049
 11
186.9955986098
 21
100.3773967682
  0
LINE
  5
2F9
100
AcDbEntity
  8
0
100
AcDbLine
 62
7
  6
CONTINUOUS
 10
136.0091425439
 20
117.1810267597
 11
135.5408181375
 21
117.3863011305
  0
LWPOLYLINE
  5
2FA
100
AcDbEntity
  8
0
100
AcDbPolyline
 62
7
  6
CONTINUOUS
 90
9
 70
0
 10
168.5486163414
 20
102.512368986
 10
168.0186740868
 20
102.7464392065
 10
167.4934660641
 20
102.9166059321
 10
166.9777470137
 20
103.0213072008
 10
166.4761797394
 20
103.0595728462
 10
165.9933197843
 20
103.0310311222
 10
165.5335704273
 20
102.9359244032
 10
165.1011016314
 20
102.7751026778
 10
164.9626312295
 20
102.7065645751
  0
LWPOLYLINE
  5
2FB
100
AcDbEntity
  8
RACCORDO
100
AcDbPolyline
 62
250
  6
CONTINUOUS
 90
9
 70
0
 10
170.4471716435
 20
80.5907613996
 10
170.4716125334
 20
80.5360375221
 10
170.5020482988
 20
80.4858641711
 10
170.5377728336
 20
80.441405355
 10
170.577957327
 20
80.4036925043
 10
170.6216695116
 20
80.3736005485
 10
170.6678952848
 20
80.3518276157
 10
170.7155622099
 20
80.3388788292
 10
170.7635644202
 20
80.3350545935
  0
LWPOLYLINE
  5
2FC
100
AcDbEntity
  8
0
100
AcDbPolyline
 62
7
  6
CONTINUOUS
 90
16
 70
0
 10
162.9712885298
 20
97.7496382597
 10
162.9767010225
 20
97.4620775851
 10
163.0200029234
 20
96.8783277731
 10
163.1077774995
 20
96.2801743309
 10
163.2388546302
 20
95.6679964356
 10
163.4097239492
 20
95.058185361
 10
163.6214624897
 20
94.4508030695
 10
163.8729932185
 20
93.8457875987
 10
164.1575746701
 20
93.2593443358
 10
164.4761040794
 20
92.6919748768
 10
164.8276842115
 20
92.1431776255
 10
165.2028818963
 20
91.6276531814
 10
165.6023387649
 20
91.1463070588
 10
166.0254131862
 20
90.6982337432
 10
166.4607470964
 20
90.2954172908
 10
166.857325628
 20
89.9768898728
  0
LINE
  5
2FD
100
AcDbEntity
  8
0
100
AcDbLine
 62
7
  6
CONTINUOUS
 10
162.9705354304
 20
97.7500148094
 11
162.9705354304
 21
98.4696834535
  0
LWPOLYLINE
  5
2FE
100
AcDbEntity
  8
RACCORDO
100
AcDbPolyline
 62
250
  6
CONTINUOUS
 90
16
 70
0
 10
170.6003748794
 20
123.5504996636
 10
170.6117833333
 20
123.5698778195
 10
170.6245454661
 20
123.5893219934
 10
170.6386612777
 20
123.6088321854
 10
170.654015475
 20
123.6283401408
 10
170.6707233511
 20
123.6479141142
 10
170.6891307853
 20
123.6677588691
 10
170.7092971125
 20
123.6879823021
 10
170.7311629977
 20
123.7084765165
 10
170.7548963147
 20
123.7291225862
 10
170.7805125694
 20
123.7499375792
 10
170.807996256
 20
123.7709044275
 10
170.8374687307
 20
123.7918530007
 10
170.8689704457
 20
123.8127265888
 10
170.9024609487
 20
123.8335819019
 10
170.93794024
 20
123.8544189399
  0
LWPOLYLINE
  5
2FF
100
AcDbEntity
  8
RACCORDO
100
AcDbPolyline
 62
250
  6
CONTINUOUS
 90
16
 70
0
 10
170.4471718351
 20
122.7061382554
 10
170.4716230728
 20
122.7429721115
 10
170.5020681796
 20
122.7822333483
 10
170.5378008212
 20
122.8230109885
 10
170.5779921911
 20
122.864358647
 10
170.6217097316
 20
122.9053171532
 10
170.6679388595
 20
122.9449367049
 10
170.7156074646
 20
122.982297637
 10
170.7636096703
 20
123.0165331949
 10
170.8108312693
 20
123.0468499509
 10
170.8561773354
 20
123.0725438872
 10
170.8985960865
 20
123.0930187059
 10
170.9371027561
 20
123.1078003482
 10
170.9708041832
 20
123.1165457152
 10
170.998919148
 20
123.1190511365
 10
171.0207954366
 20
123.1152584507
  0
LINE
  5
300
100
AcDbEntity
  8
RACCORDO
100
AcDbLine
 62
7
  6
CONTINUOUS
 10
182.2099773753
 20
118.8884333605
 11
181.5042155909
 21
118.4902523303
  0
LINE
  5
301
100
AcDbEntity
  8
RACCORDO
100
AcDbLine
 62
250
  6
CONTINUOUS
 10
182.3953473898
 20
118.8806320797
 11
181.685963314
 21
118.4804074029
  0
LWPOLYLINE
  5
302
100
AcDbEntity
  8
RACCORDO
100
AcDbPolyline
 62
250
  6
CONTINUOUS
 90
4
 70
0
 10
181.069748564
 20
118.2537096286
 10
181.007318434
 20
118.2190040307
 10
180.9483826791
 20
118.1806246855
 10
180.8931439114
 20
118.1401816681
  0
LWPOLYLINE
  5
303
100
AcDbEntity
  8
RACCORDO
100
AcDbPolyline
 62
7
  6
CONTINUOUS
 90
7
 70
0
 10
181.5037892201
 20
118.4900107719
 10
181.4794573659
 20
118.4767081104
 10
181.4134717577
 20
118.4442746467
 10
181.3384691859
 20
118.4128117189
 10
181.256530831
 20
118.3839387848
 10
181.1738947479
 20
118.3599489291
 10
181.0938849899
 20
118.3412703689
  0
LWPOLYLINE
  5
304
100
AcDbEntity
  8
RACCORDO
100
AcDbPolyline
 62
250
  6
CONTINUOUS
 90
9
 70
0
 10
181.685963314
 20
118.4804074029
 10
181.6431921142
 20
118.4574145871
 10
181.6004567357
 20
118.4358620942
 10
181.5577571785
 20
118.4157499243
 10
181.5153954386
 20
118.3972509257
 10
181.4730695199
 20
118.3801922501
 10
181.4298734343
 20
118.3640553524
 10
181.3860779575
 20
118.3487577699
 10
181.3414123137
 20
118.3343819653
  0
LINE
  5
305
100
AcDbEntity
  8
RACCORDO
100
AcDbLine
 62
250
  6
CONTINUOUS
 10
182.8832175653
 20
117.4090783207
 11
184.097248991
 21
118.0296812791
  0
LINE
  5
306
100
AcDbEntity
  8
RACCORDO
100
AcDbLine
 62
250
  6
CONTINUOUS
 10
155.8081324172
 20
103.5964561186
 11
154.5941009915
 21
103.0005594232
  0
LWPOLYLINE
  5
307
100
AcDbEntity
  8
RACCORDO
100
AcDbPolyline
 62
7
  6
CONTINUOUS
 90
3
 70
0
 10
144.2252075783
 20
106.4098857199
 10
144.2608023437
 20
106.4156790955
 10
144.6261867808
 20
106.5192421998
  0
LWPOLYLINE
  5
308
100
AcDbEntity
  8
0
100
AcDbPolyline
 62
7
  6
CONTINUOUS
 90
15
 70
0
 10
135.5408181375
 20
117.3863011305
 10
135.0847531895
 20
117.5340596871
 10
134.6409476998
 20
117.6243024295
 10
134.2056158759
 20
117.6568207944
 10
133.7825435103
 20
117.6318233452
 10
133.3830879807
 20
117.5499357717
 10
133.0078905751
 20
117.4096110019
 10
132.6563100054
 20
117.2123961078
 10
132.3377797845
 20
116.9635579953
 10
132.053197123
 20
116.6616975909
 10
131.8016648102
 20
116.308213968
 10
131.5899247269
 20
115.9125712531
 10
131.4190540571
 20
115.4736305231
 10
131.2879756168
 20
114.9925307012
 10
131.2001997351
 20
114.4821526833
  0
LWPOLYLINE
  5
309
100
AcDbEntity
  8
RACCORDO
100
AcDbPolyline
 62
250
  6
CONTINUOUS
 90
5
 70
0
 10
188.1926574999
 20
101.2800312664
 10
188.2659790087
 20
101.2557795999
 10
188.3365477425
 20
101.2233542523
 10
188.4031749402
 20
101.1833082769
 10
188.4647505262
 20
101.1363161144
  0
LWPOLYLINE
  5
30A
100
AcDbEntity
  8
RACCORDO
100
AcDbPolyline
 62
250
  6
CONTINUOUS
 90
13
 70
0
 10
183.4869512913
 20
100.7204601372
 10
183.5445777931
 20
100.6951174952
 10
183.6082021688
 20
100.6736602339
 10
183.6767833709
 20
100.6564393036
 10
183.7491992685
 20
100.6437363385
 10
183.8242651038
 20
100.6357590372
 10
183.9007528868
 20
100.6326377897
 10
183.9774112897
 20
100.6344235586
 10
184.0529862858
 20
100.6410870291
 10
184.1262417532
 20
100.6525191279
 10
184.1959794172
 20
100.6685327921
 10
184.2610584657
 20
100.6888659947
 10
184.320414376
 20
100.7131860611
  0
LWPOLYLINE
  5
30B
100
AcDbEntity
  8
0
100
AcDbPolyline
 62
7
  6
CONTINUOUS
 90
9
 70
0
 10
136.728811188
 20
118.4222715627
 10
136.1988689334
 20
118.6563417832
 10
135.6736609107
 20
118.8265085087
 10
135.1579418603
 20
118.9312097775
 10
134.656374586
 20
118.9694754229
 10
134.1735146309
 20
118.9409336989
 10
133.7137652739
 20
118.8458269799
 10
133.281296478
 20
118.6850052545
 10
133.1428260761
 20
118.6164671518
  0
LWPOLYLINE
  5
30C
100
AcDbEntity
  8
RACCORDO
100
AcDbPolyline
 62
250
  6
CONTINUOUS
 90
11
 70
0
 10
173.2005022051
 20
105.016256198
 10
172.7727833328
 20
105.2105152379
 10
172.347455604
 20
105.3644853344
 10
171.9269026936
 20
105.4773040393
 10
171.5134796391
 20
105.5483412164
 10
171.1094948755
 20
105.5772018755
 10
170.7172026965
 20
105.5637254372
 10
170.3387952031
 20
105.5079866144
 10
169.9763906275
 20
105.4102968051
 10
169.6320166836
 20
105.2712024793
 10
169.5210968769
 20
105.2155158246
  0
LWPOLYLINE
  5
30D
100
AcDbEntity
  8
0
100
AcDbPolyline
 62
7
  6
CONTINUOUS
 90
13
 70
0
 10
173.0615378781
 20
104.8653069966
 10
172.7483243389
 20
105.0111074111
 10
172.4379859275
 20
105.1347843264
 10
172.1305226439
 20
105.2363377425
 10
171.8250737541
 20
105.3159371058
 10
171.5224999921
 20
105.3734129699
 10
171.2253835599
 20
105.4082569955
 10
170.9336396228
 20
105.4202596084
 10
170.6473530156
 20
105.4096303829
 10
170.3693604437
 20
105.376489702
 10
170.0999165889
 20
105.3206757241
 10
169.8387667695
 20
105.2423502907
 10
169.587983646
 20
105.1421193094
  0
LWPOLYLINE
  5
30E
100
AcDbEntity
  8
RACCORDO
100
AcDbPolyline
 62
250
  6
CONTINUOUS
 90
8
 70
0
 10
135.6246454236
 20
124.6516130711
 10
135.5739619897
 20
124.6804251189
 10
135.531048363
 20
124.7122361529
 10
135.4966065803
 20
124.7465257669
 10
135.4712000849
 20
124.7827330067
 10
135.4552445092
 20
124.8202655476
 10
135.4490008752
 20
124.8585093835
 10
135.4489094923
 20
124.8637451054
  0
LWPOLYLINE
  5
30F
100
AcDbEntity
  8
0
100
AcDbPolyline
 62
7
  6
CONTINUOUS
 90
3
 70
0
 10
141.865309797
 20
120.421117167
 10
141.5549621226
 20
120.6077851876
 10
141.2417327247
 20
120.7752095733
  0
LWPOLYLINE
  5
310
100
AcDbEntity
  8
0
100
AcDbPolyline
 62
7
  6
CONTINUOUS
 90
5
 70
0
 10
169.6324822085
 20
99.9433836086
 10
169.1971482982
 20
100.346200061
 10
168.7533409202
 20
100.6997649648
 10
168.2972740533
 20
101.0080730055
 10
167.8289476973
 20
101.271124183
  0
LINE
  5
311
100
AcDbEntity
  8
RACCORDO
100
AcDbLine
 62
250
  6
CONTINUOUS
 10
180.4553859494
 20
75.4650000777
 11
180.4604597878
 21
75.4567714271
  0
LWPOLYLINE
  5
312
100
AcDbEntity
  8
RACCORDO
100
AcDbPolyline
 62
250
  6
CONTINUOUS
 90
12
 70
0
 10
180.5477475304
 20
75.4363814919
 10
180.5651993785
 20
75.4064722046
 10
180.5831515952
 20
75.378215713
 10
180.6015178714
 20
75.3516235617
 10
180.620222619
 20
75.3266865646
 10
180.6392314227
 20
75.3033653497
 10
180.658457784
 20
75.2816539715
 10
180.6778357026
 20
75.261519847
 10
180.6973698099
 20
75.2428813241
 10
180.7169796833
 20
75.225723665
 10
180.7366131637
 20
75.2100020681
 10
180.7563332141
 20
75.1956015517
  0
LWPOLYLINE
  5
313
100
AcDbEntity
  8
RACCORDO
100
AcDbPolyline
 62
250
  6
CONTINUOUS
 90
4
 70
0
 10
156.7897115228
 20
116.8717774626
 10
156.8218405774
 20
116.8059033347
 10
156.8448947718
 20
116.7381251101
 10
156.8585866897
 20
116.6695284181
  0
LWPOLYLINE
  5
314
100
AcDbEntity
  8
RACCORDO
100
AcDbPolyline
 62
250
  6
CONTINUOUS
 90
8
 70
0
 10
165.6259517057
 20
110.6895573434
 10
165.6294220367
 20
110.6249679631
 10
165.6397762573
 20
110.5649055506
 10
165.6568449798
 20
110.5103526847
 10
165.680348972
 20
110.4622018119
 10
165.7099037251
 20
110.4212406468
 10
165.7450257439
 20
110.3881392851
 10
165.781632042
 20
110.3651610537
  0
LWPOLYLINE
  5
315
100
AcDbEntity
  8
RACCORDO
100
AcDbPolyline
 62
250
  6
CONTINUOUS
 90
34
 70
0
 10
165.3432381559
 20
111.1769023288
 10
165.344333616
 20
111.150044665
 10
165.3465844259
 20
111.1238456503
 10
165.3499905856
 20
111.0983052848
 10
165.3546940596
 20
111.0733516392
 10
165.3605528835
 20
111.0490566428
 10
165.3671411634
 20
111.0256360828
 10
165.3744237993
 20
111.0031367348
 10
165.3824358913
 20
110.9815118232
 10
165.3908568461
 20
110.9608368083
 10
165.3996610208
 20
110.9411363526
 10
165.4088740583
 20
110.9223857936
 10
165.4182522937
 20
110.9045866043
 10
165.4277614845
 20
110.8877730742
 10
165.4374358732
 20
110.8719109137
 10
165.4471345224
 20
110.8568987273
 10
165.4568246074
 20
110.8427545744
 10
165.4665389529
 20
110.8294603956
 10
165.476235096
 20
110.8168606179
 10
165.4858942706
 20
110.8049506652
 10
165.4955352428
 20
110.7937351135
 10
165.5051718481
 20
110.7830721173
 10
165.5147918676
 20
110.7729515936
 10
165.5244075201
 20
110.7633836255
 10
165.5340692977
 20
110.7542566169
 10
165.5437698481
 20
110.7455568244
 10
165.5535165235
 20
110.7372979915
 10
165.5633818727
 20
110.7294097522
 10
165.5733626528
 20
110.7218747516
 10
165.5834621066
 20
110.7147103445
 10
165.5937625111
 20
110.7078982303
 10
165.604291292
 20
110.7014323085
 10
165.6150210235
 20
110.6953186796
 10
165.6259517057
 20
110.6895573434
  0
LWPOLYLINE
  5
316
100
AcDbEntity
  8
RACCORDO
100
AcDbPolyline
 62
250
  6
CONTINUOUS
 90
28
 70
0
 10
165.3432381559
 20
86.9480178748
 10
165.353992327
 20
86.648294444
 10
165.380554328
 20
86.3492773536
 10
165.4229241589
 20
86.0509666038
 10
165.4824182446
 20
85.7512192945
 10
165.5577201601
 20
85.4521783257
 10
165.6448806311
 20
85.1602723971
 10
165.7446909172
 20
84.8752620666
 10
165.8563597587
 20
84.5973867762
 10
165.9735641023
 20
84.333793552
 10
166.0955927164
 20
84.0867968672
 10
166.2231568324
 20
83.8540822486
 10
166.352067092
 20
83.6358533021
 10
166.4814366694
 20
83.4330487756
 10
166.6121523903
 20
83.2447299212
 10
166.7426853734
 20
83.0682841013
 10
166.8723008114
 20
82.9039379633
 10
167.0017335117
 20
82.7514648598
 10
167.1316590139
 20
82.6075722112
 10
167.261047349
 20
82.472410274
 10
167.390928486
 20
82.3458287918
 10
167.5250678726
 20
82.2240844153
 10
167.663854518
 20
82.1058732648
 10
167.8068994129
 20
81.9924992201
 10
167.9568009772
 20
81.8841305719
 10
168.1144253508
 20
81.7808234171
 10
168.2789063937
 20
81.6825216589
 10
168.450244106
 20
81.5892252971
  0
LWPOLYLINE
  5
317
100
AcDbEntity
  8
RACCORDO
100
AcDbPolyline
 62
7
  6
CONTINUOUS
 90
22
 70
0
 10
165.1675022868
 20
87.1602864473
 10
165.1708881258
 20
86.9703946369
 10
165.1931435872
 20
86.6302520506
 10
165.2358467909
 20
86.2849239706
 10
165.2986465663
 20
85.936390798
 10
165.381069841
 20
85.5863910915
 10
165.4825755869
 20
85.2365672792
 10
165.6026630166
 20
84.8885531308
 10
165.7406183064
 20
84.5442326317
 10
165.8955851419
 20
84.2057151582
 10
166.0667602403
 20
83.8748020703
 10
166.2532297909
 20
83.5532186653
 10
166.4539104793
 20
83.2429295473
 10
166.6677789988
 20
82.9455434453
 10
166.8937851716
 20
82.6626690172
 10
167.1306705734
 20
82.3959973723
 10
167.3772796039
 20
82.1469949531
 10
167.6325097223
 20
81.9169555306
 10
167.8953120711
 20
81.7071142077
 10
168.1647044766
 20
81.5186304403
 10
168.4394524277
 20
81.3527695622
 10
168.606354893
 20
81.264613674
  0
LWPOLYLINE
  5
318
100
AcDbEntity
  8
RACCORDO
100
AcDbPolyline
 62
7
  6
CONTINUOUS
 90
14
 70
0
 10
165.1675023933
 20
111.3892592285
 10
165.1679161544
 20
111.3599137148
 10
165.1758833109
 20
111.256587491
 10
165.1944048337
 20
111.1502979973
 10
165.2237864287
 20
111.0427398107
 10
165.2630032753
 20
110.9380910196
 10
165.3120129295
 20
110.836346209
 10
165.3709155121
 20
110.7380930332
 10
165.4371562062
 20
110.6477081172
 10
165.5101336372
 20
110.5655486153
 10
165.590055193
 20
110.4915136941
 10
165.674111364
 20
110.4281392155
 10
165.7607394166
 20
110.3759489605
 10
165.7816320423
 20
110.3651610536
  0
LINE
  5
319
100
AcDbEntity
  8
RACCORDO
100
AcDbLine
 62
7
  6
CONTINUOUS
 10
165.1675022247
 20
121.6649475264
 11
165.1675022247
 21
111.3890342691
  0
LINE
  5
31A
100
AcDbEntity
  8
RACCORDO
100
AcDbLine
 62
7
  6
CONTINUOUS
 10
165.1675022247
 20
91.6762651167
 11
165.1675022247
 21
87.1601498765
  0
LINE
  5
31B
100
AcDbEntity
  8
RACCORDO
100
AcDbLine
 62
250
  6
CONTINUOUS
 10
165.3432381559
 20
121.452815492
 11
165.3432381559
 21
111.1769023288
  0
LINE
  5
31C
100
AcDbEntity
  8
RACCORDO
100
AcDbLine
 62
250
  6
CONTINUOUS
 10
165.3432381559
 20
91.4585236791
 11
165.3432381559
 21
86.9480178748
  0
LINE
  5
31D
100
AcDbEntity
  8
RACCORDO
100
AcDbLine
 62
7
  6
CONTINUOUS
 10
165.1675022247
 20
111.3890342691
 11
165.1675023933
 21
111.3892592288
  0
LWPOLYLINE
  5
31E
100
AcDbEntity
  8
0
100
AcDbPolyline
 62
7
  6
CONTINUOUS
 90
3
 70
0
 10
163.0200048885
 20
98.5722501066
 10
162.9767016762
 20
98.0318029438
 10
162.9712885298
 20
97.7496382597
  0
LWPOLYLINE
  5
31F
100
AcDbEntity
  8
RACCORDO
100
AcDbPolyline
 62
250
  6
CONTINUOUS
 90
14
 70
0
 10
180.841834802
 20
118.0988632273
 10
180.7947794325
 20
118.057384937
 10
180.751952832
 20
118.0167920173
 10
180.7130023073
 20
117.9777458508
 10
180.6777344539
 20
117.9400632201
 10
180.6459433487
 20
117.904126812
 10
180.6172960961
 20
117.8703600262
 10
180.5915266228
 20
117.8384328083
 10
180.5684151952
 20
117.8084947411
 10
180.5476801857
 20
117.7807231611
 10
180.5290853501
 20
117.7547466255
 10
180.5124441939
 20
117.7304756331
 10
180.4975572686
 20
117.7080950305
 10
180.4842300331
 20
117.6876091562
  0
LINE
  5
320
100
AcDbEntity
  8
RACCORDO
100
AcDbLine
 62
250
  6
CONTINUOUS
 10
180.8931439114
 20
118.1401816681
 11
180.841834802
 21
118.0988632273
  0
LWPOLYLINE
  5
321
100
AcDbEntity
  8
RACCORDO
100
AcDbPolyline
 62
250
  6
CONTINUOUS
 90
3
 70
0
 10
181.2437428058
 20
118.3074918352
 10
181.1907389417
 20
118.2949775098
 10
181.1351465948
 20
118.2831138059
  0
LWPOLYLINE
  5
322
100
AcDbEntity
  8
RACCORDO
100
AcDbPolyline
 62
250
  6
CONTINUOUS
 90
8
 70
0
 10
188.1178141928
 20
101.295696626
 10
188.047723891
 20
101.3240920143
 10
187.9760508346
 20
101.348368369
 10
187.9027950234
 20
101.3685256902
 10
187.8268180874
 20
101.3843795142
 10
187.7492583967
 20
101.3961143047
 10
187.6735310615
 20
101.4042834526
 10
187.617757057
 20
101.4077979234
  0
LWPOLYLINE
  5
323
100
AcDbEntity
  8
RACCORDO
100
AcDbPolyline
 62
7
  6
CONTINUOUS
 90
6
 70
0
 10
188.3576316364
 20
101.3122806567
 10
188.2165952196
 20
101.3697922018
 10
188.072038121
 20
101.4142236191
 10
187.9216527094
 20
101.447562417
 10
187.7665599449
 20
101.469998632
 10
187.6250950022
 20
101.4802878943
  0
LWPOLYLINE
  5
324
100
AcDbEntity
  8
RACCORDO
100
AcDbPolyline
 62
250
  6
CONTINUOUS
 90
19
 70
0
 10
185.3054501626
 20
100.849808115
 10
185.3337816367
 20
100.8376182835
 10
185.3610978057
 20
100.828904841
 10
185.3873986696
 20
100.8236677875
 10
185.4129670339
 20
100.8221104231
 10
185.4375200931
 20
100.8240294477
 10
185.4602094304
 20
100.8288149609
 10
185.4807960384
 20
100.8366104128
 10
185.4995189246
 20
100.8472723533
 10
185.516246694
 20
100.8597605315
 10
185.5307819786
 20
100.8737664405
 10
185.5433221464
 20
100.8895985873
 10
185.5543279079
 20
100.9071422416
 10
185.5639860793
 20
100.9261249676
 10
185.5721098443
 20
100.946819201
 10
185.578599464
 20
100.9699275184
 10
185.5834216921
 20
100.9956841118
 10
185.5866097749
 20
101.0238547893
 10
185.5881637123
 20
101.0544395506
  0
LWPOLYLINE
  5
325
100
AcDbEntity
  8
RACCORDO
100
AcDbPolyline
 62
250
  6
CONTINUOUS
 90
19
 70
0
 10
153.4856450092
 20
116.7597106917
 10
153.5139764833
 20
116.7475208602
 10
153.5412926523
 20
116.7388074177
 10
153.5675935162
 20
116.7335703642
 10
153.5931618805
 20
116.7320129998
 10
153.6177149397
 20
116.7339320244
 10
153.640404277
 20
116.7387175376
 10
153.660990885
 20
116.7465129895
 10
153.6797137712
 20
116.75717493
 10
153.6964415406
 20
116.7696631082
 10
153.7109768252
 20
116.7836690172
 10
153.723516993
 20
116.799501164
 10
153.7345227545
 20
116.8170448183
 10
153.7441809259
 20
116.8360275443
 10
153.7523046909
 20
116.8567217777
 10
153.7587943106
 20
116.879830095
 10
153.7636165387
 20
116.9055866885
 10
153.7668046215
 20
116.933757366
 10
153.768358559
 20
116.9643421273
  0
LWPOLYLINE
  5
326
100
AcDbEntity
  8
RACCORDO
100
AcDbPolyline
 62
7
  6
CONTINUOUS
 90
10
 70
0
 10
185.4615367994
 20
100.5252085426
 10
185.5457462839
 20
100.4883519719
 10
185.6269012143
 20
100.4621783525
 10
185.7092707764
 20
100.4444653655
 10
185.792087094
 20
100.4354124728
 10
185.8744617153
 20
100.4350633415
 10
185.9555775782
 20
100.4433061717
 10
186.034531704
 20
100.4599190772
 10
186.1104084502
 20
100.4845351725
 10
186.1267125577
 20
100.4910188172
  0
LWPOLYLINE
  5
327
100
AcDbEntity
  8
RACCORDO
100
AcDbPolyline
 62
7
  6
CONTINUOUS
 90
10
 70
0
 10
153.641731646
 20
116.4351111193
 10
153.7259411305
 20
116.3982545486
 10
153.8070960609
 20
116.3720809292
 10
153.889465623
 20
116.3543679422
 10
153.9722819406
 20
116.3453150495
 10
154.0546565619
 20
116.3449659182
 10
154.1357724248
 20
116.3532087484
 10
154.2147265506
 20
116.3698216539
 10
154.2906032968
 20
116.3944377492
 10
154.3069074043
 20
116.4009213939
  0
LWPOLYLINE
  5
328
100
AcDbEntity
  8
RACCORDO
100
AcDbPolyline
 62
250
  6
CONTINUOUS
 90
13
 70
0
 10
151.6671461379
 20
116.6303627139
 10
151.7247726397
 20
116.6050200719
 10
151.7883970154
 20
116.5835628106
 10
151.8569782175
 20
116.5663418803
 10
151.9293941151
 20
116.5536389152
 10
152.0044599504
 20
116.5456616139
 10
152.0809477334
 20
116.5425403664
 10
152.1576061363
 20
116.5443261353
 10
152.2331811324
 20
116.5509896058
 10
152.3064365998
 20
116.5624217046
 10
152.3761742638
 20
116.5784353688
 10
152.4412533123
 20
116.5987685714
 10
152.5006092226
 20
116.6230886378
  0
LWPOLYLINE
  5
329
100
AcDbEntity
  8
RACCORDO
100
AcDbPolyline
 62
250
  6
CONTINUOUS
 90
13
 70
0
 10
185.5881637123
 20
101.0544395506
 10
185.645097413
 20
101.0293647129
 10
185.7079047633
 20
101.0080828369
 10
185.7755814672
 20
100.9909342219
 10
185.8470453676
 20
100.9781930762
 10
185.9211537493
 20
100.9700631318
 10
185.9967216121
 20
100.9666743875
 10
186.072540618
 20
100.9680810295
 10
186.1473984137
 20
100.9742605656
 10
186.2200980153
 20
100.9851141842
 10
186.289476949
 20
101.000468335
 10
186.3544258386
 20
101.0200775036
 10
186.4139061449
 20
101.0436281373
  0
LWPOLYLINE
  5
32A
100
AcDbEntity
  8
RACCORDO
100
AcDbPolyline
 62
250
  6
CONTINUOUS
 90
13
 70
0
 10
153.768358559
 20
116.9643421273
 10
153.8252922596
 20
116.9392672896
 10
153.8880996099
 20
116.9179854136
 10
153.9557763138
 20
116.9008367986
 10
154.0272402142
 20
116.8880956529
 10
154.101348596
 20
116.8799657085
 10
154.1769164587
 20
116.8765769642
 10
154.2527354646
 20
116.8779836062
 10
154.3275932603
 20
116.8841631423
 10
154.4002928619
 20
116.8950167609
 10
154.4696717956
 20
116.9103709117
 10
154.5346206852
 20
116.9299800803
 10
154.5941009915
 20
116.953530714
  0
LWPOLYLINE
  5
32B
100
AcDbEntity
  8
RACCORDO
100
AcDbPolyline
 62
250
  6
CONTINUOUS
 90
11
 70
0
 10
141.3806970517
 20
120.9261587747
 10
140.9529781794
 20
121.1204178146
 10
140.5276504506
 20
121.2743879111
 10
140.1070975402
 20
121.387206616
 10
139.6936744857
 20
121.4582437931
 10
139.2896897221
 20
121.4871044522
 10
138.8973975431
 20
121.4736280139
 10
138.5189900497
 20
121.4178891911
 10
138.1565854741
 20
121.3201993818
 10
137.8122115302
 20
121.1811050559
 10
137.7012917235
 20
121.1254184013
  0
LWPOLYLINE
  5
32C
100
AcDbEntity
  8
0
100
AcDbPolyline
 62
7
  6
CONTINUOUS
 90
13
 70
0
 10
141.2417327247
 20
120.7752095733
 10
140.9285191855
 20
120.9210099878
 10
140.6181807741
 20
121.0446869031
 10
140.3107174905
 20
121.1462403192
 10
140.0052686007
 20
121.2258396825
 10
139.7026948387
 20
121.2833155466
 10
139.4055784065
 20
121.3181595721
 10
139.1138344694
 20
121.3301621851
 10
138.8275478622
 20
121.3195329596
 10
138.5495552903
 20
121.2863922787
 10
138.2801114355
 20
121.2305783008
 10
138.0189616161
 20
121.1522528674
 10
137.7681784926
 20
121.0520218861
  0
LINE
  5
32D
100
AcDbEntity
  8
RACCORDO
100
AcDbLine
 62
250
  6
CONTINUOUS
 10
153.695475818
 20
115.9115490796
 11
153.9693160976
 21
115.7746289398
  0
LINE
  5
32E
100
AcDbEntity
  8
RACCORDO
100
AcDbLine
 62
250
  6
CONTINUOUS
 10
185.5152809714
 20
100.0016465029
 11
185.789121251
 21
99.8647263631
  0
LINE
  5
32F
100
AcDbEntity
  8
RACCORDO
100
AcDbLine
 62
7
  6
CONTINUOUS
 10
133.9620824637
 20
126.2749356399
 11
134.932570102
 21
125.7896918207
  0
LINE
  5
330
100
AcDbEntity
  8
RACCORDO
100
AcDbLine
 62
7
  6
CONTINUOUS
 10
152.6710932863
 20
116.9204302286
 11
153.6415808825
 21
116.4351864305
  0
LINE
  5
331
100
AcDbEntity
  8
RACCORDO
100
AcDbLine
 62
7
  6
CONTINUOUS
 10
165.7818876171
 20
110.3650330632
 11
166.7523752554
 21
109.879789244
  0
LINE
  5
332
100
AcDbEntity
  8
RACCORDO
100
AcDbLine
 62
7
  6
CONTINUOUS
 10
184.4908984397
 20
101.0105276519
 11
185.4613860359
 21
100.5252838538
  0
LINE
  5
333
100
AcDbEntity
  8
RACCORDO
100
AcDbLine
 62
250
  6
CONTINUOUS
 10
133.8061465523
 20
126.5994599201
 11
134.7766341866
 21
126.114216103
  0
LINE
  5
334
100
AcDbEntity
  8
RACCORDO
100
AcDbLine
 62
250
  6
CONTINUOUS
 10
152.5151573749
 20
117.2449545088
 11
153.4856450092
 21
116.7597106917
  0
LINE
  5
335
100
AcDbEntity
  8
RACCORDO
100
AcDbLine
 62
250
  6
CONTINUOUS
 10
165.6259517057
 20
110.6895573434
 11
166.59643934
 21
110.2043135263
  0
LINE
  5
336
100
AcDbEntity
  8
RACCORDO
100
AcDbLine
 62
250
  6
CONTINUOUS
 10
184.3349625283
 20
101.3350519321
 11
185.3054501626
 21
100.849808115
  0
LWPOLYLINE
  5
337
100
AcDbEntity
  8
RACCORDO
100
AcDbPolyline
 62
7
  6
CONTINUOUS
 90
18
 70
0
 10
134.9326312945
 20
125.7896612361
 10
134.9481006387
 20
125.7814827302
 10
134.9832846363
 20
125.7598929471
 10
135.0243577299
 20
125.7299191786
 10
135.0689079991
 20
125.6919058661
 10
135.1155054474
 20
125.6459991875
 10
135.1630222756
 20
125.592328167
 10
135.2095995402
 20
125.5322260165
 10
135.2540581049
 20
125.4667097785
 10
135.2955037033
 20
125.3967298771
 10
135.3328710851
 20
125.3239126253
 10
135.3655445252
 20
125.2495041841
 10
135.3930323779
 20
125.1749091018
 10
135.4148791967
 20
125.1020798262
 10
135.4311237868
 20
125.0321929816
 10
135.4419147199
 20
124.9666191956
 10
135.4475636427
 20
124.9075133351
 10
135.4489095459
 20
124.8638718614
  0
LWPOLYLINE
  5
338
100
AcDbEntity
  8
RACCORDO
100
AcDbPolyline
 62
7
  6
CONTINUOUS
 90
18
 70
0
 10
166.7524364479
 20
109.8797586594
 10
166.7679057921
 20
109.8715801535
 10
166.8030897897
 20
109.8499903704
 10
166.8441628833
 20
109.8200166019
 10
166.8887131525
 20
109.7820032894
 10
166.9353106008
 20
109.7360966108
 10
166.982827429
 20
109.6824255903
 10
167.0294046936
 20
109.6223234398
 10
167.0738632583
 20
109.5568072018
 10
167.1153088567
 20
109.4868273004
 10
167.1526762385
 20
109.4140100486
 10
167.1853496785
 20
109.3396016074
 10
167.2128375313
 20
109.2650065251
 10
167.2346843501
 20
109.1921772495
 10
167.2509289402
 20
109.1222904049
 10
167.2617198733
 20
109.0567166189
 10
167.267368796
 20
108.9976107584
 10
167.2687146993
 20
108.9539692847
  0
LWPOLYLINE
  5
339
100
AcDbEntity
  8
RACCORDO
100
AcDbPolyline
 62
250
  6
CONTINUOUS
 90
5
 70
0
 10
134.7766341866
 20
126.114216103
 10
134.8518389264
 20
126.0724022881
 10
134.925397316
 20
126.0237068027
 10
134.9973093553
 20
125.9681296467
 10
135.0682447848
 20
125.9049134217
  0
LWPOLYLINE
  5
33A
100
AcDbEntity
  8
RACCORDO
100
AcDbPolyline
 62
250
  6
CONTINUOUS
 90
5
 70
0
 10
166.59643934
 20
110.2043135263
 10
166.6716440798
 20
110.1624997114
 10
166.7452024694
 20
110.113804226
 10
166.8171145087
 20
110.05822707
 10
166.8880499382
 20
109.995010845
  0
LWPOLYLINE
  5
33B
100
AcDbEntity
  8
RACCORDO
100
AcDbPolyline
 62
250
  6
CONTINUOUS
 90
8
 70
0
 10
133.5234330026
 20
127.0868049055
 10
133.4732855587
 20
127.115270286
 10
133.4307229202
 20
127.1466725392
 10
133.3964258338
 20
127.1805096524
 10
133.3709429121
 20
127.2162406652
 10
133.3546818693
 20
127.2532942959
 10
133.3479029743
 20
127.2910780729
 10
133.3476970713
 20
127.2989368458
  0
LWPOLYLINE
  5
33C
100
AcDbEntity
  8
RACCORDO
100
AcDbPolyline
 62
250
  6
CONTINUOUS
 90
8
 70
0
 10
165.3432381559
 20
111.1769023288
 10
165.2930907121
 20
111.2053677093
 10
165.2505280736
 20
111.2367699625
 10
165.2162309871
 20
111.2706070758
 10
165.1907480655
 20
111.3063380885
 10
165.1744870227
 20
111.3433917192
 10
165.1677081277
 20
111.3811754962
 10
165.1675022247
 20
111.3890342691
  0
LWPOLYLINE
  5
33D
100
AcDbEntity
  8
RACCORDO
100
AcDbPolyline
 62
250
  6
CONTINUOUS
 90
8
 70
0
 10
167.444450577
 20
108.7417104944
 10
167.3937671431
 20
108.7705225423
 10
167.3508535164
 20
108.8023335762
 10
167.3164117337
 20
108.8366231902
 10
167.2910052383
 20
108.8728304301
 10
167.2750496626
 20
108.9103629709
 10
167.2688060286
 20
108.9486068068
 10
167.2687146457
 20
108.9538425287
  0
LWPOLYLINE
  5
33E
100
AcDbEntity
  8
0
100
AcDbPolyline
 62
7
  6
CONTINUOUS
 90
3
 70
0
 10
173.6851149504
 20
104.5112145903
 10
173.374767276
 20
104.6978826109
 10
173.0615378781
 20
104.8653069966
  0
LWPOLYLINE
  5
33F
100
AcDbEntity
  8
RACCORDO
100
AcDbPolyline
 62
250
  6
CONTINUOUS
 90
4
 70
0
 10
156.6449453728
 20
117.0462186911
 10
156.7004520434
 20
116.9930592551
 10
156.7489974446
 20
116.9345694949
 10
156.7897115228
 20
116.8717774626
  0
LWPOLYLINE
  5
340
100
AcDbEntity
  8
RACCORDO
100
AcDbPolyline
 62
250
  6
CONTINUOUS
 90
3
 70
0
 10
139.2009902836
 20
139.025161027
 10
139.1921042223
 20
139.0350948712
 10
139.1838634319
 20
139.0447944307
  0
LWPOLYLINE
  5
341
100
AcDbEntity
  8
RACCORDO
100
AcDbPolyline
 62
250
  6
CONTINUOUS
 90
32
 70
0
 10
139.1838634319
 20
139.0447944307
 10
139.1762533362
 20
139.0542395084
 10
139.1692655237
 20
139.0634059555
 10
139.1628788549
 20
139.072280924
 10
139.157059761
 20
139.0808630128
 10
139.1517978942
 20
139.0891323592
 10
139.1470745791
 20
139.097078554
 10
139.1428446937
 20
139.1047164339
 10
139.1390976453
 20
139.1120292734
 10
139.1358171271
 20
139.1190098857
 10
139.132951436
 20
139.1256897358
 10
139.1304894064
 20
139.1320558444
 10
139.1284189349
 20
139.1381031532
 10
139.1266900616
 20
139.1438775617
 10
139.1252907503
 20
139.1493734093
 10
139.124214686
 20
139.1545835718
 10
139.1234242031
 20
139.1595541726
 10
139.1229080526
 20
139.1642840222
 10
139.1226637437
 20
139.1687654966
 10
139.122670234
 20
139.1730370122
 10
139.1229173875
 20
139.1771007206
 10
139.123405473
 20
139.1809484736
 10
139.1241319683
 20
139.1846046625
 10
139.125087811
 20
139.1880740835
 10
139.126275138
 20
139.1913478214
 10
139.1277103517
 20
139.1944306329
 10
139.1293850351
 20
139.1973299753
 10
139.1313025964
 20
139.2000354215
 10
139.1334982914
 20
139.2025253759
 10
139.1359825024
 20
139.2047918627
 10
139.1387404559
 20
139.2068404376
 10
139.1417699691
 20
139.2086699743
  0
LWPOLYLINE
  5
342
100
AcDbEntity
  8
RACCORDO
100
AcDbPolyline
 62
250
  6
CONTINUOUS
 90
6
 70
0
 10
149.3153357693
 20
134.1930259404
 10
149.3004222845
 20
134.2160635295
 10
149.28600893
 20
134.2330079295
 10
149.2723386257
 20
134.2435738175
 10
149.2596420627
 20
134.2475834324
 10
149.2544986517
 20
134.2472641473
  0
LWPOLYLINE
  5
343
100
AcDbEntity
  8
RACCORDO
100
AcDbPolyline
 62
250
  6
CONTINUOUS
 90
7
 70
0
 10
170.6573748221
 20
80.5558162851
 10
170.6608570852
 20
80.5033669283
 10
170.6712181298
 20
80.455691312
 10
170.6882028324
 20
80.4139633679
 10
170.7113929734
 20
80.3792105766
 10
170.7402175346
 20
80.352288667
 10
170.7613320964
 20
80.3394667649
  0
LWPOLYLINE
  5
344
100
AcDbEntity
  8
RACCORDO
100
AcDbPolyline
 62
250
  6
CONTINUOUS
 90
8
 70
0
 10
166.59643934
 20
110.2043135263
 10
166.5999099482
 20
110.1397216709
 10
166.6102648743
 20
110.0796576443
 10
166.6273345448
 20
110.0251039928
 10
166.6508395285
 20
109.9769530941
 10
166.6803951451
 20
109.9359924977
 10
166.7155177894
 20
109.9028920802
 10
166.7523752554
 20
109.879789244
  0
LWPOLYLINE
  5
345
100
AcDbEntity
  8
RACCORDO
100
AcDbPolyline
 62
250
  6
CONTINUOUS
 90
8
 70
0
 10
168.450244106
 20
81.5892252971
 10
168.4536361186
 20
81.5253463955
 10
168.4637579178
 20
81.4658809365
 10
168.4804476551
 20
81.4117797788
 10
168.5034384597
 20
81.3639080053
 10
168.5323627066
 20
81.3230310905
 10
168.5667578939
 20
81.2898026603
 10
168.6061800192
 20
81.264701016
  0
LINE
  5
346
100
AcDbEntity
  8
RACCORDO
100
AcDbLine
 62
7
  6
CONTINUOUS
 10
167.2687146457
 20
108.9538425287
 11
167.2687146457
 21
103.9239680128
  0
LINE
  5
347
100
AcDbEntity
  8
RACCORDO
100
AcDbLine
 62
250
  6
CONTINUOUS
 10
167.444450577
 20
108.7417104944
 11
167.444450577
 21
104.0167406876
  0
LWPOLYLINE
  5
348
100
AcDbEntity
  8
RACCORDO
100
AcDbPolyline
 62
250
  6
CONTINUOUS
 90
13
 70
0
 10
168.450244106
 20
123.7046021197
 10
168.4536358842
 20
123.771870751
 10
168.4637570993
 20
123.8414560954
 10
168.4804460582
 20
123.9122455714
 10
168.5034360586
 20
123.9831073384
 10
168.5323596175
 20
124.0529082939
 10
168.5667543158
 20
124.1205321992
 10
168.6060702753
 20
124.1848977117
 10
168.6496788901
 20
124.2449755272
 10
168.6968827965
 20
124.2998047806
 10
168.7469271715
 20
124.3485086302
 10
168.79901183
 20
124.3903082456
 10
168.8523039145
 20
124.424535146
  0
LWPOLYLINE
  5
349
100
AcDbEntity
  8
RACCORDO
100
AcDbPolyline
 62
7
  6
CONTINUOUS
 90
3
 70
0
 10
169.2845413037
 20
105.0772391235
 10
168.978612786
 20
104.8537692516
 10
168.9102677905
 20
104.7905595798
  0
LWPOLYLINE
  5
34A
100
AcDbEntity
  8
0
100
AcDbPolyline
 62
7
  6
CONTINUOUS
 90
11
 70
0
 10
164.9626312295
 20
102.7065645751
 10
164.6998335972
 20
102.5500103111
 10
164.3334211232
 20
102.2626873755
 10
164.0051879579
 20
101.9157355165
 10
163.7181071728
 20
101.512292134
 10
163.4747861538
 20
101.0560173246
 10
163.2774305121
 20
100.5510468453
 10
163.1278271915
 20
100.0019526743
 10
163.027332126
 20
99.4137103697
 10
162.9768558118
 20
98.7916492004
 10
162.9705354304
 20
98.4696834535
  0
LINE
  5
34B
100
AcDbEntity
  8
RACCORDO
100
AcDbLine
 62
7
  6
CONTINUOUS
 10
169.5188291281
 20
105.2143174334
 11
169.2845413037
 21
105.0772391235
  0
LINE
  5
34C
100
AcDbEntity
  8
DRAFT
100
AcDbLine
 62
7
  6
CONTINUOUS
 10
171.4861000643
 20
106.2528597552
 11
169.5210968769
 21
105.2155158246
  0
LINE
  5
34D
100
AcDbEntity
  8
0
100
AcDbLine
 62
7
  6
CONTINUOUS
 10
169.4249116903
 20
105.0622450047
 11
164.9626312295
 21
102.7065645751
  0
LINE
  5
34E
100
AcDbEntity
  8
RACCORDO
100
AcDbLine
 62
250
  6
CONTINUOUS
 10
186.4139061449
 20
111.3195413005
 11
187.6279375706
 21
111.940144259
  0
LWPOLYLINE
  5
34F
100
AcDbEntity
  8
RACCORDO
100
AcDbPolyline
 62
250
  6
CONTINUOUS
 90
32
 70
0
 10
171.4861000643
 20
106.2528597552
 10
171.5976983491
 20
106.3088868785
 10
171.9441598073
 20
106.4488234598
 10
172.308760973
 20
106.54710454
 10
172.6894628529
 20
106.6031804904
 10
173.0841364184
 20
106.6167377094
 10
173.4905744902
 20
106.5877003761
 10
173.9065040815
 20
106.5162308814
 10
174.3295991323
 20
106.4027289206
 10
174.7574935391
 20
106.2478292447
 10
175.1877943648
 20
106.0523981094
 10
175.6180952012
 20
105.8175284389
 10
176.0459896281
 20
105.5445337197
 10
176.469084691
 20
105.2349406445
 10
176.8850142741
 20
104.8904805789
 10
177.2914523311
 20
104.5130798809
 10
177.6861258948
 20
104.1048491272
 10
178.0668277958
 20
103.6680713029
 10
178.4314289924
 20
103.2051890472
 10
178.7778904771
 20
102.7187909992
 10
179.1042747014
 20
102.2115972904
 10
179.4087563938
 20
101.6864443549
 10
179.68963276
 20
101.1462690848
 10
179.9453329678
 20
100.594092507
 10
180.174427124
 20
100.0330024717
 10
180.3756341899
 20
99.4661363904
 10
180.5478289478
 20
98.8966641395
 10
180.6900482556
 20
98.327770698
 10
180.8014966428
 20
97.7626379049
 10
180.881550823
 20
97.2044263355
 10
180.9297631187
 20
96.6562576311
 10
180.9458638996
 20
96.1211973851
  0
LINE
  5
350
100
AcDbEntity
  8
0
100
AcDbLine
 62
7
  6
CONTINUOUS
 10
169.587983646
 20
105.1421193094
 11
169.4245979031
 21
105.0620793297
  0
LWPOLYLINE
  5
351
100
AcDbEntity
  8
RACCORDO
100
AcDbPolyline
 62
7
  6
CONTINUOUS
 90
12
 70
0
 10
181.0938849899
 20
118.3412703689
 10
181.063110806
 20
118.3351295025
 10
181.0084984999
 20
118.3222731274
 10
180.9560312703
 20
118.3073800531
 10
180.9065936359
 20
118.2915615773
 10
180.8600543272
 20
118.275592145
 10
180.8167517249
 20
118.2603781786
 10
180.7791344172
 20
118.247355755
 10
180.7471823204
 20
118.2368623037
 10
180.7205236015
 20
118.2289025388
 10
180.7011454025
 20
118.2239044104
 10
180.6916424361
 20
118.2218537844
  0
LINE
  5
352
100
AcDbEntity
  8
RACCORDO
100
AcDbLine
 62
7
  6
CONTINUOUS
 10
180.6910804269
 20
118.221745627
 11
180.6916424359
 21
118.2218537843
  0
LWPOLYLINE
  5
353
100
AcDbEntity
  8
RACCORDO
100
AcDbPolyline
 62
250
  6
CONTINUOUS
 90
13
 70
0
 10
180.4842300331
 20
117.6876091562
 10
180.4694548833
 20
117.6851133615
 10
180.4543426674
 20
117.6834624848
 10
180.4388933854
 20
117.6826565261
 10
180.4232243774
 20
117.6826245018
 10
180.4072183032
 20
117.6834373955
 10
180.3905231429
 20
117.6853081582
 10
180.3730641597
 20
117.6881825727
 10
180.3549160903
 20
117.6921148563
 10
180.3359511252
 20
117.6974806109
 10
180.3161266612
 20
117.7044050374
 10
180.2954853016
 20
117.712762935
 10
180.2740270462
 20
117.7225543036
  0
LWPOLYLINE
  5
354
100
AcDbEntity
  8
RACCORDO
100
AcDbPolyline
 62
7
  6
CONTINUOUS
 90
7
 70
0
 10
152.6171061378
 20
116.9403962319
 10
152.6166215456
 20
116.9404198232
 10
152.6183181218
 20
116.9401361413
 10
152.6270881062
 20
116.9380907112
 10
152.642000061
 20
116.9332105336
 10
152.6617982384
 20
116.9249078667
 10
152.6709907702
 20
116.9204815193
  0
LINE
  5
355
100
AcDbEntity
  8
RACCORDO
100
AcDbLine
 62
250
  6
CONTINUOUS
 10
156.2980090394
 20
117.2055992027
 11
156.3728523465
 21
117.1899338431
  0
LINE
  5
356
100
AcDbEntity
  8
RACCORDO
100
AcDbLine
 62
7
  6
CONTINUOUS
 10
155.3077704546
 20
116.2550221816
 11
155.1757934564
 21
116.2872993449
  0
LWPOLYLINE
  5
357
100
AcDbEntity
  8
RACCORDO
100
AcDbPolyline
 62
250
  6
CONTINUOUS
 90
5
 70
0
 10
156.3728523465
 20
117.1899338431
 10
156.4461738553
 20
117.1656821766
 10
156.5167425891
 20
117.133256829
 10
156.5833697868
 20
117.0932108536
 10
156.6449453728
 20
117.0462186911
  0
LWPOLYLINE
  5
358
100
AcDbEntity
  8
RACCORDO
100
AcDbPolyline
 62
250
  6
CONTINUOUS
 90
8
 70
0
 10
156.2980090394
 20
117.2055992027
 10
156.2279187376
 20
117.233994591
 10
156.1562456812
 20
117.2582709457
 10
156.08298987
 20
117.2784282669
 10
156.007012934
 20
117.2942820909
 10
155.9294532433
 20
117.3060168813
 10
155.8537259081
 20
117.3141860293
 10
155.7979519036
 20
117.3177005001
  0
LWPOLYLINE
  5
359
100
AcDbEntity
  8
RACCORDO
100
AcDbPolyline
 62
7
  6
CONTINUOUS
 90
6
 70
0
 10
156.537826483
 20
117.2221832334
 10
156.3967900662
 20
117.2796947785
 10
156.2522329676
 20
117.3241261958
 10
156.101847556
 20
117.3574649937
 10
155.9467547915
 20
117.3799012086
 10
155.8052898488
 20
117.390190471
  0
LWPOLYLINE
  5
35A
100
AcDbEntity
  8
RACCORDO
100
AcDbPolyline
 62
250
  6
CONTINUOUS
 90
11
 70
0
 10
166.8880499382
 20
109.995010845
 10
166.9573390175
 20
109.9249129495
 10
167.0229725255
 20
109.8502055786
 10
167.0846884077
 20
109.7707779623
 10
167.1427487187
 20
109.6867408706
 10
167.1959304006
 20
109.6006988085
 10
167.2437982968
 20
109.5135022957
 10
167.286787564
 20
109.4243008126
 10
167.3249806142
 20
109.3331473048
 10
167.3587431625
 20
109.2401938334
 10
167.3877094937
 20
109.1452883372
  0
LINE
  5
35B
100
AcDbEntity
  8
RACCORDO
100
AcDbLine
 62
250
  6
CONTINUOUS
 10
139.2124637852
 20
139.0129054468
 11
139.2009902836
 21
139.025161027
  0
LWPOLYLINE
  5
35C
100
AcDbEntity
  8
RACCORDO
100
AcDbPolyline
 62
250
  6
CONTINUOUS
 90
5
 70
0
 10
180.4842300331
 20
75.5722323336
 10
180.4990069443
 20
75.5359078937
 10
180.5145719852
 20
75.5011288424
 10
180.5308482848
 20
75.4679405679
 10
180.5477475304
 20
75.4363814919
  0
LWPOLYLINE
  5
35D
100
AcDbEntity
  8
RACCORDO
100
AcDbPolyline
 62
250
  6
CONTINUOUS
 90
5
 70
0
 10
167.3877094937
 20
109.1452883372
 10
167.4108648742
 20
109.048027579
 10
167.4278710592
 20
108.9482771462
 10
167.4390662935
 20
108.8461714513
 10
167.444450577
 20
108.7417104944
  0
LINE
  5
35E
100
AcDbEntity
  8
RACCORDO
100
AcDbLine
 62
7
  6
CONTINUOUS
 10
171.9301670282
 20
122.8710694015
 11
171.9301670282
 21
123.7663367044
  0
LWPOLYLINE
  5
35F
100
AcDbEntity
  8
RACCORDO
100
AcDbPolyline
 62
250
  6
CONTINUOUS
 90
15
 70
0
 10
170.6573748221
 20
122.5308804157
 10
170.6608570935
 20
122.586812104
 10
170.6712181621
 20
122.6448488347
 10
170.6882029027
 20
122.7035615473
 10
170.7113930945
 20
122.7615045402
 10
170.7402177153
 20
122.8172510579
 10
170.7739669984
 20
122.8694284242
 10
170.8118099195
 20
122.9167518588
 10
170.852814657
 20
122.9580561048
 10
170.8959715296
 20
122.9923241137
 10
170.9402178689
 20
123.0187121006
 10
170.9844641842
 20
123.0365703159
 10
171.027620984
 20
123.0454590407
 10
171.0686256082
 20
123.0451594171
 10
171.106468394
 20
123.0356788343
  0
LWPOLYLINE
  5
360
100
AcDbEntity
  8
RACCORDO
100
AcDbPolyline
 62
250
  6
CONTINUOUS
 90
38
 70
0
 10
170.3790817769
 20
105.6684542392
 10
170.5748415595
 20
105.9271245961
 10
170.8341196777
 20
106.2043526784
 10
171.1172425278
 20
106.4486212417
 10
171.4200402274
 20
106.6562937673
 10
171.7427753101
 20
106.8268017105
 10
172.0851852422
 20
106.9607136159
 10
172.4423125404
 20
107.0560985988
 10
172.8143794409
 20
107.1123996967
 10
173.2011637076
 20
107.130173872
 10
173.5970411487
 20
107.1091611272
 10
174.0021426185
 20
107.0487945905
 10
174.4163372629
 20
106.9496411337
 10
174.8336083278
 20
106.8131413748
 10
175.254001277
 20
106.6387499859
 10
175.6774706468
 20
106.4270122948
 10
176.0978632918
 20
106.1810049042
 10
176.5151337908
 20
105.9002278968
 10
176.929327565
 20
105.5851811898
 10
177.3344277327
 20
105.2404411368
 10
177.7303032765
 20
104.8655719093
 10
178.1170852139
 20
104.4610093357
 10
178.4891497153
 20
104.0326372548
 10
178.8462748493
 20
103.580120493
 10
179.1886825474
 20
103.1037942239
 10
179.5114147736
 20
102.6105478077
 10
179.8142085666
 20
102.1000759654
 10
180.0973268878
 20
101.5726839761
 10
180.356600586
 20
101.0361770373
 10
180.5916278778
 20
100.4905817041
 10
180.8028105467
 20
99.9358714214
 10
180.9871847918
 20
99.3797717216
 10
181.1444277091
 20
98.8215502283
 10
181.2748622026
 20
98.261939318
 10
181.3764931833
 20
97.710861652
 10
181.4486556217
 20
97.1716247841
 10
181.4920145474
 20
96.6409211605
 10
181.5065699603
 20
96.1187507813
  0
LINE
  5
361
100
AcDbEntity
  8
RACCORDO
100
AcDbLine
 62
250
  6
CONTINUOUS
 10
154.5941009915
 20
92.72464626
 11
155.8081324172
 21
93.1971621072
  0
LWPOLYLINE
  5
362
100
AcDbEntity
  8
RACCORDO
100
AcDbPolyline
 62
250
  6
CONTINUOUS
 90
20
 70
0
 10
153.1347171252
 20
89.9513097347
 10
153.1872402803
 20
89.9728503869
 10
153.3596471419
 20
90.0573559234
 10
153.5165363149
 20
90.1549264746
 10
153.6589449666
 20
90.263536631
 10
153.7869900059
 20
90.3806272525
 10
153.9016270028
 20
90.5044127917
 10
154.0049899071
 20
90.6347357694
 10
154.0973859941
 20
90.7699015033
 10
154.1794578762
 20
90.9087770961
 10
154.2532869732
 20
91.0530848376
 10
154.3187857342
 20
91.2013241405
 10
154.3764846057
 20
91.353458049
 10
154.428393386
 20
91.5146628495
 10
154.474285916
 20
91.6856307867
 10
154.5134474672
 20
91.865660661
 10
154.5459978147
 20
92.0589253964
 10
154.571092875
 20
92.2671334286
 10
154.5874735338
 20
92.4890365622
 10
154.5941009915
 20
92.72464626
  0
LINE
  5
363
100
AcDbEntity
  8
RACCORDO
100
AcDbLine
 62
7
  6
CONTINUOUS
 10
153.1296217015
 20
89.949317992
 11
154.352921918
 21
90.4254413656
  0
LWPOLYLINE
  5
364
100
AcDbEntity
  8
RACCORDO
100
AcDbPolyline
 62
250
  6
CONTINUOUS
 90
13
 70
0
 10
185.5881637123
 20
111.3303527138
 10
185.6450954119
 20
111.3052786612
 10
185.7079008552
 20
111.2839971699
 10
185.7755759413
 20
111.2668485975
 10
185.8470387045
 20
111.2541072246
 10
185.9211465119
 20
111.2459768845
 10
185.9967143209
 20
111.2425876791
 10
186.0725338278
 20
111.2439938818
 10
186.1473926305
 20
111.250173088
 10
186.2200935199
 20
111.2610265398
 10
186.2894738899
 20
111.2763807176
 10
186.3544243173
 20
111.2959901475
 10
186.4139061449
 20
111.3195413005
  0
LWPOLYLINE
  5
365
100
AcDbEntity
  8
RACCORDO
100
AcDbPolyline
 62
250
  6
CONTINUOUS
 90
8
 70
0
 10
133.5234330026
 20
137.3627180687
 10
133.473283327
 20
137.3911849191
 10
133.430719575
 20
137.4225885942
 10
133.3964223452
 20
137.4564269462
 10
133.3709400537
 20
137.4921588963
 10
133.354680165
 20
137.5292130872
 10
133.3479026763
 20
137.5669970186
 10
133.3476971103
 20
137.5747419462
  0
LWPOLYLINE
  5
366
100
AcDbEntity
  8
RACCORDO
100
AcDbPolyline
 62
250
  6
CONTINUOUS
 90
8
 70
0
 10
165.3432381559
 20
121.452815492
 10
165.2930884804
 20
121.4812823424
 10
165.2505247284
 20
121.5126860175
 10
165.2162274986
 20
121.5465243695
 10
165.1907452071
 20
121.5822563196
 10
165.1744853184
 20
121.6193105105
 10
165.1677078297
 20
121.6570944419
 10
165.1675022637
 20
121.6648393695
  0
LINE
  5
367
100
AcDbEntity
  8
RACCORDO
100
AcDbLine
 62
7
  6
CONTINUOUS
 10
139.2828470573
 20
138.9502722557
 11
139.28236726
 21
138.9506193989
  0
LINE
  5
368
100
AcDbEntity
  8
RACCORDO
100
AcDbLine
 62
250
  6
CONTINUOUS
 10
140.1103618748
 20
138.7809719782
 11
139.4157806429
 21
139.2843661638
  0
LWPOLYLINE
  5
369
100
AcDbEntity
  8
RACCORDO
100
AcDbPolyline
 62
250
  6
CONTINUOUS
 90
8
 70
0
 10
139.28236726
 20
138.9506193989
 10
139.2740895512
 20
138.956796782
 10
139.2645599955
 20
138.9643350778
 10
139.2547988425
 20
138.9725139999
 10
139.2448202488
 20
138.9813343677
 10
139.2344410886
 20
138.9909761311
 10
139.2236238546
 20
139.0015146275
 10
139.2124637852
 20
139.0129054468
  0
LWPOLYLINE
  5
36A
100
AcDbEntity
  8
RACCORDO
100
AcDbPolyline
 62
250
  6
CONTINUOUS
 90
4
 70
0
 10
188.4647505262
 20
101.1363161144
 10
188.5202571968
 20
101.0831566784
 10
188.5688025979
 20
101.0246669182
 10
188.6095166762
 20
100.9618748859
  0
LWPOLYLINE
  5
36B
100
AcDbEntity
  8
RACCORDO
100
AcDbPolyline
 62
250
  6
CONTINUOUS
 90
34
 70
0
 10
170.4471718352
 20
122.7061382551
 10
170.4337752319
 20
122.7431528489
 10
170.4222510925
 20
122.779952351
 10
170.4125225461
 20
122.8164145021
 10
170.4045207865
 20
122.8524223211
 10
170.3981559636
 20
122.887875121
 10
170.3933173239
 20
122.9226884011
 10
170.3899259055
 20
122.9567679813
 10
170.3878987731
 20
122.990043786
 10
170.3871209506
 20
123.0224804914
 10
170.3875166734
 20
123.0540029118
 10
170.3890092075
 20
123.0845722626
 10
170.3914904212
 20
123.114218446
 10
170.3948884435
 20
123.142880053
 10
170.3991425639
 20
123.1705454502
 10
170.4041773268
 20
123.1973233732
 10
170.4099332265
 20
123.2231759077
 10
170.4163659422
 20
123.2480919789
 10
170.4234432419
 20
123.2722154468
 10
170.4311176597
 20
123.2955165907
 10
170.4393595991
 20
123.3179829404
 10
170.4481839647
 20
123.3397696122
 10
170.457553971
 20
123.3608451807
 10
170.4674506142
 20
123.3811892345
 10
170.4779336611
 20
123.4009491276
 10
170.4889715911
 20
123.4200829716
 10
170.5005535126
 20
123.4385549743
 10
170.5127847913
 20
123.4564867564
 10
170.5256366856
 20
123.4738153655
 10
170.5390984798
 20
123.49048201
 10
170.5533120836
 20
123.5065668849
 10
170.5683102368
 20
123.5220219618
 10
170.5840093465
 20
123.5366996034
 10
170.6003748794
 20
123.5504996636
  0
LWPOLYLINE
  5
36C
100
AcDbEntity
  8
0
100
AcDbPolyline
 62
7
  6
CONTINUOUS
 90
26
 70
0
 10
178.6991449172
 20
95.6893346671
 10
178.6647381292
 20
96.0861288783
 10
178.6132125879
 20
96.4901167575
 10
178.5451277995
 20
96.8968852395
 10
178.4604246333
 20
97.3059608684
 10
178.35916222
 20
97.7178171002
 10
178.2420774589
 20
98.1294612377
 10
178.1088785605
 20
98.5413819831
 10
177.9598573143
 20
98.9530906341
 10
177.7966259879
 20
99.3601283877
 10
177.6192384543
 20
99.7620017389
 10
177.4276408406
 20
100.1592041927
 10
177.2232837953
 20
100.5487574599
 10
177.0058510678
 20
100.9309704491
 10
176.7756589088
 20
101.3055342517
 10
176.5351067184
 20
101.668543854
 10
176.2843033078
 20
102.019588217
 10
176.0231398658
 20
102.3590783797
 10
175.7536893588
 20
102.6843424449
 10
175.475699182
 20
102.9954724492
 10
175.1894219402
 20
103.2923763561
 10
174.8976884132
 20
103.5721061588
 10
174.6005840072
 20
103.8343690319
 10
174.298023316
 20
104.0794578008
 10
173.9925809013
 20
104.3053029348
 10
173.6851149504
 20
104.5112145903
  0
LWPOLYLINE
  5
36D
100
AcDbEntity
  8
0
100
AcDbPolyline
 62
7
  6
CONTINUOUS
 90
17
 70
0
 10
172.4190361842
 20
91.0778894054
 10
172.5501146244
 20
91.5589892273
 10
172.6378905062
 20
92.0693672452
 10
172.6811937184
 20
92.609814408
 10
172.6811943721
 20
93.1795397668
 10
172.6378924713
 20
93.7632895787
 10
172.5501178952
 20
94.3614430209
 10
172.4190407645
 20
94.9736209163
 10
172.2481714455
 20
95.5834319909
 10
172.036432905
 20
96.1908142824
 10
171.7849021762
 20
96.7958297531
 10
171.5003207245
 20
97.382273016
 10
171.1817913152
 20
97.9496424751
 10
170.8302111831
 20
98.4984397263
 10
170.4550134984
 20
99.0139641704
 10
170.0555566298
 20
99.4953102931
 10
169.6324822085
 20
99.9433836086
  0
LINE
  5
36E
100
AcDbEntity
  8
0
100
AcDbLine
 62
7
  6
CONTINUOUS
 10
172.2481655144
 20
90.6389486754
 11
172.4190361842
 21
91.0778894054
  0
LWPOLYLINE
  5
36F
100
AcDbEntity
  8
RACCORDO
100
AcDbPolyline
 62
250
  6
CONTINUOUS
 90
13
 70
0
 10
186.1268204291
 20
100.4910526901
 10
186.1423483105
 20
100.4978945084
 10
186.1884752713
 20
100.5237391539
 10
186.2296999011
 20
100.5551229028
 10
186.2656167249
 20
100.5906344521
 10
186.2969077417
 20
100.6297991141
 10
186.3247425395
 20
100.6735114856
 10
186.3489549325
 20
100.721397758
 10
186.3694615303
 20
100.7732105671
 10
186.3867815012
 20
100.8310317206
 10
186.4004889354
 20
100.895794472
 10
186.409729721
 20
100.9667112873
 10
186.4139061449
 20
101.0436281373
  0
LWPOLYLINE
  5
370
100
AcDbEntity
  8
RACCORDO
100
AcDbPolyline
 62
250
  6
CONTINUOUS
 90
6
 70
0
 10
188.1178141928
 20
101.295696626
 10
188.168735338
 20
101.317525182
 10
188.2198636929
 20
101.3299679357
 10
188.2696764718
 20
101.3329414776
 10
188.3161830327
 20
101.3268426527
 10
188.3560445492
 20
101.3130277625
  0
LINE
  5
371
100
AcDbEntity
  8
RACCORDO
100
AcDbLine
 62
250
  6
CONTINUOUS
 10
184.320414376
 20
100.7131860611
 11
184.7340488602
 21
100.8889524416
  0
LINE
  5
372
100
AcDbEntity
  8
RACCORDO
100
AcDbLine
 62
7
  6
CONTINUOUS
 10
186.9955986098
 20
100.3773967682
 11
185.789121251
 21
99.8647263631
  0
LINE
  5
373
100
AcDbEntity
  8
RACCORDO
100
AcDbLine
 62
250
  6
CONTINUOUS
 10
186.4139061449
 20
101.0436281373
 11
187.6279375706
 21
101.5408502476
  0
LINE
  5
374
100
AcDbEntity
  8
RACCORDO
100
AcDbLine
 62
7
  6
CONTINUOUS
 10
186.1258197605
 20
100.4906411156
 11
187.3429053081
 21
100.9891140806
  0
LWPOLYLINE
  5
375
100
AcDbEntity
  8
RACCORDO
100
AcDbPolyline
 62
250
  6
CONTINUOUS
 90
10
 70
0
 10
170.6003749033
 20
123.5504997068
 10
170.6500648755
 20
123.5412350354
 10
170.6991670426
 20
123.5264222794
 10
170.7468540473
 20
123.5063110184
 10
170.7923223768
 20
123.4812401096
 10
170.8348058952
 20
123.4516319826
 10
170.8735887546
 20
123.417985524
 10
170.9080174658
 20
123.3808676648
 10
170.9375119079
 20
123.3409038257
 10
170.9615750982
 20
123.2987673849
  0
LWPOLYLINE
  5
376
100
AcDbEntity
  8
RACCORDO
100
AcDbPolyline
 62
250
  6
CONTINUOUS
 90
5
 70
0
 10
181.685963314
 20
118.4804074029
 10
181.6370731185
 20
118.4998218606
 10
181.5901181912
 20
118.5083602532
 10
181.5465252337
 20
118.5057631394
 10
181.5042155909
 20
118.4902523303
  0
LWPOLYLINE
  5
377
100
AcDbEntity
  8
RACCORDO
100
AcDbPolyline
 62
250
  6
CONTINUOUS
 90
13
 70
0
 10
153.768358559
 20
127.2402552905
 10
153.8252902585
 20
127.2151812379
 10
153.8880957019
 20
127.1938997466
 10
153.955770788
 20
127.1767511742
 10
154.0272335511
 20
127.1640098013
 10
154.1013413585
 20
127.1558794612
 10
154.1769091675
 20
127.1524902558
 10
154.2527286744
 20
127.1538964585
 10
154.3275874771
 20
127.1600756647
 10
154.4002883665
 20
127.1709291165
 10
154.4696687365
 20
127.1862832943
 10
154.5346191639
 20
127.2058927242
 10
154.5941009915
 20
127.2294438772
  0
LWPOLYLINE
  5
378
100
AcDbEntity
  8
RACCORDO
100
AcDbPolyline
 62
250
  6
CONTINUOUS
 90
13
 70
0
 10
138.8375696687
 20
138.4407829924
 10
138.8193400095
 20
138.4504785007
 10
138.8014167025
 20
138.460918923
 10
138.7837997474
 20
138.4721042592
 10
138.766612134
 20
138.4839502512
 10
138.7497308726
 20
138.4965411571
 10
138.7327869947
 20
138.5101297513
 10
138.7157206277
 20
138.5246920508
 10
138.6985916441
 20
138.5402520385
 10
138.6812106928
 20
138.5571344381
 10
138.6635146568
 20
138.5754474908
 10
138.6455666532
 20
138.5950829553
 10
138.6273666818
 20
138.6160408318
  0
LWPOLYLINE
  5
379
100
AcDbEntity
  8
RACCORDO
100
AcDbPolyline
 62
7
  6
CONTINUOUS
 90
4
 70
0
 10
139.2993604883
 20
138.9399438722
 10
139.2951413862
 20
138.9422280005
 10
139.2870233023
 20
138.947350206
 10
139.2828381026
 20
138.9502789369
  0
LWPOLYLINE
  5
37A
100
AcDbEntity
  8
RACCORDO
100
AcDbPolyline
 62
250
  6
CONTINUOUS
 90
10
 70
0
 10
139.1181350866
 20
139.7643215166
 10
139.1674750966
 20
139.7346208637
 10
139.2157657124
 20
139.6955364659
 10
139.2615396478
 20
139.648255883
 10
139.3034060852
 20
139.5942157114
 10
139.340092934
 20
139.5350579344
 10
139.3704854828
 20
139.4725800312
 10
139.3936602694
 20
139.4086803612
 10
139.4089131397
 20
139.3453004836
 10
139.4157806429
 20
139.2843661638
  0
LWPOLYLINE
  5
37B
100
AcDbEntity
  8
RACCORDO
100
AcDbPolyline
 62
250
  6
CONTINUOUS
 90
7
 70
0
 10
180.2740270462
 20
75.747490173
 10
180.2775093176
 20
75.6950407568
 10
180.2878703859
 20
75.6473650953
 10
180.304855126
 20
75.6056371236
 10
180.3280453172
 20
75.5708843226
 10
180.3568699373
 20
75.5439624255
 10
180.3779843205
 20
75.5311406528
  0
LWPOLYLINE
  5
37C
100
AcDbEntity
  8
RACCORDO
100
AcDbPolyline
 62
250
  6
CONTINUOUS
 90
8
 70
0
 10
182.4811577623
 20
74.573768469
 10
182.4845495576
 20
74.5098916244
 10
182.4946707864
 20
74.450427502
 10
182.5113597559
 20
74.3963269901
 10
182.5343497637
 20
74.3484552272
 10
182.5632733268
 20
74.3075778327
 10
182.5976680258
 20
74.2743486261
 10
182.6370352199
 20
74.2492734262
  0
LWPOLYLINE
  5
37D
100
AcDbEntity
  8
RACCORDO
100
AcDbPolyline
 62
250
  6
CONTINUOUS
 90
22
 70
0
 10
178.9238719731
 20
95.144889932
 10
178.907868219
 20
95.6767262888
 10
178.8599465299
 20
96.221591514
 10
178.7803750135
 20
96.7764384635
 10
178.6695988427
 20
97.3381638797
 10
178.528237591
 20
97.903626671
 10
178.3570815995
 20
98.469665492
 10
178.1570878034
 20
99.0331153408
 10
177.9293747391
 20
99.5908246909
 10
177.6752160885
 20
100.1396740723
 10
177.3960333467
 20
100.6765939355
 10
177.0933877542
 20
101.1985818501
 10
176.7689718123
 20
101.7027187488
 10
176.4245997253
 20
102.186185434
 10
176.0621974278
 20
102.646278114
 10
175.6837918066
 20
103.0804236155
 10
175.291500284
 20
103.4861929336
 10
174.8875155776
 20
103.861318323
 10
174.4740933118
 20
104.2037048662
 10
174.0535432886
 20
104.5114384074
 10
173.6282192502
 20
104.7827954069
 10
173.2005022051
 20
105.016256198
  0
LWPOLYLINE
  5
37E
100
AcDbEntity
  8
0
100
AcDbPolyline
 62
7
  6
CONTINUOUS
 90
3
 70
0
 10
178.7162293336
 20
94.9184476508
 10
178.7162465021
 20
95.300294325
 10
178.6991449172
 20
95.6893346671
  0
LINE
  5
37F
100
AcDbEntity
  8
RACCORDO
100
AcDbLine
 62
250
  6
CONTINUOUS
 10
178.9078682391
 20
94.6290576481
 11
178.9238719731
 21
95.144889932
  0
LINE
  5
380
100
AcDbEntity
  8
0
100
AcDbLine
 62
7
  6
CONTINUOUS
 10
178.6990932547
 20
94.5465271061
 11
178.7162293336
 21
94.9184476508
  0
LWPOLYLINE
  5
381
100
AcDbEntity
  8
RACCORDO
100
AcDbPolyline
 62
250
  6
CONTINUOUS
 90
15
 70
0
 10
180.2740270462
 20
117.7225543036
 10
180.2775093094
 20
117.7784859235
 10
180.2878703539
 20
117.8365225844
 10
180.3048550566
 20
117.8952352311
 10
180.3280451976
 20
117.9531781635
 10
180.3568697587
 20
118.0089246341
 10
180.3906189836
 20
118.06110198
 10
180.4284618543
 20
118.1084254216
 10
180.4694665538
 20
118.1497296988
 10
180.5126234103
 20
118.1839977632
 10
180.5568697587
 20
118.2103858213
 10
180.6011161071
 20
118.2282441116
 10
180.6442729636
 20
118.2371329037
 10
180.6852776631
 20
118.236833326
 10
180.7231205338
 20
118.2273527551
  0
LINE
  5
382
100
AcDbEntity
  8
RACCORDO
100
AcDbLine
 62
250
  6
CONTINUOUS
 10
184.4381343665
 20
101.0155792776
 11
184.4641640375
 21
101.0319004159
  0
LWPOLYLINE
  5
383
100
AcDbEntity
  8
RACCORDO
100
AcDbPolyline
 62
250
  6
CONTINUOUS
 90
10
 70
0
 10
188.1096844213
 20
99.8883310526
 10
188.1465361109
 20
99.9085523075
 10
188.1807722049
 20
99.9296243746
 10
188.2123381874
 20
99.9514608777
 10
188.2411713233
 20
99.9739579043
 10
188.2672624576
 20
99.9970465426
 10
188.2906373838
 20
100.0206982308
 10
188.3112815103
 20
100.0448521591
 10
188.3291579408
 20
100.0694105095
 10
188.3442565459
 20
100.0942944314
  0
LINE
  5
384
100
AcDbEntity
  8
RACCORDO
100
AcDbLine
 62
250
  6
CONTINUOUS
 10
187.127575608
 20
100.3451196049
 11
187.6856788027
 21
100.6196325685
  0
LINE
  5
385
100
AcDbEntity
  8
RACCORDO
100
AcDbLine
 62
250
  6
CONTINUOUS
 10
187.6986482487
 20
99.6861556144
 11
188.1096844213
 21
99.8883310526
  0
LINE
  5
386
100
AcDbEntity
  8
RACCORDO
100
AcDbLine
 62
250
  6
CONTINUOUS
 10
171.106468394
 20
123.0356788343
 11
171.1191029728
 21
123.0300726483
  0
LINE
  5
387
100
AcDbEntity
  8
RACCORDO
100
AcDbLine
 62
250
  6
CONTINUOUS
 10
139.2866632406
 20
138.945581411
 11
139.2992978194
 21
138.939975225
  0
LWPOLYLINE
  5
388
100
AcDbEntity
  8
RACCORDO
100
AcDbPolyline
 62
250
  6
CONTINUOUS
 90
28
 70
0
 10
168.450244106
 20
123.7046021197
 10
168.2099113214
 20
123.8115973961
 10
167.976608781
 20
123.8957169918
 10
167.7503364848
 20
123.9569609068
 10
167.5298821904
 20
123.9943229778
 10
167.3164581401
 20
124.008809368
 10
167.1137010607
 20
124.0034385679
 10
166.9217384789
 20
123.9771777228
 10
166.7404428681
 20
123.9310596872
 10
166.5730683746
 20
123.8712015152
 10
166.4212143991
 20
123.7976745838
 10
166.283281541
 20
123.7104075159
 10
166.1577257455
 20
123.6153032344
 10
166.0449514517
 20
123.5132456548
 10
165.9445542206
 20
123.4033508616
 10
165.8537766791
 20
123.2888700309
 10
165.7725039003
 20
123.1707605772
 10
165.7008508112
 20
123.0480650859
 10
165.6364048198
 20
122.9211624891
 10
165.5788681268
 20
122.7914631358
 10
165.5285385315
 20
122.657556677
 10
165.4838968397
 20
122.5155909972
 10
165.4440372502
 20
122.3655425598
 10
165.4098655641
 20
122.2074349013
 10
165.3825799908
 20
122.0374865159
 10
165.3625799331
 20
121.8544369016
 10
165.3494659882
 20
121.6595465603
 10
165.3432381559
 20
121.452815492
  0
LWPOLYLINE
  5
389
100
AcDbEntity
  8
RACCORDO
100
AcDbPolyline
 62
250
  6
CONTINUOUS
 90
28
 70
0
 10
136.6304389526
 20
139.6145046964
 10
136.3901061681
 20
139.7214999728
 10
136.1568036276
 20
139.8056195685
 10
135.9305313314
 20
139.8668634835
 10
135.710077037
 20
139.9042255545
 10
135.4966529867
 20
139.9187119447
 10
135.2938959073
 20
139.9133411446
 10
135.1019333256
 20
139.8870802995
 10
134.9206377147
 20
139.8409622639
 10
134.7532632213
 20
139.7811040919
 10
134.6014092457
 20
139.7075771605
 10
134.4634763876
 20
139.6203100926
 10
134.3379205921
 20
139.5252058111
 10
134.2251462984
 20
139.4231482315
 10
134.1247490672
 20
139.3132534383
 10
134.0339715257
 20
139.1987726076
 10
133.9526987469
 20
139.0806631539
 10
133.8810456578
 20
138.9579676626
 10
133.8165996664
 20
138.8310650658
 10
133.7590629734
 20
138.7013657125
 10
133.7087333781
 20
138.5674592537
 10
133.6640916863
 20
138.4254935739
 10
133.6242320968
 20
138.2754451365
 10
133.5900604107
 20
138.117337478
 10
133.5627748374
 20
137.9473890926
 10
133.5427747797
 20
137.7643394783
 10
133.5296608348
 20
137.569449137
 10
133.5234330026
 20
137.3627180687
  0
LWPOLYLINE
  5
38A
100
AcDbEntity
  8
RACCORDO
100
AcDbPolyline
 62
250
  6
CONTINUOUS
 90
12
 70
0
 10
168.8523037568
 20
124.424535054
 10
168.5797894939
 20
124.546349334
 10
168.3128024666
 20
124.6408852212
 10
168.0527773905
 20
124.7087040751
 10
167.800513171
 20
124.7505713387
 10
167.5576505024
 20
124.7672195133
 10
167.3265348964
 20
124.7597793567
 10
167.10712211
 20
124.7295738264
 10
166.9006944236
 20
124.6781891478
 10
166.7107521662
 20
124.6086206443
 10
166.5380068298
 20
124.5239458704
 10
166.4567373966
 20
124.476092111
  0
LWPOLYLINE
  5
38B
100
AcDbEntity
  8
RACCORDO
100
AcDbPolyline
 62
250
  6
CONTINUOUS
 90
12
 70
0
 10
137.0324986034
 20
140.3344376307
 10
136.7599843405
 20
140.4562519107
 10
136.4929973132
 20
140.5507877979
 10
136.2329722371
 20
140.6186066518
 10
135.9807080176
 20
140.6604739154
 10
135.7378453491
 20
140.67712209
 10
135.506729743
 20
140.6696819334
 10
135.2873169566
 20
140.6394764031
 10
135.0808892702
 20
140.5880917245
 10
134.8909470128
 20
140.518523221
 10
134.7182016764
 20
140.4338484471
 10
134.6369322432
 20
140.3859946877
  0
LINE
  5
38C
100
AcDbEntity
  8
RACCORDO
100
AcDbLine
 62
250
  6
CONTINUOUS
 10
180.2740270462
 20
117.7225543036
 11
170.6573748221
 21
122.5308804157
  0
LINE
  5
38D
100
AcDbEntity
  8
RACCORDO
100
AcDbLine
 62
250
  6
CONTINUOUS
 10
148.4542218928
 20
133.6324568803
 11
138.8375696687
 21
138.4407829924
  0
LINE
  5
38E
100
AcDbEntity
  8
RACCORDO
100
AcDbLine
 62
250
  6
CONTINUOUS
 10
182.4811577623
 20
116.6891452915
 11
180.4842300331
 21
117.6876091562
  0
LINE
  5
38F
100
AcDbEntity
  8
RACCORDO
100
AcDbLine
 62
250
  6
CONTINUOUS
 10
170.4471718352
 20
122.7061382551
 11
168.450244106
 21
123.7046021197
  0
LINE
  5
390
100
AcDbEntity
  8
RACCORDO
100
AcDbLine
 62
250
  6
CONTINUOUS
 10
150.6613526089
 20
132.5990478682
 11
148.6644248797
 21
133.5975117329
  0
LINE
  5
391
100
AcDbEntity
  8
RACCORDO
100
AcDbLine
 62
250
  6
CONTINUOUS
 10
138.6273666818
 20
138.6160408318
 11
136.6304389526
 21
139.6145046964
  0
LINE
  5
392
100
AcDbEntity
  8
RACCORDO
100
AcDbLine
 62
7
  6
CONTINUOUS
 10
180.7210993672
 20
118.2290744511
 11
171.1191029728
 21
123.0300726483
  0
LINE
  5
393
100
AcDbEntity
  8
RACCORDO
100
AcDbLine
 62
7
  6
CONTINUOUS
 10
148.9012942138
 20
134.1389770278
 11
139.2992978194
 21
138.939975225
  0
LINE
  5
394
100
AcDbEntity
  8
RACCORDO
100
AcDbLine
 62
250
  6
CONTINUOUS
 10
137.0324987556
 20
140.3344377255
 11
138.780569726
 21
139.4604022403
  0
LINE
  5
395
100
AcDbEntity
  8
RACCORDO
100
AcDbLine
 62
250
  6
CONTINUOUS
 10
149.3153414414
 20
134.1930163826
 11
151.0634124119
 21
133.3189808974
  0
LINE
  5
396
100
AcDbEntity
  8
RACCORDO
100
AcDbLine
 62
250
  6
CONTINUOUS
 10
168.852303909
 20
124.4245351488
 11
170.6003748794
 21
123.5504996636
  0
LINE
  5
397
100
AcDbEntity
  8
RACCORDO
100
AcDbLine
 62
250
  6
CONTINUOUS
 10
181.1351465948
 20
118.2831138059
 11
182.8832175653
 21
117.4090783207
  0
LINE
  5
398
100
AcDbEntity
  8
RACCORDO
100
AcDbLine
 62
7
  6
CONTINUOUS
 10
184.097248991
 20
118.0296812791
 11
182.3953473898
 21
118.8806320797
  0
LINE
  5
399
100
AcDbEntity
  8
RACCORDO
100
AcDbLine
 62
7
  6
CONTINUOUS
 10
171.6473243157
 20
124.2546436168
 11
169.9454227145
 21
125.1055944174
  0
LINE
  5
39A
100
AcDbEntity
  8
RACCORDO
100
AcDbLine
 62
7
  6
CONTINUOUS
 10
152.2774438376
 20
133.9395838558
 11
150.5755422364
 21
134.7905346564
  0
LINE
  5
39B
100
AcDbEntity
  8
RACCORDO
100
AcDbLine
 62
7
  6
CONTINUOUS
 10
139.8275191623
 20
140.1645461935
 11
138.1256175612
 21
141.015496994
  0
LWPOLYLINE
  5
39C
100
AcDbEntity
  8
RACCORDO
100
AcDbPolyline
 62
250
  6
CONTINUOUS
 90
13
 70
0
 10
170.6573748221
 20
122.5308804157
 10
170.6391451629
 20
122.540575924
 10
170.6212218559
 20
122.5510163463
 10
170.6036049008
 20
122.5622016825
 10
170.5864172874
 20
122.5740476745
 10
170.569536026
 20
122.5866385804
 10
170.5525921481
 20
122.6002271747
 10
170.535525781
 20
122.6147894741
 10
170.5183967975
 20
122.6303494618
 10
170.5010158462
 20
122.6472318614
 10
170.4833198102
 20
122.6655449141
 10
170.4653718066
 20
122.6851803786
 10
170.4471718352
 20
122.7061382551
  0
LWPOLYLINE
  5
39D
100
AcDbEntity
  8
RACCORDO
100
AcDbPolyline
 62
7
  6
CONTINUOUS
 90
4
 70
0
 10
171.1191656417
 20
123.0300412955
 10
171.1149465396
 20
123.0323254238
 10
171.1068284557
 20
123.0374476293
 10
171.102643256
 20
123.0403763602
  0
LWPOLYLINE
  5
39E
100
AcDbEntity
  8
RACCORDO
100
AcDbPolyline
 62
250
  6
CONTINUOUS
 90
10
 70
0
 10
170.93794024
 20
123.8544189399
 10
170.98728025
 20
123.824718287
 10
171.0355708658
 20
123.7856338892
 10
171.0813448012
 20
123.7383533063
 10
171.1232112386
 20
123.6843131347
 10
171.1598980874
 20
123.6251553577
 10
171.1902906362
 20
123.5626774545
 10
171.2134654228
 20
123.4987777845
 10
171.2287182931
 20
123.4353979069
 10
171.2355857963
 20
123.3744635871
  0
LINE
  5
39F
100
AcDbEntity
  8
RACCORDO
100
AcDbLine
 62
7
  6
CONTINUOUS
 10
171.1026522107
 20
123.040369679
 11
171.1021724134
 21
123.0407168222
  0
LINE
  5
3A0
100
AcDbEntity
  8
RACCORDO
100
AcDbLine
 62
250
  6
CONTINUOUS
 10
171.9301670282
 20
122.8710694015
 11
171.2355857963
 21
123.3744635871
  0
LWPOLYLINE
  5
3A1
100
AcDbEntity
  8
RACCORDO
100
AcDbPolyline
 62
250
  6
CONTINUOUS
 90
8
 70
0
 10
171.1021724134
 20
123.0407168222
 10
171.0938947046
 20
123.0468942053
 10
171.0843651489
 20
123.0544325011
 10
171.0746039959
 20
123.0626114232
 10
171.0646254022
 20
123.071431791
 10
171.054246242
 20
123.0810735544
 10
171.043429008
 20
123.0916120508
 10
171.0322689385
 20
123.1030028701
  0
LINE
  5
3A2
100
AcDbEntity
  8
RACCORDO
100
AcDbLine
 62
250
  6
CONTINUOUS
 10
171.0322689385
 20
123.1030028701
 11
171.020795437
 21
123.1152584503
  0
LWPOLYLINE
  5
3A3
100
AcDbEntity
  8
RACCORDO
100
AcDbPolyline
 62
250
  6
CONTINUOUS
 90
3
 70
0
 10
171.020795437
 20
123.1152584503
 10
171.0119093757
 20
123.1251922945
 10
171.0036685853
 20
123.134891854
  0
LWPOLYLINE
  5
3A4
100
AcDbEntity
  8
RACCORDO
100
AcDbPolyline
 62
250
  6
CONTINUOUS
 90
32
 70
0
 10
171.0036685853
 20
123.134891854
 10
170.9960584896
 20
123.1443369317
 10
170.9890706771
 20
123.1535033788
 10
170.9826840083
 20
123.1623783473
 10
170.9768649143
 20
123.1709604361
 10
170.9716030476
 20
123.1792297825
 10
170.9668797325
 20
123.1871759773
 10
170.962649847
 20
123.1948138572
 10
170.9589027987
 20
123.2021266967
 10
170.9556222805
 20
123.209107309
 10
170.9527565894
 20
123.2157871591
 10
170.9502945598
 20
123.2221532677
 10
170.9482240883
 20
123.2282005765
 10
170.946495215
 20
123.233974985
 10
170.9450959037
 20
123.2394708326
 10
170.9440198394
 20
123.2446809951
 10
170.9432293565
 20
123.2496515959
 10
170.942713206
 20
123.2543814455
 10
170.9424688971
 20
123.2588629199
 10
170.9424753874
 20
123.2631344355
 10
170.9427225409
 20
123.2671981439
 10
170.9432106264
 20
123.2710458969
 10
170.9439371217
 20
123.2747020858
 10
170.9448929644
 20
123.2781715068
 10
170.9460802914
 20
123.2814452447
 10
170.9475155051
 20
123.2845280562
 10
170.9491901885
 20
123.2874273986
 10
170.9511077497
 20
123.2901328448
 10
170.9533034448
 20
123.2926227992
 10
170.9557876558
 20
123.294889286
 10
170.9585456093
 20
123.2969378609
 10
170.9615751225
 20
123.2987673976
  0
LWPOLYLINE
  5
3A5
100
AcDbEntity
  8
RACCORDO
100
AcDbPolyline
 62
250
  6
CONTINUOUS
 90
8
 70
0
 10
184.3349625283
 20
101.3350519321
 10
184.3384328592
 20
101.2704625518
 10
184.3487870798
 20
101.2104001393
 10
184.3658558024
 20
101.1558472734
 10
184.3893597946
 20
101.1076964007
 10
184.4189145476
 20
101.0667352355
 10
184.4540365665
 20
101.0336338738
 10
184.4907959671
 20
101.0105789208
  0
LINE
  5
3A6
100
AcDbEntity
  8
RACCORDO
100
AcDbLine
 62
250
  6
CONTINUOUS
 10
183.4869512913
 20
89.5366600943
 11
183.4869512913
 21
100.7204601372
  0
LWPOLYLINE
  5
3A7
100
AcDbEntity
  8
RACCORDO
100
AcDbPolyline
 62
250
  6
CONTINUOUS
 90
19
 70
0
 10
181.5065699603
 20
96.1187507813
 10
181.4920103321
 20
95.6111038354
 10
181.4486469838
 20
95.1237356715
 10
181.3764799154
 20
94.6566462895
 10
181.2748439074
 20
94.2071956312
 10
181.1444041793
 20
93.7780237548
 10
180.9871563895
 20
93.3770508353
 10
180.802777981
 20
93.0053300768
 10
180.5915915109
 20
92.6618082751
 10
180.3565603088
 20
92.3512459925
 10
180.0972821906
 20
92.0740179102
 10
179.8141593405
 20
91.829749347
 10
179.5113616409
 20
91.6220768214
 10
179.1886265582
 20
91.4515688782
 10
178.8462166261
 20
91.3176569727
 10
178.4890893279
 20
91.2222719898
 10
178.1170224274
 20
91.1659708919
 10
177.7302381607
 20
91.1481967167
 10
177.6386840649
 20
91.1530563087
  0
LWPOLYLINE
  5
3A8
100
AcDbEntity
  8
RACCORDO
100
AcDbPolyline
 62
250
  6
CONTINUOUS
 90
13
 70
0
 10
180.9458638996
 20
96.1211973851
 10
180.9297631302
 20
95.6022381015
 10
180.8815508669
 20
95.1022818456
 10
180.8014967368
 20
94.6241245795
 10
180.6900484219
 20
94.1704402931
 10
180.547829201
 20
93.743766246
 10
180.3756345074
 20
93.3464887384
 10
180.1744274269
 20
92.9808295651
 10
179.9453331871
 20
92.6488334793
 10
179.6896329035
 20
92.3523569736
 10
179.408756526
 20
92.0930580295
 10
179.1042748595
 20
91.8723867787
 10
178.7688799809
 20
91.687299922
  0
LWPOLYLINE
  5
3A9
100
AcDbEntity
  8
RACCORDO
100
AcDbPolyline
 62
250
  6
CONTINUOUS
 90
19
 70
0
 10
183.4869512913
 20
100.7204601372
 10
183.4903899217
 20
100.8108474414
 10
183.5001195323
 20
100.8960728965
 10
183.516140123
 20
100.9761365025
 10
183.5387966867
 20
101.0516860241
 10
183.5677442305
 20
101.1220736967
 10
183.601947776
 20
101.1853562262
 10
183.6416047498
 20
101.2411139496
 10
183.6865177251
 20
101.28976653
 10
183.7350594439
 20
101.3306296628
 10
183.7867131116
 20
101.3634287894
 10
183.8419955228
 20
101.3884384683
 10
183.9008298028
 20
101.4057980706
 10
183.9629424918
 20
101.416092234
 10
184.0286070497
 20
101.4187363207
 10
184.0985669817
 20
101.4121157881
 10
184.1730701231
 20
101.3956924554
 10
184.2518686386
 20
101.3700045034
 10
184.3349625283
 20
101.3350519321
  0
LWPOLYLINE
  5
3AA
100
AcDbEntity
  8
RACCORDO
100
AcDbPolyline
 62
250
  6
CONTINUOUS
 90
13
 70
0
 10
182.4811577623
 20
116.6891452915
 10
182.4845497748
 20
116.7564162057
 10
182.4946715738
 20
116.8260034638
 10
182.5113613106
 20
116.8967943585
 10
182.5343521147
 20
116.9676569364
 10
182.5632763608
 20
117.0374580977
 10
182.5976715474
 20
117.1050817149
 10
182.6369876919
 20
117.1694464794
 10
182.6805961253
 20
117.2295231922
 10
182.7277995447
 20
117.2843512204
 10
182.7778431628
 20
117.3330538582
 10
182.8299267771
 20
117.3748523457
 10
182.8832175653
 20
117.4090783207
  0
LWPOLYLINE
  5
3AB
100
AcDbEntity
  8
0
100
AcDbPolyline
 62
7
  6
CONTINUOUS
 90
15
 70
0
 10
176.7756147565
 20
90.8545252463
 10
177.005770707
 20
90.9988678174
 10
177.2231686452
 20
91.1636085474
 10
177.427492957
 20
91.3487524702
 10
177.6190592565
 20
91.5542945519
 10
177.7964230703
 20
91.7787123015
 10
177.9596396997
 20
92.0224429673
 10
178.1086538434
 20
92.2850493009
 10
178.2418551229
 20
92.5636970656
 10
178.3589541025
 20
92.858191817
 10
178.460240218
 20
93.1687279995
 10
178.5449713981
 20
93.49305471
 10
178.6130882774
 20
93.8317097802
 10
178.6646502213
 20
94.1841553784
 10
178.6990932547
 20
94.5465271061
  0
LWPOLYLINE
  5
3AC
100
AcDbEntity
  8
0
100
AcDbPolyline
 62
7
  6
CONTINUOUS
 90
27
 70
0
 10
172.017762536
 20
88.5963019621
 10
172.3973990856
 20
88.8112756849
 10
172.7638115597
 20
89.0985986204
 10
173.0920447249
 20
89.4455504794
 10
173.3791255101
 20
89.8489938619
 10
173.622446529
 20
90.3052686713
 10
173.8198021707
 20
90.8102391507
 10
173.9694054913
 20
91.3593333217
 10
174.0699005569
 20
91.9475756262
 10
174.1203768711
 20
92.5696367955
 10
174.1203771366
 20
93.2198817139
 10
174.0699013692
 20
93.8924188293
 10
173.9694069105
 20
94.5811556517
 10
173.8198042835
 20
95.2798524847
 10
173.622449383
 20
95.9821780578
 10
173.3791291276
 20
96.6817734843
 10
173.0920491161
 20
97.3722973867
 10
172.7638166442
 20
98.0474824301
 10
172.3974047216
 20
98.7012181689
 10
171.9961370799
 20
99.3275791489
 10
171.5636684709
 20
99.9208704909
 10
171.1039191378
 20
100.4757275074
 10
170.6210589666
 20
100.9871302806
 10
170.1194909895
 20
101.4504333005
 10
169.6037706524
 20
101.8614526863
 10
169.0785608454
 20
102.2164955643
 10
168.5486163414
 20
102.512368986
  0
LWPOLYLINE
  5
3AD
100
AcDbEntity
  8
RACCORDO
100
AcDbPolyline
 62
250
  6
CONTINUOUS
 90
12
 70
0
 10
176.760002924
 20
90.7377037304
 10
177.0933826484
 20
90.9216789836
 10
177.3960291173
 20
91.1410210871
 10
177.6752125093
 20
91.3987579693
 10
177.9293714805
 20
91.6934481829
 10
178.1570847543
 20
92.0234437495
 10
178.3570790701
 20
92.3868995776
 10
178.5282360068
 20
92.7817834237
 10
178.6695981764
 20
93.2058868022
 10
178.7803748618
 20
93.6568376223
 10
178.8599465361
 20
94.132113841
 10
178.9078682391
 20
94.6290576481
  0
LINE
  5
3AE
100
AcDbEntity
  8
0
100
AcDbLine
 62
7
  6
CONTINUOUS
 10
176.5798425943
 20
90.7527972274
 11
176.7756147565
 21
90.8545252463
  0
LINE
  5
3AF
100
AcDbEntity
  8
0
100
AcDbLine
 62
7
  6
CONTINUOUS
 10
176.5796751561
 20
90.752718073
 11
172.017762536
 21
88.5963019621
  0
LINE
  5
3B0
100
AcDbEntity
  8
DRAFT
100
AcDbLine
 62
7
  6
CONTINUOUS
 10
178.7688799809
 20
91.687299922
 11
176.760002924
 21
90.7377037304
  0
LINE
  5
3B1
100
AcDbEntity
  8
RACCORDO
100
AcDbLine
 62
7
  6
CONTINUOUS
 10
176.4459919342
 20
90.6093396231
 11
176.7589972032
 21
90.7372285515
  0
LWPOLYLINE
  5
3B2
100
AcDbEntity
  8
RACCORDO
100
AcDbPolyline
 62
250
  6
CONTINUOUS
 90
5
 70
0
 10
149.8661581606
 20
134.3903099795
 10
149.8172679651
 20
134.4097244373
 10
149.7703130378
 20
134.4182628299
 10
149.7267200803
 20
134.4156657161
 10
149.6844104375
 20
134.400154907
  0
LWPOLYLINE
  5
3B3
100
AcDbEntity
  8
RACCORDO
100
AcDbPolyline
 62
250
  6
CONTINUOUS
 90
6
 70
0
 10
181.1351409227
 20
118.2831233637
 10
181.1202274379
 20
118.3061609528
 10
181.1058140834
 20
118.3231053529
 10
181.0921437791
 20
118.3336712408
 10
181.0794472161
 20
118.3376808557
 10
181.0743038051
 20
118.3373615706
  0
LWPOLYLINE
  5
3B4
100
AcDbEntity
  8
RACCORDO
100
AcDbPolyline
 62
250
  6
CONTINUOUS
 90
4
 70
0
 10
188.6095166762
 20
100.9618748859
 10
188.6416457307
 20
100.896000758
 10
188.6646999252
 20
100.8282225334
 10
188.6783918431
 20
100.7596258414
  0
LWPOLYLINE
  5
3B5
100
AcDbEntity
  8
RACCORDO
100
AcDbPolyline
 62
250
  6
CONTINUOUS
 90
13
 70
0
 10
180.4842302251
 20
117.6876091891
 10
180.4663512166
 20
117.7456140072
 10
180.4554488623
 20
117.8055540636
 10
180.4517760967
 20
117.8660387642
 10
180.4554181367
 20
117.9256648815
 10
180.4662904837
 20
117.983049103
 10
180.4841408892
 20
118.0368601252
 10
180.5085552342
 20
118.0858495468
 10
180.5389671191
 20
118.1288808303
 10
180.5746709905
 20
118.1649556629
 10
180.6148385206
 20
118.1932371168
 10
180.6585378394
 20
118.2130690711
 10
180.6910804269
 20
118.221745627
  0
LWPOLYLINE
  5
3B6
100
AcDbEntity
  8
RACCORDO
100
AcDbPolyline
 62
7
  6
CONTINUOUS
 90
3
 70
0
 10
187.6444333702
 20
85.0286645767
 10
187.6378342004
 20
85.1442446852
 10
187.6279375706
 20
85.2029134921
  0
LWPOLYLINE
  5
3B7
100
AcDbEntity
  8
RACCORDO
100
AcDbPolyline
 62
250
  6
CONTINUOUS
 90
8
 70
0
 10
185.3054501626
 20
100.849808115
 10
185.3089201996
 20
100.7852212724
 10
185.319273684
 20
100.7251605402
 10
185.3363414097
 20
100.6706085228
 10
185.3598443327
 20
100.6224577396
 10
185.3893981179
 20
100.5814960462
 10
185.4245194103
 20
100.5483937262
 10
185.4613860359
 20
100.5252838538
  0
LWPOLYLINE
  5
3B8
100
AcDbEntity
  8
RACCORDO
100
AcDbPolyline
 62
250
  6
CONTINUOUS
 90
34
 70
0
 10
186.4139061449
 20
87.0906568465
 10
186.4107669998
 20
87.1565441287
 10
186.4040610671
 20
87.221749015
 10
186.3942098554
 20
87.2857676244
 10
186.3816471527
 20
87.3480489611
 10
186.3667677123
 20
87.4083469856
 10
186.3498723906
 20
87.4667235095
 10
186.3312795379
 20
87.522968949
 10
186.311308239
 20
87.5768609332
 10
186.2901640692
 20
87.6285159763
 10
186.2680860621
 20
87.6778487141
 10
186.245321953
 20
87.7247442008
 10
186.222025222
 20
87.7693131686
 10
186.198408559
 20
87.8114869839
 10
186.1746304004
 20
87.8512867473
 10
186.1507091175
 20
87.8889694481
 10
186.1268016104
 20
87.9245114313
 10
186.1030091042
 20
87.9579648355
 10
186.0792130371
 20
87.9896809012
 10
186.0555017814
 20
88.0196759574
 10
186.0319531864
 20
88.0479740102
 10
186.0083894986
 20
88.074897417
 10
185.9848675196
 20
88.1004550307
 10
185.9614377786
 20
88.1246595531
 10
185.9378831028
 20
88.1477888723
 10
185.9142420566
 20
88.1698328352
 10
185.8905487783
 20
88.1907842808
 10
185.8665601872
 20
88.2108673551
 10
185.8423069596
 20
88.2300444979
 10
185.8178160576
 20
88.2482805335
 10
185.7928289654
 20
88.2657360168
 10
185.767278346
 20
88.282399182
 10
185.7412926421
 20
88.2981259977
 10
185.7149076288
 20
88.3128406851
  0
LWPOLYLINE
  5
3B9
100
AcDbEntity
  8
RACCORDO
100
AcDbPolyline
 62
250
  6
CONTINUOUS
 90
34
 70
0
 10
185.5881637123
 20
87.1014682598
 10
185.5870682523
 20
87.1283259236
 10
185.5848174424
 20
87.1545249383
 10
185.5814112827
 20
87.1800653039
 10
185.5767078087
 20
87.2050189494
 10
185.5708489848
 20
87.2293139458
 10
185.5642607049
 20
87.2527345059
 10
185.556978069
 20
87.2752338539
 10
185.548965977
 20
87.2968587655
 10
185.5405450222
 20
87.3175337804
 10
185.5317408475
 20
87.3372342361
 10
185.52252781
 20
87.355984795
 10
185.5131495746
 20
87.3737839843
 10
185.5036403838
 20
87.3905975145
 10
185.4939659951
 20
87.406459675
 10
185.4842673459
 20
87.4214718613
 10
185.4745772609
 20
87.4356160143
 10
185.4648629154
 20
87.448910193
 10
185.4551667723
 20
87.4615099708
 10
185.4455075977
 20
87.4734199235
 10
185.4358666255
 20
87.4846354752
 10
185.4262300202
 20
87.4952984713
 10
185.4166100007
 20
87.505418995
 10
185.4069943482
 20
87.5149869632
 10
185.3973325706
 20
87.5241139718
 10
185.3876320202
 20
87.5328137642
 10
185.3778853447
 20
87.5410725971
 10
185.3680199956
 20
87.5489608364
 10
185.3580392155
 20
87.5564958371
 10
185.3479397617
 20
87.5636602441
 10
185.3376393572
 20
87.5704723584
 10
185.3271105763
 20
87.5769382801
 10
185.3163808448
 20
87.5830519091
 10
185.3054501626
 20
87.5888132452
  0
LWPOLYLINE
  5
3BA
100
AcDbEntity
  8
RACCORDO
100
AcDbPolyline
 62
250
  6
CONTINUOUS
 90
28
 70
0
 10
186.4139059759
 20
111.3195412142
 10
186.4018168249
 20
111.6557501922
 10
186.3697371998
 20
111.9954972098
 10
186.3187148899
 20
112.336546325
 10
186.2496985789
 20
112.6774150418
 10
186.1639607129
 20
113.0155128764
 10
186.0633895282
 20
113.3471130792
 10
185.9490278727
 20
113.6715146657
 10
185.8226980156
 20
113.986280074
 10
185.6883002888
 20
114.2854831931
 10
185.5486095815
 20
114.5665210015
 10
185.4046242146
 20
114.8306962521
 10
185.2579076807
 20
115.0784562422
 10
185.1103406532
 20
115.309023754
 10
184.9627500512
 20
115.5231854583
 10
184.8146715444
 20
115.7237526356
 10
184.6672945918
 20
115.9105154021
 10
184.5210747031
 20
116.0840586692
 10
184.3739396332
 20
116.2479450351
 10
184.2271651654
 20
116.4014275473
 10
184.0804042389
 20
116.5453492782
 10
183.9286860031
 20
116.6846477319
 10
183.7716544856
 20
116.8192094426
 10
183.610109902
 20
116.9477668726
 10
183.4405518424
 20
117.072222406
 10
183.2619903916
 20
117.1920297379
 10
183.0760540605
 20
117.3048207244
 10
182.8832175653
 20
117.4090783207
  0
LWPOLYLINE
  5
3BB
100
AcDbEntity
  8
RACCORDO
100
AcDbPolyline
 62
250
  6
CONTINUOUS
 90
28
 70
0
 10
185.5881637123
 20
111.3303527138
 10
185.5774095413
 20
111.6300761447
 10
185.5508475403
 20
111.929093235
 10
185.5084777094
 20
112.2274039849
 10
185.4489836237
 20
112.5271512941
 10
185.3736817082
 20
112.8261922629
 10
185.2865212372
 20
113.1180981915
 10
185.1867109511
 20
113.4031085221
 10
185.0750421096
 20
113.6809838125
 10
184.957837766
 20
113.9445770367
 10
184.8358091519
 20
114.1915737214
 10
184.7082450358
 20
114.42428834
 10
184.5793347762
 20
114.6425172865
 10
184.4499651989
 20
114.8453218131
 10
184.319249478
 20
115.0336406675
 10
184.1887164949
 20
115.2100864874
 10
184.0591010568
 20
115.3744326254
 10
183.9296683566
 20
115.5269057289
 10
183.7997428544
 20
115.6707983775
 10
183.6703545193
 20
115.8059603146
 10
183.5404733823
 20
115.9325417969
 10
183.4063339957
 20
116.0542861733
 10
183.2675473503
 20
116.1724973239
 10
183.1245024554
 20
116.2858713686
 10
182.9746008911
 20
116.3942400168
 10
182.8169765175
 20
116.4975471715
 10
182.6524954746
 20
116.5958489298
 10
182.4811577623
 20
116.6891452915
  0
LINE
  5
3BC
100
AcDbEntity
  8
RACCORDO
100
AcDbLine
 62
250
  6
CONTINUOUS
 10
184.320414376
 20
89.5293860182
 11
184.320414376
 21
100.7131860611
  0
LINE
  5
3BD
100
AcDbEntity
  8
RACCORDO
100
AcDbLine
 62
7
  6
CONTINUOUS
 10
185.506617227
 20
100.5054778677
 11
185.506617227
 21
100.0792058688
  0
LINE
  5
3BE
100
AcDbEntity
  8
RACCORDO
100
AcDbLine
 62
7
  6
CONTINUOUS
 10
185.506617227
 20
91.2695182643
 11
185.506617227
 21
90.1314829467
  0
LINE
  5
3BF
100
AcDbEntity
  8
RACCORDO
100
AcDbLine
 62
250
  6
CONTINUOUS
 10
185.5881637123
 20
76.8255550966
 11
185.5881637123
 21
87.1014682598
  0
LINE
  5
3C0
100
AcDbEntity
  8
RACCORDO
100
AcDbLine
 62
250
  6
CONTINUOUS
 10
185.5881637123
 20
101.0544395506
 11
185.5881637123
 21
111.3303527138
  0
LINE
  5
3C1
100
AcDbEntity
  8
RACCORDO
100
AcDbLine
 62
250
  6
CONTINUOUS
 10
186.4139061449
 20
76.8147436833
 11
186.4139061449
 21
87.0906568465
  0
LINE
  5
3C2
100
AcDbEntity
  8
RACCORDO
100
AcDbLine
 62
250
  6
CONTINUOUS
 10
186.4139061449
 20
101.0436281373
 11
186.4139061449
 21
111.3195413005
  0
LWPOLYLINE
  5
3C3
100
AcDbEntity
  8
RACCORDO
100
AcDbPolyline
 62
250
  6
CONTINUOUS
 90
10
 70
0
 10
184.3204162847
 20
100.7131868722
 10
184.3207347494
 20
100.7572984011
 10
184.3244608786
 20
100.7995338874
 10
184.3315552275
 20
100.8395566362
 10
184.3419787595
 20
100.8771383244
 10
184.3556353795
 20
100.9118702779
 10
184.3722971918
 20
100.9432479132
 10
184.3917663799
 20
100.9710822239
 10
184.4138346912
 20
100.9952611006
 10
184.4381343665
 20
101.0155792776
  0
LWPOLYLINE
  5
3C4
100
AcDbEntity
  8
RACCORDO
100
AcDbPolyline
 62
250
  6
CONTINUOUS
 90
13
 70
0
 10
184.3349625283
 20
88.0740570624
 10
184.3384331306
 20
88.142119523
 10
184.3487880527
 20
88.2125384737
 10
184.3658577209
 20
88.2841617945
 10
184.3893627049
 20
88.3558176772
 10
184.4189183236
 20
88.4263338912
 10
184.4540409696
 20
88.4945569538
 10
184.4941559399
 20
88.5593708206
 10
184.538606908
 20
88.6197152983
 10
184.586666741
 20
88.6746034388
 10
184.6375492391
 20
88.7231374557
 10
184.6904219691
 20
88.7645234471
 10
184.7444199945
 20
88.7980845022
  0
LWPOLYLINE
  5
3C5
100
AcDbEntity
  8
RACCORDO
100
AcDbPolyline
 62
250
  6
CONTINUOUS
 90
13
 70
0
 10
185.3054501626
 20
87.5888132452
 10
185.3089204935
 20
87.6568729565
 10
185.3192747141
 20
87.7272895896
 10
185.3363434367
 20
87.7989111781
 10
185.3598474289
 20
87.870566043
 10
185.3894021819
 20
87.9410819612
 10
185.4245242008
 20
88.0093053418
 10
185.464638914
 20
88.0741200983
 10
185.5090900731
 20
88.1344659068
 10
185.5571504882
 20
88.1893555524
 10
185.6080339249
 20
88.2378910789
 10
185.6609079658
 20
88.2792784794
 10
185.7149076288
 20
88.3128406851
  0
LINE
  5
3C6
100
AcDbEntity
  8
RACCORDO
100
AcDbLine
 62
250
  6
CONTINUOUS
 10
188.1465452962
 20
92.9834149034
 11
187.6986482487
 21
92.7232286904
  0
LINE
  5
3C7
100
AcDbEntity
  8
RACCORDO
100
AcDbLine
 62
7
  6
CONTINUOUS
 10
186.9955986098
 20
92.3598249673
 11
185.789121251
 21
91.7474370342
  0
LWPOLYLINE
  5
3C8
100
AcDbEntity
  8
RACCORDO
100
AcDbPolyline
 62
250
  6
CONTINUOUS
 90
13
 70
0
 10
188.3442565459
 20
100.0942944314
 10
188.3400137183
 20
100.1631182681
 10
188.3261443295
 20
100.232089719
 10
188.3028804527
 20
100.3000547023
 10
188.2706113562
 20
100.3658759772
 10
188.2298769909
 20
100.428452173
 10
188.1813589544
 20
100.486736218
 10
188.1258690868
 20
100.5397528601
 10
188.0643358859
 20
100.5866149852
 10
187.9977889713
 20
100.6265384613
 10
187.9273418556
 20
100.658855259
 10
187.8541733125
 20
100.6830246295
 10
187.7795076527
 20
100.6986421529
  0
LINE
  5
3C9
100
AcDbEntity
  8
RACCORDO
100
AcDbLine
 62
250
  6
CONTINUOUS
 10
188.6783918431
 20
100.7596258414
 11
188.6825630861
 21
100.6913489046
  0
LWPOLYLINE
  5
3CA
100
AcDbEntity
  8
RACCORDO
100
AcDbPolyline
 62
7
  6
CONTINUOUS
 90
3
 70
0
 10
187.6444333702
 20
106.6792996713
 10
187.6378342004
 20
106.7948797798
 10
187.6279375706
 20
106.8535485867
  0
LWPOLYLINE
  5
3CB
100
AcDbEntity
  8
RACCORDO
100
AcDbPolyline
 62
250
  6
CONTINUOUS
 90
13
 70
0
 10
188.1096844213
 20
99.8883310526
 10
188.1077975864
 20
99.9588066782
 10
188.0984464094
 20
100.0315736482
 10
188.081790644
 20
100.105388827
 10
188.0581148336
 20
100.1789911713
 10
188.027823451
 20
100.2511232741
 10
187.9914339877
 20
100.3205528456
 10
187.9495681138
 20
100.3860937655
 10
187.9029410571
 20
100.4466263465
 10
187.8523493846
 20
100.5011164625
 10
187.7986573936
 20
100.5486332157
 10
187.7427823472
 20
100.58836484
 10
187.6856788028
 20
100.6196325685
  0
LINE
  5
3CC
100
AcDbEntity
  8
DRAFT
100
AcDbLine
 62
7
  6
CONTINUOUS
 10
186.9955986098
 20
100.3773967682
 11
186.9955986098
 21
92.3598249673
  0
LINE
  5
3CD
100
AcDbEntity
  8
RACCORDO
100
AcDbLine
 62
7
  6
CONTINUOUS
 10
187.6279375706
 20
77.2872595305
 11
187.6279375706
 21
87.6865535419
  0
LINE
  5
3CE
100
AcDbEntity
  8
RACCORDO
100
AcDbLine
 62
7
  6
CONTINUOUS
 10
187.6279375706
 20
101.5408502476
 11
187.6279375706
 21
111.940144259
  0
LINE
  5
3CF
100
AcDbEntity
  8
RACCORDO
100
AcDbLine
 62
7
  6
CONTINUOUS
 10
187.6986482487
 20
99.6861556144
 11
187.6986482487
 21
92.7232286904
  0
LINE
  5
3D0
100
AcDbEntity
  8
RACCORDO
100
AcDbLine
 62
250
  6
CONTINUOUS
 10
188.1096844213
 20
92.9618355824
 11
188.1096844213
 21
99.8883310526
  0
LINE
  5
3D1
100
AcDbEntity
  8
RACCORDO
100
AcDbLine
 62
250
  6
CONTINUOUS
 10
188.3442565459
 20
93.1790515186
 11
188.3442565459
 21
100.0942944314
  0
LINE
  5
3D2
100
AcDbEntity
  8
RACCORDO
100
AcDbLine
 62
250
  6
CONTINUOUS
 10
188.6825630861
 20
93.8445742416
 11
188.6825630861
 21
100.6913489046
  0
LINE
  5
3D3
100
AcDbEntity
  8
RACCORDO
100
AcDbLine
 62
7
  6
CONTINUOUS
 10
188.7030075903
 20
93.9222199552
 11
188.7030075903
 21
100.7689946181
  0
LINE
  5
3D4
100
AcDbEntity
  8
RACCORDO
100
AcDbLine
 62
250
  6
CONTINUOUS
 10
188.7030075903
 20
93.9222199552
 11
188.7028796999
 21
93.916026165
  0
LWPOLYLINE
  5
3D5
100
AcDbEntity
  8
RACCORDO
100
AcDbPolyline
 62
250
  6
CONTINUOUS
 90
8
 70
0
 10
188.1096844213
 20
92.9618355824
 10
188.1077975864
 20
92.8968514563
 10
188.0984464094
 20
92.8364728407
 10
188.081790644
 20
92.7817312313
 10
188.0581148336
 20
92.7335618223
 10
188.027823451
 20
92.6927875298
 10
187.9914339877
 20
92.6601049333
 10
187.9728225904
 20
92.6479519111
  0
LINE
  5
3D6
100
AcDbEntity
  8
RACCORDO
100
AcDbLine
 62
250
  6
CONTINUOUS
 10
188.6783911636
 20
93.7798148562
 11
188.6825630861
 21
93.8445742416
  0
LWPOLYLINE
  5
3D7
100
AcDbEntity
  8
RACCORDO
100
AcDbPolyline
 62
250
  6
CONTINUOUS
 90
5
 70
0
 10
188.3442565459
 20
93.1790515186
 10
188.3400137183
 20
93.1137883439
 10
188.3261443295
 20
93.0509164275
 10
188.3028804527
 20
92.9914877891
 10
188.2995629206
 20
92.984809793
  0
LWPOLYLINE
  5
3D8
100
AcDbEntity
  8
RACCORDO
100
AcDbPolyline
 62
7
  6
CONTINUOUS
 90
3
 70
0
 10
187.6279375706
 20
106.5072692674
 10
187.6386803465
 20
106.5726015188
 10
187.6444333702
 20
106.6792996717
  0
LWPOLYLINE
  5
3D9
100
AcDbEntity
  8
RACCORDO
100
AcDbPolyline
 62
250
  6
CONTINUOUS
 90
4
 70
0
 10
188.6825630861
 20
100.6913489046
 10
188.6970343105
 20
100.7267682767
 10
188.7028796994
 20
100.7628008172
 10
188.7030075903
 20
100.7689946181
  0
LINE
  5
3DA
100
AcDbEntity
  8
RACCORDO
100
AcDbLine
 62
250
  6
CONTINUOUS
 10
187.7795076527
 20
100.698642153
 11
188.1178141928
 21
101.295696626
  0
LINE
  5
3DB
100
AcDbEntity
  8
RACCORDO
100
AcDbLine
 62
250
  6
CONTINUOUS
 10
188.3442565459
 20
100.0942944314
 11
188.6825630861
 21
100.6913489046
  0
LWPOLYLINE
  5
3DC
100
AcDbEntity
  8
RACCORDO
100
AcDbPolyline
 62
250
  6
CONTINUOUS
 90
10
 70
0
 10
187.7795076527
 20
100.698642153
 10
187.7734553206
 20
100.6889757205
 10
187.7663060985
 20
100.6795123466
 10
187.7580599865
 20
100.6702520315
 10
187.7487121634
 20
100.6611696567
 10
187.7382674503
 20
100.6522903407
 10
187.7267403113
 20
100.6436894383
 10
187.7141355677
 20
100.635392068
 10
187.7004483982
 20
100.6273731114
 10
187.6856788027
 20
100.6196325685
  0
LWPOLYLINE
  5
3DD
100
AcDbEntity
  8
RACCORDO
100
AcDbPolyline
 62
250
  6
CONTINUOUS
 90
3
 70
0
 10
188.2123560007
 20
93.0289648057
 10
188.1807871883
 20
93.0058201789
 10
188.1465452962
 20
92.9834149034
  0
LWPOLYLINE
  5
3DE
100
AcDbEntity
  8
RACCORDO
100
AcDbPolyline
 62
7
  6
CONTINUOUS
 90
7
 70
0
 10
187.9728225904
 20
92.6479519111
 10
188.0195778774
 20
92.6769722486
 10
188.0997847549
 20
92.7366248973
 10
188.1709800943
 20
92.8034134373
 10
188.2325747874
 20
92.8767261482
 10
188.2834789696
 20
92.9548799823
 10
188.2991701605
 20
92.9840391891
  0
LINE
  5
3DF
100
AcDbEntity
  8
RACCORDO
100
AcDbLine
 62
7
  6
CONTINUOUS
 10
187.9728225904
 20
92.6479519111
 11
187.5054367647
 21
92.3766322002
  0
LINE
  5
3E0
100
AcDbEntity
  8
RACCORDO
100
AcDbLine
 62
250
  6
CONTINUOUS
 10
184.320414376
 20
89.5293860182
 11
185.506617227
 21
90.1314829467
  0
LINE
  5
3E1
100
AcDbEntity
  8
RACCORDO
100
AcDbLine
 62
250
  6
CONTINUOUS
 10
184.7444199945
 20
88.7980845022
 11
185.9306228455
 21
89.4001814308
  0
LINE
  5
3E2
100
AcDbEntity
  8
RACCORDO
100
AcDbLine
 62
250
  6
CONTINUOUS
 10
186.9211536961
 20
88.9049160055
 11
185.7149076288
 21
88.3128406851
  0
LWPOLYLINE
  5
3E3
100
AcDbEntity
  8
RACCORDO
100
AcDbPolyline
 62
250
  6
CONTINUOUS
 90
3
 70
0
 10
149.4239376524
 20
134.2173944119
 10
149.3709337883
 20
134.2048800865
 10
149.3153414414
 20
134.1930163826
  0
LWPOLYLINE
  5
3E4
100
AcDbEntity
  8
RACCORDO
100
AcDbPolyline
 62
7
  6
CONTINUOUS
 90
12
 70
0
 10
149.2740798365
 20
134.2511729456
 10
149.2433056526
 20
134.2450320792
 10
149.1886933465
 20
134.2321757041
 10
149.1362261169
 20
134.2172826298
 10
149.0867884825
 20
134.201464154
 10
149.0402491738
 20
134.1854947217
 10
148.9969465715
 20
134.1702807553
 10
148.9593292638
 20
134.1572583317
 10
148.927377167
 20
134.1467648804
 10
148.9007184481
 20
134.1388051155
 10
148.8813402491
 20
134.133806987
 10
148.8718372827
 20
134.1317563611
  0
LINE
  5
3E5
100
AcDbEntity
  8
RACCORDO
100
AcDbLine
 62
7
  6
CONTINUOUS
 10
148.8712752735
 20
134.1316482037
 11
148.8718372825
 21
134.131756361
  0
LWPOLYLINE
  5
3E6
100
AcDbEntity
  8
RACCORDO
100
AcDbPolyline
 62
250
  6
CONTINUOUS
 90
13
 70
0
 10
148.6644248797
 20
133.5975117329
 10
148.6496497299
 20
133.5950159382
 10
148.634537514
 20
133.5933650615
 10
148.619088232
 20
133.5925591028
 10
148.603419224
 20
133.5925270785
 10
148.5874131498
 20
133.5933399722
 10
148.5707179895
 20
133.5952107349
 10
148.5532590063
 20
133.5980851494
 10
148.5351109369
 20
133.602017433
 10
148.5161459718
 20
133.6073831876
 10
148.4963215078
 20
133.6143076141
 10
148.4756801482
 20
133.6226655116
 10
148.4542218928
 20
133.6324568803
  0
LWPOLYLINE
  5
3E7
100
AcDbEntity
  8
RACCORDO
100
AcDbPolyline
 62
250
  6
CONTINUOUS
 90
10
 70
0
 10
138.7805697499
 20
139.4604022835
 10
138.8302597221
 20
139.4511376121
 10
138.8793618892
 20
139.4363248561
 10
138.9270488939
 20
139.4162135951
 10
138.9725172234
 20
139.3911426863
 10
139.0150007418
 20
139.3615345593
 10
139.0537836012
 20
139.3278881007
 10
139.0882123124
 20
139.2907702415
 10
139.1177067545
 20
139.2508064024
 10
139.1417699448
 20
139.2086699616
  0
LWPOLYLINE
  5
3E8
100
AcDbEntity
  8
RACCORDO
100
AcDbPolyline
 62
250
  6
CONTINUOUS
 90
3
 70
0
 10
188.7028796999
 20
93.916026165
 10
188.6970343123
 20
93.8799936199
 10
188.6825630861
 20
93.8445742416
  0
LWPOLYLINE
  5
3E9
100
AcDbEntity
  8
RACCORDO
100
AcDbPolyline
 62
7
  6
CONTINUOUS
 90
3
 70
0
 10
187.6279375706
 20
84.8566341728
 10
187.6386803465
 20
84.9219664242
 10
187.6444333702
 20
85.0286645771
  0
LWPOLYLINE
  5
3EA
100
AcDbEntity
  8
RACCORDO
100
AcDbPolyline
 62
250
  6
CONTINUOUS
 90
3
 70
0
 10
188.6416417576
 20
93.6579510648
 10
188.6646974345
 20
93.7172542658
 10
188.6783911636
 20
93.7798148562
  0
LINE
  5
3EB
100
AcDbEntity
  8
RACCORDO
100
AcDbLine
 62
250
  6
CONTINUOUS
 10
188.6378694607
 20
93.6503325161
 11
188.6416417576
 21
93.6579510648
  0
LINE
  5
3EC
100
AcDbEntity
  8
RACCORDO
100
AcDbLine
 62
250
  6
CONTINUOUS
 10
188.6825630861
 20
93.8445742416
 11
188.3442565459
 21
93.1790515186
  0
LINE
  5
3ED
100
AcDbEntity
  8
RACCORDO
100
AcDbLine
 62
7
  6
CONTINUOUS
 10
188.6378694607
 20
93.6503325161
 11
188.2995629206
 21
92.984809793
  0
LWPOLYLINE
  5
3EE
100
AcDbEntity
  8
RACCORDO
100
AcDbPolyline
 62
250
  6
CONTINUOUS
 90
7
 70
0
 10
188.3442565459
 20
93.1790515186
 10
188.3291623873
 20
93.15303967
 10
188.3112905544
 20
93.1273209209
 10
188.2906506101
 20
93.1019741732
 10
188.267278893
 20
93.0770951163
 10
188.2411894579
 20
93.0527468824
 10
188.2123560007
 20
93.0289648057
  0
LINE
  5
3EF
100
AcDbEntity
  8
RACCORDO
100
AcDbLine
 62
250
  6
CONTINUOUS
 10
187.6279375706
 20
87.6865535419
 11
186.4139061449
 21
87.0906568465
  0
LWPOLYLINE
  5
3F0
100
AcDbEntity
  8
RACCORDO
100
AcDbPolyline
 62
250
  6
CONTINUOUS
 90
5
 70
0
 10
180.4842300332
 20
75.5722323332
 10
180.4663409235
 20
75.5386795412
 10
180.4554298655
 20
75.5091853288
 10
180.4517498613
 20
75.4844340072
 10
180.4553859494
 20
75.4650000777
  0
LINE
  5
3F1
100
AcDbEntity
  8
RACCORDO
100
AcDbLine
 62
250
  6
CONTINUOUS
 10
186.4139061449
 20
76.8147436833
 11
187.6279375706
 21
77.2872595305
  0
LWPOLYLINE
  5
3F2
100
AcDbEntity
  8
RACCORDO
100
AcDbPolyline
 62
250
  6
CONTINUOUS
 90
20
 70
0
 10
184.9545222786
 20
74.041407158
 10
185.0070454337
 20
74.0629478102
 10
185.1794522953
 20
74.1474533467
 10
185.3363414683
 20
74.245023898
 10
185.47875012
 20
74.3536340543
 10
185.6067951593
 20
74.4707246758
 10
185.7214321562
 20
74.594510215
 10
185.8247950605
 20
74.7248331927
 10
185.9171911475
 20
74.8599989266
 10
185.9992630296
 20
74.9988745194
 10
186.0730921266
 20
75.1431822609
 10
186.1385908876
 20
75.2914215638
 10
186.1962897591
 20
75.4435554723
 10
186.2481985394
 20
75.6047602728
 10
186.2940910694
 20
75.77572821
 10
186.3332526206
 20
75.9557580843
 10
186.3658029681
 20
76.1490228197
 10
186.3908980284
 20
76.3572308519
 10
186.4072786872
 20
76.5791339855
 10
186.4139061449
 20
76.8147436833
  0
LINE
  5
3F3
100
AcDbEntity
  8
RACCORDO
100
AcDbLine
 62
7
  6
CONTINUOUS
 10
184.9494268549
 20
74.0394154153
 11
186.1727270714
 21
74.5155387889
  0
ARC
  5
3F4
100
AcDbEntity
  8
RACCORDO
100
AcDbCircle
 62
7
  6
CONTINUOUS
 10
156.2832024369
 20
116.6788971948
 40
0.6
100
AcDbArc
 50
0.0
 51
65.0436287149
  0
ARC
  5
3F5
100
AcDbEntity
  8
RACCORDO
100
AcDbCircle
 62
7
  6
CONTINUOUS
 10
156.2832024369
 20
109.8321225319
 40
0.6
100
AcDbArc
 50
333.0471707791
 51
360.0
  0
ARC
  5
3F6
100
AcDbEntity
  8
RACCORDO
100
AcDbCircle
 62
7
  6
CONTINUOUS
 10
188.1030075903
 20
100.7689946181
 40
0.6
100
AcDbArc
 50
0.0
 51
65.0436287149
  0
ARC
  5
3F7
100
AcDbEntity
  8
RACCORDO
100
AcDbCircle
 62
7
  6
CONTINUOUS
 10
188.1030075903
 20
93.9222199552
 40
0.6
100
AcDbArc
 50
333.0471707791
 51
360.0
  0
ELLIPSE
  5
3F8
100
AcDbEntity
  8
RACCORDO
100
AcDbEllipse
 62
7
  6
CONTINUOUS
 10
139.8275191623
 20
139.8176606373
 30
0.0
 11
-0.1785615909
 21
0.3583009949
 31
0.0
 40
0.6122032814
 41
-2.2540382661
 42
-0.6832419393
  0
ELLIPSE
  5
3F9
100
AcDbEntity
  8
RACCORDO
100
AcDbEllipse
 62
7
  6
CONTINUOUS
 10
150.5755422364
 20
134.4436491003
 30
0.0
 11
-0.1785615909
 21
0.3583009949
 31
0.0
 40
0.6122032814
 41
-0.6832419393
 42
0.0314470885
  0
ELLIPSE
  5
3FA
100
AcDbEntity
  8
RACCORDO
100
AcDbEllipse
 62
7
  6
CONTINUOUS
 10
152.2677465354
 20
94.9792317691
 30
0.0
 11
-2.2445318778
 21
4.4830818196
 31
0.0
 40
0.610731003
 41
-3.1984990338
 42
-2.2574844774
  0
ELLIPSE
  5
3FB
100
AcDbEntity
  8
RACCORDO
100
AcDbEllipse
 62
7
  6
CONTINUOUS
 10
155.1000552408
 20
103.9489119485
 30
0.0
 11
-0.4475575321
 21
0.8942759671
 31
0.0
 40
0.6135627242
 41
-2.2550237273
 42
-0.6860539001
  0
ELLIPSE
  5
3FC
100
AcDbEntity
  8
RACCORDO
100
AcDbEllipse
 62
7
  6
CONTINUOUS
 10
155.1000552408
 20
117.8063741707
 30
0.0
 11
-0.448995715
 21
0.8955596233
 31
0.0
 40
0.6113698584
 41
-3.1881191573
 42
-2.2576476382
  0
ELLIPSE
  5
3FD
100
AcDbEntity
  8
RACCORDO
100
AcDbEllipse
 62
7
  6
CONTINUOUS
 10
152.2677465354
 20
129.6083630555
 30
0.0
 11
-2.233715188
 21
4.4734671455
 31
0.0
 40
0.6140178746
 41
-2.2535402014
 42
-0.6854829304
  0
ELLIPSE
  5
3FE
100
AcDbEntity
  8
RACCORDO
100
AcDbEllipse
 62
7
  6
CONTINUOUS
 10
154.1113347501
 20
105.8297574493
 30
0.0
 11
-0.2682030356
 21
0.536727132
 31
0.0
 40
0.6131036171
 41
0.8869546983
 42
2.4565330499
  0
ELLIPSE
  5
3FF
100
AcDbEntity
  8
RACCORDO
100
AcDbEllipse
 62
7
  6
CONTINUOUS
 10
138.1353148633
 20
136.6745788916
 30
0.0
 11
-2.2445318778
 21
4.4830818196
 31
0.0
 40
0.610731003
 41
-0.6839490949
 42
0.0569063716
  0
ELLIPSE
  5
400
100
AcDbEntity
  8
RACCORDO
100
AcDbEllipse
 62
7
  6
CONTINUOUS
 10
153.9795318712
 20
107.3159036546
 30
0.0
 11
0.1892895952
 21
0.3524924716
 31
0.0
 40
0.6334343229
 41
0.7381014821
 42
2.2739912239
  0
ELLIPSE
  5
401
100
AcDbEntity
  8
RACCORDO
100
AcDbEllipse
 62
7
  6
CONTINUOUS
 10
140.3932045873
 20
138.639550622
 30
0.0
 11
-0.1075653633
 21
0.5068710592
 31
0.0
 40
0.5160892341
 41
1.1806746103
 42
1.7081137731
  0
ELLIPSE
  5
402
100
AcDbEntity
  8
RACCORDO
100
AcDbEllipse
 62
7
  6
CONTINUOUS
 10
155.3070740543
 20
115.735260527
 30
0.0
 11
0.4893067437
 21
-0.3881101657
 31
0.0
 40
0.7621595538
 41
0.54374562
 42
2.1133239717
  0
ELLIPSE
  5
403
100
AcDbEntity
  8
RACCORDO
100
AcDbEllipse
 62
7
  6
CONTINUOUS
 10
155.3070740543
 20
108.7605492137
 30
0.0
 11
0.492133284
 21
-0.3743569405
 31
0.0
 40
0.7775333862
 41
5.2477201692
 42
6.8172985208
  0
ELLIPSE
  5
404
100
AcDbEntity
  8
RACCORDO
100
AcDbEllipse
 62
7
  6
CONTINUOUS
 10
153.9795318712
 20
116.1255912591
 30
0.0
 11
0.1892895952
 21
0.3524924716
 31
0.0
 40
0.6334343229
 41
2.2739912239
 42
3.8098809656
  0
ELLIPSE
  5
405
100
AcDbEntity
  8
RACCORDO
100
AcDbEllipse
 62
7
  6
CONTINUOUS
 10
171.6473243157
 20
123.9077580606
 30
0.0
 11
-0.1785615909
 21
0.3583009949
 31
0.0
 40
0.6122032814
 41
-2.2540382661
 42
-0.6832419393
  0
ELLIPSE
  5
406
100
AcDbEntity
  8
RACCORDO
100
AcDbEllipse
 62
7
  6
CONTINUOUS
 10
182.3953473898
 20
118.5337465236
 30
0.0
 11
-0.1785615909
 21
0.3583009949
 31
0.0
 40
0.6122032814
 41
-0.6832419393
 42
0.0314470885
  0
ELLIPSE
  5
407
100
AcDbEntity
  8
RACCORDO
100
AcDbEllipse
 62
7
  6
CONTINUOUS
 10
184.0875516888
 20
79.0693291924
 30
0.0
 11
-2.2445318778
 21
4.4830818196
 31
0.0
 40
0.610731003
 41
-3.1984990338
 42
-2.2574844774
  0
ELLIPSE
  5
408
100
AcDbEntity
  8
RACCORDO
100
AcDbEllipse
 62
7
  6
CONTINUOUS
 10
186.9198603942
 20
88.0390093718
 30
0.0
 11
-0.4475575321
 21
0.8942759671
 31
0.0
 40
0.6135627242
 41
-2.2550237273
 42
-0.6860539001
  0
ELLIPSE
  5
409
100
AcDbEntity
  8
RACCORDO
100
AcDbEllipse
 62
7
  6
CONTINUOUS
 10
186.9198603942
 20
101.896471594
 30
0.0
 11
-0.448995715
 21
0.8955596233
 31
0.0
 40
0.6113698584
 41
-3.1881191573
 42
-2.2576476382
  0
ELLIPSE
  5
40A
100
AcDbEntity
  8
RACCORDO
100
AcDbEllipse
 62
7
  6
CONTINUOUS
 10
184.0875516888
 20
113.6984604788
 30
0.0
 11
-2.233715188
 21
4.4734671455
 31
0.0
 40
0.6140178746
 41
-2.2535402014
 42
-0.6854829304
  0
ELLIPSE
  5
40B
100
AcDbEntity
  8
RACCORDO
100
AcDbEllipse
 62
7
  6
CONTINUOUS
 10
185.9311399035
 20
89.9198548726
 30
0.0
 11
-0.2682030356
 21
0.536727132
 31
0.0
 40
0.6131036171
 41
0.8869546983
 42
2.4565330499
  0
ELLIPSE
  5
40C
100
AcDbEntity
  8
RACCORDO
100
AcDbEllipse
 62
7
  6
CONTINUOUS
 10
169.9551200167
 20
120.7646763149
 30
0.0
 11
-2.2445318778
 21
4.4830818196
 31
0.0
 40
0.610731003
 41
-0.6839490949
 42
0.0569063716
  0
ELLIPSE
  5
40D
100
AcDbEntity
  8
RACCORDO
100
AcDbEllipse
 62
7
  6
CONTINUOUS
 10
185.7993370246
 20
91.4060010779
 30
0.0
 11
0.1892895952
 21
0.3524924716
 31
0.0
 40
0.6334343229
 41
0.7381014821
 42
2.2739912239
  0
ELLIPSE
  5
40E
100
AcDbEntity
  8
RACCORDO
100
AcDbEllipse
 62
7
  6
CONTINUOUS
 10
172.2130097407
 20
122.7296480453
 30
0.0
 11
-0.1075653633
 21
0.5068710592
 31
0.0
 40
0.5160892341
 41
1.1806746103
 42
1.7081137731
  0
ELLIPSE
  5
40F
100
AcDbEntity
  8
RACCORDO
100
AcDbEllipse
 62
7
  6
CONTINUOUS
 10
187.1268792077
 20
99.8253579503
 30
0.0
 11
0.4893067437
 21
-0.3881101657
 31
0.0
 40
0.7621595538
 41
0.54374562
 42
2.1133239717
  0
ELLIPSE
  5
410
100
AcDbEntity
  8
RACCORDO
100
AcDbEllipse
 62
7
  6
CONTINUOUS
 10
187.1268792077
 20
92.850646637
 30
0.0
 11
0.492133284
 21
-0.3743569405
 31
0.0
 40
0.7775333862
 41
5.2477201692
 42
6.8172985208
  0
ELLIPSE
  5
411
100
AcDbEntity
  8
RACCORDO
100
AcDbEllipse
 62
7
  6
CONTINUOUS
 10
185.7993370246
 20
100.2156886824
 30
0.0
 11
0.1892895952
 21
0.3524924716
 31
0.0
 40
0.6334343229
 41
2.2739912239
 42
3.8098809656
  0
ENDSEC
  0
SECTION
  2
OBJECTS
  0
DICTIONARY
  5
C
100
AcDbDictionary
280
0
281
1
  3
ACAD_GROUP
350
D
  3
ACAD_MLINESTYLE
350
17
  3
ACAD_LAYOUT
350
1A
  3
ACAD_PLOTSETTINGS
350
19
  3
ACAD_PLOTSTYLENAME
350
E
  0
DICTIONARY
  5
D
102
{ACAD_REACTORS
330
C
102
}
100
AcDbDictionary
280
0
281
1
  0
ACDBDICTIONARYWDFLT
  5
E
102
{ACAD_REACTORS
330
C
102
}
100
AcDbDictionary
281
1
  3
Normal
350
F
100
AcDbDictionaryWithDefault
340
F
  0
DICTIONARY
  5
17
102
{ACAD_REACTORS
330
C
102
}
100
AcDbDictionary
280
0
281
1
  3
Standard
350
18
  0
DICTIONARY
  5
19
102
{ACAD_REACTORS
330
C
102
}
100
AcDbDictionary
281
1
  0
DICTIONARY
  5
1A
102
{ACAD_REACTORS
330
C
102
}
100
AcDbDictionary
281
1
  3
Model
350
412
  3
Layout1
350
413
  0
ACDBPLACEHOLDER
  5
F
102
{ACAD_REACTORS
330
E
102
}
  0
MLINESTYLE
  5
18
102
{ACAD_REACTORS
330
17
102
}
100
AcDbMlineStyle
  2
STANDARD
 70
0
  3

 62
256
 51
90.0
 52
90.0
 71
2
 49
0.5
 62
256
  6
BYLAYER
 49
-0.5
 62
256
  6
BYLAYER
  0
LAYOUT
  5
412
102
{ACAD_REACTORS
330
1A
102
}
100
AcDbPlotSettings
  1

  2
none_device
  4
ISO_A4_(297.00_x_210.00_MM)
  6

 40
0.0
 41
0.0
 42
0.0
 43
0.0
 44
297.0
 45
210.0
 46
0.0
 47
0.0
 48
0.0
 49
0.0
140
0.0
141
0.0
142
1.0
143
1.0
 70
1024
 72
1
 73
0
 74
0
  7

 75
0
147
1.0
148
0.0
149
0.0
100
AcDbLayout
  1
Model
 70
0
 71
0
 10
0.0
 20
0.0
 11
297.0
 21
210.0
 12
0.0
 22
0.0
 32
0.0
 14
0.0
 24
0.0
 34
0.0
 15
0.0
 25
0.0
 35
0.0
146
0.0
 13
0.0
 23
0.0
 33
0.0
 16
1.0
 26
0.0
 36
0.0
 17
0.0
 27
1.0
 37
0.0
 76
0
330
215
345
0
346
0
  0
LAYOUT
  5
413
102
{ACAD_REACTORS
330
1A
102
}
100
AcDbPlotSettings
  1

  2
none_device
  4
ISO_A4_(297.00_x_210.00_MM)
  6

 40
0.0
 41
0.0
 42
0.0
 43
0.0
 44
297.0
 45
210.0
 46
0.0
 47
0.0
 48
0.0
 49
0.0
140
0.0
141
0.0
142
1.0
143
1.0
 70
0
 72
1
 73
0
 74
0
  7

 75
0
147
1.0
148
0.0
149
0.0
100
AcDbLayout
  1
Layout1
 70
0
 71
1
 10
0.0
 20
0.0
 11
297.0
 21
210.0
 12
0.0
 22
0.0
 32
0.0
 14
0.0
 24
0.0
 34
0.0
 15
0.0
 25
0.0
 35
0.0
146
0.0
 13
0.0
 23
0.0
 33
0.0
 16
1.0
 26
0.0
 36
0.0
 17
0.0
 27
1.0
 37
0.0
 76
0
330
216
345
0
346
0
  0
ENDSEC
  0
EOF
