  0
SECTION
  2
HEADER
  9
$ACADVER
  1
AC1024
  9
$DWGCODEPAGE
  3
ANSI_1252
  9
$EXTMAX
 10
297.0
 20
210.0
 30
0.0
  9
$EXTMIN
 10
0.0
 20
0.0
 30
0.0
  9
$LIMMIN
 10
0.0
 20
0.0
  9
$LIMMAX
 10
297.0
 20
210.0
  9
$VIEWCTR
 10
148.5
 20
105.0
  9
$VIEWSIZE
 40
210.0
  9
$CLAYER
  8
0
  9
$LTSCALE
 40
16.335
  9
$CELTYPE
  6
BYLAYER
  9
$DIMSCALE
 40
1.0
  9
$DIMASZ
 40
3.0
  9
$DIMEXO
 40
0.5
  9
$DIMDLI
 40
11.286
  9
$DIMEXE
 40
1.5
  9
$DIMCEN
 40
2.673
  9
$DIMLFAC
 40
1.0
  9
$DIMBLK
  1
_FILLED
  9
$DIMALT
 70
0
  9
$DIMALTF
 40
0.0393700787
  9
$DIMTXT
 40
3.0
  9
$DIMTOL
 70
1
  9
$DIMLIM
 70
0
  9
$DIMTFAC
 40
1.0
  9
$DIMTP
 40
0.01
  9
$DIMTM
 40
0.01
  9
$DIMGAP
 40
0.625
  9
$DIMDSEP
 70
44
  9
$AUNITS
 70
0
  9
$PDMODE
 70
3
  9
$PDSIZE
 40
3.0
  9
$HANDSEED
  5
39E
  9
$TILEMODE
 70
1
  9
$MEASUREMENT
 70
1
  9
$INSUNITS
 70
4
  0
ENDSEC
  0
SECTION
  2
CLASSES
  0
CLASS
  1
ACDBDICTIONARYWDFLT
  2
AcDbDictionaryWithDefault
  3
AutoCAD 2000
 90
0
 91
1
280
0
281
0
  0
CLASS
  1
ACDBPLACEHOLDER
  2
AcDbPlaceHolder
  3
AutoCAD 2000
 90
0
 91
1
280
0
281
0
  0
CLASS
  1
LAYOUT
  2
AcDbLayout
  3
AutoCAD 2000
 90
0
 91
0
280
0
281
0
  0
ENDSEC
  0
SECTION
  2
TABLES
  0
TABLE
  2
VPORT
  5
8
100
AcDbSymbolTable
 70
2
  0
VPORT
  5
1F4
100
AcDbSymbolTableRecord
100
AcDbViewportTableRecord
  2
*ACTIVE
 70
0
 10
0.0
 20
0.0
 11
1.0
 21
1.0
 12
148.5
 22
105.0
 13
0.0
 23
0.0
 14
1.0
 24
1.0
 15
0.0
 25
0.0
 16
0.0
 26
0.0
 36
1.0
 17
0.0
 27
0.0
 37
0.0
 40
210.0
 41
1.4142857143
 42
50.0
 43
0.0
 44
0.0
 50
0.0
 51
0.0
 71
0
 72
100
 73
1
 74
1
 75
0
 76
0
 77
0
 78
0
  0
ENDTAB
  0
TABLE
  2
LTYPE
  5
5
100
AcDbSymbolTable
 70
6
  0
LTYPE
  5
14
100
AcDbSymbolTableRecord
100
AcDbLinetypeTableRecord
  2
BYBLOCK
 70
0
  3

 72
65
 73
0
 40
0.0
  0
LTYPE
  5
15
100
AcDbSymbolTableRecord
100
AcDbLinetypeTableRecord
  2
BYLAYER
 70
0
  3

 72
65
 73
0
 40
0.0
  0
LTYPE
  5
16
100
AcDbSymbolTableRecord
100
AcDbLinetypeTableRecord
  2
CONTINUOUS
 70
64
  3
Solid line
 72
65
 73
0
 40
0.0
  0
LTYPE
  5
1F5
100
AcDbSymbolTableRecord
100
AcDbLinetypeTableRecord
  2
CENTER
 70
64
  3
____ _ ____ _ ____ _ ____ _ ____ _ ____ _ ____
 72
65
 73
4
 40
0.6
 49
0.375
 74
0
 49
-0.075
 74
0
 49
0.075
 74
0
 49
-0.075
 74
0
  0
LTYPE
  5
1F6
100
AcDbSymbolTableRecord
100
AcDbLinetypeTableRecord
  2
HIDDEN
 70
64
  3
- - - - - - - - - - - - - - - - - - - -
 72
65
 73
2
 40
0.2
 49
0.1
 74
0
 49
-0.1
 74
0
  0
LTYPE
  5
1F7
100
AcDbSymbolTableRecord
100
AcDbLinetypeTableRecord
  2
PHANTOM
 70
64
  3
_____ _ _ _____ _ _ _____ _ _ _____
 72
65
 73
6
 40
0.8
 49
0.45
 74
0
 49
-0.05
 74
0
 49
0.1
 74
0
 49
-0.05
 74
0
 49
0.1
 74
0
 49
-0.05
 74
0
  0
LTYPE
  5
1F8
100
AcDbSymbolTableRecord
100
AcDbLinetypeTableRecord
  2
DOT
 70
64
  3
. . . . . . . . . . . . . . . . . . . .
 72
65
 73
2
 40
0.2
 49
0.1
 74
0
 49
-0.1
 74
0
  0
LTYPE
  5
1F9
100
AcDbSymbolTableRecord
100
AcDbLinetypeTableRecord
  2
DASHED
 70
64
  3
- - - - - - - - - - - - - - - - - - - -
 72
65
 73
2
 40
0.2
 49
0.1
 74
0
 49
-0.1
 74
0
  0
ENDTAB
  0
TABLE
  2
LAYER
  5
2
100
AcDbSymbolTable
 70
36
  0
LAYER
  5
10
100
AcDbSymbolTableRecord
100
AcDbLayerTableRecord
  2
0
 70
0
 62
7
  6
CONTINUOUS
370
-3
390
F
  0
LAYER
  5
1FA
100
AcDbSymbolTableRecord
100
AcDbLayerTableRecord
  2
DEFAULT_1
 70
0
 62
7
  6
CENTER
370
-3
390
F
  0
LAYER
  5
1FB
100
AcDbSymbolTableRecord
100
AcDbLayerTableRecord
  2
DEFAULT_2
 70
0
 62
7
  6
HIDDEN
370
-3
390
F
  0
LAYER
  5
1FC
100
AcDbSymbolTableRecord
100
AcDbLayerTableRecord
  2
DEFAULT_3
 70
0
 62
7
  6
PHANTOM
370
-3
390
F
  0
LAYER
  5
1FD
100
AcDbSymbolTableRecord
100
AcDbLayerTableRecord
  2
ASSI
 70
0
 62
7
  6
CONTINUOUS
370
-3
390
F
  0
LAYER
  5
1FE
100
AcDbSymbolTableRecord
100
AcDbLayerTableRecord
  2
COORDINATE
 70
0
 62
7
  6
CONTINUOUS
370
-3
390
F
  0
LAYER
  5
1FF
100
AcDbSymbolTableRecord
100
AcDbLayerTableRecord
  2
COORD_ORIGINE
 70
0
 62
7
  6
CONTINUOUS
370
-3
390
F
  0
LAYER
  5
200
100
AcDbSymbolTableRecord
100
AcDbLayerTableRecord
  2
COPY_PUBLISH
 70
0
 62
7
  6
CONTINUOUS
370
-3
390
F
  0
LAYER
  5
201
100
AcDbSymbolTableRecord
100
AcDbLayerTableRecord
  2
COSMETIC
 70
0
 62
7
  6
CONTINUOUS
370
-3
390
F
  0
LAYER
  5
202
100
AcDbSymbolTableRecord
100
AcDbLayerTableRecord
  2
COSMETICI
 70
0
 62
7
  6
CONTINUOUS
370
-3
390
F
  0
LAYER
  5
203
100
AcDbSymbolTableRecord
100
AcDbLayerTableRecord
  2
CURVE
 70
0
 62
7
  6
CONTINUOUS
370
-3
390
F
  0
LAYER
  5
204
100
AcDbSymbolTableRecord
100
AcDbLayerTableRecord
  2
DRAFT
 70
0
 62
7
  6
CONTINUOUS
370
-3
390
F
  0
LAYER
  5
205
100
AcDbSymbolTableRecord
100
AcDbLayerTableRecord
  2
IMPORT_IGES
 70
0
 62
7
  6
CONTINUOUS
370
-3
390
F
  0
LAYER
  5
206
100
AcDbSymbolTableRecord
100
AcDbLayerTableRecord
  2
INTFCLR_2
 70
0
 62
7
  6
CONTINUOUS
370
-3
390
F
  0
LAYER
  5
207
100
AcDbSymbolTableRecord
100
AcDbLayerTableRecord
  2
INTF_1
 70
0
 62
7
  6
CONTINUOUS
370
-3
390
F
  0
LAYER
  5
208
100
AcDbSymbolTableRecord
100
AcDbLayerTableRecord
  2
INTF_21
 70
0
 62
7
  6
CONTINUOUS
370
-3
390
F
  0
LAYER
  5
209
100
AcDbSymbolTableRecord
100
AcDbLayerTableRecord
  2
INTF_6
 70
0
 62
7
  6
CONTINUOUS
370
-3
390
F
  0
LAYER
  5
20A
100
AcDbSymbolTableRecord
100
AcDbLayerTableRecord
  2
INTF_7
 70
0
 62
7
  6
CONTINUOUS
370
-3
390
F
  0
LAYER
  5
20B
100
AcDbSymbolTableRecord
100
AcDbLayerTableRecord
  2
INTF_CYAN
 70
0
 62
7
  6
CONTINUOUS
370
-3
390
F
  0
LAYER
  5
20C
100
AcDbSymbolTableRecord
100
AcDbLayerTableRecord
  2
LINEA_CHIUSURA
 70
0
 62
7
  6
CONTINUOUS
370
-3
390
F
  0
LAYER
  5
20D
100
AcDbSymbolTableRecord
100
AcDbLayerTableRecord
  2
LIVELLO_1
 70
0
 62
7
  6
CONTINUOUS
370
-3
390
F
  0
LAYER
  5
20E
100
AcDbSymbolTableRecord
100
AcDbLayerTableRecord
  2
NOTE
 70
0
 62
7
  6
CONTINUOUS
370
-3
390
F
  0
LAYER
  5
20F
100
AcDbSymbolTableRecord
100
AcDbLayerTableRecord
  2
PIANI
 70
0
 62
7
  6
CONTINUOUS
370
-3
390
F
  0
LAYER
  5
210
100
AcDbSymbolTableRecord
100
AcDbLayerTableRecord
  2
PIANI_ORIGINE
 70
0
 62
7
  6
CONTINUOUS
370
-3
390
F
  0
LAYER
  5
211
100
AcDbSymbolTableRecord
100
AcDbLayerTableRecord
  2
PIANI_RIFERIMENTO
 70
0
 62
7
  6
CONTINUOUS
370
-3
390
F
  0
LAYER
  5
212
100
AcDbSymbolTableRecord
100
AcDbLayerTableRecord
  2
PUNTI
 70
0
 62
7
  6
CONTINUOUS
370
-3
390
F
  0
LAYER
  5
213
100
AcDbSymbolTableRecord
100
AcDbLayerTableRecord
  2
RACCORDO
 70
0
 62
7
  6
CONTINUOUS
370
-3
390
F
  0
LAYER
  5
214
100
AcDbSymbolTableRecord
100
AcDbLayerTableRecord
  2
RGB__255__255__255__
 70
0
 62
7
  6
CONTINUOUS
370
-3
390
F
  0
LAYER
  5
215
100
AcDbSymbolTableRecord
100
AcDbLayerTableRecord
  2
RGB____0____0____0__
 70
0
 62
7
  6
CONTINUOUS
370
-3
390
F
  0
LAYER
  5
216
100
AcDbSymbolTableRecord
100
AcDbLayerTableRecord
  2
SIMBOLI
 70
0
 62
7
  6
CONTINUOUS
370
-3
390
F
  0
LAYER
  5
217
100
AcDbSymbolTableRecord
100
AcDbLayerTableRecord
  2
SMUSSO
 70
0
 62
7
  6
CONTINUOUS
370
-3
390
F
  0
LAYER
  5
218
100
AcDbSymbolTableRecord
100
AcDbLayerTableRecord
  2
SNAPLINE
 70
0
 62
7
  6
CONTINUOUS
370
-3
390
F
  0
LAYER
  5
219
100
AcDbSymbolTableRecord
100
AcDbLayerTableRecord
  2
SUPERFICI
 70
0
 62
7
  6
CONTINUOUS
370
-3
390
F
  0
LAYER
  5
21A
100
AcDbSymbolTableRecord
100
AcDbLayerTableRecord
  2
TRASH
 70
0
 62
7
  6
CONTINUOUS
370
-3
390
F
  0
LAYER
  5
21B
100
AcDbSymbolTableRecord
100
AcDbLayerTableRecord
  2
WHITE
 70
0
 62
7
  6
CONTINUOUS
370
-3
390
F
  0
LAYER
  5
21C
100
AcDbSymbolTableRecord
100
AcDbLayerTableRecord
  2
XSEC_DATUMS
 70
0
 62
7
  6
CONTINUOUS
370
-3
390
F
  0
ENDTAB
  0
TABLE
  2
STYLE
  5
3
100
AcDbSymbolTable
 70
1
  0
STYLE
  5
11
100
AcDbSymbolTableRecord
100
AcDbTextStyleTableRecord
  2
STANDARD
 70
0
 40
0.0
 41
0.8
 50
0.0
 71
0
 42
0.2
  3
txt
  4

  0
STYLE
  5
21D
100
AcDbSymbolTableRecord
100
AcDbTextStyleTableRecord
  2
TEXTSTYLE_1
 70
0
 40
0.0
 41
0.8
 50
0.0
 71
0
 42
0.2
  3
gdt
  4

  0
ENDTAB
  0
TABLE
  2
VIEW
  5
6
100
AcDbSymbolTable
 70
0
  0
ENDTAB
  0
TABLE
  2
UCS
  5
7
100
AcDbSymbolTable
 70
0
  0
ENDTAB
  0
TABLE
  2
APPID
  5
9
100
AcDbSymbolTable
 70
1
  0
APPID
  5
21E
100
AcDbSymbolTableRecord
100
AcDbRegAppTableRecord
  2
ACAD
 70
0
  0
ENDTAB
  0
TABLE
  2
BLOCK_RECORD
  5
1
100
AcDbSymbolTable
 70
0
  0
BLOCK_RECORD
  5
21F
100
AcDbSymbolTableRecord
100
AcDbBlockTableRecord
  2
*Model_Space
  0
BLOCK_RECORD
  5
220
100
AcDbSymbolTableRecord
100
AcDbBlockTableRecord
  2
*Paper_Space
  0
BLOCK_RECORD
  5
221
100
AcDbSymbolTableRecord
100
AcDbBlockTableRecord
  2
_FILLED
  0
ENDTAB
  0
TABLE
  2
DIMSTYLE
  5
A
100
AcDbSymbolTable
 70
1
100
AcDbDimStyleTable
 71
0
  0
DIMSTYLE
105
222
100
AcDbSymbolTableRecord
100
AcDbDimStyleTableRecord
  2
STANDARD
 70
0
  3

  4

 40
1.0
 41
3.0
 42
0.5
 43
0.38
 44
1.5
 45
0.0
 46
0.0
 47
0.01
 48
0.01
140
3.0
141
0.09
142
0.0
143
25.4
144
1.0
145
0.0
146
1.0
147
0.625
 71
1
 72
0
 73
0
 74
0
 75
0
 76
0
 77
1
 78
8
 79
2
170
0
171
1
172
0
173
0
174
0
175
0
176
0
177
0
178
0
270
2
179
2
271
2
272
2
273
2
274
2
275
0
280
0
281
0
282
0
283
1
284
8
285
0
286
0
287
3
288
0
340
11
278
44
341
221
342
221
343
221
344
221
  0
ENDTAB
  0
ENDSEC
  0
SECTION
  2
BLOCKS
  0
BLOCK
  5
20
100
AcDbEntity
  8
0
100
AcDbBlockBegin
  2
*Model_Space
 70
0
 10
0.0
 20
0.0
 30
0.0
  3
*Model_Space
  1

  0
ENDBLK
  5
21
100
AcDbEntity
  8
0
100
AcDbBlockEnd
  0
BLOCK
  5
1C
100
AcDbEntity
  8
0
100
AcDbBlockBegin
  2
*Paper_Space
 70
0
 10
0.0
 20
0.0
 30
0.0
  3
*Paper_Space
  1

  0
ENDBLK
  5
1D
100
AcDbEntity
  8
0
100
AcDbBlockEnd
  0
BLOCK
  5
223
100
AcDbEntity
  8
0
100
AcDbBlockBegin
  2
_FILLED
 70
64
 10
0.0
 20
0.0
  3
_FILLED
  1

  0
SOLID
  5
224
100
AcDbEntity
  8
0
  6
BYBLOCK
 62
0
100
AcDbTrace
 10
0.0
 20
0.0
 11
-1.0
 21
0.3166666667
 12
-1.0
 22
-0.3166666667
 13
-1.0
 23
-0.3166666667
  0
ENDBLK
  5
225
100
AcDbEntity
  8
0
  6
BYBLOCK
 62
0
100
AcDbBlockEnd
  0
ENDSEC
  0
SECTION
  2
ENTITIES
  0
LINE
  5
226
100
AcDbEntity
  8
ASSI
100
AcDbLine
 62
7
  6
CONTINUOUS
 10
-58.2149620151
 20
66.9540888344
 11
-54.4271482279
 21
69.4576557258
  0
LINE
  5
227
100
AcDbEntity
  8
ASSI
100
AcDbLine
 62
7
  6
CONTINUOUS
 10
-57.5074247458
 20
67.3625330283
 11
-53.7196109586
 21
69.8660999196
  0
LINE
  5
228
100
AcDbEntity
  8
ASSI
100
AcDbLine
 62
7
  6
CONTINUOUS
 10
-57.5281883599
 20
67.3496936773
 11
-57.5074247458
 21
67.3625330283
  0
LINE
  5
229
100
AcDbEntity
  8
ASSI
100
AcDbLine
 62
7
  6
CONTINUOUS
 10
-54.4271482279
 20
69.4576557258
 11
-53.7196109586
 21
69.8660999196
  0
LINE
  5
22A
100
AcDbEntity
  8
ASSI
100
AcDbLine
 62
7
  6
CONTINUOUS
 10
-57.5281883599
 20
67.3496936773
 11
-58.2145867076
 21
66.9534524729
  0
LINE
  5
22B
100
AcDbEntity
  8
ASSI
100
AcDbLine
 62
7
  6
CONTINUOUS
 10
-57.9108776598
 20
65.9344652389
 11
-58.189853594
 21
65.7734191633
  0
LINE
  5
22C
100
AcDbEntity
  8
ASSI
100
AcDbLine
 62
7
  6
CONTINUOUS
 10
-57.9108776598
 20
65.9344652389
 11
-57.5281883599
 21
67.3496936773
  0
LINE
  5
22D
100
AcDbEntity
  8
CURVE
100
AcDbLine
 62
250
  6
CONTINUOUS
 10
56.5240872094
 20
-63.0029409912
 11
55.2656863881
 21
-63.2795637912
  0
LINE
  5
22E
100
AcDbEntity
  8
CURVE
100
AcDbLine
 62
250
  6
CONTINUOUS
 10
55.7680269171
 20
-58.7948622235
 11
56.4464920444
 21
-58.6416876436
  0
LINE
  5
22F
100
AcDbEntity
  8
CURVE
100
AcDbLine
 62
250
  6
CONTINUOUS
 10
56.728905739
 20
-58.5767757044
 11
57.0938775648
 21
-58.4978244928
  0
LINE
  5
230
100
AcDbEntity
  8
CURVE
100
AcDbLine
 62
250
  6
CONTINUOUS
 10
57.0938775648
 20
-58.9192301132
 11
55.2656863881
 21
-59.2633946714
  0
LINE
  5
231
100
AcDbEntity
  8
CURVE
100
AcDbLine
 62
250
  6
CONTINUOUS
 10
55.2656863881
 20
-62.853826796
 11
57.0938775648
 21
-62.5255336035
  0
LINE
  5
232
100
AcDbEntity
  8
CURVE
100
AcDbLine
 62
250
  6
CONTINUOUS
 10
56.2807036678
 20
-60.4623538098
 11
55.2656863881
 21
-60.5828334999
  0
LINE
  5
233
100
AcDbEntity
  8
CURVE
100
AcDbLine
 62
250
  6
CONTINUOUS
 10
55.9050796753
 20
-60.1305017468
 11
57.0938775648
 21
-59.996973328
  0
LINE
  5
234
100
AcDbEntity
  8
ASSI
100
AcDbLine
 62
7
  6
CONTINUOUS
 10
-58.189853594
 20
-5.058214436
 11
-58.2145867076
 21
-4.6019788585
  0
LINE
  5
235
100
AcDbEntity
  8
ASSI
100
AcDbLine
 62
7
  6
CONTINUOUS
 10
-58.189853594
 20
65.7734191633
 11
-58.2145867076
 21
66.9534524729
  0
LINE
  5
236
100
AcDbEntity
  8
ASSI
100
AcDbLine
 62
7
  6
CONTINUOUS
 10
-58.2145867076
 20
-4.6019788585
 11
-58.2149620151
 21
-4.5777859978
  0
LINE
  5
237
100
AcDbEntity
  8
ASSI
100
AcDbLine
 62
7
  6
CONTINUOUS
 10
-58.2149620151
 20
66.9540888344
 11
-58.2149620151
 21
-4.5777859978
  0
LINE
  5
238
100
AcDbEntity
  8
ASSI
100
AcDbLine
 62
7
  6
CONTINUOUS
 10
-58.189853594
 20
65.7734191633
 11
-58.189853594
 21
-5.058214436
  0
LINE
  5
239
100
AcDbEntity
  8
ASSI
100
AcDbLine
 62
7
  6
CONTINUOUS
 10
52.7145685475
 20
-69.0930378217
 11
54.1315276785
 21
-69.4692172775
  0
LINE
  5
23A
100
AcDbEntity
  8
ASSI
100
AcDbLine
 62
7
  6
CONTINUOUS
 10
-58.189853594
 20
-5.058214436
 11
-57.9108776598
 21
-5.5414149275
  0
LWPOLYLINE
  5
23B
100
AcDbEntity
  8
ASSI
100
AcDbPolyline
 62
7
  6
CONTINUOUS
 90
14
 70
0
 10
-35.8267323357
 20
29.2387259745
 10
-35.8420658263
 20
29.219911686
 10
-35.9120195745
 20
29.1203585084
 10
-35.9765336647
 20
29.0138449958
 10
-36.0352083325
 20
28.9010311636
 10
-36.0880073188
 20
28.7818778911
 10
-36.1349668826
 20
28.6564242991
 10
-36.175796037
 20
28.5254477663
 10
-36.2104567161
 20
28.3889139987
 10
-36.2389869857
 20
28.2468572904
 10
-36.2612100569
 20
28.1001579019
 10
-36.2770669999
 20
27.9491092534
 10
-36.2866167444
 20
27.7934179248
 10
-36.2898592905
 20
27.633083916
  0
LWPOLYLINE
  5
23C
100
AcDbEntity
  8
SMUSSO
100
AcDbPolyline
 62
7
  6
CONTINUOUS
 90
15
 70
0
 10
-36.3789993826
 20
29.0526548313
 10
-36.30339154
 20
29.0933749379
 10
-36.1988997651
 20
29.1406904466
 10
-36.0902728155
 20
29.1800154542
 10
-35.9777358245
 20
29.2112684143
 10
-35.8615219961
 20
29.2343845173
 10
-35.741872221
 20
29.2493158033
 10
-35.6190345909
 20
29.2560312843
 10
-35.4932637283
 20
29.2545170257
 10
-35.3648202927
 20
29.2447761518
 10
-35.2339705513
 20
29.226828844
 10
-35.1009857313
 20
29.2007122979
 10
-34.9661414553
 20
29.1664806362
 10
-34.8297172156
 20
29.1242048039
 10
-34.6919957725
 20
29.0739724168
  0
LWPOLYLINE
  5
23D
100
AcDbEntity
  8
ASSI
100
AcDbPolyline
 62
7
  6
CONTINUOUS
 90
15
 70
0
 10
-36.3789993826
 20
29.0526548313
 10
-36.30339154
 20
29.0933749379
 10
-36.1988997651
 20
29.1406904466
 10
-36.0902728155
 20
29.1800154542
 10
-35.9777358245
 20
29.2112684143
 10
-35.8615219961
 20
29.2343845173
 10
-35.741872221
 20
29.2493158033
 10
-35.6190345909
 20
29.2560312843
 10
-35.4932637283
 20
29.2545170257
 10
-35.3648202927
 20
29.2447761518
 10
-35.2339705513
 20
29.226828844
 10
-35.1009857313
 20
29.2007122979
 10
-34.9661414553
 20
29.1664806362
 10
-34.8297172156
 20
29.1242048039
 10
-34.6919957725
 20
29.0739724168
  0
LWPOLYLINE
  5
23E
100
AcDbEntity
  8
ASSI
100
AcDbPolyline
 62
7
  6
CONTINUOUS
 90
48
 70
0
 10
-36.2898592905
 20
10.8954432418
 10
-36.2866167444
 20
10.7313648221
 10
-36.2770669999
 20
10.5646456878
 10
-36.2612100569
 20
10.395285839
 10
-36.2389869857
 20
10.222923805
 10
-36.2104567161
 20
10.0479210564
 10
-36.175796037
 20
9.8713620055
 10
-36.1349668826
 20
9.6932369886
 10
-36.0880073188
 20
9.5135556693
 10
-36.0352083325
 20
9.3334314509
 10
-35.9765336647
 20
9.1528615832
 10
-35.9120195745
 20
8.9718488162
 10
-35.8420658263
 20
8.7915148037
 10
-35.7666386432
 20
8.6118637601
 10
-35.6857718021
 20
8.4328914708
 10
-35.5999663978
 20
8.2557069456
 10
-35.5091917651
 20
8.0803212852
 10
-35.4134785693
 20
7.9067233887
 10
-35.3134199013
 20
7.7359889632
 10
-35.2089887787
 20
7.568135789
 10
-35.1002121839
 20
7.4031460857
 10
-34.9877641559
 20
7.2420422193
 10
-34.8716218975
 20
7.0848483183
 10
-34.751808206
 20
6.9315402542
 10
-34.629065512
 20
6.7830680071
 10
-34.5033756284
 20
6.6394616043
 10
-34.3747567424
 20
6.5006910185
 10
-34.2440058466
 20
6.3676161477
 10
-34.1111097025
 20
6.2402723586
 10
-33.9760815485
 20
6.1186242846
 10
-33.8397580926
 20
6.0034257232
 10
-33.7021312918
 20
5.8947167218
 10
-33.5632091889
 20
5.7924572329
 10
-33.423852621
 20
5.6972809121
 10
-33.2840588903
 20
5.6092317413
 10
-33.1438306944
 20
5.5282657385
 10
-33.0040369637
 20
5.4548846131
 10
-32.8646803958
 20
5.3891354624
 10
-32.7257582929
 20
5.3309711891
 10
-32.5881314921
 20
5.2807522106
 10
-32.4518080362
 20
5.2385278622
 10
-32.3167798822
 20
5.2042488087
 10
-32.1838837381
 20
5.1781274616
 10
-32.0531328423
 20
5.1602144753
 10
-31.9245139563
 20
5.1504591955
 10
-31.7988240727
 20
5.1489220713
 10
-31.6760813787
 20
5.1556541321
 10
-31.5910740142
 20
5.1662612545
  0
LWPOLYLINE
  5
23F
100
AcDbEntity
  8
ASSI
100
AcDbPolyline
 62
7
  6
CONTINUOUS
 90
48
 70
0
 10
-36.2898592905
 20
27.633083916
 10
-36.2866167444
 20
27.4690054963
 10
-36.2770669999
 20
27.3022863621
 10
-36.2612100569
 20
27.1329265133
 10
-36.2389869857
 20
26.9605644792
 10
-36.2104567161
 20
26.7855617307
 10
-36.175796037
 20
26.6090026798
 10
-36.1349668826
 20
26.4308776629
 10
-36.0880073188
 20
26.2511963436
 10
-36.0352083325
 20
26.0710721252
 10
-35.9765336647
 20
25.8905022574
 10
-35.9120195745
 20
25.7094894905
 10
-35.8420658263
 20
25.5291554779
 10
-35.7666386432
 20
25.3495044343
 10
-35.6857718021
 20
25.1705321451
 10
-35.5999663978
 20
24.9933476198
 10
-35.5091917651
 20
24.8179619594
 10
-35.4134785693
 20
24.644364063
 10
-35.3134199013
 20
24.4736296375
 10
-35.2089887787
 20
24.3057764633
 10
-35.1002121839
 20
24.14078676
 10
-34.9877641559
 20
23.9796828936
 10
-34.8716218975
 20
23.8224889926
 10
-34.751808206
 20
23.6691809285
 10
-34.629065512
 20
23.5207086813
 10
-34.5033756284
 20
23.3771022785
 10
-34.3747567424
 20
23.2383316927
 10
-34.2440058466
 20
23.1052568219
 10
-34.1111097025
 20
22.9779130329
 10
-33.9760815485
 20
22.8562649589
 10
-33.8397580926
 20
22.7410663974
 10
-33.7021312918
 20
22.632357396
 10
-33.5632091889
 20
22.5300979072
 10
-33.423852621
 20
22.4349215864
 10
-33.2840588903
 20
22.3468724156
 10
-33.1438306944
 20
22.2659064128
 10
-33.0040369637
 20
22.1925252874
 10
-32.8646803958
 20
22.1267761367
 10
-32.7257582929
 20
22.0686118633
 10
-32.5881314921
 20
22.0183928848
 10
-32.4518080362
 20
21.9761685364
 10
-32.3167798822
 20
21.9418894829
 10
-32.1838837381
 20
21.9157681359
 10
-32.0531328423
 20
21.8978551496
 10
-31.9245139563
 20
21.8880998698
 10
-31.7988240727
 20
21.8865627455
 10
-31.6760813787
 20
21.8932948063
 10
-31.5910740142
 20
21.9039019287
  0
LWPOLYLINE
  5
240
100
AcDbEntity
  8
SMUSSO
100
AcDbPolyline
 62
7
  6
CONTINUOUS
 90
19
 70
0
 10
-37.2798087842
 20
27.0614994854
 10
-37.2766215739
 20
27.2212997839
 10
-37.2670663966
 20
27.377090237
 10
-37.2511628276
 20
27.528547833
 10
-37.2289435529
 20
27.6753587906
 10
-37.2004544216
 20
27.8172183825
 10
-37.1657544682
 20
27.9538316634
 10
-37.1249155164
 20
28.0849153236
 10
-37.078022079
 20
28.2101976378
 10
-37.0251714655
 20
28.3294183502
 10
-36.9664732081
 20
28.442330263
 10
-36.9020489063
 20
28.548699365
 10
-36.8320322465
 20
28.6483048887
 10
-36.7565684416
 20
28.7409402986
 10
-36.6758138381
 20
28.8264137128
 10
-36.589935771
 20
28.9045480253
 10
-36.4991122628
 20
28.9751812679
 10
-36.4035315338
 20
29.0381670641
 10
-36.3789993826
 20
29.0526548313
  0
LWPOLYLINE
  5
241
100
AcDbEntity
  8
ASSI
100
AcDbPolyline
 62
7
  6
CONTINUOUS
 90
19
 70
0
 10
-37.2798087842
 20
27.0614994854
 10
-37.2766215739
 20
27.2212997839
 10
-37.2670663966
 20
27.377090237
 10
-37.2511628276
 20
27.528547833
 10
-37.2289435529
 20
27.6753587906
 10
-37.2004544216
 20
27.8172183825
 10
-37.1657544682
 20
27.9538316634
 10
-37.1249155164
 20
28.0849153236
 10
-37.078022079
 20
28.2101976378
 10
-37.0251714655
 20
28.3294183502
 10
-36.9664732081
 20
28.442330263
 10
-36.9020489063
 20
28.548699365
 10
-36.8320322465
 20
28.6483048887
 10
-36.7565684416
 20
28.7409402986
 10
-36.6758138381
 20
28.8264137128
 10
-36.589935771
 20
28.9045480253
 10
-36.4991122628
 20
28.9751812679
 10
-36.4035315338
 20
29.0381670641
 10
-36.3789993826
 20
29.0526548313
  0
LWPOLYLINE
  5
242
100
AcDbEntity
  8
SMUSSO
100
AcDbPolyline
 62
7
  6
CONTINUOUS
 90
19
 70
0
 10
-37.2798087842
 20
10.3238588111
 10
-37.2766215739
 20
10.4836591097
 10
-37.2670663966
 20
10.6394495627
 10
-37.2511628276
 20
10.7909071588
 10
-37.2289435529
 20
10.9377181163
 10
-37.2004544216
 20
11.0795777083
 10
-37.1657544682
 20
11.2161909891
 10
-37.1249155164
 20
11.3472746493
 10
-37.078022079
 20
11.4725569636
 10
-37.0251714655
 20
11.5917776759
 10
-36.9664732081
 20
11.7046895887
 10
-36.9020489063
 20
11.8110586908
 10
-36.8320322465
 20
11.9106642144
 10
-36.7565684416
 20
12.0032996243
 10
-36.6758138381
 20
12.0887730385
 10
-36.589935771
 20
12.1669073511
 10
-36.4991122628
 20
12.2375405937
 10
-36.4035315338
 20
12.3005263898
 10
-36.3789993826
 20
12.3150141571
  0
LWPOLYLINE
  5
243
100
AcDbEntity
  8
ASSI
100
AcDbPolyline
 62
7
  6
CONTINUOUS
 90
19
 70
0
 10
-37.2798087842
 20
10.3238588111
 10
-37.2766215739
 20
10.4836591097
 10
-37.2670663966
 20
10.6394495627
 10
-37.2511628276
 20
10.7909071588
 10
-37.2289435529
 20
10.9377181163
 10
-37.2004544216
 20
11.0795777083
 10
-37.1657544682
 20
11.2161909891
 10
-37.1249155164
 20
11.3472746493
 10
-37.078022079
 20
11.4725569636
 10
-37.0251714655
 20
11.5917776759
 10
-36.9664732081
 20
11.7046895887
 10
-36.9020489063
 20
11.8110586908
 10
-36.8320322465
 20
11.9106642144
 10
-36.7565684416
 20
12.0032996243
 10
-36.6758138381
 20
12.0887730385
 10
-36.589935771
 20
12.1669073511
 10
-36.4991122628
 20
12.2375405937
 10
-36.4035315338
 20
12.3005263898
 10
-36.3789993826
 20
12.3150141571
  0
LWPOLYLINE
  5
244
100
AcDbEntity
  8
SMUSSO
100
AcDbPolyline
 62
7
  6
CONTINUOUS
 90
36
 70
0
 10
-37.9869155654
 20
27.0614994854
 10
-37.9833012577
 20
27.2402505939
 10
-37.9726550678
 20
27.4138278824
 10
-37.9549769957
 20
27.5822313507
 10
-37.9302014721
 20
27.7457886065
 10
-37.8983940664
 20
27.9041720422
 10
-37.859751486
 20
28.0563988353
 10
-37.8142311711
 20
28.2024305573
 10
-37.7618756816
 20
28.3423056366
 10
-37.7030094043
 20
28.4751565359
 10
-37.6375918522
 20
28.6009394913
 10
-37.5656635122
 20
28.7196982665
 10
-37.4876702325
 20
28.8306966151
 10
-37.403574418
 20
28.9338862063
 10
-37.3134136637
 20
29.0293153708
 10
-37.2177466031
 20
29.1163928538
 10
-37.1165390896
 20
29.1950668137
 10
-37.0098252697
 20
29.2653890922
 10
-36.8982662159
 20
29.3269239598
 10
-36.7818317917
 20
29.379616905
 10
-36.6605521336
 20
29.4235224393
 10
-36.5351787239
 20
29.458368368
 10
-36.4056861024
 20
29.4840984262
 10
-36.2720997293
 20
29.5007688789
 10
-36.135247468
 20
29.5082763253
 10
-35.9951090494
 20
29.5065638466
 10
-35.8517047425
 20
29.4956883617
 10
-35.7059232179
 20
29.4757172268
 10
-35.5577497268
 20
29.4465939585
 10
-35.4071990179
 20
29.4083750401
 10
-35.2552040081
 20
29.3612972788
 10
-35.1017557189
 20
29.3053056589
 10
-34.9468631288
 20
29.240455196
 10
-34.7914860897
 20
29.1671477439
 10
-34.635621585
 20
29.0853307768
 10
-34.5577791076
 20
29.0414076318
  0
LWPOLYLINE
  5
245
100
AcDbEntity
  8
ASSI
100
AcDbPolyline
 62
7
  6
CONTINUOUS
 90
36
 70
0
 10
-37.9869155654
 20
27.0614994854
 10
-37.9833012577
 20
27.2402505939
 10
-37.9726550678
 20
27.4138278824
 10
-37.9549769957
 20
27.5822313507
 10
-37.9302014721
 20
27.7457886065
 10
-37.8983940664
 20
27.9041720422
 10
-37.859751486
 20
28.0563988353
 10
-37.8142311711
 20
28.2024305573
 10
-37.7618756816
 20
28.3423056366
 10
-37.7030094043
 20
28.4751565359
 10
-37.6375918522
 20
28.6009394913
 10
-37.5656635122
 20
28.7196982665
 10
-37.4876702325
 20
28.8306966151
 10
-37.403574418
 20
28.9338862063
 10
-37.3134136637
 20
29.0293153708
 10
-37.2177466031
 20
29.1163928538
 10
-37.1165390896
 20
29.1950668137
 10
-37.0098252697
 20
29.2653890922
 10
-36.8982662159
 20
29.3269239598
 10
-36.7818317917
 20
29.379616905
 10
-36.6605521336
 20
29.4235224393
 10
-36.5351787239
 20
29.458368368
 10
-36.4056861024
 20
29.4840984262
 10
-36.2720997293
 20
29.5007688789
 10
-36.135247468
 20
29.5082763253
 10
-35.9951090494
 20
29.5065638466
 10
-35.8517047425
 20
29.4956883617
 10
-35.7059232179
 20
29.4757172268
 10
-35.5577497268
 20
29.4465939585
 10
-35.4071990179
 20
29.4083750401
 10
-35.2552040081
 20
29.3612972788
 10
-35.1017557189
 20
29.3053056589
 10
-34.9468631288
 20
29.240455196
 10
-34.7914860897
 20
29.1671477439
 10
-34.635621585
 20
29.0853307768
 10
-34.5577791076
 20
29.0414076318
  0
LWPOLYLINE
  5
246
100
AcDbEntity
  8
SMUSSO
100
AcDbPolyline
 62
7
  6
CONTINUOUS
 90
36
 70
0
 10
-37.9869155654
 20
10.3238588111
 10
-37.9833012577
 20
10.5026099197
 10
-37.9726550678
 20
10.6761872081
 10
-37.9549769957
 20
10.8445906765
 10
-37.9302014721
 20
11.0081479323
 10
-37.8983940664
 20
11.166531368
 10
-37.859751486
 20
11.318758161
 10
-37.8142311711
 20
11.464789883
 10
-37.7618756816
 20
11.6046649624
 10
-37.7030094043
 20
11.7375158616
 10
-37.6375918522
 20
11.863298817
 10
-37.5656635122
 20
11.9820575923
 10
-37.4876702325
 20
12.0930559408
 10
-37.403574418
 20
12.196245532
 10
-37.3134136637
 20
12.2916746965
 10
-37.2177466031
 20
12.3787521796
 10
-37.1165390896
 20
12.4574261395
 10
-37.0098252697
 20
12.5277484179
 10
-36.8982662159
 20
12.5892832855
 10
-36.7818317917
 20
12.6419762307
 10
-36.6605521336
 20
12.6858817651
 10
-36.5351787239
 20
12.7207276937
 10
-36.4056861024
 20
12.746457752
 10
-36.2720997293
 20
12.7631282046
 10
-36.135247468
 20
12.770635651
 10
-35.9951090494
 20
12.7689231723
 10
-35.8517047425
 20
12.7580476874
 10
-35.7059232179
 20
12.7380765526
 10
-35.5577497268
 20
12.7089532842
 10
-35.4071990179
 20
12.6707343659
 10
-35.2552040081
 20
12.6236566046
 10
-35.1017557189
 20
12.5676649846
 10
-34.9468631288
 20
12.5028145217
 10
-34.7914860897
 20
12.4295070697
 10
-34.635621585
 20
12.3476901025
 10
-34.5577791076
 20
12.3037669576
  0
LWPOLYLINE
  5
247
100
AcDbEntity
  8
ASSI
100
AcDbPolyline
 62
7
  6
CONTINUOUS
 90
36
 70
0
 10
-37.9869155654
 20
10.3238588111
 10
-37.9833012577
 20
10.5026099197
 10
-37.9726550678
 20
10.6761872081
 10
-37.9549769957
 20
10.8445906765
 10
-37.9302014721
 20
11.0081479323
 10
-37.8983940664
 20
11.166531368
 10
-37.859751486
 20
11.318758161
 10
-37.8142311711
 20
11.464789883
 10
-37.7618756816
 20
11.6046649624
 10
-37.7030094043
 20
11.7375158616
 10
-37.6375918522
 20
11.863298817
 10
-37.5656635122
 20
11.9820575923
 10
-37.4876702325
 20
12.0930559408
 10
-37.403574418
 20
12.196245532
 10
-37.3134136637
 20
12.2916746965
 10
-37.2177466031
 20
12.3787521796
 10
-37.1165390896
 20
12.4574261395
 10
-37.0098252697
 20
12.5277484179
 10
-36.8982662159
 20
12.5892832855
 10
-36.7818317917
 20
12.6419762307
 10
-36.6605521336
 20
12.6858817651
 10
-36.5351787239
 20
12.7207276937
 10
-36.4056861024
 20
12.746457752
 10
-36.2720997293
 20
12.7631282046
 10
-36.135247468
 20
12.770635651
 10
-35.9951090494
 20
12.7689231723
 10
-35.8517047425
 20
12.7580476874
 10
-35.7059232179
 20
12.7380765526
 10
-35.5577497268
 20
12.7089532842
 10
-35.4071990179
 20
12.6707343659
 10
-35.2552040081
 20
12.6236566046
 10
-35.1017557189
 20
12.5676649846
 10
-34.9468631288
 20
12.5028145217
 10
-34.7914860897
 20
12.4295070697
 10
-34.635621585
 20
12.3476901025
 10
-34.5577791076
 20
12.3037669576
  0
LWPOLYLINE
  5
248
100
AcDbEntity
  8
ASSI
100
AcDbPolyline
 62
7
  6
CONTINUOUS
 90
14
 70
0
 10
-35.8267323357
 20
12.5010853002
 10
-35.8420658263
 20
12.4822710117
 10
-35.9120195745
 20
12.3827178342
 10
-35.9765336647
 20
12.2762043215
 10
-36.0352083325
 20
12.1633904894
 10
-36.0880073188
 20
12.0442372168
 10
-36.1349668826
 20
11.9187836248
 10
-36.175796037
 20
11.787807092
 10
-36.2104567161
 20
11.6512733245
 10
-36.2389869857
 20
11.5092166161
 10
-36.2612100569
 20
11.3625172276
 10
-36.2770669999
 20
11.2114685792
 10
-36.2866167444
 20
11.0557772506
 10
-36.2898592905
 20
10.8954432418
  0
LINE
  5
249
100
AcDbEntity
  8
ASSI
100
AcDbLine
 62
7
  6
CONTINUOUS
 10
-57.9108776598
 20
-5.5414149275
 11
-57.5281883599
 21
-5.7908556696
  0
LWPOLYLINE
  5
24A
100
AcDbEntity
  8
SMUSSO
100
AcDbPolyline
 62
7
  6
CONTINUOUS
 90
70
 70
0
 10
-31.1279797878
 20
23.1012359301
 10
-31.1315940955
 20
22.9224848215
 10
-31.1422402854
 20
22.7489075331
 10
-31.1599183575
 20
22.5805040647
 10
-31.1846938811
 20
22.4169468089
 10
-31.2165012868
 20
22.2585633732
 10
-31.2551438672
 20
22.1063365802
 10
-31.3006641821
 20
21.9603048582
 10
-31.3530196716
 20
21.8204297788
 10
-31.4118859489
 20
21.6875788796
 10
-31.477303501
 20
21.5617959242
 10
-31.549231841
 20
21.4430371489
 10
-31.6272251207
 20
21.3320388004
 10
-31.7113209352
 20
21.2288492092
 10
-31.8014816895
 20
21.1334200447
 10
-31.8971487501
 20
21.0463425616
 10
-31.9983562636
 20
20.9676686017
 10
-32.1050700835
 20
20.8973463233
 10
-32.2166291373
 20
20.8358114557
 10
-32.3330635615
 20
20.7831185105
 10
-32.4543432196
 20
20.7392129761
 10
-32.5797166293
 20
20.7043670475
 10
-32.7092092508
 20
20.6786369892
 10
-32.8427956238
 20
20.6619665366
 10
-32.9796478852
 20
20.6544590902
 10
-33.1197863038
 20
20.6561715689
 10
-33.2631906107
 20
20.6670470538
 10
-33.4089721353
 20
20.6870181886
 10
-33.5571456264
 20
20.716141457
 10
-33.7076963353
 20
20.7543603753
 10
-33.8596913451
 20
20.8014381366
 10
-34.0131396343
 20
20.8574297565
 10
-34.1680322244
 20
20.9222802194
 10
-34.3234092635
 20
20.9955876715
 10
-34.4792737682
 20
21.0774046387
 10
-34.6356227219
 20
21.167678595
 10
-34.7914872235
 20
21.2658501088
 10
-34.9468642555
 20
21.3719682215
 10
-35.1017568354
 20
21.4859838917
 10
-35.2552051148
 20
21.6071905629
 10
-35.407200117
 20
21.7356328839
 10
-35.5577508187
 20
21.871266206
 10
-35.705924302
 20
22.013250027
 10
-35.8517058194
 20
22.161623801
 10
-35.9951101184
 20
22.3163480739
 10
-36.1352485236
 20
22.4764639814
 10
-36.2721007648
 20
22.6420050361
 10
-36.4056871122
 20
22.8129377255
 10
-36.5351797005
 20
22.9882026472
 10
-36.6605530636
 20
23.1678266548
 10
-36.7818326677
 20
23.3517828949
 10
-36.8982670461
 20
23.5389314047
 10
-37.0098260679
 20
23.7292919009
 10
-37.116539864
 20
23.9228446669
 10
-37.2177473602
 20
24.1183905909
 10
-37.313414416
 20
24.3159420994
 10
-37.4035751719
 20
24.515486766
 10
-37.4876709755
 20
24.7157881991
 10
-37.5656642259
 20
24.9168513127
 10
-37.6375925238
 20
25.1186711929
 10
-37.7030100195
 20
25.3199967071
 10
-37.7618762203
 20
25.5208248545
 10
-37.8142316188
 20
25.721158636
 10
-37.8597518429
 20
25.9197559212
 10
-37.8983943322
 20
26.1166059804
 10
-37.9302016471
 20
26.3117195435
 10
-37.9549770969
 20
26.5038866695
 10
-37.9726551181
 20
26.6927040451
 10
-37.9833012743
 20
26.8785749837
 10
-37.9869155654
 20
27.0614994854
  0
LWPOLYLINE
  5
24B
100
AcDbEntity
  8
ASSI
100
AcDbPolyline
 62
7
  6
CONTINUOUS
 90
70
 70
0
 10
-31.1279797878
 20
23.1012359301
 10
-31.1315940955
 20
22.9224848215
 10
-31.1422402854
 20
22.7489075331
 10
-31.1599183575
 20
22.5805040647
 10
-31.1846938811
 20
22.4169468089
 10
-31.2165012868
 20
22.2585633732
 10
-31.2551438672
 20
22.1063365802
 10
-31.3006641821
 20
21.9603048582
 10
-31.3530196716
 20
21.8204297788
 10
-31.4118859489
 20
21.6875788796
 10
-31.477303501
 20
21.5617959242
 10
-31.549231841
 20
21.4430371489
 10
-31.6272251207
 20
21.3320388004
 10
-31.7113209352
 20
21.2288492092
 10
-31.8014816895
 20
21.1334200447
 10
-31.8971487501
 20
21.0463425616
 10
-31.9983562636
 20
20.9676686017
 10
-32.1050700835
 20
20.8973463233
 10
-32.2166291373
 20
20.8358114557
 10
-32.3330635615
 20
20.7831185105
 10
-32.4543432196
 20
20.7392129761
 10
-32.5797166293
 20
20.7043670475
 10
-32.7092092508
 20
20.6786369892
 10
-32.8427956238
 20
20.6619665366
 10
-32.9796478852
 20
20.6544590902
 10
-33.1197863038
 20
20.6561715689
 10
-33.2631906107
 20
20.6670470538
 10
-33.4089721353
 20
20.6870181886
 10
-33.5571456264
 20
20.716141457
 10
-33.7076963353
 20
20.7543603753
 10
-33.8596913451
 20
20.8014381366
 10
-34.0131396343
 20
20.8574297565
 10
-34.1680322244
 20
20.9222802194
 10
-34.3234092635
 20
20.9955876715
 10
-34.4792737682
 20
21.0774046387
 10
-34.6356227219
 20
21.167678595
 10
-34.7914872235
 20
21.2658501088
 10
-34.9468642555
 20
21.3719682215
 10
-35.1017568354
 20
21.4859838917
 10
-35.2552051148
 20
21.6071905629
 10
-35.407200117
 20
21.7356328839
 10
-35.5577508187
 20
21.871266206
 10
-35.705924302
 20
22.013250027
 10
-35.8517058194
 20
22.161623801
 10
-35.9951101184
 20
22.3163480739
 10
-36.1352485236
 20
22.4764639814
 10
-36.2721007648
 20
22.6420050361
 10
-36.4056871122
 20
22.8129377255
 10
-36.5351797005
 20
22.9882026472
 10
-36.6605530636
 20
23.1678266548
 10
-36.7818326677
 20
23.3517828949
 10
-36.8982670461
 20
23.5389314047
 10
-37.0098260679
 20
23.7292919009
 10
-37.116539864
 20
23.9228446669
 10
-37.2177473602
 20
24.1183905909
 10
-37.313414416
 20
24.3159420994
 10
-37.4035751719
 20
24.515486766
 10
-37.4876709755
 20
24.7157881991
 10
-37.5656642259
 20
24.9168513127
 10
-37.6375925238
 20
25.1186711929
 10
-37.7030100195
 20
25.3199967071
 10
-37.7618762203
 20
25.5208248545
 10
-37.8142316188
 20
25.721158636
 10
-37.8597518429
 20
25.9197559212
 10
-37.8983943322
 20
26.1166059804
 10
-37.9302016471
 20
26.3117195435
 10
-37.9549770969
 20
26.5038866695
 10
-37.9726551181
 20
26.6927040451
 10
-37.9833012743
 20
26.8785749837
 10
-37.9869155654
 20
27.0614994854
  0
LWPOLYLINE
  5
24C
100
AcDbEntity
  8
SMUSSO
100
AcDbPolyline
 62
7
  6
CONTINUOUS
 90
70
 70
0
 10
-31.1279797878
 20
6.3635952558
 10
-31.1315940955
 20
6.1848441473
 10
-31.1422402854
 20
6.0112668588
 10
-31.1599183575
 20
5.8428633905
 10
-31.1846938811
 20
5.6793061347
 10
-31.2165012868
 20
5.520922699
 10
-31.2551438672
 20
5.3686959059
 10
-31.3006641821
 20
5.2226641839
 10
-31.3530196716
 20
5.0827891045
 10
-31.4118859489
 20
4.9499382053
 10
-31.477303501
 20
4.8241552499
 10
-31.549231841
 20
4.7053964747
 10
-31.6272251207
 20
4.5943981261
 10
-31.7113209352
 20
4.4912085349
 10
-31.8014816895
 20
4.3957793704
 10
-31.8971487501
 20
4.3087018873
 10
-31.9983562636
 20
4.2300279275
 10
-32.1050700835
 20
4.159705649
 10
-32.2166291373
 20
4.0981707814
 10
-32.3330635615
 20
4.0454778362
 10
-32.4543432196
 20
4.0015723019
 10
-32.5797166293
 20
3.9667263732
 10
-32.7092092508
 20
3.9409963149
 10
-32.8427956238
 20
3.9243258623
 10
-32.9796478852
 20
3.9168184159
 10
-33.1197863038
 20
3.9185308946
 10
-33.2631906107
 20
3.9294063795
 10
-33.4089721353
 20
3.9493775144
 10
-33.5571456264
 20
3.9785007827
 10
-33.7076963353
 20
4.0167197011
 10
-33.8596913451
 20
4.0637974624
 10
-34.0131396343
 20
4.1197890823
 10
-34.1680322244
 20
4.1846395452
 10
-34.3234092635
 20
4.2579469972
 10
-34.4792737682
 20
4.3397639644
 10
-34.6356227219
 20
4.4300379208
 10
-34.7914872235
 20
4.5282094345
 10
-34.9468642555
 20
4.6343275472
 10
-35.1017568354
 20
4.7483432174
 10
-35.2552051148
 20
4.8695498887
 10
-35.407200117
 20
4.9979922096
 10
-35.5577508187
 20
5.1336255317
 10
-35.705924302
 20
5.2756093527
 10
-35.8517058194
 20
5.4239831267
 10
-35.9951101184
 20
5.5787073996
 10
-36.1352485236
 20
5.7388233071
 10
-36.2721007648
 20
5.9043643619
 10
-36.4056871122
 20
6.0752970512
 10
-36.5351797005
 20
6.2505619729
 10
-36.6605530636
 20
6.4301859806
 10
-36.7818326677
 20
6.6141422206
 10
-36.8982670461
 20
6.8012907305
 10
-37.0098260679
 20
6.9916512266
 10
-37.116539864
 20
7.1852039926
 10
-37.2177473602
 20
7.3807499166
 10
-37.313414416
 20
7.5783014252
 10
-37.4035751719
 20
7.7778460917
 10
-37.4876709755
 20
7.9781475249
 10
-37.5656642259
 20
8.1792106384
 10
-37.6375925238
 20
8.3810305186
 10
-37.7030100195
 20
8.5823560328
 10
-37.7618762203
 20
8.7831841803
 10
-37.8142316188
 20
8.9835179617
 10
-37.8597518429
 20
9.182115247
 10
-37.8983943322
 20
9.3789653062
 10
-37.9302016471
 20
9.5740788692
 10
-37.9549770969
 20
9.7662459953
 10
-37.9726551181
 20
9.9550633708
 10
-37.9833012743
 20
10.1409343095
 10
-37.9869155654
 20
10.3238588111
  0
LWPOLYLINE
  5
24D
100
AcDbEntity
  8
ASSI
100
AcDbPolyline
 62
7
  6
CONTINUOUS
 90
70
 70
0
 10
-31.1279797878
 20
6.3635952558
 10
-31.1315940955
 20
6.1848441473
 10
-31.1422402854
 20
6.0112668588
 10
-31.1599183575
 20
5.8428633905
 10
-31.1846938811
 20
5.6793061347
 10
-31.2165012868
 20
5.520922699
 10
-31.2551438672
 20
5.3686959059
 10
-31.3006641821
 20
5.2226641839
 10
-31.3530196716
 20
5.0827891045
 10
-31.4118859489
 20
4.9499382053
 10
-31.477303501
 20
4.8241552499
 10
-31.549231841
 20
4.7053964747
 10
-31.6272251207
 20
4.5943981261
 10
-31.7113209352
 20
4.4912085349
 10
-31.8014816895
 20
4.3957793704
 10
-31.8971487501
 20
4.3087018873
 10
-31.9983562636
 20
4.2300279275
 10
-32.1050700835
 20
4.159705649
 10
-32.2166291373
 20
4.0981707814
 10
-32.3330635615
 20
4.0454778362
 10
-32.4543432196
 20
4.0015723019
 10
-32.5797166293
 20
3.9667263732
 10
-32.7092092508
 20
3.9409963149
 10
-32.8427956238
 20
3.9243258623
 10
-32.9796478852
 20
3.9168184159
 10
-33.1197863038
 20
3.9185308946
 10
-33.2631906107
 20
3.9294063795
 10
-33.4089721353
 20
3.9493775144
 10
-33.5571456264
 20
3.9785007827
 10
-33.7076963353
 20
4.0167197011
 10
-33.8596913451
 20
4.0637974624
 10
-34.0131396343
 20
4.1197890823
 10
-34.1680322244
 20
4.1846395452
 10
-34.3234092635
 20
4.2579469972
 10
-34.4792737682
 20
4.3397639644
 10
-34.6356227219
 20
4.4300379208
 10
-34.7914872235
 20
4.5282094345
 10
-34.9468642555
 20
4.6343275472
 10
-35.1017568354
 20
4.7483432174
 10
-35.2552051148
 20
4.8695498887
 10
-35.407200117
 20
4.9979922096
 10
-35.5577508187
 20
5.1336255317
 10
-35.705924302
 20
5.2756093527
 10
-35.8517058194
 20
5.4239831267
 10
-35.9951101184
 20
5.5787073996
 10
-36.1352485236
 20
5.7388233071
 10
-36.2721007648
 20
5.9043643619
 10
-36.4056871122
 20
6.0752970512
 10
-36.5351797005
 20
6.2505619729
 10
-36.6605530636
 20
6.4301859806
 10
-36.7818326677
 20
6.6141422206
 10
-36.8982670461
 20
6.8012907305
 10
-37.0098260679
 20
6.9916512266
 10
-37.116539864
 20
7.1852039926
 10
-37.2177473602
 20
7.3807499166
 10
-37.313414416
 20
7.5783014252
 10
-37.4035751719
 20
7.7778460917
 10
-37.4876709755
 20
7.9781475249
 10
-37.5656642259
 20
8.1792106384
 10
-37.6375925238
 20
8.3810305186
 10
-37.7030100195
 20
8.5823560328
 10
-37.7618762203
 20
8.7831841803
 10
-37.8142316188
 20
8.9835179617
 10
-37.8597518429
 20
9.182115247
 10
-37.8983943322
 20
9.3789653062
 10
-37.9302016471
 20
9.5740788692
 10
-37.9549770969
 20
9.7662459953
 10
-37.9726551181
 20
9.9550633708
 10
-37.9833012743
 20
10.1409343095
 10
-37.9869155654
 20
10.3238588111
  0
LINE
  5
24E
100
AcDbEntity
  8
SMUSSO
100
AcDbLine
 62
7
  6
CONTINUOUS
 10
-31.1333292942
 20
23.3144555061
 11
-31.1407221754
 21
23.1939197718
  0
LINE
  5
24F
100
AcDbEntity
  8
ASSI
100
AcDbLine
 62
7
  6
CONTINUOUS
 10
-31.1333292942
 20
23.3144555061
 11
-31.1407221754
 21
23.1939197718
  0
LINE
  5
250
100
AcDbEntity
  8
SMUSSO
100
AcDbLine
 62
7
  6
CONTINUOUS
 10
-31.1333292942
 20
6.5768148318
 11
-31.1407221754
 21
6.4562790975
  0
LINE
  5
251
100
AcDbEntity
  8
ASSI
100
AcDbLine
 62
7
  6
CONTINUOUS
 10
-31.1333292942
 20
6.5768148318
 11
-31.1407221754
 21
6.4562790975
  0
LWPOLYLINE
  5
252
100
AcDbEntity
  8
SMUSSO
100
AcDbPolyline
 62
7
  6
CONTINUOUS
 90
17
 70
0
 10
-31.1407221754
 20
23.1939197718
 10
-31.1566257445
 20
23.0424621757
 10
-31.1788450191
 20
22.8956512182
 10
-31.2073341504
 20
22.7537916263
 10
-31.2420341038
 20
22.6171783454
 10
-31.2828730556
 20
22.4860946852
 10
-31.329766493
 20
22.3608123709
 10
-31.3826171065
 20
22.2415916586
 10
-31.4413153639
 20
22.1286797458
 10
-31.5057396658
 20
22.0223106438
 10
-31.5757563256
 20
21.9227051201
 10
-31.6512201304
 20
21.8300697102
 10
-31.7319747339
 20
21.744596296
 10
-31.817852801
 20
21.6664619835
 10
-31.9086763092
 20
21.5958287408
 10
-32.0042570382
 20
21.5328429447
 10
-32.0287891894
 20
21.5183551774
  0
LWPOLYLINE
  5
253
100
AcDbEntity
  8
ASSI
100
AcDbPolyline
 62
7
  6
CONTINUOUS
 90
17
 70
0
 10
-31.1407221754
 20
23.1939197718
 10
-31.1566257445
 20
23.0424621757
 10
-31.1788450191
 20
22.8956512182
 10
-31.2073341504
 20
22.7537916263
 10
-31.2420341038
 20
22.6171783454
 10
-31.2828730556
 20
22.4860946852
 10
-31.329766493
 20
22.3608123709
 10
-31.3826171065
 20
22.2415916586
 10
-31.4413153639
 20
22.1286797458
 10
-31.5057396658
 20
22.0223106438
 10
-31.5757563256
 20
21.9227051201
 10
-31.6512201304
 20
21.8300697102
 10
-31.7319747339
 20
21.744596296
 10
-31.817852801
 20
21.6664619835
 10
-31.9086763092
 20
21.5958287408
 10
-32.0042570382
 20
21.5328429447
 10
-32.0287891894
 20
21.5183551774
  0
LWPOLYLINE
  5
254
100
AcDbEntity
  8
SMUSSO
100
AcDbPolyline
 62
7
  6
CONTINUOUS
 90
17
 70
0
 10
-31.1407221754
 20
6.4562790975
 10
-31.1566257445
 20
6.3048215015
 10
-31.1788450191
 20
6.158010544
 10
-31.2073341504
 20
6.016150952
 10
-31.2420341038
 20
5.8795376711
 10
-31.2828730556
 20
5.748454011
 10
-31.329766493
 20
5.6231716967
 10
-31.3826171065
 20
5.5039509843
 10
-31.4413153639
 20
5.3910390715
 10
-31.5057396658
 20
5.2846699695
 10
-31.5757563256
 20
5.1850644458
 10
-31.6512201304
 20
5.0924290359
 10
-31.7319747339
 20
5.0069556217
 10
-31.817852801
 20
4.9288213092
 10
-31.9086763092
 20
4.8581880666
 10
-32.0042570382
 20
4.7952022704
 10
-32.0287891894
 20
4.7807145032
  0
LWPOLYLINE
  5
255
100
AcDbEntity
  8
ASSI
100
AcDbPolyline
 62
7
  6
CONTINUOUS
 90
17
 70
0
 10
-31.1407221754
 20
6.4562790975
 10
-31.1566257445
 20
6.3048215015
 10
-31.1788450191
 20
6.158010544
 10
-31.2073341504
 20
6.016150952
 10
-31.2420341038
 20
5.8795376711
 10
-31.2828730556
 20
5.748454011
 10
-31.329766493
 20
5.6231716967
 10
-31.3826171065
 20
5.5039509843
 10
-31.4413153639
 20
5.3910390715
 10
-31.5057396658
 20
5.2846699695
 10
-31.5757563256
 20
5.1850644458
 10
-31.6512201304
 20
5.0924290359
 10
-31.7319747339
 20
5.0069556217
 10
-31.817852801
 20
4.9288213092
 10
-31.9086763092
 20
4.8581880666
 10
-32.0042570382
 20
4.7952022704
 10
-32.0287891894
 20
4.7807145032
  0
LWPOLYLINE
  5
256
100
AcDbEntity
  8
SMUSSO
100
AcDbPolyline
 62
7
  6
CONTINUOUS
 90
53
 70
0
 10
-32.0287891894
 20
21.5183551774
 10
-32.104397032
 20
21.4776350709
 10
-32.2088888069
 20
21.4303195622
 10
-32.3175157565
 20
21.3909945546
 10
-32.4300527475
 20
21.3597415945
 10
-32.5462665759
 20
21.3366254914
 10
-32.665916351
 20
21.3216942055
 10
-32.7887539811
 20
21.3149787245
 10
-32.9145248438
 20
21.3164929831
 10
-33.0429682793
 20
21.326233857
 10
-33.1738180208
 20
21.3441811647
 10
-33.3068028408
 20
21.3702977109
 10
-33.4416471167
 20
21.4045293726
 10
-33.5780713565
 20
21.4468052048
 10
-33.7157927995
 20
21.497037592
 10
-33.8545259825
 20
21.555122422
 10
-33.9939833299
 20
21.620939298
 10
-34.1338757934
 20
21.6943518076
 10
-34.2739134078
 20
21.7752077876
 10
-34.4138058708
 20
21.8633396212
 10
-34.5532632171
 20
21.9585646269
 10
-34.6919963986
 20
22.0606854316
 10
-34.8297178407
 20
22.1694903481
 10
-34.9661420804
 20
22.2847538429
 10
-35.1009863567
 20
22.4062370068
 10
-35.2339711766
 20
22.5336880338
 10
-35.3648209183
 20
22.6668427656
 10
-35.4932643536
 20
22.8054251903
 10
-35.6190352124
 20
22.9491480075
 10
-35.7418728334
 20
23.0977133359
 10
-35.861522596
 20
23.2508132107
 10
-35.9777364101
 20
23.4081301557
 10
-36.0902733831
 20
23.5693380333
 10
-36.1989003132
 20
23.7341027386
 10
-36.3033920729
 20
23.9020827564
 10
-36.4035320565
 20
24.0729298218
 10
-36.4991127781
 20
24.2462898932
 10
-36.5899362829
 20
24.4218039042
 10
-36.6758143535
 20
24.599108135
 10
-36.7565689613
 20
24.7778350328
 10
-36.8320327617
 20
24.9576142361
 10
-36.902049409
 20
25.1380733183
 10
-36.9664736904
 20
25.3188380543
 10
-37.0251719124
 20
25.4995332736
 10
-37.0780224773
 20
25.6797845398
 10
-37.1249158578
 20
25.8592181758
 10
-37.1657547457
 20
26.0374615461
 10
-37.200454632
 20
26.2141453296
 10
-37.2289436984
 20
26.3889032827
 10
-37.2511629155
 20
26.5613722945
 10
-37.2670664384
 20
26.7311946968
 10
-37.276621585
 20
26.8980189647
 10
-37.2798087842
 20
27.0614994854
  0
LWPOLYLINE
  5
257
100
AcDbEntity
  8
ASSI
100
AcDbPolyline
 62
7
  6
CONTINUOUS
 90
53
 70
0
 10
-32.0287891894
 20
21.5183551774
 10
-32.104397032
 20
21.4776350709
 10
-32.2088888069
 20
21.4303195622
 10
-32.3175157565
 20
21.3909945546
 10
-32.4300527475
 20
21.3597415945
 10
-32.5462665759
 20
21.3366254914
 10
-32.665916351
 20
21.3216942055
 10
-32.7887539811
 20
21.3149787245
 10
-32.9145248438
 20
21.3164929831
 10
-33.0429682793
 20
21.326233857
 10
-33.1738180208
 20
21.3441811647
 10
-33.3068028408
 20
21.3702977109
 10
-33.4416471167
 20
21.4045293726
 10
-33.5780713565
 20
21.4468052048
 10
-33.7157927995
 20
21.497037592
 10
-33.8545259825
 20
21.555122422
 10
-33.9939833299
 20
21.620939298
 10
-34.1338757934
 20
21.6943518076
 10
-34.2739134078
 20
21.7752077876
 10
-34.4138058708
 20
21.8633396212
 10
-34.5532632171
 20
21.9585646269
 10
-34.6919963986
 20
22.0606854316
 10
-34.8297178407
 20
22.1694903481
 10
-34.9661420804
 20
22.2847538429
 10
-35.1009863567
 20
22.4062370068
 10
-35.2339711766
 20
22.5336880338
 10
-35.3648209183
 20
22.6668427656
 10
-35.4932643536
 20
22.8054251903
 10
-35.6190352124
 20
22.9491480075
 10
-35.7418728334
 20
23.0977133359
 10
-35.861522596
 20
23.2508132107
 10
-35.9777364101
 20
23.4081301557
 10
-36.0902733831
 20
23.5693380333
 10
-36.1989003132
 20
23.7341027386
 10
-36.3033920729
 20
23.9020827564
 10
-36.4035320565
 20
24.0729298218
 10
-36.4991127781
 20
24.2462898932
 10
-36.5899362829
 20
24.4218039042
 10
-36.6758143535
 20
24.599108135
 10
-36.7565689613
 20
24.7778350328
 10
-36.8320327617
 20
24.9576142361
 10
-36.902049409
 20
25.1380733183
 10
-36.9664736904
 20
25.3188380543
 10
-37.0251719124
 20
25.4995332736
 10
-37.0780224773
 20
25.6797845398
 10
-37.1249158578
 20
25.8592181758
 10
-37.1657547457
 20
26.0374615461
 10
-37.200454632
 20
26.2141453296
 10
-37.2289436984
 20
26.3889032827
 10
-37.2511629155
 20
26.5613722945
 10
-37.2670664384
 20
26.7311946968
 10
-37.276621585
 20
26.8980189647
 10
-37.2798087842
 20
27.0614994854
  0
LINE
  5
258
100
AcDbEntity
  8
ASSI
100
AcDbLine
 62
7
  6
CONTINUOUS
 10
-57.5074247458
 20
-5.8032764952
 11
53.4454917611
 21
-69.8660999196
  0
LINE
  5
259
100
AcDbEntity
  8
ASSI
100
AcDbLine
 62
7
  6
CONTINUOUS
 10
-57.9108776598
 20
-5.5414149275
 11
52.4355926134
 21
-69.2540838972
  0
LINE
  5
25A
100
AcDbEntity
  8
ASSI
100
AcDbLine
 62
7
  6
CONTINUOUS
 10
-57.5074247458
 20
-5.8032764952
 11
-57.5281883599
 21
-5.7908556696
  0
LINE
  5
25B
100
AcDbEntity
  8
ASSI
100
AcDbLine
 62
7
  6
CONTINUOUS
 10
52.4355926134
 20
-69.2540838972
 11
53.4451293308
 21
-69.8654584819
  0
LWPOLYLINE
  5
25C
100
AcDbEntity
  8
ASSI
100
AcDbPolyline
 62
7
  6
CONTINUOUS
 90
14
 70
0
 10
-19.916829759
 20
20.0525476246
 10
-19.9321632496
 20
20.0337333361
 10
-20.0021169978
 20
19.9341801585
 10
-20.066631088
 20
19.8276666459
 10
-20.1253057558
 20
19.7148528138
 10
-20.1781047421
 20
19.5956995412
 10
-20.2250643059
 20
19.4702459492
 10
-20.2658934603
 20
19.3392694164
 10
-20.3005541394
 20
19.2027356488
 10
-20.329084409
 20
19.0606789405
 10
-20.3513074802
 20
18.913979552
 10
-20.3671644232
 20
18.7629309036
 10
-20.3767141677
 20
18.6072395749
 10
-20.3799567138
 20
18.4469055661
  0
LWPOLYLINE
  5
25D
100
AcDbEntity
  8
SMUSSO
100
AcDbPolyline
 62
7
  6
CONTINUOUS
 90
15
 70
0
 10
-36.3789993826
 20
12.3150141571
 10
-36.30339154
 20
12.3557342636
 10
-36.1988997651
 20
12.4030497723
 10
-36.0902728155
 20
12.4423747799
 10
-35.9777358245
 20
12.47362774
 10
-35.8615219961
 20
12.4967438431
 10
-35.741872221
 20
12.5116751291
 10
-35.6190345909
 20
12.51839061
 10
-35.4932637283
 20
12.5168763514
 10
-35.3648202927
 20
12.5071354775
 10
-35.2339705513
 20
12.4891881698
 10
-35.1009857313
 20
12.4630716236
 10
-34.9661414553
 20
12.4288399619
 10
-34.8297172156
 20
12.3865641297
 10
-34.6919957725
 20
12.3363317425
  0
LWPOLYLINE
  5
25E
100
AcDbEntity
  8
ASSI
100
AcDbPolyline
 62
7
  6
CONTINUOUS
 90
15
 70
0
 10
-36.3789993826
 20
12.3150141571
 10
-36.30339154
 20
12.3557342636
 10
-36.1988997651
 20
12.4030497723
 10
-36.0902728155
 20
12.4423747799
 10
-35.9777358245
 20
12.47362774
 10
-35.8615219961
 20
12.4967438431
 10
-35.741872221
 20
12.5116751291
 10
-35.6190345909
 20
12.51839061
 10
-35.4932637283
 20
12.5168763514
 10
-35.3648202927
 20
12.5071354775
 10
-35.2339705513
 20
12.4891881698
 10
-35.1009857313
 20
12.4630716236
 10
-34.9661414553
 20
12.4288399619
 10
-34.8297172156
 20
12.3865641297
 10
-34.6919957725
 20
12.3363317425
  0
LWPOLYLINE
  5
25F
100
AcDbEntity
  8
SMUSSO
100
AcDbPolyline
 62
7
  6
CONTINUOUS
 90
15
 70
0
 10
-20.4690968059
 20
19.8664764815
 10
-20.3934889633
 20
19.907196588
 10
-20.2889971884
 20
19.9545120967
 10
-20.1803702388
 20
19.9938371043
 10
-20.0678332478
 20
20.0250900644
 10
-19.9516194194
 20
20.0482061675
 10
-19.8319696443
 20
20.0631374534
 10
-19.7091320143
 20
20.0698529344
 10
-19.5833611516
 20
20.0683386758
 10
-19.454917716
 20
20.0585978019
 10
-19.3240679746
 20
20.0406504942
 10
-19.1910831546
 20
20.014533948
 10
-19.0562388786
 20
19.9803022863
 10
-18.9198146389
 20
19.9380264541
 10
-18.7820931958
 20
19.8877940669
  0
LWPOLYLINE
  5
260
100
AcDbEntity
  8
ASSI
100
AcDbPolyline
 62
7
  6
CONTINUOUS
 90
15
 70
0
 10
-20.4690968059
 20
19.8664764815
 10
-20.3934889633
 20
19.907196588
 10
-20.2889971884
 20
19.9545120967
 10
-20.1803702388
 20
19.9938371043
 10
-20.0678332478
 20
20.0250900644
 10
-19.9516194194
 20
20.0482061675
 10
-19.8319696443
 20
20.0631374534
 10
-19.7091320143
 20
20.0698529344
 10
-19.5833611516
 20
20.0683386758
 10
-19.454917716
 20
20.0585978019
 10
-19.3240679746
 20
20.0406504942
 10
-19.1910831546
 20
20.014533948
 10
-19.0562388786
 20
19.9803022863
 10
-18.9198146389
 20
19.9380264541
 10
-18.7820931958
 20
19.8877940669
  0
LWPOLYLINE
  5
261
100
AcDbEntity
  8
ASSI
100
AcDbPolyline
 62
7
  6
CONTINUOUS
 90
48
 70
0
 10
-20.3799567138
 20
1.7092648919
 10
-20.3767141677
 20
1.5451864722
 10
-20.3671644232
 20
1.3784673379
 10
-20.3513074802
 20
1.2091074892
 10
-20.329084409
 20
1.0367454551
 10
-20.3005541394
 20
0.8617427066
 10
-20.2658934603
 20
0.6851836556
 10
-20.2250643059
 20
0.5070586387
 10
-20.1781047421
 20
0.3273773195
 10
-20.1253057558
 20
0.147253101
 10
-20.066631088
 20
-0.0333167667
 10
-20.0021169978
 20
-0.2143295336
 10
-19.9321632496
 20
-0.3946635462
 10
-19.8567360665
 20
-0.5743145898
 10
-19.7758692254
 20
-0.753286879
 10
-19.6900638211
 20
-0.9304714043
 10
-19.5992891884
 20
-1.1058570647
 10
-19.5035759926
 20
-1.2794549611
 10
-19.4035173246
 20
-1.4501893866
 10
-19.299086202
 20
-1.6180425609
 10
-19.1903096072
 20
-1.7830322641
 10
-19.0778615792
 20
-1.9441361306
 10
-18.9617193208
 20
-2.1013300315
 10
-18.8419056293
 20
-2.2546380957
 10
-18.7191629353
 20
-2.4031103428
 10
-18.5934730517
 20
-2.5467167456
 10
-18.4648541657
 20
-2.6854873314
 10
-18.3341032699
 20
-2.8185622022
 10
-18.2012071258
 20
-2.9459059912
 10
-18.0661789718
 20
-3.0675540653
 10
-17.9298555159
 20
-3.1827526267
 10
-17.7922287151
 20
-3.2914616281
 10
-17.6533066122
 20
-3.3937211169
 10
-17.5139500443
 20
-3.4888974377
 10
-17.3741563136
 20
-3.5769466085
 10
-17.2339281177
 20
-3.6579126113
 10
-17.094134387
 20
-3.7312937367
 10
-16.9547778191
 20
-3.7970428875
 10
-16.8158557162
 20
-3.8552071608
 10
-16.6782289154
 20
-3.9054261393
 10
-16.5419054595
 20
-3.9476504877
 10
-16.4068773055
 20
-3.9819295412
 10
-16.2739811614
 20
-4.0080508882
 10
-16.1432302656
 20
-4.0259638745
 10
-16.0146113796
 20
-4.0357191543
 10
-15.888921496
 20
-4.0372562786
 10
-15.766178802
 20
-4.0305242178
 10
-15.6811714375
 20
-4.0199170954
  0
LWPOLYLINE
  5
262
100
AcDbEntity
  8
ASSI
100
AcDbPolyline
 62
7
  6
CONTINUOUS
 90
48
 70
0
 10
-20.3799567138
 20
18.4469055661
 10
-20.3767141677
 20
18.2828271464
 10
-20.3671644232
 20
18.1161080122
 10
-20.3513074802
 20
17.9467481634
 10
-20.329084409
 20
17.7743861294
 10
-20.3005541394
 20
17.5993833808
 10
-20.2658934603
 20
17.4228243299
 10
-20.2250643059
 20
17.244699313
 10
-20.1781047421
 20
17.0650179937
 10
-20.1253057558
 20
16.8848937753
 10
-20.066631088
 20
16.7043239075
 10
-20.0021169978
 20
16.5233111406
 10
-19.9321632496
 20
16.342977128
 10
-19.8567360665
 20
16.1633260845
 10
-19.7758692254
 20
15.9843537952
 10
-19.6900638211
 20
15.80716927
 10
-19.5992891884
 20
15.6317836095
 10
-19.5035759926
 20
15.4581857131
 10
-19.4035173246
 20
15.2874512876
 10
-19.299086202
 20
15.1195981134
 10
-19.1903096072
 20
14.9546084101
 10
-19.0778615792
 20
14.7935045437
 10
-18.9617193208
 20
14.6363106427
 10
-18.8419056293
 20
14.4830025786
 10
-18.7191629353
 20
14.3345303314
 10
-18.5934730517
 20
14.1909239287
 10
-18.4648541657
 20
14.0521533429
 10
-18.3341032699
 20
13.919078472
 10
-18.2012071258
 20
13.791734683
 10
-18.0661789718
 20
13.670086609
 10
-17.9298555159
 20
13.5548880476
 10
-17.7922287151
 20
13.4461790461
 10
-17.6533066122
 20
13.3439195573
 10
-17.5139500443
 20
13.2487432365
 10
-17.3741563136
 20
13.1606940657
 10
-17.2339281177
 20
13.0797280629
 10
-17.094134387
 20
13.0063469375
 10
-16.9547778191
 20
12.9405977868
 10
-16.8158557162
 20
12.8824335134
 10
-16.6782289154
 20
12.8322145349
 10
-16.5419054595
 20
12.7899901866
 10
-16.4068773055
 20
12.755711133
 10
-16.2739811614
 20
12.729589786
 10
-16.1432302656
 20
12.7116767997
 10
-16.0146113796
 20
12.7019215199
 10
-15.888921496
 20
12.7003843956
 10
-15.766178802
 20
12.7071164565
 10
-15.6811714375
 20
12.7177235788
  0
LWPOLYLINE
  5
263
100
AcDbEntity
  8
SMUSSO
100
AcDbPolyline
 62
7
  6
CONTINUOUS
 90
19
 70
0
 10
-21.3699062075
 20
17.8753211355
 10
-21.3667189972
 20
18.035121434
 10
-21.3571638199
 20
18.1909118871
 10
-21.3412602509
 20
18.3423694832
 10
-21.3190409762
 20
18.4891804407
 10
-21.2905518449
 20
18.6310400326
 10
-21.2558518915
 20
18.7676533135
 10
-21.2150129397
 20
18.8987369737
 10
-21.1681195023
 20
19.024019288
 10
-21.1152688888
 20
19.1432400003
 10
-21.0565706314
 20
19.2561519131
 10
-20.9921463296
 20
19.3625210151
 10
-20.9221296698
 20
19.4621265388
 10
-20.8466658649
 20
19.5547619487
 10
-20.7659112614
 20
19.6402353629
 10
-20.6800331943
 20
19.7183696754
 10
-20.5892096861
 20
19.7890029181
 10
-20.4936289571
 20
19.8519887142
 10
-20.4690968059
 20
19.8664764815
  0
LWPOLYLINE
  5
264
100
AcDbEntity
  8
ASSI
100
AcDbPolyline
 62
7
  6
CONTINUOUS
 90
19
 70
0
 10
-21.3699062075
 20
17.8753211355
 10
-21.3667189972
 20
18.035121434
 10
-21.3571638199
 20
18.1909118871
 10
-21.3412602509
 20
18.3423694832
 10
-21.3190409762
 20
18.4891804407
 10
-21.2905518449
 20
18.6310400326
 10
-21.2558518915
 20
18.7676533135
 10
-21.2150129397
 20
18.8987369737
 10
-21.1681195023
 20
19.024019288
 10
-21.1152688888
 20
19.1432400003
 10
-21.0565706314
 20
19.2561519131
 10
-20.9921463296
 20
19.3625210151
 10
-20.9221296698
 20
19.4621265388
 10
-20.8466658649
 20
19.5547619487
 10
-20.7659112614
 20
19.6402353629
 10
-20.6800331943
 20
19.7183696754
 10
-20.5892096861
 20
19.7890029181
 10
-20.4936289571
 20
19.8519887142
 10
-20.4690968059
 20
19.8664764815
  0
LWPOLYLINE
  5
265
100
AcDbEntity
  8
SMUSSO
100
AcDbPolyline
 62
7
  6
CONTINUOUS
 90
19
 70
0
 10
-21.3699062075
 20
1.1376804612
 10
-21.3667189972
 20
1.2974807598
 10
-21.3571638199
 20
1.4532712128
 10
-21.3412602509
 20
1.6047288089
 10
-21.3190409762
 20
1.7515397664
 10
-21.2905518449
 20
1.8933993584
 10
-21.2558518915
 20
2.0300126393
 10
-21.2150129397
 20
2.1610962994
 10
-21.1681195023
 20
2.2863786137
 10
-21.1152688888
 20
2.4055993261
 10
-21.0565706314
 20
2.5185112389
 10
-20.9921463296
 20
2.6248803409
 10
-20.9221296698
 20
2.7244858646
 10
-20.8466658649
 20
2.8171212745
 10
-20.7659112614
 20
2.9025946887
 10
-20.6800331943
 20
2.9807290012
 10
-20.5892096861
 20
3.0513622438
 10
-20.4936289571
 20
3.11434804
 10
-20.4690968059
 20
3.1288358072
  0
LWPOLYLINE
  5
266
100
AcDbEntity
  8
ASSI
100
AcDbPolyline
 62
7
  6
CONTINUOUS
 90
19
 70
0
 10
-21.3699062075
 20
1.1376804612
 10
-21.3667189972
 20
1.2974807598
 10
-21.3571638199
 20
1.4532712128
 10
-21.3412602509
 20
1.6047288089
 10
-21.3190409762
 20
1.7515397664
 10
-21.2905518449
 20
1.8933993584
 10
-21.2558518915
 20
2.0300126393
 10
-21.2150129397
 20
2.1610962994
 10
-21.1681195023
 20
2.2863786137
 10
-21.1152688888
 20
2.4055993261
 10
-21.0565706314
 20
2.5185112389
 10
-20.9921463296
 20
2.6248803409
 10
-20.9221296698
 20
2.7244858646
 10
-20.8466658649
 20
2.8171212745
 10
-20.7659112614
 20
2.9025946887
 10
-20.6800331943
 20
2.9807290012
 10
-20.5892096861
 20
3.0513622438
 10
-20.4936289571
 20
3.11434804
 10
-20.4690968059
 20
3.1288358072
  0
LWPOLYLINE
  5
267
100
AcDbEntity
  8
SMUSSO
100
AcDbPolyline
 62
7
  6
CONTINUOUS
 90
36
 70
0
 10
-22.0770129887
 20
17.8753211355
 10
-22.073398681
 20
18.054072244
 10
-22.0627524911
 20
18.2276495325
 10
-22.045074419
 20
18.3960530008
 10
-22.0202988954
 20
18.5596102566
 10
-21.9884914897
 20
18.7179936923
 10
-21.9498489093
 20
18.8702204854
 10
-21.9043285944
 20
19.0162522074
 10
-21.8519731049
 20
19.1561272868
 10
-21.7931068276
 20
19.288978186
 10
-21.7276892755
 20
19.4147611414
 10
-21.6557609355
 20
19.5335199167
 10
-21.5777676558
 20
19.6445182652
 10
-21.4936718413
 20
19.7477078564
 10
-21.403511087
 20
19.8431370209
 10
-21.3078440264
 20
19.930214504
 10
-21.2066365129
 20
20.0088884639
 10
-21.099922693
 20
20.0792107423
 10
-20.9883636392
 20
20.1407456099
 10
-20.871929215
 20
20.1934385551
 10
-20.7506495569
 20
20.2373440894
 10
-20.6252761472
 20
20.2721900181
 10
-20.4957835257
 20
20.2979200764
 10
-20.3621971527
 20
20.314590529
 10
-20.2253448913
 20
20.3220979754
 10
-20.0852064727
 20
20.3203854967
 10
-19.9418021658
 20
20.3095100118
 10
-19.7960206412
 20
20.289538877
 10
-19.6478471501
 20
20.2604156086
 10
-19.4972964412
 20
20.2221966903
 10
-19.3453014314
 20
20.1751189289
 10
-19.1918531422
 20
20.119127309
 10
-19.0369605521
 20
20.0542768461
 10
-18.881583513
 20
19.9809693941
 10
-18.7257190083
 20
19.8991524269
 10
-18.6478765309
 20
19.855229282
  0
LWPOLYLINE
  5
268
100
AcDbEntity
  8
ASSI
100
AcDbPolyline
 62
7
  6
CONTINUOUS
 90
36
 70
0
 10
-22.0770129887
 20
17.8753211355
 10
-22.073398681
 20
18.054072244
 10
-22.0627524911
 20
18.2276495325
 10
-22.045074419
 20
18.3960530008
 10
-22.0202988954
 20
18.5596102566
 10
-21.9884914897
 20
18.7179936923
 10
-21.9498489093
 20
18.8702204854
 10
-21.9043285944
 20
19.0162522074
 10
-21.8519731049
 20
19.1561272868
 10
-21.7931068276
 20
19.288978186
 10
-21.7276892755
 20
19.4147611414
 10
-21.6557609355
 20
19.5335199167
 10
-21.5777676558
 20
19.6445182652
 10
-21.4936718413
 20
19.7477078564
 10
-21.403511087
 20
19.8431370209
 10
-21.3078440264
 20
19.930214504
 10
-21.2066365129
 20
20.0088884639
 10
-21.099922693
 20
20.0792107423
 10
-20.9883636392
 20
20.1407456099
 10
-20.871929215
 20
20.1934385551
 10
-20.7506495569
 20
20.2373440894
 10
-20.6252761472
 20
20.2721900181
 10
-20.4957835257
 20
20.2979200764
 10
-20.3621971527
 20
20.314590529
 10
-20.2253448913
 20
20.3220979754
 10
-20.0852064727
 20
20.3203854967
 10
-19.9418021658
 20
20.3095100118
 10
-19.7960206412
 20
20.289538877
 10
-19.6478471501
 20
20.2604156086
 10
-19.4972964412
 20
20.2221966903
 10
-19.3453014314
 20
20.1751189289
 10
-19.1918531422
 20
20.119127309
 10
-19.0369605521
 20
20.0542768461
 10
-18.881583513
 20
19.9809693941
 10
-18.7257190083
 20
19.8991524269
 10
-18.6478765309
 20
19.855229282
  0
LWPOLYLINE
  5
269
100
AcDbEntity
  8
SMUSSO
100
AcDbPolyline
 62
7
  6
CONTINUOUS
 90
36
 70
0
 10
-22.0770129887
 20
1.1376804612
 10
-22.073398681
 20
1.3164315698
 10
-22.0627524911
 20
1.4900088582
 10
-22.045074419
 20
1.6584123266
 10
-22.0202988954
 20
1.8219695824
 10
-21.9884914897
 20
1.9803530181
 10
-21.9498489093
 20
2.1325798111
 10
-21.9043285944
 20
2.2786115332
 10
-21.8519731049
 20
2.4184866125
 10
-21.7931068276
 20
2.5513375117
 10
-21.7276892755
 20
2.6771204671
 10
-21.6557609355
 20
2.7958792424
 10
-21.5777676558
 20
2.9068775909
 10
-21.4936718413
 20
3.0100671822
 10
-21.403511087
 20
3.1054963467
 10
-21.3078440264
 20
3.1925738297
 10
-21.2066365129
 20
3.2712477896
 10
-21.099922693
 20
3.3415700681
 10
-20.9883636392
 20
3.4031049357
 10
-20.871929215
 20
3.4557978808
 10
-20.7506495569
 20
3.4997034152
 10
-20.6252761472
 20
3.5345493439
 10
-20.4957835257
 20
3.5602794021
 10
-20.3621971527
 20
3.5769498547
 10
-20.2253448913
 20
3.5844573012
 10
-20.0852064727
 20
3.5827448225
 10
-19.9418021658
 20
3.5718693376
 10
-19.7960206412
 20
3.5518982027
 10
-19.6478471501
 20
3.5227749343
 10
-19.4972964412
 20
3.484556016
 10
-19.3453014314
 20
3.4374782547
 10
-19.1918531422
 20
3.3814866348
 10
-19.0369605521
 20
3.3166361719
 10
-18.881583513
 20
3.2433287198
 10
-18.7257190083
 20
3.1615117526
 10
-18.6478765309
 20
3.1175886077
  0
LWPOLYLINE
  5
26A
100
AcDbEntity
  8
ASSI
100
AcDbPolyline
 62
7
  6
CONTINUOUS
 90
36
 70
0
 10
-22.0770129887
 20
1.1376804612
 10
-22.073398681
 20
1.3164315698
 10
-22.0627524911
 20
1.4900088582
 10
-22.045074419
 20
1.6584123266
 10
-22.0202988954
 20
1.8219695824
 10
-21.9884914897
 20
1.9803530181
 10
-21.9498489093
 20
2.1325798111
 10
-21.9043285944
 20
2.2786115332
 10
-21.8519731049
 20
2.4184866125
 10
-21.7931068276
 20
2.5513375117
 10
-21.7276892755
 20
2.6771204671
 10
-21.6557609355
 20
2.7958792424
 10
-21.5777676558
 20
2.9068775909
 10
-21.4936718413
 20
3.0100671822
 10
-21.403511087
 20
3.1054963467
 10
-21.3078440264
 20
3.1925738297
 10
-21.2066365129
 20
3.2712477896
 10
-21.099922693
 20
3.3415700681
 10
-20.9883636392
 20
3.4031049357
 10
-20.871929215
 20
3.4557978808
 10
-20.7506495569
 20
3.4997034152
 10
-20.6252761472
 20
3.5345493439
 10
-20.4957835257
 20
3.5602794021
 10
-20.3621971527
 20
3.5769498547
 10
-20.2253448913
 20
3.5844573012
 10
-20.0852064727
 20
3.5827448225
 10
-19.9418021658
 20
3.5718693376
 10
-19.7960206412
 20
3.5518982027
 10
-19.6478471501
 20
3.5227749343
 10
-19.4972964412
 20
3.484556016
 10
-19.3453014314
 20
3.4374782547
 10
-19.1918531422
 20
3.3814866348
 10
-19.0369605521
 20
3.3166361719
 10
-18.881583513
 20
3.2433287198
 10
-18.7257190083
 20
3.1615117526
 10
-18.6478765309
 20
3.1175886077
  0
LWPOLYLINE
  5
26B
100
AcDbEntity
  8
ASSI
100
AcDbPolyline
 62
7
  6
CONTINUOUS
 90
14
 70
0
 10
-19.916829759
 20
3.3149069503
 10
-19.9321632496
 20
3.2960926619
 10
-20.0021169978
 20
3.1965394843
 10
-20.066631088
 20
3.0900259716
 10
-20.1253057558
 20
2.9772121395
 10
-20.1781047421
 20
2.8580588669
 10
-20.2250643059
 20
2.7326052749
 10
-20.2658934603
 20
2.6016287421
 10
-20.3005541394
 20
2.4650949746
 10
-20.329084409
 20
2.3230382662
 10
-20.3513074802
 20
2.1763388778
 10
-20.3671644232
 20
2.0252902293
 10
-20.3767141677
 20
1.8695989007
 10
-20.3799567138
 20
1.7092648919
  0
LWPOLYLINE
  5
26C
100
AcDbEntity
  8
SMUSSO
100
AcDbPolyline
 62
7
  6
CONTINUOUS
 90
53
 70
0
 10
-32.0287891894
 20
4.7807145032
 10
-32.104397032
 20
4.7399943966
 10
-32.2088888069
 20
4.6926788879
 10
-32.3175157565
 20
4.6533538803
 10
-32.4300527475
 20
4.6221009202
 10
-32.5462665759
 20
4.5989848172
 10
-32.665916351
 20
4.5840535312
 10
-32.7887539811
 20
4.5773380503
 10
-32.9145248438
 20
4.5788523088
 10
-33.0429682793
 20
4.5885931827
 10
-33.1738180208
 20
4.6065404905
 10
-33.3068028408
 20
4.6326570367
 10
-33.4416471167
 20
4.6668886983
 10
-33.5780713565
 20
4.7091645306
 10
-33.7157927995
 20
4.7593969178
 10
-33.8545259825
 20
4.8174817478
 10
-33.9939833299
 20
4.8832986238
 10
-34.1338757934
 20
4.9567111334
 10
-34.2739134078
 20
5.0375671134
 10
-34.4138058708
 20
5.1256989469
 10
-34.5532632171
 20
5.2209239527
 10
-34.6919963986
 20
5.3230447574
 10
-34.8297178407
 20
5.4318496738
 10
-34.9661420804
 20
5.5471131686
 10
-35.1009863567
 20
5.6685963325
 10
-35.2339711766
 20
5.7960473595
 10
-35.3648209183
 20
5.9292020913
 10
-35.4932643536
 20
6.0677845161
 10
-35.6190352124
 20
6.2115073332
 10
-35.7418728334
 20
6.3600726616
 10
-35.861522596
 20
6.5131725364
 10
-35.9777364101
 20
6.6704894814
 10
-36.0902733831
 20
6.8316973591
 10
-36.1989003132
 20
6.9964620643
 10
-36.3033920729
 20
7.1644420822
 10
-36.4035320565
 20
7.3352891475
 10
-36.4991127781
 20
7.5086492189
 10
-36.5899362829
 20
7.68416323
 10
-36.6758143535
 20
7.8614674608
 10
-36.7565689613
 20
8.0401943586
 10
-36.8320327617
 20
8.2199735618
 10
-36.902049409
 20
8.400432644
 10
-36.9664736904
 20
8.58119738
 10
-37.0251719124
 20
8.7618925993
 10
-37.0780224773
 20
8.9421438656
 10
-37.1249158578
 20
9.1215775015
 10
-37.1657547457
 20
9.2998208719
 10
-37.200454632
 20
9.4765046554
 10
-37.2289436984
 20
9.6512626084
 10
-37.2511629155
 20
9.8237316202
 10
-37.2670664384
 20
9.9935540225
 10
-37.276621585
 20
10.1603782905
 10
-37.2798087842
 20
10.3238588111
  0
LWPOLYLINE
  5
26D
100
AcDbEntity
  8
ASSI
100
AcDbPolyline
 62
7
  6
CONTINUOUS
 90
53
 70
0
 10
-32.0287891894
 20
4.7807145032
 10
-32.104397032
 20
4.7399943966
 10
-32.2088888069
 20
4.6926788879
 10
-32.3175157565
 20
4.6533538803
 10
-32.4300527475
 20
4.6221009202
 10
-32.5462665759
 20
4.5989848172
 10
-32.665916351
 20
4.5840535312
 10
-32.7887539811
 20
4.5773380503
 10
-32.9145248438
 20
4.5788523088
 10
-33.0429682793
 20
4.5885931827
 10
-33.1738180208
 20
4.6065404905
 10
-33.3068028408
 20
4.6326570367
 10
-33.4416471167
 20
4.6668886983
 10
-33.5780713565
 20
4.7091645306
 10
-33.7157927995
 20
4.7593969178
 10
-33.8545259825
 20
4.8174817478
 10
-33.9939833299
 20
4.8832986238
 10
-34.1338757934
 20
4.9567111334
 10
-34.2739134078
 20
5.0375671134
 10
-34.4138058708
 20
5.1256989469
 10
-34.5532632171
 20
5.2209239527
 10
-34.6919963986
 20
5.3230447574
 10
-34.8297178407
 20
5.4318496738
 10
-34.9661420804
 20
5.5471131686
 10
-35.1009863567
 20
5.6685963325
 10
-35.2339711766
 20
5.7960473595
 10
-35.3648209183
 20
5.9292020913
 10
-35.4932643536
 20
6.0677845161
 10
-35.6190352124
 20
6.2115073332
 10
-35.7418728334
 20
6.3600726616
 10
-35.861522596
 20
6.5131725364
 10
-35.9777364101
 20
6.6704894814
 10
-36.0902733831
 20
6.8316973591
 10
-36.1989003132
 20
6.9964620643
 10
-36.3033920729
 20
7.1644420822
 10
-36.4035320565
 20
7.3352891475
 10
-36.4991127781
 20
7.5086492189
 10
-36.5899362829
 20
7.68416323
 10
-36.6758143535
 20
7.8614674608
 10
-36.7565689613
 20
8.0401943586
 10
-36.8320327617
 20
8.2199735618
 10
-36.902049409
 20
8.400432644
 10
-36.9664736904
 20
8.58119738
 10
-37.0251719124
 20
8.7618925993
 10
-37.0780224773
 20
8.9421438656
 10
-37.1249158578
 20
9.1215775015
 10
-37.1657547457
 20
9.2998208719
 10
-37.200454632
 20
9.4765046554
 10
-37.2289436984
 20
9.6512626084
 10
-37.2511629155
 20
9.8237316202
 10
-37.2670664384
 20
9.9935540225
 10
-37.276621585
 20
10.1603782905
 10
-37.2798087842
 20
10.3238588111
  0
LWPOLYLINE
  5
26E
100
AcDbEntity
  8
SMUSSO
100
AcDbPolyline
 62
7
  6
CONTINUOUS
 90
53
 70
0
 10
-16.1188866127
 20
12.3321768276
 10
-16.1944944553
 20
12.291456721
 10
-16.2989862302
 20
12.2441412123
 10
-16.4076131799
 20
12.2048162047
 10
-16.5201501708
 20
12.1735632446
 10
-16.6363639992
 20
12.1504471416
 10
-16.7560137743
 20
12.1355158556
 10
-16.8788514044
 20
12.1288003746
 10
-17.0046222671
 20
12.1303146332
 10
-17.1330657026
 20
12.1400555071
 10
-17.2639154441
 20
12.1580028149
 10
-17.3969002641
 20
12.184119361
 10
-17.53174454
 20
12.2183510227
 10
-17.6681687798
 20
12.260626855
 10
-17.8058902229
 20
12.3108592421
 10
-17.9446234058
 20
12.3689440722
 10
-18.0840807532
 20
12.4347609481
 10
-18.2239732167
 20
12.5081734577
 10
-18.3640108311
 20
12.5890294377
 10
-18.5039032941
 20
12.6771612713
 10
-18.6433606405
 20
12.7723862771
 10
-18.7820938219
 20
12.8745070818
 10
-18.919815264
 20
12.9833119982
 10
-19.0562395037
 20
13.098575493
 10
-19.19108378
 20
13.2200586569
 10
-19.3240685999
 20
13.3475096839
 10
-19.4549183416
 20
13.4806644157
 10
-19.5833617769
 20
13.6192468404
 10
-19.7091326357
 20
13.7629696576
 10
-19.8319702567
 20
13.911534986
 10
-19.9516200193
 20
14.0646348608
 10
-20.0678338334
 20
14.2219518058
 10
-20.1803708064
 20
14.3831596835
 10
-20.2889977365
 20
14.5479243887
 10
-20.3934894962
 20
14.7159044066
 10
-20.4936294798
 20
14.8867514719
 10
-20.5892102014
 20
15.0601115433
 10
-20.6800337062
 20
15.2356255543
 10
-20.7659117768
 20
15.4129297851
 10
-20.8466663846
 20
15.5916566829
 10
-20.922130185
 20
15.7714358862
 10
-20.9921468323
 20
15.9518949684
 10
-21.0565711137
 20
16.1326597044
 10
-21.1152693357
 20
16.3133549237
 10
-21.1681199006
 20
16.4936061899
 10
-21.2150132811
 20
16.6730398259
 10
-21.255852169
 20
16.8512831962
 10
-21.2905520553
 20
17.0279669797
 10
-21.3190411217
 20
17.2027249328
 10
-21.3412603388
 20
17.3751939446
 10
-21.3571638617
 20
17.5450163469
 10
-21.3667190083
 20
17.7118406148
 10
-21.3699062075
 20
17.8753211355
  0
LWPOLYLINE
  5
26F
100
AcDbEntity
  8
ASSI
100
AcDbPolyline
 62
7
  6
CONTINUOUS
 90
53
 70
0
 10
-16.1188866127
 20
12.3321768276
 10
-16.1944944553
 20
12.291456721
 10
-16.2989862302
 20
12.2441412123
 10
-16.4076131799
 20
12.2048162047
 10
-16.5201501708
 20
12.1735632446
 10
-16.6363639992
 20
12.1504471416
 10
-16.7560137743
 20
12.1355158556
 10
-16.8788514044
 20
12.1288003746
 10
-17.0046222671
 20
12.1303146332
 10
-17.1330657026
 20
12.1400555071
 10
-17.2639154441
 20
12.1580028149
 10
-17.3969002641
 20
12.184119361
 10
-17.53174454
 20
12.2183510227
 10
-17.6681687798
 20
12.260626855
 10
-17.8058902229
 20
12.3108592421
 10
-17.9446234058
 20
12.3689440722
 10
-18.0840807532
 20
12.4347609481
 10
-18.2239732167
 20
12.5081734577
 10
-18.3640108311
 20
12.5890294377
 10
-18.5039032941
 20
12.6771612713
 10
-18.6433606405
 20
12.7723862771
 10
-18.7820938219
 20
12.8745070818
 10
-18.919815264
 20
12.9833119982
 10
-19.0562395037
 20
13.098575493
 10
-19.19108378
 20
13.2200586569
 10
-19.3240685999
 20
13.3475096839
 10
-19.4549183416
 20
13.4806644157
 10
-19.5833617769
 20
13.6192468404
 10
-19.7091326357
 20
13.7629696576
 10
-19.8319702567
 20
13.911534986
 10
-19.9516200193
 20
14.0646348608
 10
-20.0678338334
 20
14.2219518058
 10
-20.1803708064
 20
14.3831596835
 10
-20.2889977365
 20
14.5479243887
 10
-20.3934894962
 20
14.7159044066
 10
-20.4936294798
 20
14.8867514719
 10
-20.5892102014
 20
15.0601115433
 10
-20.6800337062
 20
15.2356255543
 10
-20.7659117768
 20
15.4129297851
 10
-20.8466663846
 20
15.5916566829
 10
-20.922130185
 20
15.7714358862
 10
-20.9921468323
 20
15.9518949684
 10
-21.0565711137
 20
16.1326597044
 10
-21.1152693357
 20
16.3133549237
 10
-21.1681199006
 20
16.4936061899
 10
-21.2150132811
 20
16.6730398259
 10
-21.255852169
 20
16.8512831962
 10
-21.2905520553
 20
17.0279669797
 10
-21.3190411217
 20
17.2027249328
 10
-21.3412603388
 20
17.3751939446
 10
-21.3571638617
 20
17.5450163469
 10
-21.3667190083
 20
17.7118406148
 10
-21.3699062075
 20
17.8753211355
  0
LWPOLYLINE
  5
270
100
AcDbEntity
  8
SMUSSO
100
AcDbPolyline
 62
7
  6
CONTINUOUS
 90
70
 70
0
 10
-15.2180772111
 20
13.9150575802
 10
-15.2216915188
 20
13.7363064717
 10
-15.2323377087
 20
13.5627291832
 10
-15.2500157808
 20
13.3943257149
 10
-15.2747913044
 20
13.2307684591
 10
-15.3065987101
 20
13.0723850234
 10
-15.3452412905
 20
12.9201582303
 10
-15.3907616054
 20
12.7741265083
 10
-15.4431170949
 20
12.6342514289
 10
-15.5019833722
 20
12.5014005297
 10
-15.5674009243
 20
12.3756175743
 10
-15.6393292643
 20
12.256858799
 10
-15.717322544
 20
12.1458604505
 10
-15.8014183585
 20
12.0426708593
 10
-15.8915791128
 20
11.9472416948
 10
-15.9872461734
 20
11.8601642117
 10
-16.0884536869
 20
11.7814902518
 10
-16.1951675068
 20
11.7111679734
 10
-16.3067265606
 20
11.6496331058
 10
-16.4231609848
 20
11.5969401606
 10
-16.5444406429
 20
11.5530346263
 10
-16.6698140526
 20
11.5181886976
 10
-16.7993066741
 20
11.4924586393
 10
-16.9328930472
 20
11.4757881867
 10
-17.0697453085
 20
11.4682807403
 10
-17.2098837271
 20
11.469993219
 10
-17.353288034
 20
11.4808687039
 10
-17.4990695586
 20
11.5008398387
 10
-17.6472430497
 20
11.5299631071
 10
-17.7977937586
 20
11.5681820254
 10
-17.9497887684
 20
11.6152597868
 10
-18.1032370576
 20
11.6712514067
 10
-18.2581296477
 20
11.7361018696
 10
-18.4135066868
 20
11.8094093216
 10
-18.5693711915
 20
11.8912262888
 10
-18.7257201452
 20
11.9815002451
 10
-18.8815846468
 20
12.0796717589
 10
-19.0369616788
 20
12.1857898716
 10
-19.1918542587
 20
12.2998055418
 10
-19.3453025381
 20
12.4210122131
 10
-19.4972975403
 20
12.549454534
 10
-19.647848242
 20
12.6850878561
 10
-19.7960217253
 20
12.8270716771
 10
-19.9418032427
 20
12.9754454511
 10
-20.0852075418
 20
13.130169724
 10
-20.2253459469
 20
13.2902856315
 10
-20.3621981881
 20
13.4558266863
 10
-20.4957845355
 20
13.6267593756
 10
-20.6252771238
 20
13.8020242973
 10
-20.7506504869
 20
13.9816483049
 10
-20.871930091
 20
14.165604545
 10
-20.9883644694
 20
14.3527530549
 10
-21.0999234912
 20
14.543113551
 10
-21.2066372873
 20
14.736666317
 10
-21.3078447835
 20
14.932212241
 10
-21.4035118393
 20
15.1297637495
 10
-21.4936725953
 20
15.3293084161
 10
-21.5777683988
 20
15.5296098493
 10
-21.6557616492
 20
15.7306729628
 10
-21.7276899471
 20
15.932492843
 10
-21.7931074428
 20
16.1338183572
 10
-21.8519736436
 20
16.3346465046
 10
-21.9043290421
 20
16.5349802861
 10
-21.9498492662
 20
16.7335775713
 10
-21.9884917555
 20
16.9304276306
 10
-22.0202990704
 20
17.1255411936
 10
-22.0450745202
 20
17.3177083197
 10
-22.0627525414
 20
17.5065256952
 10
-22.0733986976
 20
17.6923966338
 10
-22.0770129887
 20
17.8753211355
  0
LWPOLYLINE
  5
271
100
AcDbEntity
  8
ASSI
100
AcDbPolyline
 62
7
  6
CONTINUOUS
 90
70
 70
0
 10
-15.2180772111
 20
13.9150575802
 10
-15.2216915188
 20
13.7363064717
 10
-15.2323377087
 20
13.5627291832
 10
-15.2500157808
 20
13.3943257149
 10
-15.2747913044
 20
13.2307684591
 10
-15.3065987101
 20
13.0723850234
 10
-15.3452412905
 20
12.9201582303
 10
-15.3907616054
 20
12.7741265083
 10
-15.4431170949
 20
12.6342514289
 10
-15.5019833722
 20
12.5014005297
 10
-15.5674009243
 20
12.3756175743
 10
-15.6393292643
 20
12.256858799
 10
-15.717322544
 20
12.1458604505
 10
-15.8014183585
 20
12.0426708593
 10
-15.8915791128
 20
11.9472416948
 10
-15.9872461734
 20
11.8601642117
 10
-16.0884536869
 20
11.7814902518
 10
-16.1951675068
 20
11.7111679734
 10
-16.3067265606
 20
11.6496331058
 10
-16.4231609848
 20
11.5969401606
 10
-16.5444406429
 20
11.5530346263
 10
-16.6698140526
 20
11.5181886976
 10
-16.7993066741
 20
11.4924586393
 10
-16.9328930472
 20
11.4757881867
 10
-17.0697453085
 20
11.4682807403
 10
-17.2098837271
 20
11.469993219
 10
-17.353288034
 20
11.4808687039
 10
-17.4990695586
 20
11.5008398387
 10
-17.6472430497
 20
11.5299631071
 10
-17.7977937586
 20
11.5681820254
 10
-17.9497887684
 20
11.6152597868
 10
-18.1032370576
 20
11.6712514067
 10
-18.2581296477
 20
11.7361018696
 10
-18.4135066868
 20
11.8094093216
 10
-18.5693711915
 20
11.8912262888
 10
-18.7257201452
 20
11.9815002451
 10
-18.8815846468
 20
12.0796717589
 10
-19.0369616788
 20
12.1857898716
 10
-19.1918542587
 20
12.2998055418
 10
-19.3453025381
 20
12.4210122131
 10
-19.4972975403
 20
12.549454534
 10
-19.647848242
 20
12.6850878561
 10
-19.7960217253
 20
12.8270716771
 10
-19.9418032427
 20
12.9754454511
 10
-20.0852075418
 20
13.130169724
 10
-20.2253459469
 20
13.2902856315
 10
-20.3621981881
 20
13.4558266863
 10
-20.4957845355
 20
13.6267593756
 10
-20.6252771238
 20
13.8020242973
 10
-20.7506504869
 20
13.9816483049
 10
-20.871930091
 20
14.165604545
 10
-20.9883644694
 20
14.3527530549
 10
-21.0999234912
 20
14.543113551
 10
-21.2066372873
 20
14.736666317
 10
-21.3078447835
 20
14.932212241
 10
-21.4035118393
 20
15.1297637495
 10
-21.4936725953
 20
15.3293084161
 10
-21.5777683988
 20
15.5296098493
 10
-21.6557616492
 20
15.7306729628
 10
-21.7276899471
 20
15.932492843
 10
-21.7931074428
 20
16.1338183572
 10
-21.8519736436
 20
16.3346465046
 10
-21.9043290421
 20
16.5349802861
 10
-21.9498492662
 20
16.7335775713
 10
-21.9884917555
 20
16.9304276306
 10
-22.0202990704
 20
17.1255411936
 10
-22.0450745202
 20
17.3177083197
 10
-22.0627525414
 20
17.5065256952
 10
-22.0733986976
 20
17.6923966338
 10
-22.0770129887
 20
17.8753211355
  0
LWPOLYLINE
  5
272
100
AcDbEntity
  8
SMUSSO
100
AcDbPolyline
 62
7
  6
CONTINUOUS
 90
70
 70
0
 10
-15.2180772111
 20
-2.822583094
 10
-15.2216915188
 20
-3.0013342026
 10
-15.2323377087
 20
-3.174911491
 10
-15.2500157808
 20
-3.3433149594
 10
-15.2747913044
 20
-3.5068722152
 10
-15.3065987101
 20
-3.6652556509
 10
-15.3452412905
 20
-3.8174824439
 10
-15.3907616054
 20
-3.963514166
 10
-15.4431170949
 20
-4.1033892453
 10
-15.5019833722
 20
-4.2362401445
 10
-15.5674009243
 20
-4.3620231
 10
-15.6393292643
 20
-4.4807818752
 10
-15.717322544
 20
-4.5917802238
 10
-15.8014183585
 20
-4.694969815
 10
-15.8915791128
 20
-4.7903989795
 10
-15.9872461734
 20
-4.8774764625
 10
-16.0884536869
 20
-4.9561504224
 10
-16.1951675068
 20
-5.0264727009
 10
-16.3067265606
 20
-5.0880075685
 10
-16.4231609848
 20
-5.1407005137
 10
-16.5444406429
 20
-5.184606048
 10
-16.6698140526
 20
-5.2194519767
 10
-16.7993066741
 20
-5.2451820349
 10
-16.9328930472
 20
-5.2618524875
 10
-17.0697453085
 20
-5.269359934
 10
-17.2098837271
 20
-5.2676474553
 10
-17.353288034
 20
-5.2567719704
 10
-17.4990695586
 20
-5.2368008355
 10
-17.6472430497
 20
-5.2076775671
 10
-17.7977937586
 20
-5.1694586488
 10
-17.9497887684
 20
-5.1223808875
 10
-18.1032370576
 20
-5.0663892676
 10
-18.2581296477
 20
-5.0015388047
 10
-18.4135066868
 20
-4.9282313526
 10
-18.5693711915
 20
-4.8464143855
 10
-18.7257201452
 20
-4.7561404291
 10
-18.8815846468
 20
-4.6579689154
 10
-19.0369616788
 20
-4.5518508026
 10
-19.1918542587
 20
-4.4378351325
 10
-19.3453025381
 20
-4.3166284612
 10
-19.4972975403
 20
-4.1881861402
 10
-19.647848242
 20
-4.0525528182
 10
-19.7960217253
 20
-3.9105689972
 10
-19.9418032427
 20
-3.7621952232
 10
-20.0852075418
 20
-3.6074709502
 10
-20.2253459469
 20
-3.4473550427
 10
-20.3621981881
 20
-3.281813988
 10
-20.4957845355
 20
-3.1108812987
 10
-20.6252771238
 20
-2.9356163769
 10
-20.7506504869
 20
-2.7559923693
 10
-20.871930091
 20
-2.5720361293
 10
-20.9883644694
 20
-2.3848876194
 10
-21.0999234912
 20
-2.1945271232
 10
-21.2066372873
 20
-2.0009743572
 10
-21.3078447835
 20
-1.8054284332
 10
-21.4035118393
 20
-1.6078769247
 10
-21.4936725953
 20
-1.4083322582
 10
-21.5777683988
 20
-1.208030825
 10
-21.6557616492
 20
-1.0069677114
 10
-21.7276899471
 20
-0.8051478313
 10
-21.7931074428
 20
-0.603822317
 10
-21.8519736436
 20
-0.4029941696
 10
-21.9043290421
 20
-0.2026603882
 10
-21.9498492662
 20
-0.0040631029
 10
-21.9884917555
 20
0.1927869563
 10
-22.0202990704
 20
0.3879005193
 10
-22.0450745202
 20
0.5800676454
 10
-22.0627525414
 20
0.768885021
 10
-22.0733986976
 20
0.9547559596
 10
-22.0770129887
 20
1.1376804612
  0
LWPOLYLINE
  5
273
100
AcDbEntity
  8
ASSI
100
AcDbPolyline
 62
7
  6
CONTINUOUS
 90
70
 70
0
 10
-15.2180772111
 20
-2.822583094
 10
-15.2216915188
 20
-3.0013342026
 10
-15.2323377087
 20
-3.174911491
 10
-15.2500157808
 20
-3.3433149594
 10
-15.2747913044
 20
-3.5068722152
 10
-15.3065987101
 20
-3.6652556509
 10
-15.3452412905
 20
-3.8174824439
 10
-15.3907616054
 20
-3.963514166
 10
-15.4431170949
 20
-4.1033892453
 10
-15.5019833722
 20
-4.2362401445
 10
-15.5674009243
 20
-4.3620231
 10
-15.6393292643
 20
-4.4807818752
 10
-15.717322544
 20
-4.5917802238
 10
-15.8014183585
 20
-4.694969815
 10
-15.8915791128
 20
-4.7903989795
 10
-15.9872461734
 20
-4.8774764625
 10
-16.0884536869
 20
-4.9561504224
 10
-16.1951675068
 20
-5.0264727009
 10
-16.3067265606
 20
-5.0880075685
 10
-16.4231609848
 20
-5.1407005137
 10
-16.5444406429
 20
-5.184606048
 10
-16.6698140526
 20
-5.2194519767
 10
-16.7993066741
 20
-5.2451820349
 10
-16.9328930472
 20
-5.2618524875
 10
-17.0697453085
 20
-5.269359934
 10
-17.2098837271
 20
-5.2676474553
 10
-17.353288034
 20
-5.2567719704
 10
-17.4990695586
 20
-5.2368008355
 10
-17.6472430497
 20
-5.2076775671
 10
-17.7977937586
 20
-5.1694586488
 10
-17.9497887684
 20
-5.1223808875
 10
-18.1032370576
 20
-5.0663892676
 10
-18.2581296477
 20
-5.0015388047
 10
-18.4135066868
 20
-4.9282313526
 10
-18.5693711915
 20
-4.8464143855
 10
-18.7257201452
 20
-4.7561404291
 10
-18.8815846468
 20
-4.6579689154
 10
-19.0369616788
 20
-4.5518508026
 10
-19.1918542587
 20
-4.4378351325
 10
-19.3453025381
 20
-4.3166284612
 10
-19.4972975403
 20
-4.1881861402
 10
-19.647848242
 20
-4.0525528182
 10
-19.7960217253
 20
-3.9105689972
 10
-19.9418032427
 20
-3.7621952232
 10
-20.0852075418
 20
-3.6074709502
 10
-20.2253459469
 20
-3.4473550427
 10
-20.3621981881
 20
-3.281813988
 10
-20.4957845355
 20
-3.1108812987
 10
-20.6252771238
 20
-2.9356163769
 10
-20.7506504869
 20
-2.7559923693
 10
-20.871930091
 20
-2.5720361293
 10
-20.9883644694
 20
-2.3848876194
 10
-21.0999234912
 20
-2.1945271232
 10
-21.2066372873
 20
-2.0009743572
 10
-21.3078447835
 20
-1.8054284332
 10
-21.4035118393
 20
-1.6078769247
 10
-21.4936725953
 20
-1.4083322582
 10
-21.5777683988
 20
-1.208030825
 10
-21.6557616492
 20
-1.0069677114
 10
-21.7276899471
 20
-0.8051478313
 10
-21.7931074428
 20
-0.603822317
 10
-21.8519736436
 20
-0.4029941696
 10
-21.9043290421
 20
-0.2026603882
 10
-21.9498492662
 20
-0.0040631029
 10
-21.9884917555
 20
0.1927869563
 10
-22.0202990704
 20
0.3879005193
 10
-22.0450745202
 20
0.5800676454
 10
-22.0627525414
 20
0.768885021
 10
-22.0733986976
 20
0.9547559596
 10
-22.0770129887
 20
1.1376804612
  0
LINE
  5
274
100
AcDbEntity
  8
SMUSSO
100
AcDbLine
 62
7
  6
CONTINUOUS
 10
-15.2234267175
 20
14.1282771562
 11
-15.2308195987
 21
14.0077414219
  0
LINE
  5
275
100
AcDbEntity
  8
ASSI
100
AcDbLine
 62
7
  6
CONTINUOUS
 10
-15.2234267175
 20
14.1282771562
 11
-15.2308195987
 21
14.0077414219
  0
LINE
  5
276
100
AcDbEntity
  8
SMUSSO
100
AcDbLine
 62
7
  6
CONTINUOUS
 10
-15.2234267175
 20
-2.6093635181
 11
-15.2308195987
 21
-2.7298992523
  0
LINE
  5
277
100
AcDbEntity
  8
ASSI
100
AcDbLine
 62
7
  6
CONTINUOUS
 10
-15.2234267175
 20
-2.6093635181
 11
-15.2308195987
 21
-2.7298992523
  0
LWPOLYLINE
  5
278
100
AcDbEntity
  8
SMUSSO
100
AcDbPolyline
 62
7
  6
CONTINUOUS
 90
17
 70
0
 10
-15.2308195987
 20
14.0077414219
 10
-15.2467231678
 20
13.8562838259
 10
-15.2689424424
 20
13.7094728683
 10
-15.2974315737
 20
13.5676132764
 10
-15.3321315271
 20
13.4309999955
 10
-15.3729704789
 20
13.2999163353
 10
-15.4198639163
 20
13.1746340211
 10
-15.4727145298
 20
13.0554133087
 10
-15.5314127872
 20
12.9425013959
 10
-15.5958370891
 20
12.8361322939
 10
-15.6658537489
 20
12.7365267702
 10
-15.7413175537
 20
12.6438913603
 10
-15.8220721572
 20
12.5584179461
 10
-15.9079502243
 20
12.4802836336
 10
-15.9987737325
 20
12.409650391
 10
-16.0943544615
 20
12.3466645948
 10
-16.1188866127
 20
12.3321768276
  0
LWPOLYLINE
  5
279
100
AcDbEntity
  8
ASSI
100
AcDbPolyline
 62
7
  6
CONTINUOUS
 90
17
 70
0
 10
-15.2308195987
 20
14.0077414219
 10
-15.2467231678
 20
13.8562838259
 10
-15.2689424424
 20
13.7094728683
 10
-15.2974315737
 20
13.5676132764
 10
-15.3321315271
 20
13.4309999955
 10
-15.3729704789
 20
13.2999163353
 10
-15.4198639163
 20
13.1746340211
 10
-15.4727145298
 20
13.0554133087
 10
-15.5314127872
 20
12.9425013959
 10
-15.5958370891
 20
12.8361322939
 10
-15.6658537489
 20
12.7365267702
 10
-15.7413175537
 20
12.6438913603
 10
-15.8220721572
 20
12.5584179461
 10
-15.9079502243
 20
12.4802836336
 10
-15.9987737325
 20
12.409650391
 10
-16.0943544615
 20
12.3466645948
 10
-16.1188866127
 20
12.3321768276
  0
LWPOLYLINE
  5
27A
100
AcDbEntity
  8
SMUSSO
100
AcDbPolyline
 62
7
  6
CONTINUOUS
 90
17
 70
0
 10
-15.2308195987
 20
-2.7298992523
 10
-15.2467231678
 20
-2.8813568484
 10
-15.2689424424
 20
-3.0281678059
 10
-15.2974315737
 20
-3.1700273979
 10
-15.3321315271
 20
-3.3066406787
 10
-15.3729704789
 20
-3.4377243389
 10
-15.4198639163
 20
-3.5630066532
 10
-15.4727145298
 20
-3.6822273655
 10
-15.5314127872
 20
-3.7951392784
 10
-15.5958370891
 20
-3.9015083804
 10
-15.6658537489
 20
-4.001113904
 10
-15.7413175537
 20
-4.0937493139
 10
-15.8220721572
 20
-4.1792227281
 10
-15.9079502243
 20
-4.2573570407
 10
-15.9987737325
 20
-4.3279902833
 10
-16.0943544615
 20
-4.3909760794
 10
-16.1188866127
 20
-4.4054638467
  0
LWPOLYLINE
  5
27B
100
AcDbEntity
  8
ASSI
100
AcDbPolyline
 62
7
  6
CONTINUOUS
 90
17
 70
0
 10
-15.2308195987
 20
-2.7298992523
 10
-15.2467231678
 20
-2.8813568484
 10
-15.2689424424
 20
-3.0281678059
 10
-15.2974315737
 20
-3.1700273979
 10
-15.3321315271
 20
-3.3066406787
 10
-15.3729704789
 20
-3.4377243389
 10
-15.4198639163
 20
-3.5630066532
 10
-15.4727145298
 20
-3.6822273655
 10
-15.5314127872
 20
-3.7951392784
 10
-15.5958370891
 20
-3.9015083804
 10
-15.6658537489
 20
-4.001113904
 10
-15.7413175537
 20
-4.0937493139
 10
-15.8220721572
 20
-4.1792227281
 10
-15.9079502243
 20
-4.2573570407
 10
-15.9987737325
 20
-4.3279902833
 10
-16.0943544615
 20
-4.3909760794
 10
-16.1188866127
 20
-4.4054638467
  0
LWPOLYLINE
  5
27C
100
AcDbEntity
  8
SMUSSO
100
AcDbPolyline
 62
7
  6
CONTINUOUS
 90
15
 70
0
 10
-20.4690968059
 20
3.1288358072
 10
-20.3934889633
 20
3.1695559137
 10
-20.2889971884
 20
3.2168714225
 10
-20.1803702388
 20
3.2561964301
 10
-20.0678332478
 20
3.2874493901
 10
-19.9516194194
 20
3.3105654932
 10
-19.8319696443
 20
3.3254967792
 10
-19.7091320143
 20
3.3322122601
 10
-19.5833611516
 20
3.3306980015
 10
-19.454917716
 20
3.3209571277
 10
-19.3240679746
 20
3.3030098199
 10
-19.1910831546
 20
3.2768932737
 10
-19.0562388786
 20
3.242661612
 10
-18.9198146389
 20
3.2003857798
 10
-18.7820931958
 20
3.1501533926
  0
LWPOLYLINE
  5
27D
100
AcDbEntity
  8
ASSI
100
AcDbPolyline
 62
7
  6
CONTINUOUS
 90
15
 70
0
 10
-20.4690968059
 20
3.1288358072
 10
-20.3934889633
 20
3.1695559137
 10
-20.2889971884
 20
3.2168714225
 10
-20.1803702388
 20
3.2561964301
 10
-20.0678332478
 20
3.2874493901
 10
-19.9516194194
 20
3.3105654932
 10
-19.8319696443
 20
3.3254967792
 10
-19.7091320143
 20
3.3322122601
 10
-19.5833611516
 20
3.3306980015
 10
-19.454917716
 20
3.3209571277
 10
-19.3240679746
 20
3.3030098199
 10
-19.1910831546
 20
3.2768932737
 10
-19.0562388786
 20
3.242661612
 10
-18.9198146389
 20
3.2003857798
 10
-18.7820931958
 20
3.1501533926
  0
LWPOLYLINE
  5
27E
100
AcDbEntity
  8
SMUSSO
100
AcDbPolyline
 62
7
  6
CONTINUOUS
 90
15
 70
0
 10
-4.5591942292
 20
10.6802981316
 10
-4.4835863866
 20
10.7210182381
 10
-4.3790946117
 20
10.7683337468
 10
-4.2704676621
 20
10.8076587544
 10
-4.1579306711
 20
10.8389117145
 10
-4.0417168427
 20
10.8620278176
 10
-3.9220670676
 20
10.8769591036
 10
-3.7992294376
 20
10.8836745845
 10
-3.6734585749
 20
10.8821603259
 10
-3.5450151393
 20
10.872419452
 10
-3.4141653979
 20
10.8544721443
 10
-3.2811805779
 20
10.8283555981
 10
-3.1463363019
 20
10.7941239364
 10
-3.0099120622
 20
10.7518481042
 10
-2.8721906191
 20
10.701615717
  0
LWPOLYLINE
  5
27F
100
AcDbEntity
  8
ASSI
100
AcDbPolyline
 62
7
  6
CONTINUOUS
 90
15
 70
0
 10
-4.5591942292
 20
10.6802981316
 10
-4.4835863866
 20
10.7210182381
 10
-4.3790946117
 20
10.7683337468
 10
-4.2704676621
 20
10.8076587544
 10
-4.1579306711
 20
10.8389117145
 10
-4.0417168427
 20
10.8620278176
 10
-3.9220670676
 20
10.8769591036
 10
-3.7992294376
 20
10.8836745845
 10
-3.6734585749
 20
10.8821603259
 10
-3.5450151393
 20
10.872419452
 10
-3.4141653979
 20
10.8544721443
 10
-3.2811805779
 20
10.8283555981
 10
-3.1463363019
 20
10.7941239364
 10
-3.0099120622
 20
10.7518481042
 10
-2.8721906191
 20
10.701615717
  0
LINE
  5
280
100
AcDbEntity
  8
SMUSSO
100
AcDbLine
 62
7
  6
CONTINUOUS
 10
28.9476145343
 20
-24.408381657
 11
29.0863477173
 21
-24.466466487
  0
LINE
  5
281
100
AcDbEntity
  8
ASSI
100
AcDbLine
 62
7
  6
CONTINUOUS
 10
28.9476145343
 20
-24.408381657
 11
29.0863477173
 21
-24.466466487
  0
LINE
  5
282
100
AcDbEntity
  8
ASSI
100
AcDbLine
 62
7
  6
CONTINUOUS
 10
-58.2149620151
 20
66.9540888344
 11
-58.2145867076
 21
66.9534524729
  0
LWPOLYLINE
  5
283
100
AcDbEntity
  8
SMUSSO
100
AcDbPolyline
 62
7
  6
CONTINUOUS
 90
19
 70
0
 10
-5.4600036308
 20
8.6891427856
 10
-5.4568164205
 20
8.8489430842
 10
-5.4472612432
 20
9.0047335372
 10
-5.4313576742
 20
9.1561911333
 10
-5.4091383995
 20
9.3030020908
 10
-5.3806492682
 20
9.4448616828
 10
-5.3459493148
 20
9.5814749636
 10
-5.305110363
 20
9.7125586238
 10
-5.2582169256
 20
9.8378409381
 10
-5.2053663121
 20
9.9570616504
 10
-5.1466680547
 20
10.0699735633
 10
-5.0822437529
 20
10.1763426653
 10
-5.0122270931
 20
10.2759481889
 10
-4.9367632882
 20
10.3685835988
 10
-4.8560086847
 20
10.454057013
 10
-4.7701306176
 20
10.5321913256
 10
-4.6793071094
 20
10.6028245682
 10
-4.5837263804
 20
10.6658103643
 10
-4.5591942292
 20
10.6802981316
  0
LWPOLYLINE
  5
284
100
AcDbEntity
  8
ASSI
100
AcDbPolyline
 62
7
  6
CONTINUOUS
 90
19
 70
0
 10
-5.4600036308
 20
8.6891427856
 10
-5.4568164205
 20
8.8489430842
 10
-5.4472612432
 20
9.0047335372
 10
-5.4313576742
 20
9.1561911333
 10
-5.4091383995
 20
9.3030020908
 10
-5.3806492682
 20
9.4448616828
 10
-5.3459493148
 20
9.5814749636
 10
-5.305110363
 20
9.7125586238
 10
-5.2582169256
 20
9.8378409381
 10
-5.2053663121
 20
9.9570616504
 10
-5.1466680547
 20
10.0699735633
 10
-5.0822437529
 20
10.1763426653
 10
-5.0122270931
 20
10.2759481889
 10
-4.9367632882
 20
10.3685835988
 10
-4.8560086847
 20
10.454057013
 10
-4.7701306176
 20
10.5321913256
 10
-4.6793071094
 20
10.6028245682
 10
-4.5837263804
 20
10.6658103643
 10
-4.5591942292
 20
10.6802981316
  0
LWPOLYLINE
  5
285
100
AcDbEntity
  8
SMUSSO
100
AcDbPolyline
 62
7
  6
CONTINUOUS
 90
19
 70
0
 10
-5.4600036308
 20
-8.0484978886
 10
-5.4568164205
 20
-7.8886975901
 10
-5.4472612432
 20
-7.732907137
 10
-5.4313576742
 20
-7.581449541
 10
-5.4091383995
 20
-7.4346385834
 10
-5.3806492682
 20
-7.2927789915
 10
-5.3459493148
 20
-7.1561657106
 10
-5.305110363
 20
-7.0250820504
 10
-5.2582169256
 20
-6.8997997362
 10
-5.2053663121
 20
-6.7805790238
 10
-5.1466680547
 20
-6.667667111
 10
-5.0822437529
 20
-6.561298009
 10
-5.0122270931
 20
-6.4616924853
 10
-4.9367632882
 20
-6.3690570754
 10
-4.8560086847
 20
-6.2835836612
 10
-4.7701306176
 20
-6.2054493487
 10
-4.6793071094
 20
-6.1348161061
 10
-4.5837263804
 20
-6.0718303099
 10
-4.5591942292
 20
-6.0573425427
  0
LWPOLYLINE
  5
286
100
AcDbEntity
  8
ASSI
100
AcDbPolyline
 62
7
  6
CONTINUOUS
 90
19
 70
0
 10
-5.4600036308
 20
-8.0484978886
 10
-5.4568164205
 20
-7.8886975901
 10
-5.4472612432
 20
-7.732907137
 10
-5.4313576742
 20
-7.581449541
 10
-5.4091383995
 20
-7.4346385834
 10
-5.3806492682
 20
-7.2927789915
 10
-5.3459493148
 20
-7.1561657106
 10
-5.305110363
 20
-7.0250820504
 10
-5.2582169256
 20
-6.8997997362
 10
-5.2053663121
 20
-6.7805790238
 10
-5.1466680547
 20
-6.667667111
 10
-5.0822437529
 20
-6.561298009
 10
-5.0122270931
 20
-6.4616924853
 10
-4.9367632882
 20
-6.3690570754
 10
-4.8560086847
 20
-6.2835836612
 10
-4.7701306176
 20
-6.2054493487
 10
-4.6793071094
 20
-6.1348161061
 10
-4.5837263804
 20
-6.0718303099
 10
-4.5591942292
 20
-6.0573425427
  0
LWPOLYLINE
  5
287
100
AcDbEntity
  8
SMUSSO
100
AcDbPolyline
 62
7
  6
CONTINUOUS
 90
36
 70
0
 10
-6.167110412
 20
8.6891427856
 10
-6.1634961043
 20
8.8678938942
 10
-6.1528499144
 20
9.0414711826
 10
-6.1351718423
 20
9.209874651
 10
-6.1103963187
 20
9.3734319068
 10
-6.078588913
 20
9.5318153425
 10
-6.0399463326
 20
9.6840421355
 10
-5.9944260177
 20
9.8300738575
 10
-5.9420705282
 20
9.9699489369
 10
-5.8832042509
 20
10.1027998361
 10
-5.8177866988
 20
10.2285827915
 10
-5.7458583588
 20
10.3473415668
 10
-5.6678650791
 20
10.4583399153
 10
-5.5837692646
 20
10.5615295065
 10
-5.4936085103
 20
10.656958671
 10
-5.3979414497
 20
10.7440361541
 10
-5.2967339362
 20
10.822710114
 10
-5.1900201163
 20
10.8930323924
 10
-5.0784610625
 20
10.95456726
 10
-4.9620266383
 20
11.0072602052
 10
-4.8407469802
 20
11.0511657396
 10
-4.7153735705
 20
11.0860116682
 10
-4.585880949
 20
11.1117417265
 10
-4.452294576
 20
11.1284121791
 10
-4.3154423146
 20
11.1359196255
 10
-4.175303896
 20
11.1342071468
 10
-4.0318995891
 20
11.1233316619
 10
-3.8861180645
 20
11.1033605271
 10
-3.7379445734
 20
11.0742372587
 10
-3.5873938645
 20
11.0360183404
 10
-3.4353988547
 20
10.9889405791
 10
-3.2819505655
 20
10.9329489592
 10
-3.1270579754
 20
10.8680984963
 10
-2.9716809363
 20
10.7947910442
 10
-2.8158164316
 20
10.712974077
 10
-2.7379739542
 20
10.6690509321
  0
LWPOLYLINE
  5
288
100
AcDbEntity
  8
ASSI
100
AcDbPolyline
 62
7
  6
CONTINUOUS
 90
36
 70
0
 10
-6.167110412
 20
8.6891427856
 10
-6.1634961043
 20
8.8678938942
 10
-6.1528499144
 20
9.0414711826
 10
-6.1351718423
 20
9.209874651
 10
-6.1103963187
 20
9.3734319068
 10
-6.078588913
 20
9.5318153425
 10
-6.0399463326
 20
9.6840421355
 10
-5.9944260177
 20
9.8300738575
 10
-5.9420705282
 20
9.9699489369
 10
-5.8832042509
 20
10.1027998361
 10
-5.8177866988
 20
10.2285827915
 10
-5.7458583588
 20
10.3473415668
 10
-5.6678650791
 20
10.4583399153
 10
-5.5837692646
 20
10.5615295065
 10
-5.4936085103
 20
10.656958671
 10
-5.3979414497
 20
10.7440361541
 10
-5.2967339362
 20
10.822710114
 10
-5.1900201163
 20
10.8930323924
 10
-5.0784610625
 20
10.95456726
 10
-4.9620266383
 20
11.0072602052
 10
-4.8407469802
 20
11.0511657396
 10
-4.7153735705
 20
11.0860116682
 10
-4.585880949
 20
11.1117417265
 10
-4.452294576
 20
11.1284121791
 10
-4.3154423146
 20
11.1359196255
 10
-4.175303896
 20
11.1342071468
 10
-4.0318995891
 20
11.1233316619
 10
-3.8861180645
 20
11.1033605271
 10
-3.7379445734
 20
11.0742372587
 10
-3.5873938645
 20
11.0360183404
 10
-3.4353988547
 20
10.9889405791
 10
-3.2819505655
 20
10.9329489592
 10
-3.1270579754
 20
10.8680984963
 10
-2.9716809363
 20
10.7947910442
 10
-2.8158164316
 20
10.712974077
 10
-2.7379739542
 20
10.6690509321
  0
LWPOLYLINE
  5
289
100
AcDbEntity
  8
SMUSSO
100
AcDbPolyline
 62
7
  6
CONTINUOUS
 90
36
 70
0
 10
-6.167110412
 20
-8.0484978886
 10
-6.1634961043
 20
-7.8697467801
 10
-6.1528499144
 20
-7.6961694916
 10
-6.1351718423
 20
-7.5277660233
 10
-6.1103963187
 20
-7.3642087675
 10
-6.078588913
 20
-7.2058253318
 10
-6.0399463326
 20
-7.0535985387
 10
-5.9944260177
 20
-6.9075668167
 10
-5.9420705282
 20
-6.7676917374
 10
-5.8832042509
 20
-6.6348408381
 10
-5.8177866988
 20
-6.5090578827
 10
-5.7458583588
 20
-6.3902991075
 10
-5.6678650791
 20
-6.2793007589
 10
-5.5837692646
 20
-6.1761111677
 10
-5.4936085103
 20
-6.0806820032
 10
-5.3979414497
 20
-5.9936045202
 10
-5.2967339362
 20
-5.9149305603
 10
-5.1900201163
 20
-5.8446082818
 10
-5.0784610625
 20
-5.7830734142
 10
-4.9620266383
 20
-5.730380469
 10
-4.8407469802
 20
-5.6864749347
 10
-4.7153735705
 20
-5.651629006
 10
-4.585880949
 20
-5.6258989478
 10
-4.452294576
 20
-5.6092284951
 10
-4.3154423146
 20
-5.6017210487
 10
-4.175303896
 20
-5.6034335274
 10
-4.0318995891
 20
-5.6143090123
 10
-3.8861180645
 20
-5.6342801472
 10
-3.7379445734
 20
-5.6634034155
 10
-3.5873938645
 20
-5.7016223339
 10
-3.4353988547
 20
-5.7487000952
 10
-3.2819505655
 20
-5.8046917151
 10
-3.1270579754
 20
-5.869542178
 10
-2.9716809363
 20
-5.9428496301
 10
-2.8158164316
 20
-6.0246665972
 10
-2.7379739542
 20
-6.0685897422
  0
LWPOLYLINE
  5
28A
100
AcDbEntity
  8
ASSI
100
AcDbPolyline
 62
7
  6
CONTINUOUS
 90
36
 70
0
 10
-6.167110412
 20
-8.0484978886
 10
-6.1634961043
 20
-7.8697467801
 10
-6.1528499144
 20
-7.6961694916
 10
-6.1351718423
 20
-7.5277660233
 10
-6.1103963187
 20
-7.3642087675
 10
-6.078588913
 20
-7.2058253318
 10
-6.0399463326
 20
-7.0535985387
 10
-5.9944260177
 20
-6.9075668167
 10
-5.9420705282
 20
-6.7676917374
 10
-5.8832042509
 20
-6.6348408381
 10
-5.8177866988
 20
-6.5090578827
 10
-5.7458583588
 20
-6.3902991075
 10
-5.6678650791
 20
-6.2793007589
 10
-5.5837692646
 20
-6.1761111677
 10
-5.4936085103
 20
-6.0806820032
 10
-5.3979414497
 20
-5.9936045202
 10
-5.2967339362
 20
-5.9149305603
 10
-5.1900201163
 20
-5.8446082818
 10
-5.0784610625
 20
-5.7830734142
 10
-4.9620266383
 20
-5.730380469
 10
-4.8407469802
 20
-5.6864749347
 10
-4.7153735705
 20
-5.651629006
 10
-4.585880949
 20
-5.6258989478
 10
-4.452294576
 20
-5.6092284951
 10
-4.3154423146
 20
-5.6017210487
 10
-4.175303896
 20
-5.6034335274
 10
-4.0318995891
 20
-5.6143090123
 10
-3.8861180645
 20
-5.6342801472
 10
-3.7379445734
 20
-5.6634034155
 10
-3.5873938645
 20
-5.7016223339
 10
-3.4353988547
 20
-5.7487000952
 10
-3.2819505655
 20
-5.8046917151
 10
-3.1270579754
 20
-5.869542178
 10
-2.9716809363
 20
-5.9428496301
 10
-2.8158164316
 20
-6.0246665972
 10
-2.7379739542
 20
-6.0685897422
  0
LWPOLYLINE
  5
28B
100
AcDbEntity
  8
ASSI
100
AcDbPolyline
 62
7
  6
CONTINUOUS
 90
14
 70
0
 10
-4.0069271823
 20
10.8663692747
 10
-4.0222606729
 20
10.8475549862
 10
-4.0922144211
 20
10.7480018087
 10
-4.1567285113
 20
10.641488296
 10
-4.2154031791
 20
10.5286744639
 10
-4.2682021654
 20
10.4095211913
 10
-4.3151617292
 20
10.2840675993
 10
-4.3559908836
 20
10.1530910665
 10
-4.3906515627
 20
10.016557299
 10
-4.4191818323
 20
9.8745005906
 10
-4.4414049035
 20
9.7278012021
 10
-4.4572618465
 20
9.5767525537
 10
-4.466811591
 20
9.4210612251
 10
-4.4700541371
 20
9.2607272163
  0
LINE
  5
28C
100
AcDbEntity
  8
ASSI
100
AcDbLine
 62
7
  6
CONTINUOUS
 10
52.7145685475
 20
1.7385957777
 11
54.1315276785
 21
2.0862140539
  0
LINE
  5
28D
100
AcDbEntity
  8
SMUSSO
100
AcDbLine
 62
7
  6
CONTINUOUS
 10
13.0377119576
 20
-15.2222033071
 11
13.1764451406
 21
-15.2802881372
  0
LINE
  5
28E
100
AcDbEntity
  8
ASSI
100
AcDbLine
 62
7
  6
CONTINUOUS
 10
13.0377119576
 20
-15.2222033071
 11
13.1764451406
 21
-15.2802881372
  0
LINE
  5
28F
100
AcDbEntity
  8
SMUSSO
100
AcDbLine
 62
7
  6
CONTINUOUS
 10
-2.8721906191
 20
-6.0360249573
 11
-2.7334574361
 21
-6.0941097873
  0
LINE
  5
290
100
AcDbEntity
  8
ASSI
100
AcDbLine
 62
7
  6
CONTINUOUS
 10
-2.8721906191
 20
-6.0360249573
 11
-2.7334574361
 21
-6.0941097873
  0
LWPOLYLINE
  5
291
100
AcDbEntity
  8
SMUSSO
100
AcDbPolyline
 62
7
  6
CONTINUOUS
 90
3
 70
0
 10
29.0863477173
 20
-24.466466487
 10
29.2258050647
 20
-24.532283363
 10
29.2615073756
 20
-24.551019156
  0
LWPOLYLINE
  5
292
100
AcDbEntity
  8
ASSI
100
AcDbPolyline
 62
7
  6
CONTINUOUS
 90
3
 70
0
 10
29.0863477173
 20
-24.466466487
 10
29.2258050647
 20
-24.532283363
 10
29.2615073756
 20
-24.551019156
  0
LWPOLYLINE
  5
293
100
AcDbEntity
  8
SMUSSO
100
AcDbPolyline
 62
7
  6
CONTINUOUS
 90
3
 70
0
 10
13.1764451406
 20
-15.2802881372
 10
13.315902488
 20
-15.3461050131
 10
13.3516047989
 20
-15.3648408062
  0
LWPOLYLINE
  5
294
100
AcDbEntity
  8
ASSI
100
AcDbPolyline
 62
7
  6
CONTINUOUS
 90
3
 70
0
 10
13.1764451406
 20
-15.2802881372
 10
13.315902488
 20
-15.3461050131
 10
13.3516047989
 20
-15.3648408062
  0
LWPOLYLINE
  5
295
100
AcDbEntity
  8
SMUSSO
100
AcDbPolyline
 62
7
  6
CONTINUOUS
 90
3
 70
0
 10
-2.7334574361
 20
-6.0941097873
 10
-2.5940000887
 20
-6.1599266632
 10
-2.5582977777
 20
-6.1786624563
  0
LWPOLYLINE
  5
296
100
AcDbEntity
  8
ASSI
100
AcDbPolyline
 62
7
  6
CONTINUOUS
 90
3
 70
0
 10
-2.7334574361
 20
-6.0941097873
 10
-2.5940000887
 20
-6.1599266632
 10
-2.5582977777
 20
-6.1786624563
  0
LWPOLYLINE
  5
297
100
AcDbEntity
  8
SMUSSO
100
AcDbPolyline
 62
7
  6
CONTINUOUS
 90
36
 70
0
 10
-34.5577791076
 20
12.3037669576
 10
-34.4792726313
 20
12.2574161462
 10
-34.3234081297
 20
12.1592446324
 10
-34.1680310977
 20
12.0531265197
 10
-34.0131385178
 20
11.9391108495
 10
-33.8596902384
 20
11.8179041783
 10
-33.7076952362
 20
11.6894618573
 10
-33.5571445345
 20
11.5538285352
 10
-33.4089710512
 20
11.4118447142
 10
-33.2631895338
 20
11.2634709402
 10
-33.1197852347
 20
11.1087466673
 10
-32.9796468296
 20
10.9486307598
 10
-32.8427945884
 20
10.7830897051
 10
-32.709208241
 20
10.6121570157
 10
-32.5797156527
 20
10.436892094
 10
-32.4543422896
 20
10.2572680864
 10
-32.3330626855
 20
10.0733118463
 10
-32.2166283071
 20
9.8861633364
 10
-32.1050692853
 20
9.6958028403
 10
-31.9983554892
 20
9.5022500743
 10
-31.897147993
 20
9.3067041503
 10
-31.8014809372
 20
9.1091526418
 10
-31.7113201812
 20
8.9096079752
 10
-31.6272243777
 20
8.7093065421
 10
-31.5492311273
 20
8.5082434285
 10
-31.4773028294
 20
8.3064235483
 10
-31.4118853337
 20
8.1050980341
 10
-31.3530191329
 20
7.9042698867
 10
-31.3006637344
 20
7.7039361052
 10
-31.2551435103
 20
7.50533882
 10
-31.216501021
 20
7.3084887608
 10
-31.1846937061
 20
7.1133751977
 10
-31.1599182563
 20
6.9212080716
 10
-31.1422402351
 20
6.7323906961
 10
-31.1315940789
 20
6.5465197575
 10
-31.1279797878
 20
6.3635952558
  0
LWPOLYLINE
  5
298
100
AcDbEntity
  8
ASSI
100
AcDbPolyline
 62
7
  6
CONTINUOUS
 90
36
 70
0
 10
-34.5577791076
 20
12.3037669576
 10
-34.4792726313
 20
12.2574161462
 10
-34.3234081297
 20
12.1592446324
 10
-34.1680310977
 20
12.0531265197
 10
-34.0131385178
 20
11.9391108495
 10
-33.8596902384
 20
11.8179041783
 10
-33.7076952362
 20
11.6894618573
 10
-33.5571445345
 20
11.5538285352
 10
-33.4089710512
 20
11.4118447142
 10
-33.2631895338
 20
11.2634709402
 10
-33.1197852347
 20
11.1087466673
 10
-32.9796468296
 20
10.9486307598
 10
-32.8427945884
 20
10.7830897051
 10
-32.709208241
 20
10.6121570157
 10
-32.5797156527
 20
10.436892094
 10
-32.4543422896
 20
10.2572680864
 10
-32.3330626855
 20
10.0733118463
 10
-32.2166283071
 20
9.8861633364
 10
-32.1050692853
 20
9.6958028403
 10
-31.9983554892
 20
9.5022500743
 10
-31.897147993
 20
9.3067041503
 10
-31.8014809372
 20
9.1091526418
 10
-31.7113201812
 20
8.9096079752
 10
-31.6272243777
 20
8.7093065421
 10
-31.5492311273
 20
8.5082434285
 10
-31.4773028294
 20
8.3064235483
 10
-31.4118853337
 20
8.1050980341
 10
-31.3530191329
 20
7.9042698867
 10
-31.3006637344
 20
7.7039361052
 10
-31.2551435103
 20
7.50533882
 10
-31.216501021
 20
7.3084887608
 10
-31.1846937061
 20
7.1133751977
 10
-31.1599182563
 20
6.9212080716
 10
-31.1422402351
 20
6.7323906961
 10
-31.1315940789
 20
6.5465197575
 10
-31.1279797878
 20
6.3635952558
  0
LWPOLYLINE
  5
299
100
AcDbEntity
  8
SMUSSO
100
AcDbPolyline
 62
7
  6
CONTINUOUS
 90
36
 70
0
 10
-18.6478765309
 20
3.1175886077
 10
-18.5693700546
 20
3.0712377963
 10
-18.413505553
 20
2.9730662825
 10
-18.258128521
 20
2.8669481698
 10
-18.1032359411
 20
2.7529324997
 10
-17.9497876617
 20
2.6317258284
 10
-17.7977926595
 20
2.5032835074
 10
-17.6472419578
 20
2.3676501853
 10
-17.4990684745
 20
2.2256663643
 10
-17.3532869571
 20
2.0772925904
 10
-17.209882658
 20
1.9225683174
 10
-17.0697442529
 20
1.7624524099
 10
-16.9328920117
 20
1.5969113552
 10
-16.7993056643
 20
1.4259786659
 10
-16.669813076
 20
1.2507137441
 10
-16.5444397129
 20
1.0710897365
 10
-16.4231601088
 20
0.8871334965
 10
-16.3067257304
 20
0.6999849866
 10
-16.1951667086
 20
0.5096244904
 10
-16.0884529125
 20
0.3160717244
 10
-15.9872454163
 20
0.1205258004
 10
-15.8915783605
 20
-0.0770257081
 10
-15.8014176046
 20
-0.2765703746
 10
-15.717321801
 20
-0.4768718078
 10
-15.6393285506
 20
-0.6779349214
 10
-15.5674002527
 20
-0.8797548016
 10
-15.501982757
 20
-1.0810803158
 10
-15.4431165562
 20
-1.2819084632
 10
-15.3907611577
 20
-1.4822422446
 10
-15.3452409336
 20
-1.6808395299
 10
-15.3065984443
 20
-1.8776895891
 10
-15.2747911294
 20
-2.0728031521
 10
-15.2500156796
 20
-2.2649702782
 10
-15.2323376584
 20
-2.4537876538
 10
-15.2216915022
 20
-2.6396585924
 10
-15.2180772111
 20
-2.822583094
  0
LWPOLYLINE
  5
29A
100
AcDbEntity
  8
ASSI
100
AcDbPolyline
 62
7
  6
CONTINUOUS
 90
36
 70
0
 10
-18.6478765309
 20
3.1175886077
 10
-18.5693700546
 20
3.0712377963
 10
-18.413505553
 20
2.9730662825
 10
-18.258128521
 20
2.8669481698
 10
-18.1032359411
 20
2.7529324997
 10
-17.9497876617
 20
2.6317258284
 10
-17.7977926595
 20
2.5032835074
 10
-17.6472419578
 20
2.3676501853
 10
-17.4990684745
 20
2.2256663643
 10
-17.3532869571
 20
2.0772925904
 10
-17.209882658
 20
1.9225683174
 10
-17.0697442529
 20
1.7624524099
 10
-16.9328920117
 20
1.5969113552
 10
-16.7993056643
 20
1.4259786659
 10
-16.669813076
 20
1.2507137441
 10
-16.5444397129
 20
1.0710897365
 10
-16.4231601088
 20
0.8871334965
 10
-16.3067257304
 20
0.6999849866
 10
-16.1951667086
 20
0.5096244904
 10
-16.0884529125
 20
0.3160717244
 10
-15.9872454163
 20
0.1205258004
 10
-15.8915783605
 20
-0.0770257081
 10
-15.8014176046
 20
-0.2765703746
 10
-15.717321801
 20
-0.4768718078
 10
-15.6393285506
 20
-0.6779349214
 10
-15.5674002527
 20
-0.8797548016
 10
-15.501982757
 20
-1.0810803158
 10
-15.4431165562
 20
-1.2819084632
 10
-15.3907611577
 20
-1.4822422446
 10
-15.3452409336
 20
-1.6808395299
 10
-15.3065984443
 20
-1.8776895891
 10
-15.2747911294
 20
-2.0728031521
 10
-15.2500156796
 20
-2.2649702782
 10
-15.2323376584
 20
-2.4537876538
 10
-15.2216915022
 20
-2.6396585924
 10
-15.2180772111
 20
-2.822583094
  0
LWPOLYLINE
  5
29B
100
AcDbEntity
  8
SMUSSO
100
AcDbPolyline
 62
7
  6
CONTINUOUS
 90
36
 70
0
 10
-2.7379739542
 20
-6.0685897422
 10
-2.6594674779
 20
-6.1149405536
 10
-2.5036029763
 20
-6.2131120673
 10
-2.3482259443
 20
-6.3192301801
 10
-2.1933333644
 20
-6.4332458502
 10
-2.039885085
 20
-6.5544525215
 10
-1.8878900828
 20
-6.6828948425
 10
-1.7373393811
 20
-6.8185281645
 10
-1.5891658978
 20
-6.9605119855
 10
-1.4433843804
 20
-7.1088857595
 10
-1.2999800814
 20
-7.2636100324
 10
-1.1598416762
 20
-7.42372594
 10
-1.022989435
 20
-7.5892669947
 10
-0.8894030876
 20
-7.760199684
 10
-0.7599104993
 20
-7.9354646057
 10
-0.6345371362
 20
-8.1150886134
 10
-0.5132575321
 20
-8.2990448534
 10
-0.3968231537
 20
-8.4861933633
 10
-0.2852641319
 20
-8.6765538595
 10
-0.1785503358
 20
-8.8701066254
 10
-0.0773428396
 20
-9.0656525494
 10
0.0183242162
 20
-9.263204058
 10
0.1084849721
 20
-9.4627487245
 10
0.1925807757
 20
-9.6630501577
 10
0.2705740261
 20
-9.8641132712
 10
0.342502324
 20
-10.0659331514
 10
0.4079198197
 20
-10.2672586656
 10
0.4667860205
 20
-10.4680868131
 10
0.519141419
 20
-10.6684205945
 10
0.5646616431
 20
-10.8670178798
 10
0.6033041324
 20
-11.063867939
 10
0.6351114473
 20
-11.258981502
 10
0.6598868971
 20
-11.4511486281
 10
0.6775649183
 20
-11.6399660037
 10
0.6882110745
 20
-11.8258369423
 10
0.6918253656
 20
-12.0087614439
  0
LWPOLYLINE
  5
29C
100
AcDbEntity
  8
ASSI
100
AcDbPolyline
 62
7
  6
CONTINUOUS
 90
36
 70
0
 10
-2.7379739542
 20
-6.0685897422
 10
-2.6594674779
 20
-6.1149405536
 10
-2.5036029763
 20
-6.2131120673
 10
-2.3482259443
 20
-6.3192301801
 10
-2.1933333644
 20
-6.4332458502
 10
-2.039885085
 20
-6.5544525215
 10
-1.8878900828
 20
-6.6828948425
 10
-1.7373393811
 20
-6.8185281645
 10
-1.5891658978
 20
-6.9605119855
 10
-1.4433843804
 20
-7.1088857595
 10
-1.2999800814
 20
-7.2636100324
 10
-1.1598416762
 20
-7.42372594
 10
-1.022989435
 20
-7.5892669947
 10
-0.8894030876
 20
-7.760199684
 10
-0.7599104993
 20
-7.9354646057
 10
-0.6345371362
 20
-8.1150886134
 10
-0.5132575321
 20
-8.2990448534
 10
-0.3968231537
 20
-8.4861933633
 10
-0.2852641319
 20
-8.6765538595
 10
-0.1785503358
 20
-8.8701066254
 10
-0.0773428396
 20
-9.0656525494
 10
0.0183242162
 20
-9.263204058
 10
0.1084849721
 20
-9.4627487245
 10
0.1925807757
 20
-9.6630501577
 10
0.2705740261
 20
-9.8641132712
 10
0.342502324
 20
-10.0659331514
 10
0.4079198197
 20
-10.2672586656
 10
0.4667860205
 20
-10.4680868131
 10
0.519141419
 20
-10.6684205945
 10
0.5646616431
 20
-10.8670178798
 10
0.6033041324
 20
-11.063867939
 10
0.6351114473
 20
-11.258981502
 10
0.6598868971
 20
-11.4511486281
 10
0.6775649183
 20
-11.6399660037
 10
0.6882110745
 20
-11.8258369423
 10
0.6918253656
 20
-12.0087614439
  0
LWPOLYLINE
  5
29D
100
AcDbEntity
  8
SMUSSO
100
AcDbPolyline
 62
7
  6
CONTINUOUS
 90
36
 70
0
 10
13.1719286225
 20
-15.254768092
 10
13.2504350988
 20
-15.3011189034
 10
13.4062996004
 20
-15.3992904172
 10
13.5616766324
 20
-15.5054085299
 10
13.7165692123
 20
-15.6194242001
 10
13.8700174917
 20
-15.7406308714
 10
14.0220124939
 20
-15.8690731923
 10
14.1725631956
 20
-16.0047065144
 10
14.3207366789
 20
-16.1466903354
 10
14.4665181963
 20
-16.2950641094
 10
14.6099224953
 20
-16.4497883823
 10
14.7500609005
 20
-16.6099042898
 10
14.8869131417
 20
-16.7754453446
 10
15.0204994891
 20
-16.9463780339
 10
15.1499920774
 20
-17.1216429556
 10
15.2753654405
 20
-17.3012669632
 10
15.3966450446
 20
-17.4852232033
 10
15.513079423
 20
-17.6723717132
 10
15.6246384448
 20
-17.8627322093
 10
15.7313522409
 20
-18.0562849753
 10
15.8325597371
 20
-18.2518308993
 10
15.9282267929
 20
-18.4493824078
 10
16.0183875488
 20
-18.6489270744
 10
16.1024833524
 20
-18.8492285076
 10
16.1804766028
 20
-19.0502916211
 10
16.2524049007
 20
-19.2521115013
 10
16.3178223964
 20
-19.4534370155
 10
16.3766885972
 20
-19.6542651629
 10
16.4290439957
 20
-19.8545989444
 10
16.4745642198
 20
-20.0531962296
 10
16.5132067091
 20
-20.2500462889
 10
16.545014024
 20
-20.4451598519
 10
16.5697894738
 20
-20.637326978
 10
16.587467495
 20
-20.8261443535
 10
16.5981136512
 20
-21.0120152921
 10
16.6017279422
 20
-21.1949397938
  0
LWPOLYLINE
  5
29E
100
AcDbEntity
  8
ASSI
100
AcDbPolyline
 62
7
  6
CONTINUOUS
 90
36
 70
0
 10
13.1719286225
 20
-15.254768092
 10
13.2504350988
 20
-15.3011189034
 10
13.4062996004
 20
-15.3992904172
 10
13.5616766324
 20
-15.5054085299
 10
13.7165692123
 20
-15.6194242001
 10
13.8700174917
 20
-15.7406308714
 10
14.0220124939
 20
-15.8690731923
 10
14.1725631956
 20
-16.0047065144
 10
14.3207366789
 20
-16.1466903354
 10
14.4665181963
 20
-16.2950641094
 10
14.6099224953
 20
-16.4497883823
 10
14.7500609005
 20
-16.6099042898
 10
14.8869131417
 20
-16.7754453446
 10
15.0204994891
 20
-16.9463780339
 10
15.1499920774
 20
-17.1216429556
 10
15.2753654405
 20
-17.3012669632
 10
15.3966450446
 20
-17.4852232033
 10
15.513079423
 20
-17.6723717132
 10
15.6246384448
 20
-17.8627322093
 10
15.7313522409
 20
-18.0562849753
 10
15.8325597371
 20
-18.2518308993
 10
15.9282267929
 20
-18.4493824078
 10
16.0183875488
 20
-18.6489270744
 10
16.1024833524
 20
-18.8492285076
 10
16.1804766028
 20
-19.0502916211
 10
16.2524049007
 20
-19.2521115013
 10
16.3178223964
 20
-19.4534370155
 10
16.3766885972
 20
-19.6542651629
 10
16.4290439957
 20
-19.8545989444
 10
16.4745642198
 20
-20.0531962296
 10
16.5132067091
 20
-20.2500462889
 10
16.545014024
 20
-20.4451598519
 10
16.5697894738
 20
-20.637326978
 10
16.587467495
 20
-20.8261443535
 10
16.5981136512
 20
-21.0120152921
 10
16.6017279422
 20
-21.1949397938
  0
LWPOLYLINE
  5
29F
100
AcDbEntity
  8
SMUSSO
100
AcDbPolyline
 62
7
  6
CONTINUOUS
 90
36
 70
0
 10
29.0818311992
 20
-24.4409464419
 10
29.1603376755
 20
-24.4872972533
 10
29.3162021771
 20
-24.5854687671
 10
29.4715792091
 20
-24.6915868798
 10
29.626471789
 20
-24.80560255
 10
29.7799200684
 20
-24.9268092212
 10
29.9319150706
 20
-25.0552515422
 10
30.0824657723
 20
-25.1908848643
 10
30.2306392556
 20
-25.3328686853
 10
30.376420773
 20
-25.4812424593
 10
30.519825072
 20
-25.6359667322
 10
30.6599634772
 20
-25.7960826397
 10
30.7968157184
 20
-25.9616236944
 10
30.9304020658
 20
-26.1325563838
 10
31.0598946541
 20
-26.3078213055
 10
31.1852680172
 20
-26.4874453131
 10
31.3065476213
 20
-26.6714015532
 10
31.4229819997
 20
-26.858550063
 10
31.5345410215
 20
-27.0489105592
 10
31.6412548176
 20
-27.2424633252
 10
31.7424623138
 20
-27.4380092492
 10
31.8381293696
 20
-27.6355607577
 10
31.9282901255
 20
-27.8351054243
 10
32.0123859291
 20
-28.0354068574
 10
32.0903791794
 20
-28.236469971
 10
32.1623074774
 20
-28.4382898512
 10
32.2277249731
 20
-28.6396153654
 10
32.2865911739
 20
-28.8404435128
 10
32.3389465724
 20
-29.0407772943
 10
32.3844667965
 20
-29.2393745795
 10
32.4231092858
 20
-29.4362246387
 10
32.4549166007
 20
-29.6313382018
 10
32.4796920505
 20
-29.8235053279
 10
32.4973700717
 20
-30.0123227034
 10
32.5080162279
 20
-30.198193642
 10
32.5116305189
 20
-30.3811181437
  0
LWPOLYLINE
  5
2A0
100
AcDbEntity
  8
ASSI
100
AcDbPolyline
 62
7
  6
CONTINUOUS
 90
36
 70
0
 10
29.0818311992
 20
-24.4409464419
 10
29.1603376755
 20
-24.4872972533
 10
29.3162021771
 20
-24.5854687671
 10
29.4715792091
 20
-24.6915868798
 10
29.626471789
 20
-24.80560255
 10
29.7799200684
 20
-24.9268092212
 10
29.9319150706
 20
-25.0552515422
 10
30.0824657723
 20
-25.1908848643
 10
30.2306392556
 20
-25.3328686853
 10
30.376420773
 20
-25.4812424593
 10
30.519825072
 20
-25.6359667322
 10
30.6599634772
 20
-25.7960826397
 10
30.7968157184
 20
-25.9616236944
 10
30.9304020658
 20
-26.1325563838
 10
31.0598946541
 20
-26.3078213055
 10
31.1852680172
 20
-26.4874453131
 10
31.3065476213
 20
-26.6714015532
 10
31.4229819997
 20
-26.858550063
 10
31.5345410215
 20
-27.0489105592
 10
31.6412548176
 20
-27.2424633252
 10
31.7424623138
 20
-27.4380092492
 10
31.8381293696
 20
-27.6355607577
 10
31.9282901255
 20
-27.8351054243
 10
32.0123859291
 20
-28.0354068574
 10
32.0903791794
 20
-28.236469971
 10
32.1623074774
 20
-28.4382898512
 10
32.2277249731
 20
-28.6396153654
 10
32.2865911739
 20
-28.8404435128
 10
32.3389465724
 20
-29.0407772943
 10
32.3844667965
 20
-29.2393745795
 10
32.4231092858
 20
-29.4362246387
 10
32.4549166007
 20
-29.6313382018
 10
32.4796920505
 20
-29.8235053279
 10
32.4973700717
 20
-30.0123227034
 10
32.5080162279
 20
-30.198193642
 10
32.5116305189
 20
-30.3811181437
  0
LWPOLYLINE
  5
2A1
100
AcDbEntity
  8
ASSI
100
AcDbPolyline
 62
7
  6
CONTINUOUS
 90
48
 70
0
 10
-4.4700541371
 20
-7.476913458
 10
-4.466811591
 20
-7.6409918777
 10
-4.4572618465
 20
-7.8077110119
 10
-4.4414049035
 20
-7.9770708607
 10
-4.4191818323
 20
-8.1494328948
 10
-4.3906515627
 20
-8.3244356433
 10
-4.3559908836
 20
-8.5009946942
 10
-4.3151617292
 20
-8.6791197111
 10
-4.2682021654
 20
-8.8588010304
 10
-4.2154031791
 20
-9.0389252488
 10
-4.1567285113
 20
-9.2194951166
 10
-4.0922144211
 20
-9.4005078835
 10
-4.0222606729
 20
-9.5808418961
 10
-3.9468334898
 20
-9.7604929397
 10
-3.8659666487
 20
-9.9394652289
 10
-3.7801612444
 20
-10.1166497542
 10
-3.6893866117
 20
-10.2920354146
 10
-3.5936734159
 20
-10.465633311
 10
-3.4936147479
 20
-10.6363677365
 10
-3.3891836253
 20
-10.8042209107
 10
-3.2804070305
 20
-10.969210614
 10
-3.1679590025
 20
-11.1303144804
 10
-3.0518167441
 20
-11.2875083814
 10
-2.9320030526
 20
-11.4408164455
 10
-2.8092603586
 20
-11.5892886927
 10
-2.683570475
 20
-11.7328950955
 10
-2.554951589
 20
-11.8716656813
 10
-2.4242006932
 20
-12.0047405521
 10
-2.2913045491
 20
-12.1320843411
 10
-2.1562763951
 20
-12.2537324151
 10
-2.0199529392
 20
-12.3689309766
 10
-1.8823261384
 20
-12.477639978
 10
-1.7434040355
 20
-12.5798994668
 10
-1.6040474676
 20
-12.6750757876
 10
-1.4642537369
 20
-12.7631249584
 10
-1.324025541
 20
-12.8440909612
 10
-1.1842318103
 20
-12.9174720866
 10
-1.0448752424
 20
-12.9832212373
 10
-0.9059531395
 20
-13.0413855107
 10
-0.7683263387
 20
-13.0916044892
 10
-0.6320028828
 20
-13.1338288376
 10
-0.4969747288
 20
-13.1681078911
 10
-0.3640785847
 20
-13.1942292381
 10
-0.2333276889
 20
-13.2121422244
 10
-0.1047088029
 20
-13.2218975042
 10
0.0209810807
 20
-13.2234346285
 10
0.1437237747
 20
-13.2167025677
 10
0.2287311392
 20
-13.2060954453
  0
LWPOLYLINE
  5
2A2
100
AcDbEntity
  8
ASSI
100
AcDbPolyline
 62
7
  6
CONTINUOUS
 90
48
 70
0
 10
-4.4700541371
 20
9.2607272163
 10
-4.466811591
 20
9.0966487966
 10
-4.4572618465
 20
8.9299296623
 10
-4.4414049035
 20
8.7605698135
 10
-4.4191818323
 20
8.5882077795
 10
-4.3906515627
 20
8.4132050309
 10
-4.3559908836
 20
8.23664598
 10
-4.3151617292
 20
8.0585209631
 10
-4.2682021654
 20
7.8788396439
 10
-4.2154031791
 20
7.6987154254
 10
-4.1567285113
 20
7.5181455577
 10
-4.0922144211
 20
7.3371327908
 10
-4.0222606729
 20
7.1567987782
 10
-3.9468334898
 20
6.9771477346
 10
-3.8659666487
 20
6.7981754453
 10
-3.7801612444
 20
6.6209909201
 10
-3.6893866117
 20
6.4456052597
 10
-3.5936734159
 20
6.2720073632
 10
-3.4936147479
 20
6.1012729377
 10
-3.3891836253
 20
5.9334197635
 10
-3.2804070305
 20
5.7684300602
 10
-3.1679590025
 20
5.6073261938
 10
-3.0518167441
 20
5.4501322928
 10
-2.9320030526
 20
5.2968242287
 10
-2.8092603586
 20
5.1483519816
 10
-2.683570475
 20
5.0047455788
 10
-2.554951589
 20
4.865974993
 10
-2.4242006932
 20
4.7329001222
 10
-2.2913045491
 20
4.6055563331
 10
-2.1562763951
 20
4.4839082591
 10
-2.0199529392
 20
4.3687096977
 10
-1.8823261384
 20
4.2600006963
 10
-1.7434040355
 20
4.1577412075
 10
-1.6040474676
 20
4.0625648866
 10
-1.4642537369
 20
3.9745157158
 10
-1.324025541
 20
3.893549713
 10
-1.1842318103
 20
3.8201685876
 10
-1.0448752424
 20
3.7544194369
 10
-0.9059531395
 20
3.6962551636
 10
-0.7683263387
 20
3.6460361851
 10
-0.6320028828
 20
3.6038118367
 10
-0.4969747288
 20
3.5695327832
 10
-0.3640785847
 20
3.5434114362
 10
-0.2333276889
 20
3.5254984498
 10
-0.1047088029
 20
3.51574317
 10
0.0209810807
 20
3.5142060458
 10
0.1437237747
 20
3.5209381066
 10
0.2287311392
 20
3.531545229
  0
LWPOLYLINE
  5
2A3
100
AcDbEntity
  8
SMUSSO
100
AcDbPolyline
 62
7
  6
CONTINUOUS
 90
70
 70
0
 10
0.6918253656
 20
4.7288792303
 10
0.6882110579
 20
4.5501281218
 10
0.677564868
 20
4.3765508333
 10
0.6598867959
 20
4.208147365
 10
0.6351112723
 20
4.0445901092
 10
0.6033038666
 20
3.8862066735
 10
0.5646612862
 20
3.7339798804
 10
0.5191409713
 20
3.5879481584
 10
0.4667854818
 20
3.448073079
 10
0.4079192045
 20
3.3152221798
 10
0.3425016524
 20
3.1894392244
 10
0.2705733124
 20
3.0706804492
 10
0.1925800327
 20
2.9596821006
 10
0.1084842182
 20
2.8564925094
 10
0.0183234639
 20
2.7610633449
 10
-0.0773435967
 20
2.6739858618
 10
-0.1785511102
 20
2.595311902
 10
-0.2852649301
 20
2.5249896235
 10
-0.3968239839
 20
2.4634547559
 10
-0.5132584081
 20
2.4107618107
 10
-0.6345380662
 20
2.3668562764
 10
-0.7599114759
 20
2.3320103477
 10
-0.8894040974
 20
2.3062802894
 10
-1.0229904705
 20
2.2896098368
 10
-1.1598427318
 20
2.2821023904
 10
-1.2999811504
 20
2.2838148691
 10
-1.4433854573
 20
2.294690354
 10
-1.5891669819
 20
2.3146614889
 10
-1.737340473
 20
2.3437847572
 10
-1.8878911819
 20
2.3820036756
 10
-2.0398861917
 20
2.4290814369
 10
-2.1933344809
 20
2.4850730568
 10
-2.348227071
 20
2.5499235197
 10
-2.5036041101
 20
2.6232309718
 10
-2.6594686148
 20
2.7050479389
 10
-2.8158175685
 20
2.7953218953
 10
-2.9716820701
 20
2.893493409
 10
-3.1270591021
 20
2.9996115218
 10
-3.281951682
 20
3.1136271919
 10
-3.4353999614
 20
3.2348338632
 10
-3.5873949636
 20
3.3632761842
 10
-3.7379456653
 20
3.4989095062
 10
-3.8861191486
 20
3.6408933272
 10
-4.031900666
 20
3.7892671012
 10
-4.1753049651
 20
3.9439913741
 10
-4.3154433702
 20
4.1041072817
 10
-4.4522956114
 20
4.2696483364
 10
-4.5858819588
 20
4.4405810257
 10
-4.7153745471
 20
4.6158459474
 10
-4.8407479102
 20
4.7954699551
 10
-4.9620275143
 20
4.9794261951
 10
-5.0784618927
 20
5.166574705
 10
-5.1900209145
 20
5.3569352011
 10
-5.2967347106
 20
5.5504879671
 10
-5.3979422068
 20
5.7460338911
 10
-5.4936092626
 20
5.9435853997
 10
-5.5837700186
 20
6.1431300662
 10
-5.6678658221
 20
6.3434314994
 10
-5.7458590725
 20
6.5444946129
 10
-5.8177873704
 20
6.7463144931
 10
-5.8832048661
 20
6.9476400073
 10
-5.9420710669
 20
7.1484681548
 10
-5.9944264654
 20
7.3488019362
 10
-6.0399466895
 20
7.5473992215
 10
-6.0785891788
 20
7.7442492807
 10
-6.1103964937
 20
7.9393628437
 10
-6.1351719435
 20
8.1315299698
 10
-6.1528499647
 20
8.3203473454
 10
-6.1634961209
 20
8.506218284
 10
-6.167110412
 20
8.6891427856
  0
LWPOLYLINE
  5
2A4
100
AcDbEntity
  8
ASSI
100
AcDbPolyline
 62
7
  6
CONTINUOUS
 90
70
 70
0
 10
0.6918253656
 20
4.7288792303
 10
0.6882110579
 20
4.5501281218
 10
0.677564868
 20
4.3765508333
 10
0.6598867959
 20
4.208147365
 10
0.6351112723
 20
4.0445901092
 10
0.6033038666
 20
3.8862066735
 10
0.5646612862
 20
3.7339798804
 10
0.5191409713
 20
3.5879481584
 10
0.4667854818
 20
3.448073079
 10
0.4079192045
 20
3.3152221798
 10
0.3425016524
 20
3.1894392244
 10
0.2705733124
 20
3.0706804492
 10
0.1925800327
 20
2.9596821006
 10
0.1084842182
 20
2.8564925094
 10
0.0183234639
 20
2.7610633449
 10
-0.0773435967
 20
2.6739858618
 10
-0.1785511102
 20
2.595311902
 10
-0.2852649301
 20
2.5249896235
 10
-0.3968239839
 20
2.4634547559
 10
-0.5132584081
 20
2.4107618107
 10
-0.6345380662
 20
2.3668562764
 10
-0.7599114759
 20
2.3320103477
 10
-0.8894040974
 20
2.3062802894
 10
-1.0229904705
 20
2.2896098368
 10
-1.1598427318
 20
2.2821023904
 10
-1.2999811504
 20
2.2838148691
 10
-1.4433854573
 20
2.294690354
 10
-1.5891669819
 20
2.3146614889
 10
-1.737340473
 20
2.3437847572
 10
-1.8878911819
 20
2.3820036756
 10
-2.0398861917
 20
2.4290814369
 10
-2.1933344809
 20
2.4850730568
 10
-2.348227071
 20
2.5499235197
 10
-2.5036041101
 20
2.6232309718
 10
-2.6594686148
 20
2.7050479389
 10
-2.8158175685
 20
2.7953218953
 10
-2.9716820701
 20
2.893493409
 10
-3.1270591021
 20
2.9996115218
 10
-3.281951682
 20
3.1136271919
 10
-3.4353999614
 20
3.2348338632
 10
-3.5873949636
 20
3.3632761842
 10
-3.7379456653
 20
3.4989095062
 10
-3.8861191486
 20
3.6408933272
 10
-4.031900666
 20
3.7892671012
 10
-4.1753049651
 20
3.9439913741
 10
-4.3154433702
 20
4.1041072817
 10
-4.4522956114
 20
4.2696483364
 10
-4.5858819588
 20
4.4405810257
 10
-4.7153745471
 20
4.6158459474
 10
-4.8407479102
 20
4.7954699551
 10
-4.9620275143
 20
4.9794261951
 10
-5.0784618927
 20
5.166574705
 10
-5.1900209145
 20
5.3569352011
 10
-5.2967347106
 20
5.5504879671
 10
-5.3979422068
 20
5.7460338911
 10
-5.4936092626
 20
5.9435853997
 10
-5.5837700186
 20
6.1431300662
 10
-5.6678658221
 20
6.3434314994
 10
-5.7458590725
 20
6.5444946129
 10
-5.8177873704
 20
6.7463144931
 10
-5.8832048661
 20
6.9476400073
 10
-5.9420710669
 20
7.1484681548
 10
-5.9944264654
 20
7.3488019362
 10
-6.0399466895
 20
7.5473992215
 10
-6.0785891788
 20
7.7442492807
 10
-6.1103964937
 20
7.9393628437
 10
-6.1351719435
 20
8.1315299698
 10
-6.1528499647
 20
8.3203473454
 10
-6.1634961209
 20
8.506218284
 10
-6.167110412
 20
8.6891427856
  0
LINE
  5
2A5
100
AcDbEntity
  8
SMUSSO
100
AcDbLine
 62
7
  6
CONTINUOUS
 10
0.6864758592
 20
4.9420988063
 11
0.679082978
 21
4.8215630721
  0
LINE
  5
2A6
100
AcDbEntity
  8
ASSI
100
AcDbLine
 62
7
  6
CONTINUOUS
 10
0.6864758592
 20
4.9420988063
 11
0.679082978
 21
4.8215630721
  0
LWPOLYLINE
  5
2A7
100
AcDbEntity
  8
SMUSSO
100
AcDbPolyline
 62
7
  6
CONTINUOUS
 90
17
 70
0
 10
0.679082978
 20
4.8215630721
 10
0.6631794089
 20
4.670105476
 10
0.6409601343
 20
4.5232945185
 10
0.612471003
 20
4.3814349265
 10
0.5777710496
 20
4.2448216456
 10
0.5369320978
 20
4.1137379855
 10
0.4900386604
 20
3.9884556712
 10
0.4371880469
 20
3.8692349588
 10
0.3784897895
 20
3.756323046
 10
0.3140654876
 20
3.649953944
 10
0.2440488278
 20
3.5503484203
 10
0.168585023
 20
3.4577130104
 10
0.0878304195
 20
3.3722395962
 10
0.0019523523
 20
3.2941052837
 10
-0.0888711558
 20
3.2234720411
 10
-0.1844518848
 20
3.1604862449
 10
-0.208984036
 20
3.1459984777
  0
LWPOLYLINE
  5
2A8
100
AcDbEntity
  8
ASSI
100
AcDbPolyline
 62
7
  6
CONTINUOUS
 90
17
 70
0
 10
0.679082978
 20
4.8215630721
 10
0.6631794089
 20
4.670105476
 10
0.6409601343
 20
4.5232945185
 10
0.612471003
 20
4.3814349265
 10
0.5777710496
 20
4.2448216456
 10
0.5369320978
 20
4.1137379855
 10
0.4900386604
 20
3.9884556712
 10
0.4371880469
 20
3.8692349588
 10
0.3784897895
 20
3.756323046
 10
0.3140654876
 20
3.649953944
 10
0.2440488278
 20
3.5503484203
 10
0.168585023
 20
3.4577130104
 10
0.0878304195
 20
3.3722395962
 10
0.0019523523
 20
3.2941052837
 10
-0.0888711558
 20
3.2234720411
 10
-0.1844518848
 20
3.1604862449
 10
-0.208984036
 20
3.1459984777
  0
LWPOLYLINE
  5
2A9
100
AcDbEntity
  8
ASSI
100
AcDbPolyline
 62
7
  6
CONTINUOUS
 90
14
 70
0
 10
-4.0069271823
 20
-5.8712713995
 10
-4.0222606729
 20
-5.890085688
 10
-4.0922144211
 20
-5.9896388656
 10
-4.1567285113
 20
-6.0961523782
 10
-4.2154031791
 20
-6.2089662104
 10
-4.2682021654
 20
-6.3281194829
 10
-4.3151617292
 20
-6.4535730749
 10
-4.3559908836
 20
-6.5845496077
 10
-4.3906515627
 20
-6.7210833753
 10
-4.4191818323
 20
-6.8631400836
 10
-4.4414049035
 20
-7.0098394721
 10
-4.4572618465
 20
-7.1608881206
 10
-4.466811591
 20
-7.3165794492
 10
-4.4700541371
 20
-7.476913458
  0
LWPOLYLINE
  5
2AA
100
AcDbEntity
  8
SMUSSO
100
AcDbPolyline
 62
7
  6
CONTINUOUS
 90
53
 70
0
 10
-16.1188866127
 20
-4.4054638467
 10
-16.1944944553
 20
-4.4461839532
 10
-16.2989862302
 20
-4.4934994619
 10
-16.4076131799
 20
-4.5328244695
 10
-16.5201501708
 20
-4.5640774296
 10
-16.6363639992
 20
-4.5871935327
 10
-16.7560137743
 20
-4.6021248187
 10
-16.8788514044
 20
-4.6088402996
 10
-17.0046222671
 20
-4.607326041
 10
-17.1330657026
 20
-4.5975851671
 10
-17.2639154441
 20
-4.5796378594
 10
-17.3969002641
 20
-4.5535213132
 10
-17.53174454
 20
-4.5192896515
 10
-17.6681687798
 20
-4.4770138193
 10
-17.8058902229
 20
-4.4267814321
 10
-17.9446234058
 20
-4.3686966021
 10
-18.0840807532
 20
-4.3028797261
 10
-18.2239732167
 20
-4.2294672165
 10
-18.3640108311
 20
-4.1486112365
 10
-18.5039032941
 20
-4.060479403
 10
-18.6433606405
 20
-3.9652543972
 10
-18.7820938219
 20
-3.8631335925
 10
-18.919815264
 20
-3.7543286761
 10
-19.0562395037
 20
-3.6390651813
 10
-19.19108378
 20
-3.5175820173
 10
-19.3240685999
 20
-3.3901309904
 10
-19.4549183416
 20
-3.2569762586
 10
-19.5833617769
 20
-3.1183938338
 10
-19.7091326357
 20
-2.9746710166
 10
-19.8319702567
 20
-2.8261056882
 10
-19.9516200193
 20
-2.6730058134
 10
-20.0678338334
 20
-2.5156888684
 10
-20.1803708064
 20
-2.3544809908
 10
-20.2889977365
 20
-2.1897162855
 10
-20.3934894962
 20
-2.0217362677
 10
-20.4936294798
 20
-1.8508892024
 10
-20.5892102014
 20
-1.6775291309
 10
-20.6800337062
 20
-1.5020151199
 10
-20.7659117768
 20
-1.3247108891
 10
-20.8466663846
 20
-1.1459839913
 10
-20.922130185
 20
-0.9662047881
 10
-20.9921468323
 20
-0.7857457058
 10
-21.0565711137
 20
-0.6049809698
 10
-21.1152693357
 20
-0.4242857506
 10
-21.1681199006
 20
-0.2440344843
 10
-21.2150132811
 20
-0.0646008484
 10
-21.255852169
 20
0.113642522
 10
-21.2905520553
 20
0.2903263055
 10
-21.3190411217
 20
0.4650842585
 10
-21.3412603388
 20
0.6375532703
 10
-21.3571638617
 20
0.8073756726
 10
-21.3667190083
 20
0.9741999406
 10
-21.3699062075
 20
1.1376804612
  0
LWPOLYLINE
  5
2AB
100
AcDbEntity
  8
ASSI
100
AcDbPolyline
 62
7
  6
CONTINUOUS
 90
53
 70
0
 10
-16.1188866127
 20
-4.4054638467
 10
-16.1944944553
 20
-4.4461839532
 10
-16.2989862302
 20
-4.4934994619
 10
-16.4076131799
 20
-4.5328244695
 10
-16.5201501708
 20
-4.5640774296
 10
-16.6363639992
 20
-4.5871935327
 10
-16.7560137743
 20
-4.6021248187
 10
-16.8788514044
 20
-4.6088402996
 10
-17.0046222671
 20
-4.607326041
 10
-17.1330657026
 20
-4.5975851671
 10
-17.2639154441
 20
-4.5796378594
 10
-17.3969002641
 20
-4.5535213132
 10
-17.53174454
 20
-4.5192896515
 10
-17.6681687798
 20
-4.4770138193
 10
-17.8058902229
 20
-4.4267814321
 10
-17.9446234058
 20
-4.3686966021
 10
-18.0840807532
 20
-4.3028797261
 10
-18.2239732167
 20
-4.2294672165
 10
-18.3640108311
 20
-4.1486112365
 10
-18.5039032941
 20
-4.060479403
 10
-18.6433606405
 20
-3.9652543972
 10
-18.7820938219
 20
-3.8631335925
 10
-18.919815264
 20
-3.7543286761
 10
-19.0562395037
 20
-3.6390651813
 10
-19.19108378
 20
-3.5175820173
 10
-19.3240685999
 20
-3.3901309904
 10
-19.4549183416
 20
-3.2569762586
 10
-19.5833617769
 20
-3.1183938338
 10
-19.7091326357
 20
-2.9746710166
 10
-19.8319702567
 20
-2.8261056882
 10
-19.9516200193
 20
-2.6730058134
 10
-20.0678338334
 20
-2.5156888684
 10
-20.1803708064
 20
-2.3544809908
 10
-20.2889977365
 20
-2.1897162855
 10
-20.3934894962
 20
-2.0217362677
 10
-20.4936294798
 20
-1.8508892024
 10
-20.5892102014
 20
-1.6775291309
 10
-20.6800337062
 20
-1.5020151199
 10
-20.7659117768
 20
-1.3247108891
 10
-20.8466663846
 20
-1.1459839913
 10
-20.922130185
 20
-0.9662047881
 10
-20.9921468323
 20
-0.7857457058
 10
-21.0565711137
 20
-0.6049809698
 10
-21.1152693357
 20
-0.4242857506
 10
-21.1681199006
 20
-0.2440344843
 10
-21.2150132811
 20
-0.0646008484
 10
-21.255852169
 20
0.113642522
 10
-21.2905520553
 20
0.2903263055
 10
-21.3190411217
 20
0.4650842585
 10
-21.3412603388
 20
0.6375532703
 10
-21.3571638617
 20
0.8073756726
 10
-21.3667190083
 20
0.9741999406
 10
-21.3699062075
 20
1.1376804612
  0
LWPOLYLINE
  5
2AC
100
AcDbEntity
  8
SMUSSO
100
AcDbPolyline
 62
7
  6
CONTINUOUS
 90
53
 70
0
 10
-0.208984036
 20
3.1459984777
 10
-0.2845918786
 20
3.1052783711
 10
-0.3890836535
 20
3.0579628624
 10
-0.4977106032
 20
3.0186378548
 10
-0.6102475941
 20
2.9873848948
 10
-0.7264614226
 20
2.9642687917
 10
-0.8461111976
 20
2.9493375057
 10
-0.9689488277
 20
2.9426220248
 10
-1.0947196904
 20
2.9441362834
 10
-1.2231631259
 20
2.9538771572
 10
-1.3540128674
 20
2.971824465
 10
-1.4869976874
 20
2.9979410112
 10
-1.6218419633
 20
3.0321726729
 10
-1.7582662031
 20
3.0744485051
 10
-1.8959876462
 20
3.1246808923
 10
-2.0347208291
 20
3.1827657223
 10
-2.1741781765
 20
3.2485825983
 10
-2.31407064
 20
3.3219951079
 10
-2.4541082544
 20
3.4028510879
 10
-2.5940007174
 20
3.4909829214
 10
-2.7334580638
 20
3.5862079272
 10
-2.8721912452
 20
3.6883287319
 10
-3.0099126873
 20
3.7971336483
 10
-3.146336927
 20
3.9123971431
 10
-3.2811812033
 20
4.033880307
 10
-3.4141660232
 20
4.161331334
 10
-3.545015765
 20
4.2944860658
 10
-3.6734592002
 20
4.4330684906
 10
-3.799230059
 20
4.5767913078
 10
-3.92206768
 20
4.7253566361
 10
-4.0417174426
 20
4.8784565109
 10
-4.1579312567
 20
5.0357734559
 10
-4.2704682297
 20
5.1969813336
 10
-4.3790951598
 20
5.3617460389
 10
-4.4835869195
 20
5.5297260567
 10
-4.5837269031
 20
5.700573122
 10
-4.6793076247
 20
5.8739331934
 10
-4.7701311295
 20
6.0494472045
 10
-4.8560092001
 20
6.2267514353
 10
-4.936763808
 20
6.4054783331
 10
-5.0122276083
 20
6.5852575363
 10
-5.0822442556
 20
6.7657166185
 10
-5.146668537
 20
6.9464813545
 10
-5.205366759
 20
7.1271765738
 10
-5.2582173239
 20
7.3074278401
 10
-5.3051107044
 20
7.486861476
 10
-5.3459495923
 20
7.6651048464
 10
-5.3806494786
 20
7.8417886299
 10
-5.409138545
 20
8.0165465829
 10
-5.4313577621
 20
8.1890155947
 10
-5.447261285
 20
8.358837997
 10
-5.4568164316
 20
8.525662265
 10
-5.4600036308
 20
8.6891427856
  0
LWPOLYLINE
  5
2AD
100
AcDbEntity
  8
ASSI
100
AcDbPolyline
 62
7
  6
CONTINUOUS
 90
53
 70
0
 10
-0.208984036
 20
3.1459984777
 10
-0.2845918786
 20
3.1052783711
 10
-0.3890836535
 20
3.0579628624
 10
-0.4977106032
 20
3.0186378548
 10
-0.6102475941
 20
2.9873848948
 10
-0.7264614226
 20
2.9642687917
 10
-0.8461111976
 20
2.9493375057
 10
-0.9689488277
 20
2.9426220248
 10
-1.0947196904
 20
2.9441362834
 10
-1.2231631259
 20
2.9538771572
 10
-1.3540128674
 20
2.971824465
 10
-1.4869976874
 20
2.9979410112
 10
-1.6218419633
 20
3.0321726729
 10
-1.7582662031
 20
3.0744485051
 10
-1.8959876462
 20
3.1246808923
 10
-2.0347208291
 20
3.1827657223
 10
-2.1741781765
 20
3.2485825983
 10
-2.31407064
 20
3.3219951079
 10
-2.4541082544
 20
3.4028510879
 10
-2.5940007174
 20
3.4909829214
 10
-2.7334580638
 20
3.5862079272
 10
-2.8721912452
 20
3.6883287319
 10
-3.0099126873
 20
3.7971336483
 10
-3.146336927
 20
3.9123971431
 10
-3.2811812033
 20
4.033880307
 10
-3.4141660232
 20
4.161331334
 10
-3.545015765
 20
4.2944860658
 10
-3.6734592002
 20
4.4330684906
 10
-3.799230059
 20
4.5767913078
 10
-3.92206768
 20
4.7253566361
 10
-4.0417174426
 20
4.8784565109
 10
-4.1579312567
 20
5.0357734559
 10
-4.2704682297
 20
5.1969813336
 10
-4.3790951598
 20
5.3617460389
 10
-4.4835869195
 20
5.5297260567
 10
-4.5837269031
 20
5.700573122
 10
-4.6793076247
 20
5.8739331934
 10
-4.7701311295
 20
6.0494472045
 10
-4.8560092001
 20
6.2267514353
 10
-4.936763808
 20
6.4054783331
 10
-5.0122276083
 20
6.5852575363
 10
-5.0822442556
 20
6.7657166185
 10
-5.146668537
 20
6.9464813545
 10
-5.205366759
 20
7.1271765738
 10
-5.2582173239
 20
7.3074278401
 10
-5.3051107044
 20
7.486861476
 10
-5.3459495923
 20
7.6651048464
 10
-5.3806494786
 20
7.8417886299
 10
-5.409138545
 20
8.0165465829
 10
-5.4313577621
 20
8.1890155947
 10
-5.447261285
 20
8.358837997
 10
-5.4568164316
 20
8.525662265
 10
-5.4600036308
 20
8.6891427856
  0
LINE
  5
2AE
100
AcDbEntity
  8
SMUSSO
100
AcDbLine
 62
7
  6
CONTINUOUS
 10
-18.7820931958
 20
3.1501533926
 11
-18.6433600128
 21
3.0920685626
  0
LINE
  5
2AF
100
AcDbEntity
  8
ASSI
100
AcDbLine
 62
7
  6
CONTINUOUS
 10
-18.7820931958
 20
3.1501533926
 11
-18.6433600128
 21
3.0920685626
  0
LINE
  5
2B0
100
AcDbEntity
  8
SMUSSO
100
AcDbLine
 62
7
  6
CONTINUOUS
 10
-34.6919957725
 20
12.3363317425
 11
-34.5532625895
 21
12.2782469125
  0
LINE
  5
2B1
100
AcDbEntity
  8
ASSI
100
AcDbLine
 62
7
  6
CONTINUOUS
 10
-34.6919957725
 20
12.3363317425
 11
-34.5532625895
 21
12.2782469125
  0
LWPOLYLINE
  5
2B2
100
AcDbEntity
  8
SMUSSO
100
AcDbPolyline
 62
7
  6
CONTINUOUS
 90
3
 70
0
 10
-18.6433600128
 20
3.0920685626
 10
-18.5039026654
 20
3.0262516866
 10
-18.4682003544
 20
3.0075158936
  0
LWPOLYLINE
  5
2B3
100
AcDbEntity
  8
ASSI
100
AcDbPolyline
 62
7
  6
CONTINUOUS
 90
3
 70
0
 10
-18.6433600128
 20
3.0920685626
 10
-18.5039026654
 20
3.0262516866
 10
-18.4682003544
 20
3.0075158936
  0
LWPOLYLINE
  5
2B4
100
AcDbEntity
  8
SMUSSO
100
AcDbPolyline
 62
7
  6
CONTINUOUS
 90
3
 70
0
 10
-34.5532625895
 20
12.2782469125
 10
-34.4138052421
 20
12.2124300365
 10
-34.3781029311
 20
12.1936942435
  0
LWPOLYLINE
  5
2B5
100
AcDbEntity
  8
ASSI
100
AcDbPolyline
 62
7
  6
CONTINUOUS
 90
3
 70
0
 10
-34.5532625895
 20
12.2782469125
 10
-34.4138052421
 20
12.2124300365
 10
-34.3781029311
 20
12.1936942435
  0
LWPOLYLINE
  5
2B6
100
AcDbEntity
  8
SMUSSO
100
AcDbPolyline
 62
7
  6
CONTINUOUS
 90
70
 70
0
 10
0.6918253656
 20
-12.0087614439
 10
0.6882110579
 20
-12.1875125525
 10
0.677564868
 20
-12.3610898409
 10
0.6598867959
 20
-12.5294933093
 10
0.6351112723
 20
-12.6930505651
 10
0.6033038666
 20
-12.8514340008
 10
0.5646612862
 20
-13.0036607938
 10
0.5191409713
 20
-13.1496925158
 10
0.4667854818
 20
-13.2895675952
 10
0.4079192045
 20
-13.4224184944
 10
0.3425016524
 20
-13.5482014498
 10
0.2705733124
 20
-13.6669602251
 10
0.1925800327
 20
-13.7779585736
 10
0.1084842182
 20
-13.8811481648
 10
0.0183234639
 20
-13.9765773293
 10
-0.0773435967
 20
-14.0636548124
 10
-0.1785511102
 20
-14.1423287723
 10
-0.2852649301
 20
-14.2126510507
 10
-0.3968239839
 20
-14.2741859183
 10
-0.5132584081
 20
-14.3268788635
 10
-0.6345380662
 20
-14.3707843979
 10
-0.7599114759
 20
-14.4056303265
 10
-0.8894040974
 20
-14.4313603848
 10
-1.0229904705
 20
-14.4480308374
 10
-1.1598427318
 20
-14.4555382838
 10
-1.2999811504
 20
-14.4538258051
 10
-1.4433854573
 20
-14.4429503202
 10
-1.5891669819
 20
-14.4229791854
 10
-1.737340473
 20
-14.393855917
 10
-1.8878911819
 20
-14.3556369987
 10
-2.0398861917
 20
-14.3085592374
 10
-2.1933344809
 20
-14.2525676175
 10
-2.348227071
 20
-14.1877171546
 10
-2.5036041101
 20
-14.1144097025
 10
-2.6594686148
 20
-14.0325927353
 10
-2.8158175685
 20
-13.942318779
 10
-2.9716820701
 20
-13.8441472652
 10
-3.1270591021
 20
-13.7380291525
 10
-3.281951682
 20
-13.6240134823
 10
-3.4353999614
 20
-13.5028068111
 10
-3.5873949636
 20
-13.3743644901
 10
-3.7379456653
 20
-13.238731168
 10
-3.8861191486
 20
-13.096747347
 10
-4.031900666
 20
-12.948373573
 10
-4.1753049651
 20
-12.7936493001
 10
-4.3154433702
 20
-12.6335333926
 10
-4.4522956114
 20
-12.4679923379
 10
-4.5858819588
 20
-12.2970596485
 10
-4.7153745471
 20
-12.1217947268
 10
-4.8407479102
 20
-11.9421707192
 10
-4.9620275143
 20
-11.7582144791
 10
-5.0784618927
 20
-11.5710659693
 10
-5.1900209145
 20
-11.3807054731
 10
-5.2967347106
 20
-11.1871527071
 10
-5.3979422068
 20
-10.9916067831
 10
-5.4936092626
 20
-10.7940552746
 10
-5.5837700186
 20
-10.594510608
 10
-5.6678658221
 20
-10.3942091749
 10
-5.7458590725
 20
-10.1931460613
 10
-5.8177873704
 20
-9.9913261811
 10
-5.8832048661
 20
-9.7900006669
 10
-5.9420710669
 20
-9.5891725195
 10
-5.9944264654
 20
-9.388838738
 10
-6.0399466895
 20
-9.1902414528
 10
-6.0785891788
 20
-8.9933913936
 10
-6.1103964937
 20
-8.7982778305
 10
-6.1351719435
 20
-8.6061107045
 10
-6.1528499647
 20
-8.4172933289
 10
-6.1634961209
 20
-8.2314223903
 10
-6.167110412
 20
-8.0484978886
  0
LWPOLYLINE
  5
2B7
100
AcDbEntity
  8
ASSI
100
AcDbPolyline
 62
7
  6
CONTINUOUS
 90
70
 70
0
 10
0.6918253656
 20
-12.0087614439
 10
0.6882110579
 20
-12.1875125525
 10
0.677564868
 20
-12.3610898409
 10
0.6598867959
 20
-12.5294933093
 10
0.6351112723
 20
-12.6930505651
 10
0.6033038666
 20
-12.8514340008
 10
0.5646612862
 20
-13.0036607938
 10
0.5191409713
 20
-13.1496925158
 10
0.4667854818
 20
-13.2895675952
 10
0.4079192045
 20
-13.4224184944
 10
0.3425016524
 20
-13.5482014498
 10
0.2705733124
 20
-13.6669602251
 10
0.1925800327
 20
-13.7779585736
 10
0.1084842182
 20
-13.8811481648
 10
0.0183234639
 20
-13.9765773293
 10
-0.0773435967
 20
-14.0636548124
 10
-0.1785511102
 20
-14.1423287723
 10
-0.2852649301
 20
-14.2126510507
 10
-0.3968239839
 20
-14.2741859183
 10
-0.5132584081
 20
-14.3268788635
 10
-0.6345380662
 20
-14.3707843979
 10
-0.7599114759
 20
-14.4056303265
 10
-0.8894040974
 20
-14.4313603848
 10
-1.0229904705
 20
-14.4480308374
 10
-1.1598427318
 20
-14.4555382838
 10
-1.2999811504
 20
-14.4538258051
 10
-1.4433854573
 20
-14.4429503202
 10
-1.5891669819
 20
-14.4229791854
 10
-1.737340473
 20
-14.393855917
 10
-1.8878911819
 20
-14.3556369987
 10
-2.0398861917
 20
-14.3085592374
 10
-2.1933344809
 20
-14.2525676175
 10
-2.348227071
 20
-14.1877171546
 10
-2.5036041101
 20
-14.1144097025
 10
-2.6594686148
 20
-14.0325927353
 10
-2.8158175685
 20
-13.942318779
 10
-2.9716820701
 20
-13.8441472652
 10
-3.1270591021
 20
-13.7380291525
 10
-3.281951682
 20
-13.6240134823
 10
-3.4353999614
 20
-13.5028068111
 10
-3.5873949636
 20
-13.3743644901
 10
-3.7379456653
 20
-13.238731168
 10
-3.8861191486
 20
-13.096747347
 10
-4.031900666
 20
-12.948373573
 10
-4.1753049651
 20
-12.7936493001
 10
-4.3154433702
 20
-12.6335333926
 10
-4.4522956114
 20
-12.4679923379
 10
-4.5858819588
 20
-12.2970596485
 10
-4.7153745471
 20
-12.1217947268
 10
-4.8407479102
 20
-11.9421707192
 10
-4.9620275143
 20
-11.7582144791
 10
-5.0784618927
 20
-11.5710659693
 10
-5.1900209145
 20
-11.3807054731
 10
-5.2967347106
 20
-11.1871527071
 10
-5.3979422068
 20
-10.9916067831
 10
-5.4936092626
 20
-10.7940552746
 10
-5.5837700186
 20
-10.594510608
 10
-5.6678658221
 20
-10.3942091749
 10
-5.7458590725
 20
-10.1931460613
 10
-5.8177873704
 20
-9.9913261811
 10
-5.8832048661
 20
-9.7900006669
 10
-5.9420710669
 20
-9.5891725195
 10
-5.9944264654
 20
-9.388838738
 10
-6.0399466895
 20
-9.1902414528
 10
-6.0785891788
 20
-8.9933913936
 10
-6.1103964937
 20
-8.7982778305
 10
-6.1351719435
 20
-8.6061107045
 10
-6.1528499647
 20
-8.4172933289
 10
-6.1634961209
 20
-8.2314223903
 10
-6.167110412
 20
-8.0484978886
  0
LINE
  5
2B8
100
AcDbEntity
  8
SMUSSO
100
AcDbLine
 62
7
  6
CONTINUOUS
 10
0.6864758592
 20
-11.7955418679
 11
0.679082978
 21
-11.9160776022
  0
LINE
  5
2B9
100
AcDbEntity
  8
ASSI
100
AcDbLine
 62
7
  6
CONTINUOUS
 10
0.6864758592
 20
-11.7955418679
 11
0.679082978
 21
-11.9160776022
  0
LWPOLYLINE
  5
2BA
100
AcDbEntity
  8
SMUSSO
100
AcDbPolyline
 62
7
  6
CONTINUOUS
 90
17
 70
0
 10
0.679082978
 20
-11.9160776022
 10
0.6631794089
 20
-12.0675351983
 10
0.6409601343
 20
-12.2143461558
 10
0.612471003
 20
-12.3562057477
 10
0.5777710496
 20
-12.4928190286
 10
0.5369320978
 20
-12.6239026888
 10
0.4900386604
 20
-12.7491850031
 10
0.4371880469
 20
-12.8684057154
 10
0.3784897895
 20
-12.9813176282
 10
0.3140654876
 20
-13.0876867302
 10
0.2440488278
 20
-13.1872922539
 10
0.168585023
 20
-13.2799276638
 10
0.0878304195
 20
-13.365401078
 10
0.0019523523
 20
-13.4435353905
 10
-0.0888711558
 20
-13.5141686332
 10
-0.1844518848
 20
-13.5771544293
 10
-0.208984036
 20
-13.5916421966
  0
LWPOLYLINE
  5
2BB
100
AcDbEntity
  8
ASSI
100
AcDbPolyline
 62
7
  6
CONTINUOUS
 90
17
 70
0
 10
0.679082978
 20
-11.9160776022
 10
0.6631794089
 20
-12.0675351983
 10
0.6409601343
 20
-12.2143461558
 10
0.612471003
 20
-12.3562057477
 10
0.5777710496
 20
-12.4928190286
 10
0.5369320978
 20
-12.6239026888
 10
0.4900386604
 20
-12.7491850031
 10
0.4371880469
 20
-12.8684057154
 10
0.3784897895
 20
-12.9813176282
 10
0.3140654876
 20
-13.0876867302
 10
0.2440488278
 20
-13.1872922539
 10
0.168585023
 20
-13.2799276638
 10
0.0878304195
 20
-13.365401078
 10
0.0019523523
 20
-13.4435353905
 10
-0.0888711558
 20
-13.5141686332
 10
-0.1844518848
 20
-13.5771544293
 10
-0.208984036
 20
-13.5916421966
  0
LWPOLYLINE
  5
2BC
100
AcDbEntity
  8
SMUSSO
100
AcDbPolyline
 62
7
  6
CONTINUOUS
 90
15
 70
0
 10
-4.5591942292
 20
-6.0573425427
 10
-4.4835863866
 20
-6.0166224361
 10
-4.3790946117
 20
-5.9693069274
 10
-4.2704676621
 20
-5.9299819198
 10
-4.1579306711
 20
-5.8987289597
 10
-4.0417168427
 20
-5.8756128567
 10
-3.9220670676
 20
-5.8606815707
 10
-3.7992294376
 20
-5.8539660897
 10
-3.6734585749
 20
-5.8554803483
 10
-3.5450151393
 20
-5.8652212222
 10
-3.4141653979
 20
-5.88316853
 10
-3.2811805779
 20
-5.9092850761
 10
-3.1463363019
 20
-5.9435167378
 10
-3.0099120622
 20
-5.9857925701
 10
-2.8721906191
 20
-6.0360249573
  0
LWPOLYLINE
  5
2BD
100
AcDbEntity
  8
ASSI
100
AcDbPolyline
 62
7
  6
CONTINUOUS
 90
15
 70
0
 10
-4.5591942292
 20
-6.0573425427
 10
-4.4835863866
 20
-6.0166224361
 10
-4.3790946117
 20
-5.9693069274
 10
-4.2704676621
 20
-5.9299819198
 10
-4.1579306711
 20
-5.8987289597
 10
-4.0417168427
 20
-5.8756128567
 10
-3.9220670676
 20
-5.8606815707
 10
-3.7992294376
 20
-5.8539660897
 10
-3.6734585749
 20
-5.8554803483
 10
-3.5450151393
 20
-5.8652212222
 10
-3.4141653979
 20
-5.88316853
 10
-3.2811805779
 20
-5.9092850761
 10
-3.1463363019
 20
-5.9435167378
 10
-3.0099120622
 20
-5.9857925701
 10
-2.8721906191
 20
-6.0360249573
  0
LWPOLYLINE
  5
2BE
100
AcDbEntity
  8
SMUSSO
100
AcDbPolyline
 62
7
  6
CONTINUOUS
 90
15
 70
0
 10
11.3507083475
 20
1.4941197817
 10
11.4263161901
 20
1.5348398883
 10
11.530807965
 20
1.582155397
 10
11.6394349146
 20
1.6214804046
 10
11.7519719056
 20
1.6527333647
 10
11.868185734
 20
1.6758494677
 10
11.9878355091
 20
1.6907807537
 10
12.1106731391
 20
1.6974962346
 10
12.2364440018
 20
1.6959819761
 10
12.3648874374
 20
1.6862411022
 10
12.4957371788
 20
1.6682937944
 10
12.6287219988
 20
1.6421772482
 10
12.7635662748
 20
1.6079455866
 10
12.8999905145
 20
1.5656697543
 10
13.0377119576
 20
1.5154373671
  0
LWPOLYLINE
  5
2BF
100
AcDbEntity
  8
ASSI
100
AcDbPolyline
 62
7
  6
CONTINUOUS
 90
15
 70
0
 10
11.3507083475
 20
1.4941197817
 10
11.4263161901
 20
1.5348398883
 10
11.530807965
 20
1.582155397
 10
11.6394349146
 20
1.6214804046
 10
11.7519719056
 20
1.6527333647
 10
11.868185734
 20
1.6758494677
 10
11.9878355091
 20
1.6907807537
 10
12.1106731391
 20
1.6974962346
 10
12.2364440018
 20
1.6959819761
 10
12.3648874374
 20
1.6862411022
 10
12.4957371788
 20
1.6682937944
 10
12.6287219988
 20
1.6421772482
 10
12.7635662748
 20
1.6079455866
 10
12.8999905145
 20
1.5656697543
 10
13.0377119576
 20
1.5154373671
  0
LINE
  5
2C0
100
AcDbEntity
  8
SMUSSO
100
AcDbLine
 62
7
  6
CONTINUOUS
 10
28.9476145343
 20
-7.6707409827
 11
29.0863477173
 21
-7.7288258128
  0
LINE
  5
2C1
100
AcDbEntity
  8
ASSI
100
AcDbLine
 62
7
  6
CONTINUOUS
 10
28.9476145343
 20
-7.6707409827
 11
29.0863477173
 21
-7.7288258128
  0
LINE
  5
2C2
100
AcDbEntity
  8
SMUSSO
100
AcDbLine
 62
7
  6
CONTINUOUS
 10
13.0377119576
 20
1.5154373671
 11
13.1764451406
 21
1.4573525371
  0
LINE
  5
2C3
100
AcDbEntity
  8
ASSI
100
AcDbLine
 62
7
  6
CONTINUOUS
 10
13.0377119576
 20
1.5154373671
 11
13.1764451406
 21
1.4573525371
  0
LWPOLYLINE
  5
2C4
100
AcDbEntity
  8
SMUSSO
100
AcDbPolyline
 62
7
  6
CONTINUOUS
 90
3
 70
0
 10
29.0863477173
 20
-7.7288258128
 10
29.2258050647
 20
-7.7946426887
 10
29.2615073756
 20
-7.8133784818
  0
LWPOLYLINE
  5
2C5
100
AcDbEntity
  8
ASSI
100
AcDbPolyline
 62
7
  6
CONTINUOUS
 90
3
 70
0
 10
29.0863477173
 20
-7.7288258128
 10
29.2258050647
 20
-7.7946426887
 10
29.2615073756
 20
-7.8133784818
  0
LWPOLYLINE
  5
2C6
100
AcDbEntity
  8
ASSI
100
AcDbPolyline
 62
7
  6
CONTINUOUS
 90
48
 70
0
 10
11.4398484396
 20
-16.6630918079
 10
11.4430909857
 20
-16.8271702276
 10
11.4526407302
 20
-16.9938893618
 10
11.4684976732
 20
-17.1632492106
 10
11.4907207444
 20
-17.3356112446
 10
11.519251014
 20
-17.5106139932
 10
11.5539116931
 20
-17.6871730441
 10
11.5947408475
 20
-17.865298061
 10
11.6417004113
 20
-18.0449793803
 10
11.6944993976
 20
-18.2251035987
 10
11.7531740654
 20
-18.4056734665
 10
11.8176881556
 20
-18.5866862334
 10
11.8876419038
 20
-18.767020246
 10
11.9630690869
 20
-18.9466712895
 10
12.043935928
 20
-19.1256435788
 10
12.1297413323
 20
-19.3028281041
 10
12.220515965
 20
-19.4782137645
 10
12.3162291608
 20
-19.6518116609
 10
12.4162878288
 20
-19.8225460864
 10
12.5207189514
 20
-19.9903992606
 10
12.6294955462
 20
-20.1553889639
 10
12.7419435742
 20
-20.3164928303
 10
12.8580858326
 20
-20.4736867313
 10
12.9778995241
 20
-20.6269947954
 10
13.1006422181
 20
-20.7754670426
 10
13.2263321017
 20
-20.9190734453
 10
13.3549509877
 20
-21.0578440311
 10
13.4857018835
 20
-21.190918902
 10
13.6185980276
 20
-21.318262691
 10
13.7536261816
 20
-21.439910765
 10
13.8899496375
 20
-21.5551093264
 10
14.0275764383
 20
-21.6638183279
 10
14.1664985412
 20
-21.7660778167
 10
14.3058551091
 20
-21.8612541375
 10
14.4456488398
 20
-21.9493033083
 10
14.5858770357
 20
-22.0302693111
 10
14.7256707664
 20
-22.1036504365
 10
14.8650273343
 20
-22.1693995872
 10
15.0039494372
 20
-22.2275638606
 10
15.141576238
 20
-22.2777828391
 10
15.2778996939
 20
-22.3200071874
 10
15.4129278479
 20
-22.354286241
 10
15.545823992
 20
-22.380407588
 10
15.6765748878
 20
-22.3983205743
 10
15.8051937738
 20
-22.4080758541
 10
15.9308836574
 20
-22.4096129784
 10
16.0536263514
 20
-22.4028809176
 10
16.1386337159
 20
-22.3922737952
  0
LWPOLYLINE
  5
2C7
100
AcDbEntity
  8
ASSI
100
AcDbPolyline
 62
7
  6
CONTINUOUS
 90
48
 70
0
 10
11.4398484396
 20
0.0745488664
 10
11.4430909857
 20
-0.0895295533
 10
11.4526407302
 20
-0.2562486876
 10
11.4684976732
 20
-0.4256085363
 10
11.4907207444
 20
-0.5979705704
 10
11.519251014
 20
-0.7729733189
 10
11.5539116931
 20
-0.9495323699
 10
11.5947408475
 20
-1.1276573868
 10
11.6417004113
 20
-1.307338706
 10
11.6944993976
 20
-1.4874629245
 10
11.7531740654
 20
-1.6680327922
 10
11.8176881556
 20
-1.8490455591
 10
11.8876419038
 20
-2.0293795717
 10
11.9630690869
 20
-2.2090306153
 10
12.043935928
 20
-2.3880029045
 10
12.1297413323
 20
-2.5651874298
 10
12.220515965
 20
-2.7405730902
 10
12.3162291608
 20
-2.9141709866
 10
12.4162878288
 20
-3.0849054121
 10
12.5207189514
 20
-3.2527585864
 10
12.6294955462
 20
-3.4177482896
 10
12.7419435742
 20
-3.5788521561
 10
12.8580858326
 20
-3.736046057
 10
12.9778995241
 20
-3.8893541212
 10
13.1006422181
 20
-4.0378263683
 10
13.2263321017
 20
-4.1814327711
 10
13.3549509877
 20
-4.3202033569
 10
13.4857018835
 20
-4.4532782277
 10
13.6185980276
 20
-4.5806220167
 10
13.7536261816
 20
-4.7022700908
 10
13.8899496375
 20
-4.8174686522
 10
14.0275764383
 20
-4.9261776536
 10
14.1664985412
 20
-5.0284371424
 10
14.3058551091
 20
-5.1236134632
 10
14.4456488398
 20
-5.211662634
 10
14.5858770357
 20
-5.2926286368
 10
14.7256707664
 20
-5.3660097622
 10
14.8650273343
 20
-5.431758913
 10
15.0039494372
 20
-5.4899231863
 10
15.141576238
 20
-5.5401421648
 10
15.2778996939
 20
-5.5823665132
 10
15.4129278479
 20
-5.6166455667
 10
15.545823992
 20
-5.6427669137
 10
15.6765748878
 20
-5.6606799
 10
15.8051937738
 20
-5.6704351798
 10
15.9308836574
 20
-5.6719723041
 10
16.0536263514
 20
-5.6652402433
 10
16.1386337159
 20
-5.6546331209
  0
LWPOLYLINE
  5
2C8
100
AcDbEntity
  8
SMUSSO
100
AcDbPolyline
 62
7
  6
CONTINUOUS
 90
19
 70
0
 10
10.4498989459
 20
-0.4970355643
 10
10.4530861562
 20
-0.3372352657
 10
10.4626413335
 20
-0.1814448126
 10
10.4785449025
 20
-0.0299872166
 10
10.5007641772
 20
0.1168237409
 10
10.5292533085
 20
0.2586833329
 10
10.5639532619
 20
0.3952966138
 10
10.6047922137
 20
0.5263802739
 10
10.6516856511
 20
0.6516625882
 10
10.7045362646
 20
0.7708833006
 10
10.763234522
 20
0.8837952134
 10
10.8276588238
 20
0.9901643154
 10
10.8976754836
 20
1.0897698391
 10
10.9731392885
 20
1.182405249
 10
11.053893892
 20
1.2678786632
 10
11.1397719591
 20
1.3460129757
 10
11.2305954673
 20
1.4166462183
 10
11.3261761963
 20
1.4796320145
 10
11.3507083475
 20
1.4941197817
  0
LWPOLYLINE
  5
2C9
100
AcDbEntity
  8
ASSI
100
AcDbPolyline
 62
7
  6
CONTINUOUS
 90
19
 70
0
 10
10.4498989459
 20
-0.4970355643
 10
10.4530861562
 20
-0.3372352657
 10
10.4626413335
 20
-0.1814448126
 10
10.4785449025
 20
-0.0299872166
 10
10.5007641772
 20
0.1168237409
 10
10.5292533085
 20
0.2586833329
 10
10.5639532619
 20
0.3952966138
 10
10.6047922137
 20
0.5263802739
 10
10.6516856511
 20
0.6516625882
 10
10.7045362646
 20
0.7708833006
 10
10.763234522
 20
0.8837952134
 10
10.8276588238
 20
0.9901643154
 10
10.8976754836
 20
1.0897698391
 10
10.9731392885
 20
1.182405249
 10
11.053893892
 20
1.2678786632
 10
11.1397719591
 20
1.3460129757
 10
11.2305954673
 20
1.4166462183
 10
11.3261761963
 20
1.4796320145
 10
11.3507083475
 20
1.4941197817
  0
LWPOLYLINE
  5
2CA
100
AcDbEntity
  8
SMUSSO
100
AcDbPolyline
 62
7
  6
CONTINUOUS
 90
19
 70
0
 10
10.4498989459
 20
-17.2346762385
 10
10.4530861562
 20
-17.07487594
 10
10.4626413335
 20
-16.9190854869
 10
10.4785449025
 20
-16.7676278908
 10
10.5007641772
 20
-16.6208169333
 10
10.5292533085
 20
-16.4789573414
 10
10.5639532619
 20
-16.3423440605
 10
10.6047922137
 20
-16.2112604003
 10
10.6516856511
 20
-16.0859780861
 10
10.7045362646
 20
-15.9667573737
 10
10.763234522
 20
-15.8538454609
 10
10.8276588238
 20
-15.7474763589
 10
10.8976754836
 20
-15.6478708352
 10
10.9731392885
 20
-15.5552354253
 10
11.053893892
 20
-15.4697620111
 10
11.1397719591
 20
-15.3916276986
 10
11.2305954673
 20
-15.3209944559
 10
11.3261761963
 20
-15.2580086598
 10
11.3507083475
 20
-15.2435208925
  0
LWPOLYLINE
  5
2CB
100
AcDbEntity
  8
ASSI
100
AcDbPolyline
 62
7
  6
CONTINUOUS
 90
19
 70
0
 10
10.4498989459
 20
-17.2346762385
 10
10.4530861562
 20
-17.07487594
 10
10.4626413335
 20
-16.9190854869
 10
10.4785449025
 20
-16.7676278908
 10
10.5007641772
 20
-16.6208169333
 10
10.5292533085
 20
-16.4789573414
 10
10.5639532619
 20
-16.3423440605
 10
10.6047922137
 20
-16.2112604003
 10
10.6516856511
 20
-16.0859780861
 10
10.7045362646
 20
-15.9667573737
 10
10.763234522
 20
-15.8538454609
 10
10.8276588238
 20
-15.7474763589
 10
10.8976754836
 20
-15.6478708352
 10
10.9731392885
 20
-15.5552354253
 10
11.053893892
 20
-15.4697620111
 10
11.1397719591
 20
-15.3916276986
 10
11.2305954673
 20
-15.3209944559
 10
11.3261761963
 20
-15.2580086598
 10
11.3507083475
 20
-15.2435208925
  0
LWPOLYLINE
  5
2CC
100
AcDbEntity
  8
SMUSSO
100
AcDbPolyline
 62
7
  6
CONTINUOUS
 90
36
 70
0
 10
9.7427921647
 20
-0.4970355643
 10
9.7464064724
 20
-0.3182844557
 10
9.7570526623
 20
-0.1447071673
 10
9.7747307344
 20
0.0236963011
 10
9.799506258
 20
0.1872535569
 10
9.8313136637
 20
0.3456369926
 10
9.8699562441
 20
0.4978637856
 10
9.915476559
 20
0.6438955077
 10
9.9678320485
 20
0.783770587
 10
10.0266983258
 20
0.9166214862
 10
10.0921158779
 20
1.0424044416
 10
10.1640442179
 20
1.1611632169
 10
10.2420374976
 20
1.2721615654
 10
10.3261333121
 20
1.3753511567
 10
10.4162940664
 20
1.4707803212
 10
10.511961127
 20
1.5578578042
 10
10.6131686405
 20
1.6365317641
 10
10.7198824604
 20
1.7068540426
 10
10.8314415142
 20
1.7683889102
 10
10.9478759384
 20
1.8210818554
 10
11.0691555965
 20
1.8649873897
 10
11.1945290062
 20
1.8998333184
 10
11.3240216277
 20
1.9255633766
 10
11.4576080007
 20
1.9422338292
 10
11.5944602621
 20
1.9497412757
 10
11.7345986807
 20
1.948028797
 10
11.8780029876
 20
1.9371533121
 10
12.0237845122
 20
1.9171821772
 10
12.1719580033
 20
1.8880589088
 10
12.3225087122
 20
1.8498399905
 10
12.474503722
 20
1.8027622292
 10
12.6279520112
 20
1.7467706093
 10
12.7828446013
 20
1.6819201464
 10
12.9382216404
 20
1.6086126943
 10
13.0940861451
 20
1.5267957271
 10
13.1719286225
 20
1.4828725822
  0
LWPOLYLINE
  5
2CD
100
AcDbEntity
  8
ASSI
100
AcDbPolyline
 62
7
  6
CONTINUOUS
 90
36
 70
0
 10
9.7427921647
 20
-0.4970355643
 10
9.7464064724
 20
-0.3182844557
 10
9.7570526623
 20
-0.1447071673
 10
9.7747307344
 20
0.0236963011
 10
9.799506258
 20
0.1872535569
 10
9.8313136637
 20
0.3456369926
 10
9.8699562441
 20
0.4978637856
 10
9.915476559
 20
0.6438955077
 10
9.9678320485
 20
0.783770587
 10
10.0266983258
 20
0.9166214862
 10
10.0921158779
 20
1.0424044416
 10
10.1640442179
 20
1.1611632169
 10
10.2420374976
 20
1.2721615654
 10
10.3261333121
 20
1.3753511567
 10
10.4162940664
 20
1.4707803212
 10
10.511961127
 20
1.5578578042
 10
10.6131686405
 20
1.6365317641
 10
10.7198824604
 20
1.7068540426
 10
10.8314415142
 20
1.7683889102
 10
10.9478759384
 20
1.8210818554
 10
11.0691555965
 20
1.8649873897
 10
11.1945290062
 20
1.8998333184
 10
11.3240216277
 20
1.9255633766
 10
11.4576080007
 20
1.9422338292
 10
11.5944602621
 20
1.9497412757
 10
11.7345986807
 20
1.948028797
 10
11.8780029876
 20
1.9371533121
 10
12.0237845122
 20
1.9171821772
 10
12.1719580033
 20
1.8880589088
 10
12.3225087122
 20
1.8498399905
 10
12.474503722
 20
1.8027622292
 10
12.6279520112
 20
1.7467706093
 10
12.7828446013
 20
1.6819201464
 10
12.9382216404
 20
1.6086126943
 10
13.0940861451
 20
1.5267957271
 10
13.1719286225
 20
1.4828725822
  0
LWPOLYLINE
  5
2CE
100
AcDbEntity
  8
SMUSSO
100
AcDbPolyline
 62
7
  6
CONTINUOUS
 90
36
 70
0
 10
9.7427921647
 20
-17.2346762385
 10
9.7464064724
 20
-17.05592513
 10
9.7570526623
 20
-16.8823478415
 10
9.7747307344
 20
-16.7139443732
 10
9.799506258
 20
-16.5503871174
 10
9.8313136637
 20
-16.3920036817
 10
9.8699562441
 20
-16.2397768886
 10
9.915476559
 20
-16.0937451666
 10
9.9678320485
 20
-15.9538700872
 10
10.0266983258
 20
-15.821019188
 10
10.0921158779
 20
-15.6952362326
 10
10.1640442179
 20
-15.5764774573
 10
10.2420374976
 20
-15.4654791088
 10
10.3261333121
 20
-15.3622895176
 10
10.4162940664
 20
-15.2668603531
 10
10.511961127
 20
-15.17978287
 10
10.6131686405
 20
-15.1011089101
 10
10.7198824604
 20
-15.0307866317
 10
10.8314415142
 20
-14.9692517641
 10
10.9478759384
 20
-14.9165588189
 10
11.0691555965
 20
-14.8726532846
 10
11.1945290062
 20
-14.8378073559
 10
11.3240216277
 20
-14.8120772976
 10
11.4576080007
 20
-14.795406845
 10
11.5944602621
 20
-14.7878993986
 10
11.7345986807
 20
-14.7896118773
 10
11.8780029876
 20
-14.8004873622
 10
12.0237845122
 20
-14.820458497
 10
12.1719580033
 20
-14.8495817654
 10
12.3225087122
 20
-14.8878006837
 10
12.474503722
 20
-14.9348784451
 10
12.6279520112
 20
-14.990870065
 10
12.7828446013
 20
-15.0557205279
 10
12.9382216404
 20
-15.1290279799
 10
13.0940861451
 20
-15.2108449471
 10
13.1719286225
 20
-15.254768092
  0
LWPOLYLINE
  5
2CF
100
AcDbEntity
  8
ASSI
100
AcDbPolyline
 62
7
  6
CONTINUOUS
 90
36
 70
0
 10
9.7427921647
 20
-17.2346762385
 10
9.7464064724
 20
-17.05592513
 10
9.7570526623
 20
-16.8823478415
 10
9.7747307344
 20
-16.7139443732
 10
9.799506258
 20
-16.5503871174
 10
9.8313136637
 20
-16.3920036817
 10
9.8699562441
 20
-16.2397768886
 10
9.915476559
 20
-16.0937451666
 10
9.9678320485
 20
-15.9538700872
 10
10.0266983258
 20
-15.821019188
 10
10.0921158779
 20
-15.6952362326
 10
10.1640442179
 20
-15.5764774573
 10
10.2420374976
 20
-15.4654791088
 10
10.3261333121
 20
-15.3622895176
 10
10.4162940664
 20
-15.2668603531
 10
10.511961127
 20
-15.17978287
 10
10.6131686405
 20
-15.1011089101
 10
10.7198824604
 20
-15.0307866317
 10
10.8314415142
 20
-14.9692517641
 10
10.9478759384
 20
-14.9165588189
 10
11.0691555965
 20
-14.8726532846
 10
11.1945290062
 20
-14.8378073559
 10
11.3240216277
 20
-14.8120772976
 10
11.4576080007
 20
-14.795406845
 10
11.5944602621
 20
-14.7878993986
 10
11.7345986807
 20
-14.7896118773
 10
11.8780029876
 20
-14.8004873622
 10
12.0237845122
 20
-14.820458497
 10
12.1719580033
 20
-14.8495817654
 10
12.3225087122
 20
-14.8878006837
 10
12.474503722
 20
-14.9348784451
 10
12.6279520112
 20
-14.990870065
 10
12.7828446013
 20
-15.0557205279
 10
12.9382216404
 20
-15.1290279799
 10
13.0940861451
 20
-15.2108449471
 10
13.1719286225
 20
-15.254768092
  0
LWPOLYLINE
  5
2D0
100
AcDbEntity
  8
ASSI
100
AcDbPolyline
 62
7
  6
CONTINUOUS
 90
14
 70
0
 10
11.9029753944
 20
1.6801909248
 10
11.8876419038
 20
1.6613766364
 10
11.8176881556
 20
1.5618234588
 10
11.7531740654
 20
1.4553099461
 10
11.6944993976
 20
1.342496114
 10
11.6417004113
 20
1.2233428415
 10
11.5947408475
 20
1.0978892494
 10
11.5539116931
 20
0.9669127166
 10
11.519251014
 20
0.8303789491
 10
11.4907207444
 20
0.6883222408
 10
11.4684976732
 20
0.5416228523
 10
11.4526407302
 20
0.3905742038
 10
11.4430909857
 20
0.2348828752
 10
11.4398484396
 20
0.0745488664
  0
LWPOLYLINE
  5
2D1
100
AcDbEntity
  8
SMUSSO
100
AcDbPolyline
 62
7
  6
CONTINUOUS
 90
53
 70
0
 10
-0.208984036
 20
-13.5916421966
 10
-0.2845918786
 20
-13.6323623031
 10
-0.3890836535
 20
-13.6796778118
 10
-0.4977106032
 20
-13.7190028194
 10
-0.6102475941
 20
-13.7502557795
 10
-0.7264614226
 20
-13.7733718826
 10
-0.8461111976
 20
-13.7883031685
 10
-0.9689488277
 20
-13.7950186495
 10
-1.0947196904
 20
-13.7935043909
 10
-1.2231631259
 20
-13.783763517
 10
-1.3540128674
 20
-13.7658162093
 10
-1.4869976874
 20
-13.7396996631
 10
-1.6218419633
 20
-13.7054680014
 10
-1.7582662031
 20
-13.6631921692
 10
-1.8959876462
 20
-13.612959782
 10
-2.0347208291
 20
-13.554874952
 10
-2.1741781765
 20
-13.489058076
 10
-2.31407064
 20
-13.4156455664
 10
-2.4541082544
 20
-13.3347895864
 10
-2.5940007174
 20
-13.2466577528
 10
-2.7334580638
 20
-13.1514327471
 10
-2.8721912452
 20
-13.0493119424
 10
-3.0099126873
 20
-12.9405070259
 10
-3.146336927
 20
-12.8252435311
 10
-3.2811812033
 20
-12.7037603672
 10
-3.4141660232
 20
-12.5763093402
 10
-3.545015765
 20
-12.4431546084
 10
-3.6734592002
 20
-12.3045721837
 10
-3.799230059
 20
-12.1608493665
 10
-3.92206768
 20
-12.0122840381
 10
-4.0417174426
 20
-11.8591841633
 10
-4.1579312567
 20
-11.7018672183
 10
-4.2704682297
 20
-11.5406593407
 10
-4.3790951598
 20
-11.3758946354
 10
-4.4835869195
 20
-11.2079146176
 10
-4.5837269031
 20
-11.0370675522
 10
-4.6793076247
 20
-10.8637074808
 10
-4.7701311295
 20
-10.6881934698
 10
-4.8560092001
 20
-10.510889239
 10
-4.936763808
 20
-10.3321623412
 10
-5.0122276083
 20
-10.1523831379
 10
-5.0822442556
 20
-9.9719240557
 10
-5.146668537
 20
-9.7911593197
 10
-5.205366759
 20
-9.6104641004
 10
-5.2582173239
 20
-9.4302128342
 10
-5.3051107044
 20
-9.2507791982
 10
-5.3459495923
 20
-9.0725358279
 10
-5.3806494786
 20
-8.8958520444
 10
-5.409138545
 20
-8.7210940913
 10
-5.4313577621
 20
-8.5486250795
 10
-5.447261285
 20
-8.3788026772
 10
-5.4568164316
 20
-8.2119784093
 10
-5.4600036308
 20
-8.0484978886
  0
LWPOLYLINE
  5
2D2
100
AcDbEntity
  8
ASSI
100
AcDbPolyline
 62
7
  6
CONTINUOUS
 90
53
 70
0
 10
-0.208984036
 20
-13.5916421966
 10
-0.2845918786
 20
-13.6323623031
 10
-0.3890836535
 20
-13.6796778118
 10
-0.4977106032
 20
-13.7190028194
 10
-0.6102475941
 20
-13.7502557795
 10
-0.7264614226
 20
-13.7733718826
 10
-0.8461111976
 20
-13.7883031685
 10
-0.9689488277
 20
-13.7950186495
 10
-1.0947196904
 20
-13.7935043909
 10
-1.2231631259
 20
-13.783763517
 10
-1.3540128674
 20
-13.7658162093
 10
-1.4869976874
 20
-13.7396996631
 10
-1.6218419633
 20
-13.7054680014
 10
-1.7582662031
 20
-13.6631921692
 10
-1.8959876462
 20
-13.612959782
 10
-2.0347208291
 20
-13.554874952
 10
-2.1741781765
 20
-13.489058076
 10
-2.31407064
 20
-13.4156455664
 10
-2.4541082544
 20
-13.3347895864
 10
-2.5940007174
 20
-13.2466577528
 10
-2.7334580638
 20
-13.1514327471
 10
-2.8721912452
 20
-13.0493119424
 10
-3.0099126873
 20
-12.9405070259
 10
-3.146336927
 20
-12.8252435311
 10
-3.2811812033
 20
-12.7037603672
 10
-3.4141660232
 20
-12.5763093402
 10
-3.545015765
 20
-12.4431546084
 10
-3.6734592002
 20
-12.3045721837
 10
-3.799230059
 20
-12.1608493665
 10
-3.92206768
 20
-12.0122840381
 10
-4.0417174426
 20
-11.8591841633
 10
-4.1579312567
 20
-11.7018672183
 10
-4.2704682297
 20
-11.5406593407
 10
-4.3790951598
 20
-11.3758946354
 10
-4.4835869195
 20
-11.2079146176
 10
-4.5837269031
 20
-11.0370675522
 10
-4.6793076247
 20
-10.8637074808
 10
-4.7701311295
 20
-10.6881934698
 10
-4.8560092001
 20
-10.510889239
 10
-4.936763808
 20
-10.3321623412
 10
-5.0122276083
 20
-10.1523831379
 10
-5.0822442556
 20
-9.9719240557
 10
-5.146668537
 20
-9.7911593197
 10
-5.205366759
 20
-9.6104641004
 10
-5.2582173239
 20
-9.4302128342
 10
-5.3051107044
 20
-9.2507791982
 10
-5.3459495923
 20
-9.0725358279
 10
-5.3806494786
 20
-8.8958520444
 10
-5.409138545
 20
-8.7210940913
 10
-5.4313577621
 20
-8.5486250795
 10
-5.447261285
 20
-8.3788026772
 10
-5.4568164316
 20
-8.2119784093
 10
-5.4600036308
 20
-8.0484978886
  0
LWPOLYLINE
  5
2D3
100
AcDbEntity
  8
SMUSSO
100
AcDbPolyline
 62
7
  6
CONTINUOUS
 90
53
 70
0
 10
15.7009185407
 20
-6.0401798722
 10
15.6253106981
 20
-6.0808999787
 10
15.5208189232
 20
-6.1282154874
 10
15.4121919735
 20
-6.167540495
 10
15.2996549826
 20
-6.1987934551
 10
15.1834411541
 20
-6.2219095582
 10
15.0637913791
 20
-6.2368408442
 10
14.940953749
 20
-6.2435563251
 10
14.8151828863
 20
-6.2420420665
 10
14.6867394508
 20
-6.2323011926
 10
14.5558897093
 20
-6.2143538849
 10
14.4229048893
 20
-6.1882373387
 10
14.2880606134
 20
-6.154005677
 10
14.1516363736
 20
-6.1117298448
 10
14.0139149305
 20
-6.0614974576
 10
13.8751817476
 20
-6.0034126276
 10
13.7357244002
 20
-5.9375957516
 10
13.5958319367
 20
-5.864183242
 10
13.4557943223
 20
-5.783327262
 10
13.3159018593
 20
-5.6951954285
 10
13.1764445129
 20
-5.5999704227
 10
13.0377113315
 20
-5.497849618
 10
12.8999898894
 20
-5.3890447016
 10
12.7635656497
 20
-5.2737812068
 10
12.6287213734
 20
-5.1522980428
 10
12.4957365535
 20
-5.0248470158
 10
12.3648868117
 20
-4.8916922841
 10
12.2364433765
 20
-4.7531098593
 10
12.1106725177
 20
-4.6093870421
 10
11.9878348967
 20
-4.4608217137
 10
11.8681851341
 20
-4.3077218389
 10
11.75197132
 20
-4.1504048939
 10
11.639434347
 20
-3.9891970163
 10
11.5308074169
 20
-3.824432311
 10
11.4263156572
 20
-3.6564522932
 10
11.3261756736
 20
-3.4856052279
 10
11.230594952
 20
-3.3122451564
 10
11.1397714472
 20
-3.1367311454
 10
11.0538933766
 20
-2.9594269146
 10
10.9731387687
 20
-2.7807000168
 10
10.8976749684
 20
-2.6009208136
 10
10.8276583211
 20
-2.4204617313
 10
10.7632340397
 20
-2.2396969953
 10
10.7045358177
 20
-2.0590017761
 10
10.6516852528
 20
-1.8787505098
 10
10.6047918723
 20
-1.6993168739
 10
10.5639529844
 20
-1.5210735035
 10
10.5292530981
 20
-1.34438972
 10
10.5007640317
 20
-1.169631767
 10
10.4785448146
 20
-0.9971627551
 10
10.4626412917
 20
-0.8273403529
 10
10.453086145
 20
-0.6605160849
 10
10.4498989459
 20
-0.4970355643
  0
LWPOLYLINE
  5
2D4
100
AcDbEntity
  8
ASSI
100
AcDbPolyline
 62
7
  6
CONTINUOUS
 90
53
 70
0
 10
15.7009185407
 20
-6.0401798722
 10
15.6253106981
 20
-6.0808999787
 10
15.5208189232
 20
-6.1282154874
 10
15.4121919735
 20
-6.167540495
 10
15.2996549826
 20
-6.1987934551
 10
15.1834411541
 20
-6.2219095582
 10
15.0637913791
 20
-6.2368408442
 10
14.940953749
 20
-6.2435563251
 10
14.8151828863
 20
-6.2420420665
 10
14.6867394508
 20
-6.2323011926
 10
14.5558897093
 20
-6.2143538849
 10
14.4229048893
 20
-6.1882373387
 10
14.2880606134
 20
-6.154005677
 10
14.1516363736
 20
-6.1117298448
 10
14.0139149305
 20
-6.0614974576
 10
13.8751817476
 20
-6.0034126276
 10
13.7357244002
 20
-5.9375957516
 10
13.5958319367
 20
-5.864183242
 10
13.4557943223
 20
-5.783327262
 10
13.3159018593
 20
-5.6951954285
 10
13.1764445129
 20
-5.5999704227
 10
13.0377113315
 20
-5.497849618
 10
12.8999898894
 20
-5.3890447016
 10
12.7635656497
 20
-5.2737812068
 10
12.6287213734
 20
-5.1522980428
 10
12.4957365535
 20
-5.0248470158
 10
12.3648868117
 20
-4.8916922841
 10
12.2364433765
 20
-4.7531098593
 10
12.1106725177
 20
-4.6093870421
 10
11.9878348967
 20
-4.4608217137
 10
11.8681851341
 20
-4.3077218389
 10
11.75197132
 20
-4.1504048939
 10
11.639434347
 20
-3.9891970163
 10
11.5308074169
 20
-3.824432311
 10
11.4263156572
 20
-3.6564522932
 10
11.3261756736
 20
-3.4856052279
 10
11.230594952
 20
-3.3122451564
 10
11.1397714472
 20
-3.1367311454
 10
11.0538933766
 20
-2.9594269146
 10
10.9731387687
 20
-2.7807000168
 10
10.8976749684
 20
-2.6009208136
 10
10.8276583211
 20
-2.4204617313
 10
10.7632340397
 20
-2.2396969953
 10
10.7045358177
 20
-2.0590017761
 10
10.6516852528
 20
-1.8787505098
 10
10.6047918723
 20
-1.6993168739
 10
10.5639529844
 20
-1.5210735035
 10
10.5292530981
 20
-1.34438972
 10
10.5007640317
 20
-1.169631767
 10
10.4785448146
 20
-0.9971627551
 10
10.4626412917
 20
-0.8273403529
 10
10.453086145
 20
-0.6605160849
 10
10.4498989459
 20
-0.4970355643
  0
LINE
  5
2D5
100
AcDbEntity
  8
SMUSSO
100
AcDbLine
 62
7
  6
CONTINUOUS
 10
-2.8721906191
 20
10.701615717
 11
-2.7334574361
 21
10.643530887
  0
LINE
  5
2D6
100
AcDbEntity
  8
ASSI
100
AcDbLine
 62
7
  6
CONTINUOUS
 10
-2.8721906191
 20
10.701615717
 11
-2.7334574361
 21
10.643530887
  0
LINE
  5
2D7
100
AcDbEntity
  8
SMUSSO
100
AcDbLine
 62
7
  6
CONTINUOUS
 10
-18.7820931958
 20
19.8877940669
 11
-18.6433600128
 21
19.8297092368
  0
LINE
  5
2D8
100
AcDbEntity
  8
ASSI
100
AcDbLine
 62
7
  6
CONTINUOUS
 10
-18.7820931958
 20
19.8877940669
 11
-18.6433600128
 21
19.8297092368
  0
LWPOLYLINE
  5
2D9
100
AcDbEntity
  8
SMUSSO
100
AcDbPolyline
 62
7
  6
CONTINUOUS
 90
3
 70
0
 10
13.1764451406
 20
1.4573525371
 10
13.315902488
 20
1.3915356611
 10
13.3516047989
 20
1.3727998681
  0
LWPOLYLINE
  5
2DA
100
AcDbEntity
  8
ASSI
100
AcDbPolyline
 62
7
  6
CONTINUOUS
 90
3
 70
0
 10
13.1764451406
 20
1.4573525371
 10
13.315902488
 20
1.3915356611
 10
13.3516047989
 20
1.3727998681
  0
LWPOLYLINE
  5
2DB
100
AcDbEntity
  8
SMUSSO
100
AcDbPolyline
 62
7
  6
CONTINUOUS
 90
3
 70
0
 10
-2.7334574361
 20
10.643530887
 10
-2.5940000887
 20
10.577714011
 10
-2.5582977777
 20
10.558978218
  0
LWPOLYLINE
  5
2DC
100
AcDbEntity
  8
ASSI
100
AcDbPolyline
 62
7
  6
CONTINUOUS
 90
3
 70
0
 10
-2.7334574361
 20
10.643530887
 10
-2.5940000887
 20
10.577714011
 10
-2.5582977777
 20
10.558978218
  0
LWPOLYLINE
  5
2DD
100
AcDbEntity
  8
SMUSSO
100
AcDbPolyline
 62
7
  6
CONTINUOUS
 90
3
 70
0
 10
-18.6433600128
 20
19.8297092368
 10
-18.5039026654
 20
19.7638923609
 10
-18.4682003544
 20
19.7451565678
  0
LWPOLYLINE
  5
2DE
100
AcDbEntity
  8
ASSI
100
AcDbPolyline
 62
7
  6
CONTINUOUS
 90
3
 70
0
 10
-18.6433600128
 20
19.8297092368
 10
-18.5039026654
 20
19.7638923609
 10
-18.4682003544
 20
19.7451565678
  0
LWPOLYLINE
  5
2DF
100
AcDbEntity
  8
SMUSSO
100
AcDbPolyline
 62
7
  6
CONTINUOUS
 90
3
 70
0
 10
-34.5532625895
 20
29.0158875867
 10
-34.4138052421
 20
28.9500707108
 10
-34.3781029311
 20
28.9313349177
  0
LWPOLYLINE
  5
2E0
100
AcDbEntity
  8
ASSI
100
AcDbPolyline
 62
7
  6
CONTINUOUS
 90
3
 70
0
 10
-34.5532625895
 20
29.0158875867
 10
-34.4138052421
 20
28.9500707108
 10
-34.3781029311
 20
28.9313349177
  0
LWPOLYLINE
  5
2E1
100
AcDbEntity
  8
SMUSSO
100
AcDbPolyline
 62
7
  6
CONTINUOUS
 90
36
 70
0
 10
-34.5577791076
 20
29.0414076318
 10
-34.4792726313
 20
28.9950568204
 10
-34.3234081297
 20
28.8968853067
 10
-34.1680310977
 20
28.7907671939
 10
-34.0131385178
 20
28.6767515238
 10
-33.8596902384
 20
28.5555448525
 10
-33.7076952362
 20
28.4271025315
 10
-33.5571445345
 20
28.2914692095
 10
-33.4089710512
 20
28.1494853885
 10
-33.2631895338
 20
28.0011116145
 10
-33.1197852347
 20
27.8463873416
 10
-32.9796468296
 20
27.686271434
 10
-32.8427945884
 20
27.5207303793
 10
-32.709208241
 20
27.34979769
 10
-32.5797156527
 20
27.1745327683
 10
-32.4543422896
 20
26.9949087606
 10
-32.3330626855
 20
26.8109525206
 10
-32.2166283071
 20
26.6238040107
 10
-32.1050692853
 20
26.4334435145
 10
-31.9983554892
 20
26.2398907486
 10
-31.897147993
 20
26.0443448246
 10
-31.8014809372
 20
25.846793316
 10
-31.7113201812
 20
25.6472486495
 10
-31.6272243777
 20
25.4469472163
 10
-31.5492311273
 20
25.2458841028
 10
-31.4773028294
 20
25.0440642226
 10
-31.4118853337
 20
24.8427387084
 10
-31.3530191329
 20
24.6419105609
 10
-31.3006637344
 20
24.4415767795
 10
-31.2551435103
 20
24.2429794942
 10
-31.216501021
 20
24.046129435
 10
-31.1846937061
 20
23.851015872
 10
-31.1599182563
 20
23.6588487459
 10
-31.1422402351
 20
23.4700313703
 10
-31.1315940789
 20
23.2841604317
 10
-31.1279797878
 20
23.1012359301
  0
LWPOLYLINE
  5
2E2
100
AcDbEntity
  8
ASSI
100
AcDbPolyline
 62
7
  6
CONTINUOUS
 90
36
 70
0
 10
-34.5577791076
 20
29.0414076318
 10
-34.4792726313
 20
28.9950568204
 10
-34.3234081297
 20
28.8968853067
 10
-34.1680310977
 20
28.7907671939
 10
-34.0131385178
 20
28.6767515238
 10
-33.8596902384
 20
28.5555448525
 10
-33.7076952362
 20
28.4271025315
 10
-33.5571445345
 20
28.2914692095
 10
-33.4089710512
 20
28.1494853885
 10
-33.2631895338
 20
28.0011116145
 10
-33.1197852347
 20
27.8463873416
 10
-32.9796468296
 20
27.686271434
 10
-32.8427945884
 20
27.5207303793
 10
-32.709208241
 20
27.34979769
 10
-32.5797156527
 20
27.1745327683
 10
-32.4543422896
 20
26.9949087606
 10
-32.3330626855
 20
26.8109525206
 10
-32.2166283071
 20
26.6238040107
 10
-32.1050692853
 20
26.4334435145
 10
-31.9983554892
 20
26.2398907486
 10
-31.897147993
 20
26.0443448246
 10
-31.8014809372
 20
25.846793316
 10
-31.7113201812
 20
25.6472486495
 10
-31.6272243777
 20
25.4469472163
 10
-31.5492311273
 20
25.2458841028
 10
-31.4773028294
 20
25.0440642226
 10
-31.4118853337
 20
24.8427387084
 10
-31.3530191329
 20
24.6419105609
 10
-31.3006637344
 20
24.4415767795
 10
-31.2551435103
 20
24.2429794942
 10
-31.216501021
 20
24.046129435
 10
-31.1846937061
 20
23.851015872
 10
-31.1599182563
 20
23.6588487459
 10
-31.1422402351
 20
23.4700313703
 10
-31.1315940789
 20
23.2841604317
 10
-31.1279797878
 20
23.1012359301
  0
LWPOLYLINE
  5
2E3
100
AcDbEntity
  8
SMUSSO
100
AcDbPolyline
 62
7
  6
CONTINUOUS
 90
36
 70
0
 10
-18.6478765309
 20
19.855229282
 10
-18.5693700546
 20
19.8088784706
 10
-18.413505553
 20
19.7107069568
 10
-18.258128521
 20
19.6045888441
 10
-18.1032359411
 20
19.4905731739
 10
-17.9497876617
 20
19.3693665026
 10
-17.7977926595
 20
19.2409241817
 10
-17.6472419578
 20
19.1052908596
 10
-17.4990684745
 20
18.9633070386
 10
-17.3532869571
 20
18.8149332646
 10
-17.209882658
 20
18.6602089917
 10
-17.0697442529
 20
18.5000930842
 10
-16.9328920117
 20
18.3345520294
 10
-16.7993056643
 20
18.1636193401
 10
-16.669813076
 20
17.9883544184
 10
-16.5444397129
 20
17.8087304108
 10
-16.4231601088
 20
17.6247741707
 10
-16.3067257304
 20
17.4376256608
 10
-16.1951667086
 20
17.2472651647
 10
-16.0884529125
 20
17.0537123987
 10
-15.9872454163
 20
16.8581664747
 10
-15.8915783605
 20
16.6606149662
 10
-15.8014176046
 20
16.4610702996
 10
-15.717321801
 20
16.2607688664
 10
-15.6393285506
 20
16.0597057529
 10
-15.5674002527
 20
15.8578858727
 10
-15.501982757
 20
15.6565603585
 10
-15.4431165562
 20
15.4557322111
 10
-15.3907611577
 20
15.2553984296
 10
-15.3452409336
 20
15.0568011444
 10
-15.3065984443
 20
14.8599510851
 10
-15.2747911294
 20
14.6648375221
 10
-15.2500156796
 20
14.472670396
 10
-15.2323376584
 20
14.2838530205
 10
-15.2216915022
 20
14.0979820819
 10
-15.2180772111
 20
13.9150575802
  0
LWPOLYLINE
  5
2E4
100
AcDbEntity
  8
ASSI
100
AcDbPolyline
 62
7
  6
CONTINUOUS
 90
36
 70
0
 10
-18.6478765309
 20
19.855229282
 10
-18.5693700546
 20
19.8088784706
 10
-18.413505553
 20
19.7107069568
 10
-18.258128521
 20
19.6045888441
 10
-18.1032359411
 20
19.4905731739
 10
-17.9497876617
 20
19.3693665026
 10
-17.7977926595
 20
19.2409241817
 10
-17.6472419578
 20
19.1052908596
 10
-17.4990684745
 20
18.9633070386
 10
-17.3532869571
 20
18.8149332646
 10
-17.209882658
 20
18.6602089917
 10
-17.0697442529
 20
18.5000930842
 10
-16.9328920117
 20
18.3345520294
 10
-16.7993056643
 20
18.1636193401
 10
-16.669813076
 20
17.9883544184
 10
-16.5444397129
 20
17.8087304108
 10
-16.4231601088
 20
17.6247741707
 10
-16.3067257304
 20
17.4376256608
 10
-16.1951667086
 20
17.2472651647
 10
-16.0884529125
 20
17.0537123987
 10
-15.9872454163
 20
16.8581664747
 10
-15.8915783605
 20
16.6606149662
 10
-15.8014176046
 20
16.4610702996
 10
-15.717321801
 20
16.2607688664
 10
-15.6393285506
 20
16.0597057529
 10
-15.5674002527
 20
15.8578858727
 10
-15.501982757
 20
15.6565603585
 10
-15.4431165562
 20
15.4557322111
 10
-15.3907611577
 20
15.2553984296
 10
-15.3452409336
 20
15.0568011444
 10
-15.3065984443
 20
14.8599510851
 10
-15.2747911294
 20
14.6648375221
 10
-15.2500156796
 20
14.472670396
 10
-15.2323376584
 20
14.2838530205
 10
-15.2216915022
 20
14.0979820819
 10
-15.2180772111
 20
13.9150575802
  0
LWPOLYLINE
  5
2E5
100
AcDbEntity
  8
SMUSSO
100
AcDbPolyline
 62
7
  6
CONTINUOUS
 90
36
 70
0
 10
-2.7379739542
 20
10.6690509321
 10
-2.6594674779
 20
10.6227001207
 10
-2.5036029763
 20
10.5245286069
 10
-2.3482259443
 20
10.4184104942
 10
-2.1933333644
 20
10.304394824
 10
-2.039885085
 20
10.1831881528
 10
-1.8878900828
 20
10.0547458318
 10
-1.7373393811
 20
9.9191125097
 10
-1.5891658978
 20
9.7771286887
 10
-1.4433843804
 20
9.6287549147
 10
-1.2999800814
 20
9.4740306418
 10
-1.1598416762
 20
9.3139147343
 10
-1.022989435
 20
9.1483736796
 10
-0.8894030876
 20
8.9774409902
 10
-0.7599104993
 20
8.8021760685
 10
-0.6345371362
 20
8.6225520609
 10
-0.5132575321
 20
8.4385958208
 10
-0.3968231537
 20
8.251447311
 10
-0.2852641319
 20
8.0610868148
 10
-0.1785503358
 20
7.8675340488
 10
-0.0773428396
 20
7.6719881248
 10
0.0183242162
 20
7.4744366163
 10
0.1084849721
 20
7.2748919497
 10
0.1925807757
 20
7.0745905166
 10
0.2705740261
 20
6.873527403
 10
0.342502324
 20
6.6717075228
 10
0.4079198197
 20
6.4703820086
 10
0.4667860205
 20
6.2695538612
 10
0.519141419
 20
6.0692200797
 10
0.5646616431
 20
5.8706227945
 10
0.6033041324
 20
5.6737727353
 10
0.6351114473
 20
5.4786591722
 10
0.6598868971
 20
5.2864920461
 10
0.6775649183
 20
5.0976746706
 10
0.6882110745
 20
4.911803732
 10
0.6918253656
 20
4.7288792303
  0
LWPOLYLINE
  5
2E6
100
AcDbEntity
  8
ASSI
100
AcDbPolyline
 62
7
  6
CONTINUOUS
 90
36
 70
0
 10
-2.7379739542
 20
10.6690509321
 10
-2.6594674779
 20
10.6227001207
 10
-2.5036029763
 20
10.5245286069
 10
-2.3482259443
 20
10.4184104942
 10
-2.1933333644
 20
10.304394824
 10
-2.039885085
 20
10.1831881528
 10
-1.8878900828
 20
10.0547458318
 10
-1.7373393811
 20
9.9191125097
 10
-1.5891658978
 20
9.7771286887
 10
-1.4433843804
 20
9.6287549147
 10
-1.2999800814
 20
9.4740306418
 10
-1.1598416762
 20
9.3139147343
 10
-1.022989435
 20
9.1483736796
 10
-0.8894030876
 20
8.9774409902
 10
-0.7599104993
 20
8.8021760685
 10
-0.6345371362
 20
8.6225520609
 10
-0.5132575321
 20
8.4385958208
 10
-0.3968231537
 20
8.251447311
 10
-0.2852641319
 20
8.0610868148
 10
-0.1785503358
 20
7.8675340488
 10
-0.0773428396
 20
7.6719881248
 10
0.0183242162
 20
7.4744366163
 10
0.1084849721
 20
7.2748919497
 10
0.1925807757
 20
7.0745905166
 10
0.2705740261
 20
6.873527403
 10
0.342502324
 20
6.6717075228
 10
0.4079198197
 20
6.4703820086
 10
0.4667860205
 20
6.2695538612
 10
0.519141419
 20
6.0692200797
 10
0.5646616431
 20
5.8706227945
 10
0.6033041324
 20
5.6737727353
 10
0.6351114473
 20
5.4786591722
 10
0.6598868971
 20
5.2864920461
 10
0.6775649183
 20
5.0976746706
 10
0.6882110745
 20
4.911803732
 10
0.6918253656
 20
4.7288792303
  0
LWPOLYLINE
  5
2E7
100
AcDbEntity
  8
SMUSSO
100
AcDbPolyline
 62
7
  6
CONTINUOUS
 90
36
 70
0
 10
13.1719286225
 20
1.4828725822
 10
13.2504350988
 20
1.4365217708
 10
13.4062996004
 20
1.3383502571
 10
13.5616766324
 20
1.2322321443
 10
13.7165692123
 20
1.1182164742
 10
13.8700174917
 20
0.9970098029
 10
14.0220124939
 20
0.8685674819
 10
14.1725631956
 20
0.7329341599
 10
14.3207366789
 20
0.5909503389
 10
14.4665181963
 20
0.4425765649
 10
14.6099224953
 20
0.2878522919
 10
14.7500609005
 20
0.1277363844
 10
14.8869131417
 20
-0.0378046703
 10
15.0204994891
 20
-0.2087373596
 10
15.1499920774
 20
-0.3840022814
 10
15.2753654405
 20
-0.563626289
 10
15.3966450446
 20
-0.747582529
 10
15.513079423
 20
-0.9347310389
 10
15.6246384448
 20
-1.1250915351
 10
15.7313522409
 20
-1.3186443011
 10
15.8325597371
 20
-1.5141902251
 10
15.9282267929
 20
-1.7117417336
 10
16.0183875488
 20
-1.9112864001
 10
16.1024833524
 20
-2.1115878333
 10
16.1804766028
 20
-2.3126509469
 10
16.2524049007
 20
-2.514470827
 10
16.3178223964
 20
-2.7157963413
 10
16.3766885972
 20
-2.9166244887
 10
16.4290439957
 20
-3.1169582701
 10
16.4745642198
 20
-3.3155555554
 10
16.5132067091
 20
-3.5124056146
 10
16.545014024
 20
-3.7075191776
 10
16.5697894738
 20
-3.8996863037
 10
16.587467495
 20
-4.0885036793
 10
16.5981136512
 20
-4.2743746179
 10
16.6017279422
 20
-4.4572991195
  0
LWPOLYLINE
  5
2E8
100
AcDbEntity
  8
ASSI
100
AcDbPolyline
 62
7
  6
CONTINUOUS
 90
36
 70
0
 10
13.1719286225
 20
1.4828725822
 10
13.2504350988
 20
1.4365217708
 10
13.4062996004
 20
1.3383502571
 10
13.5616766324
 20
1.2322321443
 10
13.7165692123
 20
1.1182164742
 10
13.8700174917
 20
0.9970098029
 10
14.0220124939
 20
0.8685674819
 10
14.1725631956
 20
0.7329341599
 10
14.3207366789
 20
0.5909503389
 10
14.4665181963
 20
0.4425765649
 10
14.6099224953
 20
0.2878522919
 10
14.7500609005
 20
0.1277363844
 10
14.8869131417
 20
-0.0378046703
 10
15.0204994891
 20
-0.2087373596
 10
15.1499920774
 20
-0.3840022814
 10
15.2753654405
 20
-0.563626289
 10
15.3966450446
 20
-0.747582529
 10
15.513079423
 20
-0.9347310389
 10
15.6246384448
 20
-1.1250915351
 10
15.7313522409
 20
-1.3186443011
 10
15.8325597371
 20
-1.5141902251
 10
15.9282267929
 20
-1.7117417336
 10
16.0183875488
 20
-1.9112864001
 10
16.1024833524
 20
-2.1115878333
 10
16.1804766028
 20
-2.3126509469
 10
16.2524049007
 20
-2.514470827
 10
16.3178223964
 20
-2.7157963413
 10
16.3766885972
 20
-2.9166244887
 10
16.4290439957
 20
-3.1169582701
 10
16.4745642198
 20
-3.3155555554
 10
16.5132067091
 20
-3.5124056146
 10
16.545014024
 20
-3.7075191776
 10
16.5697894738
 20
-3.8996863037
 10
16.587467495
 20
-4.0885036793
 10
16.5981136512
 20
-4.2743746179
 10
16.6017279422
 20
-4.4572991195
  0
LWPOLYLINE
  5
2E9
100
AcDbEntity
  8
SMUSSO
100
AcDbPolyline
 62
7
  6
CONTINUOUS
 90
36
 70
0
 10
29.0818311992
 20
-7.7033057677
 10
29.1603376755
 20
-7.7496565791
 10
29.3162021771
 20
-7.8478280928
 10
29.4715792091
 20
-7.9539462056
 10
29.626471789
 20
-8.0679618757
 10
29.7799200684
 20
-8.189168547
 10
29.9319150706
 20
-8.317610868
 10
30.0824657723
 20
-8.45324419
 10
30.2306392556
 20
-8.595228011
 10
30.376420773
 20
-8.743601785
 10
30.519825072
 20
-8.8983260579
 10
30.6599634772
 20
-9.0584419655
 10
30.7968157184
 20
-9.2239830202
 10
30.9304020658
 20
-9.3949157095
 10
31.0598946541
 20
-9.5701806312
 10
31.1852680172
 20
-9.7498046389
 10
31.3065476213
 20
-9.9337608789
 10
31.4229819997
 20
-10.1209093888
 10
31.5345410215
 20
-10.3112698849
 10
31.6412548176
 20
-10.5048226509
 10
31.7424623138
 20
-10.7003685749
 10
31.8381293696
 20
-10.8979200835
 10
31.9282901255
 20
-11.09746475
 10
32.0123859291
 20
-11.2977661832
 10
32.0903791794
 20
-11.4988292967
 10
32.1623074774
 20
-11.7006491769
 10
32.2277249731
 20
-11.9019746911
 10
32.2865911739
 20
-12.1028028386
 10
32.3389465724
 20
-12.30313662
 10
32.3844667965
 20
-12.5017339053
 10
32.4231092858
 20
-12.6985839645
 10
32.4549166007
 20
-12.8936975275
 10
32.4796920505
 20
-13.0858646536
 10
32.4973700717
 20
-13.2746820292
 10
32.5080162279
 20
-13.4605529678
 10
32.5116305189
 20
-13.6434774694
  0
LWPOLYLINE
  5
2EA
100
AcDbEntity
  8
ASSI
100
AcDbPolyline
 62
7
  6
CONTINUOUS
 90
36
 70
0
 10
29.0818311992
 20
-7.7033057677
 10
29.1603376755
 20
-7.7496565791
 10
29.3162021771
 20
-7.8478280928
 10
29.4715792091
 20
-7.9539462056
 10
29.626471789
 20
-8.0679618757
 10
29.7799200684
 20
-8.189168547
 10
29.9319150706
 20
-8.317610868
 10
30.0824657723
 20
-8.45324419
 10
30.2306392556
 20
-8.595228011
 10
30.376420773
 20
-8.743601785
 10
30.519825072
 20
-8.8983260579
 10
30.6599634772
 20
-9.0584419655
 10
30.7968157184
 20
-9.2239830202
 10
30.9304020658
 20
-9.3949157095
 10
31.0598946541
 20
-9.5701806312
 10
31.1852680172
 20
-9.7498046389
 10
31.3065476213
 20
-9.9337608789
 10
31.4229819997
 20
-10.1209093888
 10
31.5345410215
 20
-10.3112698849
 10
31.6412548176
 20
-10.5048226509
 10
31.7424623138
 20
-10.7003685749
 10
31.8381293696
 20
-10.8979200835
 10
31.9282901255
 20
-11.09746475
 10
32.0123859291
 20
-11.2977661832
 10
32.0903791794
 20
-11.4988292967
 10
32.1623074774
 20
-11.7006491769
 10
32.2277249731
 20
-11.9019746911
 10
32.2865911739
 20
-12.1028028386
 10
32.3389465724
 20
-12.30313662
 10
32.3844667965
 20
-12.5017339053
 10
32.4231092858
 20
-12.6985839645
 10
32.4549166007
 20
-12.8936975275
 10
32.4796920505
 20
-13.0858646536
 10
32.4973700717
 20
-13.2746820292
 10
32.5080162279
 20
-13.4605529678
 10
32.5116305189
 20
-13.6434774694
  0
LINE
  5
2EB
100
AcDbEntity
  8
ASSI
100
AcDbLine
 62
7
  6
CONTINUOUS
 10
53.4451293308
 20
-69.8654584819
 11
53.4454917611
 21
-69.8660999196
  0
LWPOLYLINE
  5
2EC
100
AcDbEntity
  8
SMUSSO
100
AcDbPolyline
 62
7
  6
CONTINUOUS
 90
70
 70
0
 10
16.6017279422
 20
-4.4572991195
 10
16.5981136346
 20
-4.6360502281
 10
16.5874674447
 20
-4.8096275165
 10
16.5697893726
 20
-4.9780309849
 10
16.545013849
 20
-5.1415882407
 10
16.5132064433
 20
-5.2999716764
 10
16.4745638629
 20
-5.4521984694
 10
16.429043548
 20
-5.5982301915
 10
16.3766880585
 20
-5.7381052708
 10
16.3178217812
 20
-5.87095617
 10
16.2524042291
 20
-5.9967391254
 10
16.1804758891
 20
-6.1154979007
 10
16.1024826094
 20
-6.2264962492
 10
16.0183867949
 20
-6.3296858405
 10
15.9282260406
 20
-6.425115005
 10
15.8325589799
 20
-6.512192488
 10
15.7313514665
 20
-6.5908664479
 10
15.6246376466
 20
-6.6611887264
 10
15.5130785928
 20
-6.722723594
 10
15.3966441686
 20
-6.7754165392
 10
15.2753645105
 20
-6.8193220735
 10
15.1499911008
 20
-6.8541680022
 10
15.0204984793
 20
-6.8798980604
 10
14.8869121062
 20
-6.896568513
 10
14.7500598449
 20
-6.9040759595
 10
14.6099214263
 20
-6.9023634808
 10
14.4665171194
 20
-6.8914879959
 10
14.3207355948
 20
-6.871516861
 10
14.1725621037
 20
-6.8423935926
 10
14.0220113948
 20
-6.8041746743
 10
13.870016385
 20
-6.757096913
 10
13.7165680958
 20
-6.7011052931
 10
13.5616755057
 20
-6.6362548302
 10
13.4062984666
 20
-6.5629473781
 10
13.2504339619
 20
-6.4811304109
 10
13.0940850082
 20
-6.3908564546
 10
12.9382205066
 20
-6.2926849409
 10
12.7828434746
 20
-6.1865668281
 10
12.6279508947
 20
-6.072551158
 10
12.4745026153
 20
-5.9513444867
 10
12.3225076131
 20
-5.8229021657
 10
12.1719569114
 20
-5.6872688437
 10
12.0237834281
 20
-5.5452850227
 10
11.8780019107
 20
-5.3969112487
 10
11.7345976116
 20
-5.2421869757
 10
11.5944592065
 20
-5.0820710682
 10
11.4576069653
 20
-4.9165300135
 10
11.3240206179
 20
-4.7455973242
 10
11.1945280296
 20
-4.5703324024
 10
11.0691546665
 20
-4.3907083948
 10
10.9478750624
 20
-4.2067521548
 10
10.831440684
 20
-4.0196036449
 10
10.7198816622
 20
-3.8292431487
 10
10.6131678661
 20
-3.6356903827
 10
10.5119603699
 20
-3.4401444587
 10
10.4162933141
 20
-3.2425929502
 10
10.3261325581
 20
-3.0430482837
 10
10.2420367546
 20
-2.8427468505
 10
10.1640435042
 20
-2.6416837369
 10
10.0921152063
 20
-2.4398638568
 10
10.0266977106
 20
-2.2385383425
 10
9.9678315098
 20
-2.0377101951
 10
9.9154761113
 20
-1.8373764137
 10
9.8699558872
 20
-1.6387791284
 10
9.8313133979
 20
-1.4419290692
 10
9.799506083
 20
-1.2468155062
 10
9.7747306332
 20
-1.0546483801
 10
9.757052612
 20
-0.8658310045
 10
9.7464064558
 20
-0.6799600659
 10
9.7427921647
 20
-0.4970355643
  0
LWPOLYLINE
  5
2ED
100
AcDbEntity
  8
ASSI
100
AcDbPolyline
 62
7
  6
CONTINUOUS
 90
70
 70
0
 10
16.6017279422
 20
-4.4572991195
 10
16.5981136346
 20
-4.6360502281
 10
16.5874674447
 20
-4.8096275165
 10
16.5697893726
 20
-4.9780309849
 10
16.545013849
 20
-5.1415882407
 10
16.5132064433
 20
-5.2999716764
 10
16.4745638629
 20
-5.4521984694
 10
16.429043548
 20
-5.5982301915
 10
16.3766880585
 20
-5.7381052708
 10
16.3178217812
 20
-5.87095617
 10
16.2524042291
 20
-5.9967391254
 10
16.1804758891
 20
-6.1154979007
 10
16.1024826094
 20
-6.2264962492
 10
16.0183867949
 20
-6.3296858405
 10
15.9282260406
 20
-6.425115005
 10
15.8325589799
 20
-6.512192488
 10
15.7313514665
 20
-6.5908664479
 10
15.6246376466
 20
-6.6611887264
 10
15.5130785928
 20
-6.722723594
 10
15.3966441686
 20
-6.7754165392
 10
15.2753645105
 20
-6.8193220735
 10
15.1499911008
 20
-6.8541680022
 10
15.0204984793
 20
-6.8798980604
 10
14.8869121062
 20
-6.896568513
 10
14.7500598449
 20
-6.9040759595
 10
14.6099214263
 20
-6.9023634808
 10
14.4665171194
 20
-6.8914879959
 10
14.3207355948
 20
-6.871516861
 10
14.1725621037
 20
-6.8423935926
 10
14.0220113948
 20
-6.8041746743
 10
13.870016385
 20
-6.757096913
 10
13.7165680958
 20
-6.7011052931
 10
13.5616755057
 20
-6.6362548302
 10
13.4062984666
 20
-6.5629473781
 10
13.2504339619
 20
-6.4811304109
 10
13.0940850082
 20
-6.3908564546
 10
12.9382205066
 20
-6.2926849409
 10
12.7828434746
 20
-6.1865668281
 10
12.6279508947
 20
-6.072551158
 10
12.4745026153
 20
-5.9513444867
 10
12.3225076131
 20
-5.8229021657
 10
12.1719569114
 20
-5.6872688437
 10
12.0237834281
 20
-5.5452850227
 10
11.8780019107
 20
-5.3969112487
 10
11.7345976116
 20
-5.2421869757
 10
11.5944592065
 20
-5.0820710682
 10
11.4576069653
 20
-4.9165300135
 10
11.3240206179
 20
-4.7455973242
 10
11.1945280296
 20
-4.5703324024
 10
11.0691546665
 20
-4.3907083948
 10
10.9478750624
 20
-4.2067521548
 10
10.831440684
 20
-4.0196036449
 10
10.7198816622
 20
-3.8292431487
 10
10.6131678661
 20
-3.6356903827
 10
10.5119603699
 20
-3.4401444587
 10
10.4162933141
 20
-3.2425929502
 10
10.3261325581
 20
-3.0430482837
 10
10.2420367546
 20
-2.8427468505
 10
10.1640435042
 20
-2.6416837369
 10
10.0921152063
 20
-2.4398638568
 10
10.0266977106
 20
-2.2385383425
 10
9.9678315098
 20
-2.0377101951
 10
9.9154761113
 20
-1.8373764137
 10
9.8699558872
 20
-1.6387791284
 10
9.8313133979
 20
-1.4419290692
 10
9.799506083
 20
-1.2468155062
 10
9.7747306332
 20
-1.0546483801
 10
9.757052612
 20
-0.8658310045
 10
9.7464064558
 20
-0.6799600659
 10
9.7427921647
 20
-0.4970355643
  0
LWPOLYLINE
  5
2EE
100
AcDbEntity
  8
SMUSSO
100
AcDbPolyline
 62
7
  6
CONTINUOUS
 90
70
 70
0
 10
16.6017279422
 20
-21.1949397938
 10
16.5981136346
 20
-21.3736909023
 10
16.5874674447
 20
-21.5472681908
 10
16.5697893726
 20
-21.7156716591
 10
16.545013849
 20
-21.8792289149
 10
16.5132064433
 20
-22.0376123506
 10
16.4745638629
 20
-22.1898391437
 10
16.429043548
 20
-22.3358708657
 10
16.3766880585
 20
-22.4757459451
 10
16.3178217812
 20
-22.6085968443
 10
16.2524042291
 20
-22.7343797997
 10
16.1804758891
 20
-22.853138575
 10
16.1024826094
 20
-22.9641369235
 10
16.0183867949
 20
-23.0673265147
 10
15.9282260406
 20
-23.1627556792
 10
15.8325589799
 20
-23.2498331623
 10
15.7313514665
 20
-23.3285071222
 10
15.6246376466
 20
-23.3988294006
 10
15.5130785928
 20
-23.4603642682
 10
15.3966441686
 20
-23.5130572134
 10
15.2753645105
 20
-23.5569627477
 10
15.1499911008
 20
-23.5918086764
 10
15.0204984793
 20
-23.6175387347
 10
14.8869121062
 20
-23.6342091873
 10
14.7500598449
 20
-23.6417166337
 10
14.6099214263
 20
-23.640004155
 10
14.4665171194
 20
-23.6291286701
 10
14.3207355948
 20
-23.6091575353
 10
14.1725621037
 20
-23.5800342669
 10
14.0220113948
 20
-23.5418153486
 10
13.870016385
 20
-23.4947375872
 10
13.7165680958
 20
-23.4387459673
 10
13.5616755057
 20
-23.3738955044
 10
13.4062984666
 20
-23.3005880524
 10
13.2504339619
 20
-23.2187710852
 10
13.0940850082
 20
-23.1284971289
 10
12.9382205066
 20
-23.0303256151
 10
12.7828434746
 20
-22.9242075024
 10
12.6279508947
 20
-22.8101918322
 10
12.4745026153
 20
-22.6889851609
 10
12.3225076131
 20
-22.56054284
 10
12.1719569114
 20
-22.4249095179
 10
12.0237834281
 20
-22.2829256969
 10
11.8780019107
 20
-22.1345519229
 10
11.7345976116
 20
-21.97982765
 10
11.5944592065
 20
-21.8197117425
 10
11.4576069653
 20
-21.6541706877
 10
11.3240206179
 20
-21.4832379984
 10
11.1945280296
 20
-21.3079730767
 10
11.0691546665
 20
-21.1283490691
 10
10.9478750624
 20
-20.944392829
 10
10.831440684
 20
-20.7572443191
 10
10.7198816622
 20
-20.566883823
 10
10.6131678661
 20
-20.373331057
 10
10.5119603699
 20
-20.177785133
 10
10.4162933141
 20
-19.9802336245
 10
10.3261325581
 20
-19.7806889579
 10
10.2420367546
 20
-19.5803875247
 10
10.1640435042
 20
-19.3793244112
 10
10.0921152063
 20
-19.177504531
 10
10.0266977106
 20
-18.9761790168
 10
9.9678315098
 20
-18.7753508694
 10
9.9154761113
 20
-18.5750170879
 10
9.8699558872
 20
-18.3764198027
 10
9.8313133979
 20
-18.1795697434
 10
9.799506083
 20
-17.9844561804
 10
9.7747306332
 20
-17.7922890543
 10
9.757052612
 20
-17.6034716788
 10
9.7464064558
 20
-17.4176007402
 10
9.7427921647
 20
-17.2346762385
  0
LWPOLYLINE
  5
2EF
100
AcDbEntity
  8
ASSI
100
AcDbPolyline
 62
7
  6
CONTINUOUS
 90
70
 70
0
 10
16.6017279422
 20
-21.1949397938
 10
16.5981136346
 20
-21.3736909023
 10
16.5874674447
 20
-21.5472681908
 10
16.5697893726
 20
-21.7156716591
 10
16.545013849
 20
-21.8792289149
 10
16.5132064433
 20
-22.0376123506
 10
16.4745638629
 20
-22.1898391437
 10
16.429043548
 20
-22.3358708657
 10
16.3766880585
 20
-22.4757459451
 10
16.3178217812
 20
-22.6085968443
 10
16.2524042291
 20
-22.7343797997
 10
16.1804758891
 20
-22.853138575
 10
16.1024826094
 20
-22.9641369235
 10
16.0183867949
 20
-23.0673265147
 10
15.9282260406
 20
-23.1627556792
 10
15.8325589799
 20
-23.2498331623
 10
15.7313514665
 20
-23.3285071222
 10
15.6246376466
 20
-23.3988294006
 10
15.5130785928
 20
-23.4603642682
 10
15.3966441686
 20
-23.5130572134
 10
15.2753645105
 20
-23.5569627477
 10
15.1499911008
 20
-23.5918086764
 10
15.0204984793
 20
-23.6175387347
 10
14.8869121062
 20
-23.6342091873
 10
14.7500598449
 20
-23.6417166337
 10
14.6099214263
 20
-23.640004155
 10
14.4665171194
 20
-23.6291286701
 10
14.3207355948
 20
-23.6091575353
 10
14.1725621037
 20
-23.5800342669
 10
14.0220113948
 20
-23.5418153486
 10
13.870016385
 20
-23.4947375872
 10
13.7165680958
 20
-23.4387459673
 10
13.5616755057
 20
-23.3738955044
 10
13.4062984666
 20
-23.3005880524
 10
13.2504339619
 20
-23.2187710852
 10
13.0940850082
 20
-23.1284971289
 10
12.9382205066
 20
-23.0303256151
 10
12.7828434746
 20
-22.9242075024
 10
12.6279508947
 20
-22.8101918322
 10
12.4745026153
 20
-22.6889851609
 10
12.3225076131
 20
-22.56054284
 10
12.1719569114
 20
-22.4249095179
 10
12.0237834281
 20
-22.2829256969
 10
11.8780019107
 20
-22.1345519229
 10
11.7345976116
 20
-21.97982765
 10
11.5944592065
 20
-21.8197117425
 10
11.4576069653
 20
-21.6541706877
 10
11.3240206179
 20
-21.4832379984
 10
11.1945280296
 20
-21.3079730767
 10
11.0691546665
 20
-21.1283490691
 10
10.9478750624
 20
-20.944392829
 10
10.831440684
 20
-20.7572443191
 10
10.7198816622
 20
-20.566883823
 10
10.6131678661
 20
-20.373331057
 10
10.5119603699
 20
-20.177785133
 10
10.4162933141
 20
-19.9802336245
 10
10.3261325581
 20
-19.7806889579
 10
10.2420367546
 20
-19.5803875247
 10
10.1640435042
 20
-19.3793244112
 10
10.0921152063
 20
-19.177504531
 10
10.0266977106
 20
-18.9761790168
 10
9.9678315098
 20
-18.7753508694
 10
9.9154761113
 20
-18.5750170879
 10
9.8699558872
 20
-18.3764198027
 10
9.8313133979
 20
-18.1795697434
 10
9.799506083
 20
-17.9844561804
 10
9.7747306332
 20
-17.7922890543
 10
9.757052612
 20
-17.6034716788
 10
9.7464064558
 20
-17.4176007402
 10
9.7427921647
 20
-17.2346762385
  0
LINE
  5
2F0
100
AcDbEntity
  8
SMUSSO
100
AcDbLine
 62
7
  6
CONTINUOUS
 10
16.5963784359
 20
-4.2440795435
 11
16.5889855547
 21
-4.3646152778
  0
LINE
  5
2F1
100
AcDbEntity
  8
ASSI
100
AcDbLine
 62
7
  6
CONTINUOUS
 10
16.5963784359
 20
-4.2440795435
 11
16.5889855547
 21
-4.3646152778
  0
LINE
  5
2F2
100
AcDbEntity
  8
SMUSSO
100
AcDbLine
 62
7
  6
CONTINUOUS
 10
16.5963784359
 20
-20.9817202178
 11
16.5889855547
 21
-21.1022559521
  0
LINE
  5
2F3
100
AcDbEntity
  8
ASSI
100
AcDbLine
 62
7
  6
CONTINUOUS
 10
16.5963784359
 20
-20.9817202178
 11
16.5889855547
 21
-21.1022559521
  0
LWPOLYLINE
  5
2F4
100
AcDbEntity
  8
SMUSSO
100
AcDbPolyline
 62
7
  6
CONTINUOUS
 90
17
 70
0
 10
16.5889855547
 20
-4.3646152778
 10
16.5730819856
 20
-4.5160728739
 10
16.550862711
 20
-4.6628838314
 10
16.5223735797
 20
-4.8047434234
 10
16.4876736263
 20
-4.9413567042
 10
16.4468346745
 20
-5.0724403644
 10
16.3999412371
 20
-5.1977226787
 10
16.3470906236
 20
-5.316943391
 10
16.2883923662
 20
-5.4298553039
 10
16.2239680643
 20
-5.5362244059
 10
16.1539514045
 20
-5.6358299295
 10
16.0784875997
 20
-5.7284653394
 10
15.9977329962
 20
-5.8139387536
 10
15.911854929
 20
-5.8920730662
 10
15.8210314209
 20
-5.9627063088
 10
15.7254506919
 20
-6.0256921049
 10
15.7009185407
 20
-6.0401798722
  0
LWPOLYLINE
  5
2F5
100
AcDbEntity
  8
ASSI
100
AcDbPolyline
 62
7
  6
CONTINUOUS
 90
17
 70
0
 10
16.5889855547
 20
-4.3646152778
 10
16.5730819856
 20
-4.5160728739
 10
16.550862711
 20
-4.6628838314
 10
16.5223735797
 20
-4.8047434234
 10
16.4876736263
 20
-4.9413567042
 10
16.4468346745
 20
-5.0724403644
 10
16.3999412371
 20
-5.1977226787
 10
16.3470906236
 20
-5.316943391
 10
16.2883923662
 20
-5.4298553039
 10
16.2239680643
 20
-5.5362244059
 10
16.1539514045
 20
-5.6358299295
 10
16.0784875997
 20
-5.7284653394
 10
15.9977329962
 20
-5.8139387536
 10
15.911854929
 20
-5.8920730662
 10
15.8210314209
 20
-5.9627063088
 10
15.7254506919
 20
-6.0256921049
 10
15.7009185407
 20
-6.0401798722
  0
LWPOLYLINE
  5
2F6
100
AcDbEntity
  8
SMUSSO
100
AcDbPolyline
 62
7
  6
CONTINUOUS
 90
17
 70
0
 10
16.5889855547
 20
-21.1022559521
 10
16.5730819856
 20
-21.2537135481
 10
16.550862711
 20
-21.4005245057
 10
16.5223735797
 20
-21.5423840976
 10
16.4876736263
 20
-21.6789973785
 10
16.4468346745
 20
-21.8100810387
 10
16.3999412371
 20
-21.9353633529
 10
16.3470906236
 20
-22.0545840653
 10
16.2883923662
 20
-22.1674959781
 10
16.2239680643
 20
-22.2738650801
 10
16.1539514045
 20
-22.3734706038
 10
16.0784875997
 20
-22.4661060137
 10
15.9977329962
 20
-22.5515794279
 10
15.911854929
 20
-22.6297137404
 10
15.8210314209
 20
-22.700346983
 10
15.7254506919
 20
-22.7633327792
 10
15.7009185407
 20
-22.7778205464
  0
LWPOLYLINE
  5
2F7
100
AcDbEntity
  8
ASSI
100
AcDbPolyline
 62
7
  6
CONTINUOUS
 90
17
 70
0
 10
16.5889855547
 20
-21.1022559521
 10
16.5730819856
 20
-21.2537135481
 10
16.550862711
 20
-21.4005245057
 10
16.5223735797
 20
-21.5423840976
 10
16.4876736263
 20
-21.6789973785
 10
16.4468346745
 20
-21.8100810387
 10
16.3999412371
 20
-21.9353633529
 10
16.3470906236
 20
-22.0545840653
 10
16.2883923662
 20
-22.1674959781
 10
16.2239680643
 20
-22.2738650801
 10
16.1539514045
 20
-22.3734706038
 10
16.0784875997
 20
-22.4661060137
 10
15.9977329962
 20
-22.5515794279
 10
15.911854929
 20
-22.6297137404
 10
15.8210314209
 20
-22.700346983
 10
15.7254506919
 20
-22.7633327792
 10
15.7009185407
 20
-22.7778205464
  0
LWPOLYLINE
  5
2F8
100
AcDbEntity
  8
ASSI
100
AcDbPolyline
 62
7
  6
CONTINUOUS
 90
14
 70
0
 10
11.9029753944
 20
-15.0574497494
 10
11.8876419038
 20
-15.0762640379
 10
11.8176881556
 20
-15.1758172155
 10
11.7531740654
 20
-15.2823307281
 10
11.6944993976
 20
-15.3951445602
 10
11.6417004113
 20
-15.5142978328
 10
11.5947408475
 20
-15.6397514248
 10
11.5539116931
 20
-15.7707279576
 10
11.519251014
 20
-15.9072617252
 10
11.4907207444
 20
-16.0493184335
 10
11.4684976732
 20
-16.196017822
 10
11.4526407302
 20
-16.3470664704
 10
11.4430909857
 20
-16.5027577991
 10
11.4398484396
 20
-16.6630918079
  0
LWPOLYLINE
  5
2F9
100
AcDbEntity
  8
SMUSSO
100
AcDbPolyline
 62
7
  6
CONTINUOUS
 90
15
 70
0
 10
11.3507083475
 20
-15.2435208925
 10
11.4263161901
 20
-15.202800786
 10
11.530807965
 20
-15.1554852773
 10
11.6394349146
 20
-15.1161602697
 10
11.7519719056
 20
-15.0849073096
 10
11.868185734
 20
-15.0617912066
 10
11.9878355091
 20
-15.0468599206
 10
12.1106731391
 20
-15.0401444396
 10
12.2364440018
 20
-15.0416586982
 10
12.3648874374
 20
-15.0513995721
 10
12.4957371788
 20
-15.0693468799
 10
12.6287219988
 20
-15.095463426
 10
12.7635662748
 20
-15.1296950877
 10
12.8999905145
 20
-15.1719709199
 10
13.0377119576
 20
-15.2222033071
  0
LWPOLYLINE
  5
2FA
100
AcDbEntity
  8
ASSI
100
AcDbPolyline
 62
7
  6
CONTINUOUS
 90
15
 70
0
 10
11.3507083475
 20
-15.2435208925
 10
11.4263161901
 20
-15.202800786
 10
11.530807965
 20
-15.1554852773
 10
11.6394349146
 20
-15.1161602697
 10
11.7519719056
 20
-15.0849073096
 10
11.868185734
 20
-15.0617912066
 10
11.9878355091
 20
-15.0468599206
 10
12.1106731391
 20
-15.0401444396
 10
12.2364440018
 20
-15.0416586982
 10
12.3648874374
 20
-15.0513995721
 10
12.4957371788
 20
-15.0693468799
 10
12.6287219988
 20
-15.095463426
 10
12.7635662748
 20
-15.1296950877
 10
12.8999905145
 20
-15.1719709199
 10
13.0377119576
 20
-15.2222033071
  0
LINE
  5
2FB
100
AcDbEntity
  8
SMUSSO
100
AcDbLine
 62
7
  6
CONTINUOUS
 10
-34.6919957725
 20
29.0739724168
 11
-34.5532625895
 21
29.0158875867
  0
LINE
  5
2FC
100
AcDbEntity
  8
ASSI
100
AcDbLine
 62
7
  6
CONTINUOUS
 10
-34.6919957725
 20
29.0739724168
 11
-34.5532625895
 21
29.0158875867
  0
LINE
  5
2FD
100
AcDbEntity
  8
ASSI
100
AcDbLine
 62
7
  6
CONTINUOUS
 10
53.4454917611
 20
3.2997096038
 11
57.5074247458
 21
5.645003506
  0
LWPOLYLINE
  5
2FE
100
AcDbEntity
  8
SMUSSO
100
AcDbPolyline
 62
7
  6
CONTINUOUS
 90
15
 70
0
 10
27.2606109242
 20
-7.6920585682
 10
27.3362187668
 20
-7.6513384616
 10
27.4407105417
 20
-7.6040229529
 10
27.5493374913
 20
-7.5646979453
 10
27.6618744823
 20
-7.5334449852
 10
27.7780883107
 20
-7.5103288822
 10
27.8977380857
 20
-7.4953975962
 10
28.0205757158
 20
-7.4886821152
 10
28.1463465785
 20
-7.4901963738
 10
28.2747900141
 20
-7.4999372477
 10
28.4056397555
 20
-7.5178845555
 10
28.5386245755
 20
-7.5440011016
 10
28.6734688515
 20
-7.5782327633
 10
28.8098930912
 20
-7.6205085956
 10
28.9476145343
 20
-7.6707409827
  0
LWPOLYLINE
  5
2FF
100
AcDbEntity
  8
ASSI
100
AcDbPolyline
 62
7
  6
CONTINUOUS
 90
15
 70
0
 10
27.2606109242
 20
-7.6920585682
 10
27.3362187668
 20
-7.6513384616
 10
27.4407105417
 20
-7.6040229529
 10
27.5493374913
 20
-7.5646979453
 10
27.6618744823
 20
-7.5334449852
 10
27.7780883107
 20
-7.5103288822
 10
27.8977380857
 20
-7.4953975962
 10
28.0205757158
 20
-7.4886821152
 10
28.1463465785
 20
-7.4901963738
 10
28.2747900141
 20
-7.4999372477
 10
28.4056397555
 20
-7.5178845555
 10
28.5386245755
 20
-7.5440011016
 10
28.6734688515
 20
-7.5782327633
 10
28.8098930912
 20
-7.6205085956
 10
28.9476145343
 20
-7.6707409827
  0
LWPOLYLINE
  5
300
100
AcDbEntity
  8
ASSI
100
AcDbPolyline
 62
7
  6
CONTINUOUS
 90
48
 70
0
 10
27.3497510163
 20
-25.8492701577
 10
27.3529935624
 20
-26.0133485774
 10
27.3625433069
 20
-26.1800677117
 10
27.3784002499
 20
-26.3494275605
 10
27.4006233211
 20
-26.5217895945
 10
27.4291535907
 20
-26.6967923431
 10
27.4638142698
 20
-26.873351394
 10
27.5046434242
 20
-27.0514764109
 10
27.551602988
 20
-27.2311577301
 10
27.6044019743
 20
-27.4112819486
 10
27.6630766421
 20
-27.5918518163
 10
27.7275907323
 20
-27.7728645833
 10
27.7975444805
 20
-27.9531985958
 10
27.8729716636
 20
-28.1328496394
 10
27.9538385047
 20
-28.3118219287
 10
28.039643909
 20
-28.4890064539
 10
28.1304185417
 20
-28.6643921143
 10
28.2261317375
 20
-28.8379900108
 10
28.3261904055
 20
-29.0087244363
 10
28.4306215281
 20
-29.1765776105
 10
28.5393981229
 20
-29.3415673138
 10
28.6518461508
 20
-29.5026711802
 10
28.7679884093
 20
-29.6598650812
 10
28.8878021008
 20
-29.8131731453
 10
29.0105447948
 20
-29.9616453924
 10
29.1362346784
 20
-30.1052517952
 10
29.2648535644
 20
-30.244022381
 10
29.3956044602
 20
-30.3770972518
 10
29.5285006043
 20
-30.5044410409
 10
29.6635287583
 20
-30.6260891149
 10
29.7998522142
 20
-30.7412876763
 10
29.937479015
 20
-30.8499966777
 10
30.0764011179
 20
-30.9522561665
 10
30.2157576858
 20
-31.0474324874
 10
30.3555514165
 20
-31.1354816582
 10
30.4957796124
 20
-31.216447661
 10
30.6355733431
 20
-31.2898287864
 10
30.774929911
 20
-31.3555779371
 10
30.9138520139
 20
-31.4137422104
 10
31.0514788147
 20
-31.4639611889
 10
31.1878022706
 20
-31.5061855373
 10
31.3228304246
 20
-31.5404645908
 10
31.4557265687
 20
-31.5665859378
 10
31.5864774645
 20
-31.5844989242
 10
31.7150963505
 20
-31.594254204
 10
31.8407862341
 20
-31.5957913282
 10
31.9635289281
 20
-31.5890592674
 10
32.0485362926
 20
-31.578452145
  0
LWPOLYLINE
  5
301
100
AcDbEntity
  8
ASSI
100
AcDbPolyline
 62
7
  6
CONTINUOUS
 90
48
 70
0
 10
27.3497510163
 20
-9.1116294835
 10
27.3529935624
 20
-9.2757079032
 10
27.3625433069
 20
-9.4424270374
 10
27.3784002499
 20
-9.6117868862
 10
27.4006233211
 20
-9.7841489202
 10
27.4291535907
 20
-9.9591516688
 10
27.4638142698
 20
-10.1357107197
 10
27.5046434242
 20
-10.3138357366
 10
27.551602988
 20
-10.4935170559
 10
27.6044019743
 20
-10.6736412743
 10
27.6630766421
 20
-10.8542111421
 10
27.7275907323
 20
-11.035223909
 10
27.7975444805
 20
-11.2155579216
 10
27.8729716636
 20
-11.3952089652
 10
27.9538385047
 20
-11.5741812544
 10
28.039643909
 20
-11.7513657797
 10
28.1304185417
 20
-11.9267514401
 10
28.2261317375
 20
-12.1003493365
 10
28.3261904055
 20
-12.271083762
 10
28.4306215281
 20
-12.4389369362
 10
28.5393981229
 20
-12.6039266395
 10
28.6518461508
 20
-12.7650305059
 10
28.7679884093
 20
-12.9222244069
 10
28.8878021008
 20
-13.075532471
 10
29.0105447948
 20
-13.2240047182
 10
29.1362346784
 20
-13.367611121
 10
29.2648535644
 20
-13.5063817068
 10
29.3956044602
 20
-13.6394565776
 10
29.5285006043
 20
-13.7668003666
 10
29.6635287583
 20
-13.8884484406
 10
29.7998522142
 20
-14.0036470021
 10
29.937479015
 20
-14.1123560035
 10
30.0764011179
 20
-14.2146154923
 10
30.2157576858
 20
-14.3097918131
 10
30.3555514165
 20
-14.3978409839
 10
30.4957796124
 20
-14.4788069867
 10
30.6355733431
 20
-14.5521881121
 10
30.774929911
 20
-14.6179372628
 10
30.9138520139
 20
-14.6761015362
 10
31.0514788147
 20
-14.7263205147
 10
31.1878022706
 20
-14.768544863
 10
31.3228304246
 20
-14.8028239166
 10
31.4557265687
 20
-14.8289452636
 10
31.5864774645
 20
-14.8468582499
 10
31.7150963505
 20
-14.8566135297
 10
31.8407862341
 20
-14.858150654
 10
31.9635289281
 20
-14.8514185932
 10
32.0485362926
 20
-14.8408114708
  0
LWPOLYLINE
  5
302
100
AcDbEntity
  8
SMUSSO
100
AcDbPolyline
 62
7
  6
CONTINUOUS
 90
19
 70
0
 10
26.3598015226
 20
-9.6832139141
 10
26.3629887329
 20
-9.5234136156
 10
26.3725439102
 20
-9.3676231625
 10
26.3884474792
 20
-9.2161655665
 10
26.4106667539
 20
-9.0693546089
 10
26.4391558852
 20
-8.927495017
 10
26.4738558386
 20
-8.7908817361
 10
26.5146947904
 20
-8.6597980759
 10
26.5615882278
 20
-8.5345157617
 10
26.6144388413
 20
-8.4152950493
 10
26.6731370987
 20
-8.3023831365
 10
26.7375614005
 20
-8.1960140345
 10
26.8075780603
 20
-8.0964085108
 10
26.8830418652
 20
-8.0037731009
 10
26.9637964687
 20
-7.9182996867
 10
27.0496745358
 20
-7.8401653742
 10
27.140498044
 20
-7.7695321316
 10
27.236078773
 20
-7.7065463354
 10
27.2606109242
 20
-7.6920585682
  0
LWPOLYLINE
  5
303
100
AcDbEntity
  8
ASSI
100
AcDbPolyline
 62
7
  6
CONTINUOUS
 90
19
 70
0
 10
26.3598015226
 20
-9.6832139141
 10
26.3629887329
 20
-9.5234136156
 10
26.3725439102
 20
-9.3676231625
 10
26.3884474792
 20
-9.2161655665
 10
26.4106667539
 20
-9.0693546089
 10
26.4391558852
 20
-8.927495017
 10
26.4738558386
 20
-8.7908817361
 10
26.5146947904
 20
-8.6597980759
 10
26.5615882278
 20
-8.5345157617
 10
26.6144388413
 20
-8.4152950493
 10
26.6731370987
 20
-8.3023831365
 10
26.7375614005
 20
-8.1960140345
 10
26.8075780603
 20
-8.0964085108
 10
26.8830418652
 20
-8.0037731009
 10
26.9637964687
 20
-7.9182996867
 10
27.0496745358
 20
-7.8401653742
 10
27.140498044
 20
-7.7695321316
 10
27.236078773
 20
-7.7065463354
 10
27.2606109242
 20
-7.6920585682
  0
LWPOLYLINE
  5
304
100
AcDbEntity
  8
SMUSSO
100
AcDbPolyline
 62
7
  6
CONTINUOUS
 90
19
 70
0
 10
26.3598015226
 20
-26.4208545884
 10
26.3629887329
 20
-26.2610542898
 10
26.3725439102
 20
-26.1052638368
 10
26.3884474792
 20
-25.9538062407
 10
26.4106667539
 20
-25.8069952832
 10
26.4391558852
 20
-25.6651356912
 10
26.4738558386
 20
-25.5285224104
 10
26.5146947904
 20
-25.3974387502
 10
26.5615882278
 20
-25.2721564359
 10
26.6144388413
 20
-25.1529357236
 10
26.6731370987
 20
-25.0400238107
 10
26.7375614005
 20
-24.9336547087
 10
26.8075780603
 20
-24.8340491851
 10
26.8830418652
 20
-24.7414137752
 10
26.9637964687
 20
-24.655940361
 10
27.0496745358
 20
-24.5778060484
 10
27.140498044
 20
-24.5071728058
 10
27.236078773
 20
-24.4441870097
 10
27.2606109242
 20
-24.4296992424
  0
LWPOLYLINE
  5
305
100
AcDbEntity
  8
ASSI
100
AcDbPolyline
 62
7
  6
CONTINUOUS
 90
19
 70
0
 10
26.3598015226
 20
-26.4208545884
 10
26.3629887329
 20
-26.2610542898
 10
26.3725439102
 20
-26.1052638368
 10
26.3884474792
 20
-25.9538062407
 10
26.4106667539
 20
-25.8069952832
 10
26.4391558852
 20
-25.6651356912
 10
26.4738558386
 20
-25.5285224104
 10
26.5146947904
 20
-25.3974387502
 10
26.5615882278
 20
-25.2721564359
 10
26.6144388413
 20
-25.1529357236
 10
26.6731370987
 20
-25.0400238107
 10
26.7375614005
 20
-24.9336547087
 10
26.8075780603
 20
-24.8340491851
 10
26.8830418652
 20
-24.7414137752
 10
26.9637964687
 20
-24.655940361
 10
27.0496745358
 20
-24.5778060484
 10
27.140498044
 20
-24.5071728058
 10
27.236078773
 20
-24.4441870097
 10
27.2606109242
 20
-24.4296992424
  0
LWPOLYLINE
  5
306
100
AcDbEntity
  8
SMUSSO
100
AcDbPolyline
 62
7
  6
CONTINUOUS
 90
36
 70
0
 10
25.6526947414
 20
-9.6832139141
 10
25.6563090491
 20
-9.5044628056
 10
25.666955239
 20
-9.3308855171
 10
25.6846333111
 20
-9.1624820488
 10
25.7094088347
 20
-8.998924793
 10
25.7412162404
 20
-8.8405413573
 10
25.7798588208
 20
-8.6883145642
 10
25.8253791357
 20
-8.5422828422
 10
25.8777346252
 20
-8.4024077628
 10
25.9366009025
 20
-8.2695568636
 10
26.0020184546
 20
-8.1437739082
 10
26.0739467946
 20
-8.025015133
 10
26.1519400743
 20
-7.9140167844
 10
26.2360358888
 20
-7.8108271932
 10
26.3261966431
 20
-7.7153980287
 10
26.4218637037
 20
-7.6283205456
 10
26.5230712172
 20
-7.5496465858
 10
26.6297850371
 20
-7.4793243073
 10
26.7413440909
 20
-7.4177894397
 10
26.8577785151
 20
-7.3650964945
 10
26.9790581732
 20
-7.3211909602
 10
27.1044315829
 20
-7.2863450315
 10
27.2339242044
 20
-7.2606149732
 10
27.3675105774
 20
-7.2439445206
 10
27.5043628388
 20
-7.2364370742
 10
27.6445012574
 20
-7.2381495529
 10
27.7879055643
 20
-7.2490250378
 10
27.9336870889
 20
-7.2689961727
 10
28.08186058
 20
-7.298119441
 10
28.2324112889
 20
-7.3363383594
 10
28.3844062987
 20
-7.3834161207
 10
28.5378545879
 20
-7.4394077406
 10
28.692747178
 20
-7.5042582035
 10
28.8481242171
 20
-7.5775656555
 10
29.0039887218
 20
-7.6593826227
 10
29.0818311992
 20
-7.7033057677
  0
LWPOLYLINE
  5
307
100
AcDbEntity
  8
ASSI
100
AcDbPolyline
 62
7
  6
CONTINUOUS
 90
36
 70
0
 10
25.6526947414
 20
-9.6832139141
 10
25.6563090491
 20
-9.5044628056
 10
25.666955239
 20
-9.3308855171
 10
25.6846333111
 20
-9.1624820488
 10
25.7094088347
 20
-8.998924793
 10
25.7412162404
 20
-8.8405413573
 10
25.7798588208
 20
-8.6883145642
 10
25.8253791357
 20
-8.5422828422
 10
25.8777346252
 20
-8.4024077628
 10
25.9366009025
 20
-8.2695568636
 10
26.0020184546
 20
-8.1437739082
 10
26.0739467946
 20
-8.025015133
 10
26.1519400743
 20
-7.9140167844
 10
26.2360358888
 20
-7.8108271932
 10
26.3261966431
 20
-7.7153980287
 10
26.4218637037
 20
-7.6283205456
 10
26.5230712172
 20
-7.5496465858
 10
26.6297850371
 20
-7.4793243073
 10
26.7413440909
 20
-7.4177894397
 10
26.8577785151
 20
-7.3650964945
 10
26.9790581732
 20
-7.3211909602
 10
27.1044315829
 20
-7.2863450315
 10
27.2339242044
 20
-7.2606149732
 10
27.3675105774
 20
-7.2439445206
 10
27.5043628388
 20
-7.2364370742
 10
27.6445012574
 20
-7.2381495529
 10
27.7879055643
 20
-7.2490250378
 10
27.9336870889
 20
-7.2689961727
 10
28.08186058
 20
-7.298119441
 10
28.2324112889
 20
-7.3363383594
 10
28.3844062987
 20
-7.3834161207
 10
28.5378545879
 20
-7.4394077406
 10
28.692747178
 20
-7.5042582035
 10
28.8481242171
 20
-7.5775656555
 10
29.0039887218
 20
-7.6593826227
 10
29.0818311992
 20
-7.7033057677
  0
LWPOLYLINE
  5
308
100
AcDbEntity
  8
SMUSSO
100
AcDbPolyline
 62
7
  6
CONTINUOUS
 90
36
 70
0
 10
25.6526947414
 20
-26.4208545884
 10
25.6563090491
 20
-26.2421034798
 10
25.666955239
 20
-26.0685261914
 10
25.6846333111
 20
-25.900122723
 10
25.7094088347
 20
-25.7365654672
 10
25.7412162404
 20
-25.5781820315
 10
25.7798588208
 20
-25.4259552385
 10
25.8253791357
 20
-25.2799235165
 10
25.8777346252
 20
-25.1400484371
 10
25.9366009025
 20
-25.0071975379
 10
26.0020184546
 20
-24.8814145825
 10
26.0739467946
 20
-24.7626558072
 10
26.1519400743
 20
-24.6516574587
 10
26.2360358888
 20
-24.5484678675
 10
26.3261966431
 20
-24.453038703
 10
26.4218637037
 20
-24.3659612199
 10
26.5230712172
 20
-24.28728726
 10
26.6297850371
 20
-24.2169649816
 10
26.7413440909
 20
-24.155430114
 10
26.8577785151
 20
-24.1027371688
 10
26.9790581732
 20
-24.0588316344
 10
27.1044315829
 20
-24.0239857058
 10
27.2339242044
 20
-23.9982556475
 10
27.3675105774
 20
-23.9815851949
 10
27.5043628388
 20
-23.9740777485
 10
27.6445012574
 20
-23.9757902272
 10
27.7879055643
 20
-23.9866657121
 10
27.9336870889
 20
-24.0066368469
 10
28.08186058
 20
-24.0357601153
 10
28.2324112889
 20
-24.0739790336
 10
28.3844062987
 20
-24.1210567949
 10
28.5378545879
 20
-24.1770484148
 10
28.692747178
 20
-24.2418988777
 10
28.8481242171
 20
-24.3152063298
 10
29.0039887218
 20
-24.397023297
 10
29.0818311992
 20
-24.4409464419
  0
LWPOLYLINE
  5
309
100
AcDbEntity
  8
ASSI
100
AcDbPolyline
 62
7
  6
CONTINUOUS
 90
36
 70
0
 10
25.6526947414
 20
-26.4208545884
 10
25.6563090491
 20
-26.2421034798
 10
25.666955239
 20
-26.0685261914
 10
25.6846333111
 20
-25.900122723
 10
25.7094088347
 20
-25.7365654672
 10
25.7412162404
 20
-25.5781820315
 10
25.7798588208
 20
-25.4259552385
 10
25.8253791357
 20
-25.2799235165
 10
25.8777346252
 20
-25.1400484371
 10
25.9366009025
 20
-25.0071975379
 10
26.0020184546
 20
-24.8814145825
 10
26.0739467946
 20
-24.7626558072
 10
26.1519400743
 20
-24.6516574587
 10
26.2360358888
 20
-24.5484678675
 10
26.3261966431
 20
-24.453038703
 10
26.4218637037
 20
-24.3659612199
 10
26.5230712172
 20
-24.28728726
 10
26.6297850371
 20
-24.2169649816
 10
26.7413440909
 20
-24.155430114
 10
26.8577785151
 20
-24.1027371688
 10
26.9790581732
 20
-24.0588316344
 10
27.1044315829
 20
-24.0239857058
 10
27.2339242044
 20
-23.9982556475
 10
27.3675105774
 20
-23.9815851949
 10
27.5043628388
 20
-23.9740777485
 10
27.6445012574
 20
-23.9757902272
 10
27.7879055643
 20
-23.9866657121
 10
27.9336870889
 20
-24.0066368469
 10
28.08186058
 20
-24.0357601153
 10
28.2324112889
 20
-24.0739790336
 10
28.3844062987
 20
-24.1210567949
 10
28.5378545879
 20
-24.1770484148
 10
28.692747178
 20
-24.2418988777
 10
28.8481242171
 20
-24.3152063298
 10
29.0039887218
 20
-24.397023297
 10
29.0818311992
 20
-24.4409464419
  0
LWPOLYLINE
  5
30A
100
AcDbEntity
  8
ASSI
100
AcDbPolyline
 62
7
  6
CONTINUOUS
 90
14
 70
0
 10
27.8128779711
 20
-7.505987425
 10
27.7975444805
 20
-7.5248017135
 10
27.7275907323
 20
-7.6243548911
 10
27.6630766421
 20
-7.7308684037
 10
27.6044019743
 20
-7.8436822358
 10
27.551602988
 20
-7.9628355084
 10
27.5046434242
 20
-8.0882891004
 10
27.4638142698
 20
-8.2192656332
 10
27.4291535907
 20
-8.3557994008
 10
27.4006233211
 20
-8.4978561091
 10
27.3784002499
 20
-8.6445554976
 10
27.3625433069
 20
-8.7956041461
 10
27.3529935624
 20
-8.9512954747
 10
27.3497510163
 20
-9.1116294835
  0
LINE
  5
30B
100
AcDbEntity
  8
ASSI
100
AcDbLine
 62
7
  6
CONTINUOUS
 10
54.1530290304
 20
2.0742191065
 11
58.2149620151
 21
4.4195130086
  0
LWPOLYLINE
  5
30C
100
AcDbEntity
  8
SMUSSO
100
AcDbPolyline
 62
7
  6
CONTINUOUS
 90
53
 70
0
 10
15.7009185407
 20
-22.7778205464
 10
15.6253106981
 20
-22.818540653
 10
15.5208189232
 20
-22.8658561617
 10
15.4121919735
 20
-22.9051811693
 10
15.2996549826
 20
-22.9364341294
 10
15.1834411541
 20
-22.9595502324
 10
15.0637913791
 20
-22.9744815184
 10
14.940953749
 20
-22.9811969994
 10
14.8151828863
 20
-22.9796827408
 10
14.6867394508
 20
-22.9699418669
 10
14.5558897093
 20
-22.9519945591
 10
14.4229048893
 20
-22.925878013
 10
14.2880606134
 20
-22.8916463513
 10
14.1516363736
 20
-22.849370519
 10
14.0139149305
 20
-22.7991381319
 10
13.8751817476
 20
-22.7410533018
 10
13.7357244002
 20
-22.6752364259
 10
13.5958319367
 20
-22.6018239163
 10
13.4557943223
 20
-22.5209679363
 10
13.3159018593
 20
-22.4328361027
 10
13.1764445129
 20
-22.3376110969
 10
13.0377113315
 20
-22.2354902922
 10
12.8999898894
 20
-22.1266853758
 10
12.7635656497
 20
-22.011421881
 10
12.6287213734
 20
-21.8899387171
 10
12.4957365535
 20
-21.7624876901
 10
12.3648868117
 20
-21.6293329583
 10
12.2364433765
 20
-21.4907505336
 10
12.1106725177
 20
-21.3470277164
 10
11.9878348967
 20
-21.198462388
 10
11.8681851341
 20
-21.0453625132
 10
11.75197132
 20
-20.8880455682
 10
11.639434347
 20
-20.7268376905
 10
11.5308074169
 20
-20.5620729853
 10
11.4263156572
 20
-20.3940929674
 10
11.3261756736
 20
-20.2232459021
 10
11.230594952
 20
-20.0498858307
 10
11.1397714472
 20
-19.8743718197
 10
11.0538933766
 20
-19.6970675889
 10
10.9731387687
 20
-19.5183406911
 10
10.8976749684
 20
-19.3385614878
 10
10.8276583211
 20
-19.1581024056
 10
10.7632340397
 20
-18.9773376696
 10
10.7045358177
 20
-18.7966424503
 10
10.6516852528
 20
-18.6163911841
 10
10.6047918723
 20
-18.4369575481
 10
10.5639529844
 20
-18.2587141778
 10
10.5292530981
 20
-18.0820303943
 10
10.5007640317
 20
-17.9072724412
 10
10.4785448146
 20
-17.7348034294
 10
10.4626412917
 20
-17.5649810271
 10
10.453086145
 20
-17.3981567592
 10
10.4498989459
 20
-17.2346762385
  0
LWPOLYLINE
  5
30D
100
AcDbEntity
  8
ASSI
100
AcDbPolyline
 62
7
  6
CONTINUOUS
 90
53
 70
0
 10
15.7009185407
 20
-22.7778205464
 10
15.6253106981
 20
-22.818540653
 10
15.5208189232
 20
-22.8658561617
 10
15.4121919735
 20
-22.9051811693
 10
15.2996549826
 20
-22.9364341294
 10
15.1834411541
 20
-22.9595502324
 10
15.0637913791
 20
-22.9744815184
 10
14.940953749
 20
-22.9811969994
 10
14.8151828863
 20
-22.9796827408
 10
14.6867394508
 20
-22.9699418669
 10
14.5558897093
 20
-22.9519945591
 10
14.4229048893
 20
-22.925878013
 10
14.2880606134
 20
-22.8916463513
 10
14.1516363736
 20
-22.849370519
 10
14.0139149305
 20
-22.7991381319
 10
13.8751817476
 20
-22.7410533018
 10
13.7357244002
 20
-22.6752364259
 10
13.5958319367
 20
-22.6018239163
 10
13.4557943223
 20
-22.5209679363
 10
13.3159018593
 20
-22.4328361027
 10
13.1764445129
 20
-22.3376110969
 10
13.0377113315
 20
-22.2354902922
 10
12.8999898894
 20
-22.1266853758
 10
12.7635656497
 20
-22.011421881
 10
12.6287213734
 20
-21.8899387171
 10
12.4957365535
 20
-21.7624876901
 10
12.3648868117
 20
-21.6293329583
 10
12.2364433765
 20
-21.4907505336
 10
12.1106725177
 20
-21.3470277164
 10
11.9878348967
 20
-21.198462388
 10
11.8681851341
 20
-21.0453625132
 10
11.75197132
 20
-20.8880455682
 10
11.639434347
 20
-20.7268376905
 10
11.5308074169
 20
-20.5620729853
 10
11.4263156572
 20
-20.3940929674
 10
11.3261756736
 20
-20.2232459021
 10
11.230594952
 20
-20.0498858307
 10
11.1397714472
 20
-19.8743718197
 10
11.0538933766
 20
-19.6970675889
 10
10.9731387687
 20
-19.5183406911
 10
10.8976749684
 20
-19.3385614878
 10
10.8276583211
 20
-19.1581024056
 10
10.7632340397
 20
-18.9773376696
 10
10.7045358177
 20
-18.7966424503
 10
10.6516852528
 20
-18.6163911841
 10
10.6047918723
 20
-18.4369575481
 10
10.5639529844
 20
-18.2587141778
 10
10.5292530981
 20
-18.0820303943
 10
10.5007640317
 20
-17.9072724412
 10
10.4785448146
 20
-17.7348034294
 10
10.4626412917
 20
-17.5649810271
 10
10.453086145
 20
-17.3981567592
 10
10.4498989459
 20
-17.2346762385
  0
LWPOLYLINE
  5
30E
100
AcDbEntity
  8
SMUSSO
100
AcDbPolyline
 62
7
  6
CONTINUOUS
 90
53
 70
0
 10
31.6108211174
 20
-15.2263582221
 10
31.5352132748
 20
-15.2670783286
 10
31.4307214999
 20
-15.3143938373
 10
31.3220945502
 20
-15.3537188449
 10
31.2095575593
 20
-15.384971805
 10
31.0933437308
 20
-15.408087908
 10
30.9736939558
 20
-15.423019194
 10
30.8508563257
 20
-15.429734675
 10
30.725085463
 20
-15.4282204164
 10
30.5966420275
 20
-15.4184795425
 10
30.465792286
 20
-15.4005322347
 10
30.332807466
 20
-15.3744156886
 10
30.1979631901
 20
-15.3401840269
 10
30.0615389503
 20
-15.2979081947
 10
29.9238175072
 20
-15.2476758075
 10
29.7850843243
 20
-15.1895909774
 10
29.6456269769
 20
-15.1237741015
 10
29.5057345134
 20
-15.0503615919
 10
29.365696899
 20
-14.9695056119
 10
29.225804436
 20
-14.8813737783
 10
29.0863470896
 20
-14.7861487726
 10
28.9476139081
 20
-14.6840279679
 10
28.809892466
 20
-14.5752230514
 10
28.6734682264
 20
-14.4599595566
 10
28.5386239501
 20
-14.3384763927
 10
28.4056391302
 20
-14.2110253657
 10
28.2747893884
 20
-14.0778706339
 10
28.1463459531
 20
-13.9392882092
 10
28.0205750944
 20
-13.795565392
 10
27.8977374734
 20
-13.6470000636
 10
27.7780877108
 20
-13.4939001888
 10
27.6618738967
 20
-13.3365832438
 10
27.5493369237
 20
-13.1753753662
 10
27.4407099936
 20
-13.0106106609
 10
27.3362182339
 20
-12.842630643
 10
27.2360782503
 20
-12.6717835777
 10
27.1404975287
 20
-12.4984235063
 10
27.0496740239
 20
-12.3229094953
 10
26.9637959533
 20
-12.1456052645
 10
26.8830413454
 20
-11.9668783667
 10
26.8075775451
 20
-11.7870991634
 10
26.7375608978
 20
-11.6066400812
 10
26.6731366164
 20
-11.4258753452
 10
26.6144383944
 20
-11.2451801259
 10
26.5615878295
 20
-11.0649288597
 10
26.514694449
 20
-10.8854952237
 10
26.4738555611
 20
-10.7072518534
 10
26.4391556748
 20
-10.5305680699
 10
26.4106666084
 20
-10.3558101168
 10
26.3884473913
 20
-10.183341105
 10
26.3725438684
 20
-10.0135187027
 10
26.3629887217
 20
-9.8466944348
 10
26.3598015226
 20
-9.6832139141
  0
LWPOLYLINE
  5
30F
100
AcDbEntity
  8
ASSI
100
AcDbPolyline
 62
7
  6
CONTINUOUS
 90
53
 70
0
 10
31.6108211174
 20
-15.2263582221
 10
31.5352132748
 20
-15.2670783286
 10
31.4307214999
 20
-15.3143938373
 10
31.3220945502
 20
-15.3537188449
 10
31.2095575593
 20
-15.384971805
 10
31.0933437308
 20
-15.408087908
 10
30.9736939558
 20
-15.423019194
 10
30.8508563257
 20
-15.429734675
 10
30.725085463
 20
-15.4282204164
 10
30.5966420275
 20
-15.4184795425
 10
30.465792286
 20
-15.4005322347
 10
30.332807466
 20
-15.3744156886
 10
30.1979631901
 20
-15.3401840269
 10
30.0615389503
 20
-15.2979081947
 10
29.9238175072
 20
-15.2476758075
 10
29.7850843243
 20
-15.1895909774
 10
29.6456269769
 20
-15.1237741015
 10
29.5057345134
 20
-15.0503615919
 10
29.365696899
 20
-14.9695056119
 10
29.225804436
 20
-14.8813737783
 10
29.0863470896
 20
-14.7861487726
 10
28.9476139081
 20
-14.6840279679
 10
28.809892466
 20
-14.5752230514
 10
28.6734682264
 20
-14.4599595566
 10
28.5386239501
 20
-14.3384763927
 10
28.4056391302
 20
-14.2110253657
 10
28.2747893884
 20
-14.0778706339
 10
28.1463459531
 20
-13.9392882092
 10
28.0205750944
 20
-13.795565392
 10
27.8977374734
 20
-13.6470000636
 10
27.7780877108
 20
-13.4939001888
 10
27.6618738967
 20
-13.3365832438
 10
27.5493369237
 20
-13.1753753662
 10
27.4407099936
 20
-13.0106106609
 10
27.3362182339
 20
-12.842630643
 10
27.2360782503
 20
-12.6717835777
 10
27.1404975287
 20
-12.4984235063
 10
27.0496740239
 20
-12.3229094953
 10
26.9637959533
 20
-12.1456052645
 10
26.8830413454
 20
-11.9668783667
 10
26.8075775451
 20
-11.7870991634
 10
26.7375608978
 20
-11.6066400812
 10
26.6731366164
 20
-11.4258753452
 10
26.6144383944
 20
-11.2451801259
 10
26.5615878295
 20
-11.0649288597
 10
26.514694449
 20
-10.8854952237
 10
26.4738555611
 20
-10.7072518534
 10
26.4391556748
 20
-10.5305680699
 10
26.4106666084
 20
-10.3558101168
 10
26.3884473913
 20
-10.183341105
 10
26.3725438684
 20
-10.0135187027
 10
26.3629887217
 20
-9.8466944348
 10
26.3598015226
 20
-9.6832139141
  0
LINE
  5
310
100
AcDbEntity
  8
ASSI
100
AcDbLine
 62
7
  6
CONTINUOUS
 10
54.1315276785
 20
2.0862140539
 11
54.1530290304
 21
2.0742191065
  0
LINE
  5
311
100
AcDbEntity
  8
ASSI
100
AcDbLine
 62
7
  6
CONTINUOUS
 10
52.4355926134
 20
2.2217962692
 11
-57.9108776598
 21
65.9344652389
  0
LINE
  5
312
100
AcDbEntity
  8
ASSI
100
AcDbLine
 62
7
  6
CONTINUOUS
 10
53.4454917611
 20
3.2997096038
 11
-57.5074247458
 21
67.3625330283
  0
LWPOLYLINE
  5
313
100
AcDbEntity
  8
SMUSSO
100
AcDbPolyline
 62
7
  6
CONTINUOUS
 90
70
 70
0
 10
32.5116305189
 20
-13.6434774694
 10
32.5080162113
 20
-13.822228578
 10
32.4973700214
 20
-13.9958058664
 10
32.4796919493
 20
-14.1642093348
 10
32.4549164257
 20
-14.3277665906
 10
32.42310902
 20
-14.4861500263
 10
32.3844664396
 20
-14.6383768193
 10
32.3389461247
 20
-14.7844085413
 10
32.2865906352
 20
-14.9242836207
 10
32.2277243579
 20
-15.0571345199
 10
32.1623068057
 20
-15.1829174753
 10
32.0903784658
 20
-15.3016762506
 10
32.0123851861
 20
-15.4126745991
 10
31.9282893716
 20
-15.5158641903
 10
31.8381286173
 20
-15.6112933548
 10
31.7424615566
 20
-15.6983708379
 10
31.6412540432
 20
-15.7770447978
 10
31.5345402233
 20
-15.8473670762
 10
31.4229811695
 20
-15.9089019438
 10
31.3065467453
 20
-15.961594889
 10
31.1852670872
 20
-16.0055004234
 10
31.0598936775
 20
-16.040346352
 10
30.930401056
 20
-16.0660764103
 10
30.7968146829
 20
-16.0827468629
 10
30.6599624216
 20
-16.0902543093
 10
30.519824003
 20
-16.0885418306
 10
30.3764196961
 20
-16.0776663457
 10
30.2306381715
 20
-16.0576952109
 10
30.0824646803
 20
-16.0285719425
 10
29.9319139715
 20
-15.9903530242
 10
29.7799189617
 20
-15.9432752629
 10
29.6264706725
 20
-15.887283643
 10
29.4715780824
 20
-15.8224331801
 10
29.3162010433
 20
-15.749125728
 10
29.1603365386
 20
-15.6673087608
 10
29.0039875849
 20
-15.5770348045
 10
28.8481230832
 20
-15.4788632907
 10
28.6927460513
 20
-15.372745178
 10
28.5378534714
 20
-15.2587295078
 10
28.384405192
 20
-15.1375228366
 10
28.2324101898
 20
-15.0090805156
 10
28.0818594881
 20
-14.8734471935
 10
27.9336860048
 20
-14.7314633725
 10
27.7879044874
 20
-14.5830895985
 10
27.6445001883
 20
-14.4283653256
 10
27.5043617832
 20
-14.2682494181
 10
27.367509542
 20
-14.1027083634
 10
27.2339231946
 20
-13.931775674
 10
27.1044306063
 20
-13.7565107523
 10
26.9790572432
 20
-13.5768867447
 10
26.8577776391
 20
-13.3929305046
 10
26.7413432607
 20
-13.2057819948
 10
26.6297842389
 20
-13.0154214986
 10
26.5230704428
 20
-12.8218687326
 10
26.4218629466
 20
-12.6263228086
 10
26.3261958908
 20
-12.4287713001
 10
26.2360351348
 20
-12.2292266335
 10
26.1519393313
 20
-12.0289252004
 10
26.0739460809
 20
-11.8278620868
 10
26.002017783
 20
-11.6260422066
 10
25.9366002873
 20
-11.4247166924
 10
25.8777340865
 20
-11.223888545
 10
25.825378688
 20
-11.0235547635
 10
25.7798584639
 20
-10.8249574783
 10
25.7412159746
 20
-10.6281074191
 10
25.7094086597
 20
-10.432993856
 10
25.6846332099
 20
-10.2408267299
 10
25.6669551886
 20
-10.0520093544
 10
25.6563090325
 20
-9.8661384158
 10
25.6526947414
 20
-9.6832139141
  0
LWPOLYLINE
  5
314
100
AcDbEntity
  8
ASSI
100
AcDbPolyline
 62
7
  6
CONTINUOUS
 90
70
 70
0
 10
32.5116305189
 20
-13.6434774694
 10
32.5080162113
 20
-13.822228578
 10
32.4973700214
 20
-13.9958058664
 10
32.4796919493
 20
-14.1642093348
 10
32.4549164257
 20
-14.3277665906
 10
32.42310902
 20
-14.4861500263
 10
32.3844664396
 20
-14.6383768193
 10
32.3389461247
 20
-14.7844085413
 10
32.2865906352
 20
-14.9242836207
 10
32.2277243579
 20
-15.0571345199
 10
32.1623068057
 20
-15.1829174753
 10
32.0903784658
 20
-15.3016762506
 10
32.0123851861
 20
-15.4126745991
 10
31.9282893716
 20
-15.5158641903
 10
31.8381286173
 20
-15.6112933548
 10
31.7424615566
 20
-15.6983708379
 10
31.6412540432
 20
-15.7770447978
 10
31.5345402233
 20
-15.8473670762
 10
31.4229811695
 20
-15.9089019438
 10
31.3065467453
 20
-15.961594889
 10
31.1852670872
 20
-16.0055004234
 10
31.0598936775
 20
-16.040346352
 10
30.930401056
 20
-16.0660764103
 10
30.7968146829
 20
-16.0827468629
 10
30.6599624216
 20
-16.0902543093
 10
30.519824003
 20
-16.0885418306
 10
30.3764196961
 20
-16.0776663457
 10
30.2306381715
 20
-16.0576952109
 10
30.0824646803
 20
-16.0285719425
 10
29.9319139715
 20
-15.9903530242
 10
29.7799189617
 20
-15.9432752629
 10
29.6264706725
 20
-15.887283643
 10
29.4715780824
 20
-15.8224331801
 10
29.3162010433
 20
-15.749125728
 10
29.1603365386
 20
-15.6673087608
 10
29.0039875849
 20
-15.5770348045
 10
28.8481230832
 20
-15.4788632907
 10
28.6927460513
 20
-15.372745178
 10
28.5378534714
 20
-15.2587295078
 10
28.384405192
 20
-15.1375228366
 10
28.2324101898
 20
-15.0090805156
 10
28.0818594881
 20
-14.8734471935
 10
27.9336860048
 20
-14.7314633725
 10
27.7879044874
 20
-14.5830895985
 10
27.6445001883
 20
-14.4283653256
 10
27.5043617832
 20
-14.2682494181
 10
27.367509542
 20
-14.1027083634
 10
27.2339231946
 20
-13.931775674
 10
27.1044306063
 20
-13.7565107523
 10
26.9790572432
 20
-13.5768867447
 10
26.8577776391
 20
-13.3929305046
 10
26.7413432607
 20
-13.2057819948
 10
26.6297842389
 20
-13.0154214986
 10
26.5230704428
 20
-12.8218687326
 10
26.4218629466
 20
-12.6263228086
 10
26.3261958908
 20
-12.4287713001
 10
26.2360351348
 20
-12.2292266335
 10
26.1519393313
 20
-12.0289252004
 10
26.0739460809
 20
-11.8278620868
 10
26.002017783
 20
-11.6260422066
 10
25.9366002873
 20
-11.4247166924
 10
25.8777340865
 20
-11.223888545
 10
25.825378688
 20
-11.0235547635
 10
25.7798584639
 20
-10.8249574783
 10
25.7412159746
 20
-10.6281074191
 10
25.7094086597
 20
-10.432993856
 10
25.6846332099
 20
-10.2408267299
 10
25.6669551886
 20
-10.0520093544
 10
25.6563090325
 20
-9.8661384158
 10
25.6526947414
 20
-9.6832139141
  0
LWPOLYLINE
  5
315
100
AcDbEntity
  8
SMUSSO
100
AcDbPolyline
 62
7
  6
CONTINUOUS
 90
70
 70
0
 10
32.5116305189
 20
-30.3811181437
 10
32.5080162113
 20
-30.5598692522
 10
32.4973700214
 20
-30.7334465407
 10
32.4796919493
 20
-30.901850009
 10
32.4549164257
 20
-31.0654072648
 10
32.42310902
 20
-31.2237907005
 10
32.3844664396
 20
-31.3760174936
 10
32.3389461247
 20
-31.5220492156
 10
32.2865906352
 20
-31.661924295
 10
32.2277243579
 20
-31.7947751942
 10
32.1623068057
 20
-31.9205581496
 10
32.0903784658
 20
-32.0393169248
 10
32.0123851861
 20
-32.1503152734
 10
31.9282893716
 20
-32.2535048646
 10
31.8381286173
 20
-32.3489340291
 10
31.7424615566
 20
-32.4360115122
 10
31.6412540432
 20
-32.514685472
 10
31.5345402233
 20
-32.5850077505
 10
31.4229811695
 20
-32.6465426181
 10
31.3065467453
 20
-32.6992355633
 10
31.1852670872
 20
-32.7431410976
 10
31.0598936775
 20
-32.7779870263
 10
30.930401056
 20
-32.8037170846
 10
30.7968146829
 20
-32.8203875372
 10
30.6599624216
 20
-32.8278949836
 10
30.519824003
 20
-32.8261825049
 10
30.3764196961
 20
-32.81530702
 10
30.2306381715
 20
-32.7953358851
 10
30.0824646803
 20
-32.7662126168
 10
29.9319139715
 20
-32.7279936984
 10
29.7799189617
 20
-32.6809159371
 10
29.6264706725
 20
-32.6249243172
 10
29.4715780824
 20
-32.5600738543
 10
29.3162010433
 20
-32.4867664023
 10
29.1603365386
 20
-32.4049494351
 10
29.0039875849
 20
-32.3146754787
 10
28.8481230832
 20
-32.216503965
 10
28.6927460513
 20
-32.1103858522
 10
28.5378534714
 20
-31.9963701821
 10
28.384405192
 20
-31.8751635108
 10
28.2324101898
 20
-31.7467211898
 10
28.0818594881
 20
-31.6110878678
 10
27.9336860048
 20
-31.4691040468
 10
27.7879044874
 20
-31.3207302728
 10
27.6445001883
 20
-31.1660059999
 10
27.5043617832
 20
-31.0058900923
 10
27.367509542
 20
-30.8403490376
 10
27.2339231946
 20
-30.6694163483
 10
27.1044306063
 20
-30.4941514266
 10
26.9790572432
 20
-30.3145274189
 10
26.8577776391
 20
-30.1305711789
 10
26.7413432607
 20
-29.943422669
 10
26.6297842389
 20
-29.7530621729
 10
26.5230704428
 20
-29.5595094069
 10
26.4218629466
 20
-29.3639634829
 10
26.3261958908
 20
-29.1664119743
 10
26.2360351348
 20
-28.9668673078
 10
26.1519393313
 20
-28.7665658746
 10
26.0739460809
 20
-28.5655027611
 10
26.002017783
 20
-28.3636828809
 10
25.9366002873
 20
-28.1623573667
 10
25.8777340865
 20
-27.9615292192
 10
25.825378688
 20
-27.7611954378
 10
25.7798584639
 20
-27.5625981525
 10
25.7412159746
 20
-27.3657480933
 10
25.7094086597
 20
-27.1706345303
 10
25.6846332099
 20
-26.9784674042
 10
25.6669551886
 20
-26.7896500286
 10
25.6563090325
 20
-26.60377909
 10
25.6526947414
 20
-26.4208545884
  0
LWPOLYLINE
  5
316
100
AcDbEntity
  8
ASSI
100
AcDbPolyline
 62
7
  6
CONTINUOUS
 90
70
 70
0
 10
32.5116305189
 20
-30.3811181437
 10
32.5080162113
 20
-30.5598692522
 10
32.4973700214
 20
-30.7334465407
 10
32.4796919493
 20
-30.901850009
 10
32.4549164257
 20
-31.0654072648
 10
32.42310902
 20
-31.2237907005
 10
32.3844664396
 20
-31.3760174936
 10
32.3389461247
 20
-31.5220492156
 10
32.2865906352
 20
-31.661924295
 10
32.2277243579
 20
-31.7947751942
 10
32.1623068057
 20
-31.9205581496
 10
32.0903784658
 20
-32.0393169248
 10
32.0123851861
 20
-32.1503152734
 10
31.9282893716
 20
-32.2535048646
 10
31.8381286173
 20
-32.3489340291
 10
31.7424615566
 20
-32.4360115122
 10
31.6412540432
 20
-32.514685472
 10
31.5345402233
 20
-32.5850077505
 10
31.4229811695
 20
-32.6465426181
 10
31.3065467453
 20
-32.6992355633
 10
31.1852670872
 20
-32.7431410976
 10
31.0598936775
 20
-32.7779870263
 10
30.930401056
 20
-32.8037170846
 10
30.7968146829
 20
-32.8203875372
 10
30.6599624216
 20
-32.8278949836
 10
30.519824003
 20
-32.8261825049
 10
30.3764196961
 20
-32.81530702
 10
30.2306381715
 20
-32.7953358851
 10
30.0824646803
 20
-32.7662126168
 10
29.9319139715
 20
-32.7279936984
 10
29.7799189617
 20
-32.6809159371
 10
29.6264706725
 20
-32.6249243172
 10
29.4715780824
 20
-32.5600738543
 10
29.3162010433
 20
-32.4867664023
 10
29.1603365386
 20
-32.4049494351
 10
29.0039875849
 20
-32.3146754787
 10
28.8481230832
 20
-32.216503965
 10
28.6927460513
 20
-32.1103858522
 10
28.5378534714
 20
-31.9963701821
 10
28.384405192
 20
-31.8751635108
 10
28.2324101898
 20
-31.7467211898
 10
28.0818594881
 20
-31.6110878678
 10
27.9336860048
 20
-31.4691040468
 10
27.7879044874
 20
-31.3207302728
 10
27.6445001883
 20
-31.1660059999
 10
27.5043617832
 20
-31.0058900923
 10
27.367509542
 20
-30.8403490376
 10
27.2339231946
 20
-30.6694163483
 10
27.1044306063
 20
-30.4941514266
 10
26.9790572432
 20
-30.3145274189
 10
26.8577776391
 20
-30.1305711789
 10
26.7413432607
 20
-29.943422669
 10
26.6297842389
 20
-29.7530621729
 10
26.5230704428
 20
-29.5595094069
 10
26.4218629466
 20
-29.3639634829
 10
26.3261958908
 20
-29.1664119743
 10
26.2360351348
 20
-28.9668673078
 10
26.1519393313
 20
-28.7665658746
 10
26.0739460809
 20
-28.5655027611
 10
26.002017783
 20
-28.3636828809
 10
25.9366002873
 20
-28.1623573667
 10
25.8777340865
 20
-27.9615292192
 10
25.825378688
 20
-27.7611954378
 10
25.7798584639
 20
-27.5625981525
 10
25.7412159746
 20
-27.3657480933
 10
25.7094086597
 20
-27.1706345303
 10
25.6846332099
 20
-26.9784674042
 10
25.6669551886
 20
-26.7896500286
 10
25.6563090325
 20
-26.60377909
 10
25.6526947414
 20
-26.4208545884
  0
LINE
  5
317
100
AcDbEntity
  8
SMUSSO
100
AcDbLine
 62
7
  6
CONTINUOUS
 10
32.5062810126
 20
-13.4302578934
 11
32.4988881314
 21
-13.5507936277
  0
LINE
  5
318
100
AcDbEntity
  8
ASSI
100
AcDbLine
 62
7
  6
CONTINUOUS
 10
32.5062810126
 20
-13.4302578934
 11
32.4988881314
 21
-13.5507936277
  0
LINE
  5
319
100
AcDbEntity
  8
SMUSSO
100
AcDbLine
 62
7
  6
CONTINUOUS
 10
32.5062810126
 20
-30.1678985677
 11
32.4988881314
 21
-30.2884343019
  0
LINE
  5
31A
100
AcDbEntity
  8
ASSI
100
AcDbLine
 62
7
  6
CONTINUOUS
 10
32.5062810126
 20
-30.1678985677
 11
32.4988881314
 21
-30.2884343019
  0
LWPOLYLINE
  5
31B
100
AcDbEntity
  8
SMUSSO
100
AcDbPolyline
 62
7
  6
CONTINUOUS
 90
17
 70
0
 10
32.4988881314
 20
-13.5507936277
 10
32.4829845623
 20
-13.7022512238
 10
32.4607652877
 20
-13.8490621813
 10
32.4322761564
 20
-13.9909217732
 10
32.397576203
 20
-14.1275350541
 10
32.3567372512
 20
-14.2586187143
 10
32.3098438138
 20
-14.3839010285
 10
32.2569932003
 20
-14.5031217409
 10
32.1982949429
 20
-14.6160336537
 10
32.133870641
 20
-14.7224027557
 10
32.0638539812
 20
-14.8220082794
 10
31.9883901764
 20
-14.9146436893
 10
31.9076355729
 20
-15.0001171035
 10
31.8217575057
 20
-15.078251416
 10
31.7309339976
 20
-15.1488846587
 10
31.6353532686
 20
-15.2118704548
 10
31.6108211174
 20
-15.2263582221
  0
LWPOLYLINE
  5
31C
100
AcDbEntity
  8
ASSI
100
AcDbPolyline
 62
7
  6
CONTINUOUS
 90
17
 70
0
 10
32.4988881314
 20
-13.5507936277
 10
32.4829845623
 20
-13.7022512238
 10
32.4607652877
 20
-13.8490621813
 10
32.4322761564
 20
-13.9909217732
 10
32.397576203
 20
-14.1275350541
 10
32.3567372512
 20
-14.2586187143
 10
32.3098438138
 20
-14.3839010285
 10
32.2569932003
 20
-14.5031217409
 10
32.1982949429
 20
-14.6160336537
 10
32.133870641
 20
-14.7224027557
 10
32.0638539812
 20
-14.8220082794
 10
31.9883901764
 20
-14.9146436893
 10
31.9076355729
 20
-15.0001171035
 10
31.8217575057
 20
-15.078251416
 10
31.7309339976
 20
-15.1488846587
 10
31.6353532686
 20
-15.2118704548
 10
31.6108211174
 20
-15.2263582221
  0
LWPOLYLINE
  5
31D
100
AcDbEntity
  8
SMUSSO
100
AcDbPolyline
 62
7
  6
CONTINUOUS
 90
17
 70
0
 10
32.4988881314
 20
-30.2884343019
 10
32.4829845623
 20
-30.439891898
 10
32.4607652877
 20
-30.5867028555
 10
32.4322761564
 20
-30.7285624475
 10
32.397576203
 20
-30.8651757284
 10
32.3567372512
 20
-30.9962593885
 10
32.3098438138
 20
-31.1215417028
 10
32.2569932003
 20
-31.2407624152
 10
32.1982949429
 20
-31.353674328
 10
32.133870641
 20
-31.46004343
 10
32.0638539812
 20
-31.5596489537
 10
31.9883901764
 20
-31.6522843636
 10
31.9076355729
 20
-31.7377577778
 10
31.8217575057
 20
-31.8158920903
 10
31.7309339976
 20
-31.8865253329
 10
31.6353532686
 20
-31.9495111291
 10
31.6108211174
 20
-31.9639988963
  0
LWPOLYLINE
  5
31E
100
AcDbEntity
  8
ASSI
100
AcDbPolyline
 62
7
  6
CONTINUOUS
 90
17
 70
0
 10
32.4988881314
 20
-30.2884343019
 10
32.4829845623
 20
-30.439891898
 10
32.4607652877
 20
-30.5867028555
 10
32.4322761564
 20
-30.7285624475
 10
32.397576203
 20
-30.8651757284
 10
32.3567372512
 20
-30.9962593885
 10
32.3098438138
 20
-31.1215417028
 10
32.2569932003
 20
-31.2407624152
 10
32.1982949429
 20
-31.353674328
 10
32.133870641
 20
-31.46004343
 10
32.0638539812
 20
-31.5596489537
 10
31.9883901764
 20
-31.6522843636
 10
31.9076355729
 20
-31.7377577778
 10
31.8217575057
 20
-31.8158920903
 10
31.7309339976
 20
-31.8865253329
 10
31.6353532686
 20
-31.9495111291
 10
31.6108211174
 20
-31.9639988963
  0
LWPOLYLINE
  5
31F
100
AcDbEntity
  8
ASSI
100
AcDbPolyline
 62
7
  6
CONTINUOUS
 90
14
 70
0
 10
27.8128779711
 20
-24.2436280993
 10
27.7975444805
 20
-24.2624423878
 10
27.7275907323
 20
-24.3619955653
 10
27.6630766421
 20
-24.468509078
 10
27.6044019743
 20
-24.5813229101
 10
27.551602988
 20
-24.7004761827
 10
27.5046434242
 20
-24.8259297747
 10
27.4638142698
 20
-24.9569063075
 10
27.4291535907
 20
-25.093440075
 10
27.4006233211
 20
-25.2354967834
 10
27.3784002499
 20
-25.3821961719
 10
27.3625433069
 20
-25.5332448203
 10
27.3529935624
 20
-25.6889361489
 10
27.3497510163
 20
-25.8492701577
  0
LINE
  5
320
100
AcDbEntity
  8
ASSI
100
AcDbLine
 62
7
  6
CONTINUOUS
 10
52.4355926134
 20
2.2217962692
 11
53.4451293308
 21
3.275090865
  0
LWPOLYLINE
  5
321
100
AcDbEntity
  8
SMUSSO
100
AcDbPolyline
 62
7
  6
CONTINUOUS
 90
15
 70
0
 10
27.2606109242
 20
-24.4296992424
 10
27.3362187668
 20
-24.3889791359
 10
27.4407105417
 20
-24.3416636272
 10
27.5493374913
 20
-24.3023386196
 10
27.6618744823
 20
-24.2710856595
 10
27.7780883107
 20
-24.2479695564
 10
27.8977380857
 20
-24.2330382704
 10
28.0205757158
 20
-24.2263227895
 10
28.1463465785
 20
-24.2278370481
 10
28.2747900141
 20
-24.237577922
 10
28.4056397555
 20
-24.2555252297
 10
28.5386245755
 20
-24.2816417759
 10
28.6734688515
 20
-24.3158734376
 10
28.8098930912
 20
-24.3581492698
 10
28.9476145343
 20
-24.408381657
  0
LWPOLYLINE
  5
322
100
AcDbEntity
  8
ASSI
100
AcDbPolyline
 62
7
  6
CONTINUOUS
 90
15
 70
0
 10
27.2606109242
 20
-24.4296992424
 10
27.3362187668
 20
-24.3889791359
 10
27.4407105417
 20
-24.3416636272
 10
27.5493374913
 20
-24.3023386196
 10
27.6618744823
 20
-24.2710856595
 10
27.7780883107
 20
-24.2479695564
 10
27.8977380857
 20
-24.2330382704
 10
28.0205757158
 20
-24.2263227895
 10
28.1463465785
 20
-24.2278370481
 10
28.2747900141
 20
-24.237577922
 10
28.4056397555
 20
-24.2555252297
 10
28.5386245755
 20
-24.2816417759
 10
28.6734688515
 20
-24.3158734376
 10
28.8098930912
 20
-24.3581492698
 10
28.9476145343
 20
-24.408381657
  0
LINE
  5
323
100
AcDbEntity
  8
ASSI
100
AcDbLine
 62
7
  6
CONTINUOUS
 10
57.5074247458
 20
5.645003506
 11
-53.7196109586
 21
69.8660999196
  0
LWPOLYLINE
  5
324
100
AcDbEntity
  8
SMUSSO
100
AcDbPolyline
 62
7
  6
CONTINUOUS
 90
53
 70
0
 10
31.6108211174
 20
-31.9639988963
 10
31.5352132748
 20
-32.0047190029
 10
31.4307214999
 20
-32.0520345116
 10
31.3220945502
 20
-32.0913595192
 10
31.2095575593
 20
-32.1226124792
 10
31.0933437308
 20
-32.1457285823
 10
30.9736939558
 20
-32.1606598683
 10
30.8508563257
 20
-32.1673753492
 10
30.725085463
 20
-32.1658610907
 10
30.5966420275
 20
-32.1561202168
 10
30.465792286
 20
-32.138172909
 10
30.332807466
 20
-32.1120563628
 10
30.1979631901
 20
-32.0778247011
 10
30.0615389503
 20
-32.0355488689
 10
29.9238175072
 20
-31.9853164817
 10
29.7850843243
 20
-31.9272316517
 10
29.6456269769
 20
-31.8614147757
 10
29.5057345134
 20
-31.7880022661
 10
29.365696899
 20
-31.7071462861
 10
29.225804436
 20
-31.6190144526
 10
29.0863470896
 20
-31.5237894468
 10
28.9476139081
 20
-31.4216686421
 10
28.809892466
 20
-31.3128637257
 10
28.6734682264
 20
-31.1976002309
 10
28.5386239501
 20
-31.076117067
 10
28.4056391302
 20
-30.94866604
 10
28.2747893884
 20
-30.8155113082
 10
28.1463459531
 20
-30.6769288834
 10
28.0205750944
 20
-30.5332060663
 10
27.8977374734
 20
-30.3846407379
 10
27.7780877108
 20
-30.2315408631
 10
27.6618738967
 20
-30.0742239181
 10
27.5493369237
 20
-29.9130160404
 10
27.4407099936
 20
-29.7482513351
 10
27.3362182339
 20
-29.5802713173
 10
27.2360782503
 20
-29.409424252
 10
27.1404975287
 20
-29.2360641806
 10
27.0496740239
 20
-29.0605501695
 10
26.9637959533
 20
-28.8832459387
 10
26.8830413454
 20
-28.7045190409
 10
26.8075775451
 20
-28.5247398377
 10
26.7375608978
 20
-28.3442807555
 10
26.6731366164
 20
-28.1635160195
 10
26.6144383944
 20
-27.9828208002
 10
26.5615878295
 20
-27.8025695339
 10
26.514694449
 20
-27.623135898
 10
26.4738555611
 20
-27.4448925276
 10
26.4391556748
 20
-27.2682087441
 10
26.4106666084
 20
-27.0934507911
 10
26.3884473913
 20
-26.9209817793
 10
26.3725438684
 20
-26.751159377
 10
26.3629887217
 20
-26.584335109
 10
26.3598015226
 20
-26.4208545884
  0
LWPOLYLINE
  5
325
100
AcDbEntity
  8
ASSI
100
AcDbPolyline
 62
7
  6
CONTINUOUS
 90
53
 70
0
 10
31.6108211174
 20
-31.9639988963
 10
31.5352132748
 20
-32.0047190029
 10
31.4307214999
 20
-32.0520345116
 10
31.3220945502
 20
-32.0913595192
 10
31.2095575593
 20
-32.1226124792
 10
31.0933437308
 20
-32.1457285823
 10
30.9736939558
 20
-32.1606598683
 10
30.8508563257
 20
-32.1673753492
 10
30.725085463
 20
-32.1658610907
 10
30.5966420275
 20
-32.1561202168
 10
30.465792286
 20
-32.138172909
 10
30.332807466
 20
-32.1120563628
 10
30.1979631901
 20
-32.0778247011
 10
30.0615389503
 20
-32.0355488689
 10
29.9238175072
 20
-31.9853164817
 10
29.7850843243
 20
-31.9272316517
 10
29.6456269769
 20
-31.8614147757
 10
29.5057345134
 20
-31.7880022661
 10
29.365696899
 20
-31.7071462861
 10
29.225804436
 20
-31.6190144526
 10
29.0863470896
 20
-31.5237894468
 10
28.9476139081
 20
-31.4216686421
 10
28.809892466
 20
-31.3128637257
 10
28.6734682264
 20
-31.1976002309
 10
28.5386239501
 20
-31.076117067
 10
28.4056391302
 20
-30.94866604
 10
28.2747893884
 20
-30.8155113082
 10
28.1463459531
 20
-30.6769288834
 10
28.0205750944
 20
-30.5332060663
 10
27.8977374734
 20
-30.3846407379
 10
27.7780877108
 20
-30.2315408631
 10
27.6618738967
 20
-30.0742239181
 10
27.5493369237
 20
-29.9130160404
 10
27.4407099936
 20
-29.7482513351
 10
27.3362182339
 20
-29.5802713173
 10
27.2360782503
 20
-29.409424252
 10
27.1404975287
 20
-29.2360641806
 10
27.0496740239
 20
-29.0605501695
 10
26.9637959533
 20
-28.8832459387
 10
26.8830413454
 20
-28.7045190409
 10
26.8075775451
 20
-28.5247398377
 10
26.7375608978
 20
-28.3442807555
 10
26.6731366164
 20
-28.1635160195
 10
26.6144383944
 20
-27.9828208002
 10
26.5615878295
 20
-27.8025695339
 10
26.514694449
 20
-27.623135898
 10
26.4738555611
 20
-27.4448925276
 10
26.4391556748
 20
-27.2682087441
 10
26.4106666084
 20
-27.0934507911
 10
26.3884473913
 20
-26.9209817793
 10
26.3725438684
 20
-26.751159377
 10
26.3629887217
 20
-26.584335109
 10
26.3598015226
 20
-26.4208545884
  0
LINE
  5
326
100
AcDbEntity
  8
ASSI
100
AcDbLine
 62
7
  6
CONTINUOUS
 10
52.7145685475
 20
1.7385957777
 11
52.4355926134
 21
2.2217962692
  0
LINE
  5
327
100
AcDbEntity
  8
ASSI
100
AcDbLine
 62
7
  6
CONTINUOUS
 10
54.1315276785
 20
2.0862140539
 11
53.4451293308
 21
3.275090865
  0
LWPOLYLINE
  5
328
100
AcDbEntity
  8
CURVE
100
AcDbPolyline
 62
250
  6
CONTINUOUS
 90
73
 70
0
 10
56.2296912849
 20
-56.4856034133
 10
56.2285483067
 20
-56.4792673552
 10
56.2267962858
 20
-56.4734635562
 10
56.2245028276
 20
-56.468138536
 10
56.2217355373
 20
-56.4632388147
 10
56.2185620201
 20
-56.4587109122
 10
56.2150498812
 20
-56.4545013483
 10
56.211266726
 20
-56.450556643
 10
56.2072801596
 20
-56.4468233163
 10
56.2031577874
 20
-56.4432478879
 10
56.1989672146
 20
-56.439776878
 10
56.1883740527
 20
-56.4312918342
 10
56.1777230686
 20
-56.4231773024
 10
56.1669602159
 20
-56.4154807512
 10
56.1560314482
 20
-56.4082496491
 10
56.1448827192
 20
-56.4015314648
 10
56.1334599824
 20
-56.3953736667
 10
56.1217091914
 20
-56.3898237234
 10
56.1095762999
 20
-56.3849291035
 10
56.0959984126
 20
-56.380421787
 10
56.0819490452
 20
-56.37672326
 10
56.0674654704
 20
-56.3738225251
 10
56.0525849611
 20
-56.371708585
 10
56.03734479
 20
-56.3703704423
 10
56.0217822301
 20
-56.3697970996
 10
56.005934554
 20
-56.3699775596
 10
55.9898390348
 20
-56.3709008249
 10
55.973532945
 20
-56.3725558982
 10
55.9570535577
 20
-56.3749317821
 10
55.9404485969
 20
-56.3780139855
 10
55.9237174379
 20
-56.3817914057
 10
55.906869662
 20
-56.3862507272
 10
55.8899148503
 20
-56.3913786346
 10
55.8728625839
 20
-56.3971618124
 10
55.8557224442
 20
-56.403586945
 10
55.8360343427
 20
-56.4117003287
 10
55.8162689204
 20
-56.4206085891
 10
55.7964511764
 20
-56.4302850366
 10
55.7766061098
 20
-56.4407029816
 10
55.7567587196
 20
-56.4518357346
 10
55.7369340051
 20
-56.4636566059
 10
55.7176494822
 20
-56.4758257959
 10
55.6984337072
 20
-56.4886353182
 10
55.6793101017
 20
-56.5020966582
 10
55.6603020872
 20
-56.5162213011
 10
55.6414330853
 20
-56.5310207324
 10
55.6246101591
 20
-56.5449069627
 10
55.6079389292
 20
-56.5593413735
 10
55.5914398398
 20
-56.5743176141
 10
55.5751333353
 20
-56.5898293342
 10
55.5590398599
 20
-56.6058701832
 10
55.5417867376
 20
-56.6239223212
 10
55.5248390033
 20
-56.6425599979
 10
55.5082253591
 20
-56.6617492153
 10
55.4919745069
 20
-56.6814559748
 10
55.4761151489
 20
-56.7016462783
 10
55.4606759872
 20
-56.7222861274
 10
55.4456857239
 20
-56.7433415238
 10
55.431173061
 20
-56.7647784693
 10
55.4179283684
 20
-56.7853455017
 10
55.4051457083
 20
-56.8061980962
 10
55.3928354765
 20
-56.8273117897
 10
55.3810080687
 20
-56.8486621187
 10
55.3696738807
 20
-56.8702246201
 10
55.3588433082
 20
-56.8919748305
 10
55.348526747
 20
-56.9138882867
 10
55.3413426888
 20
-56.9299481021
 10
55.3344766192
 20
-56.9460611354
 10
55.3279679083
 20
-56.9622068691
 10
55.3218559264
 20
-56.9783647856
 10
55.3161800436
 20
-56.9945143677
 10
55.3109796302
 20
-57.0106350977
 10
55.3062940564
 20
-57.0267064581
  0
LWPOLYLINE
  5
329
100
AcDbEntity
  8
CURVE
100
AcDbPolyline
 62
250
  6
CONTINUOUS
 90
22
 70
0
 10
55.5771371363
 20
-57.5220636148
 10
55.5749094678
 20
-57.5083873869
 10
55.5727826878
 20
-57.494638749
 10
55.5707738388
 20
-57.4808059413
 10
55.5688999633
 20
-57.4668772037
 10
55.5671781039
 20
-57.4528407762
 10
55.5656253029
 20
-57.438684899
 10
55.5641551145
 20
-57.4232619638
 10
55.5629017897
 20
-57.4076912001
 10
55.5618653989
 20
-57.3919776284
 10
55.5610460129
 20
-57.3761262693
 10
55.560443702
 20
-57.3601421432
 10
55.5600585369
 20
-57.3440302708
 10
55.5598905881
 20
-57.3277956726
 10
55.5599399262
 20
-57.311443369
 10
55.5602066216
 20
-57.2949783808
 10
55.5606907451
 20
-57.2784057283
 10
55.561392367
 20
-57.2617304323
 10
55.5623115579
 20
-57.2449575131
 10
55.5634483884
 20
-57.2280919913
 10
55.5648029291
 20
-57.2111388875
 10
55.5663752504
 20
-57.1941032223
  0
LINE
  5
32A
100
AcDbEntity
  8
ASSI
100
AcDbLine
 62
7
  6
CONTINUOUS
 10
52.7145685475
 20
-69.0930378217
 11
52.7145685475
 21
1.7385957777
  0
LINE
  5
32B
100
AcDbEntity
  8
ASSI
100
AcDbLine
 62
7
  6
CONTINUOUS
 10
54.1530290304
 20
-69.4576557258
 11
54.1530290304
 21
2.0742191065
  0
LINE
  5
32C
100
AcDbEntity
  8
CURVE
100
AcDbLine
 62
250
  6
CONTINUOUS
 10
55.2655774164
 20
-62.2697565057
 11
55.2655774164
 21
-62.6957849809
  0
LINE
  5
32D
100
AcDbEntity
  8
CURVE
100
AcDbLine
 62
250
  6
CONTINUOUS
 10
55.2656863881
 20
-64.5323345557
 11
55.2656863881
 21
-64.0695363416
  0
LINE
  5
32E
100
AcDbEntity
  8
CURVE
100
AcDbLine
 62
250
  6
CONTINUOUS
 10
55.2656863881
 20
-63.2795637912
 11
55.2656863881
 21
-62.853826796
  0
LINE
  5
32F
100
AcDbEntity
  8
CURVE
100
AcDbLine
 62
250
  6
CONTINUOUS
 10
55.2656863881
 20
-61.8560666424
 11
55.2656863881
 21
-61.4303908825
  0
LINE
  5
330
100
AcDbEntity
  8
CURVE
100
AcDbLine
 62
250
  6
CONTINUOUS
 10
55.2656863881
 20
-60.5828334999
 11
55.2656863881
 21
-60.1613201054
  0
LINE
  5
331
100
AcDbEntity
  8
CURVE
100
AcDbLine
 62
250
  6
CONTINUOUS
 10
55.2656863881
 20
-59.2633946714
 11
55.2656863881
 21
-58.8512633369
  0
LINE
  5
332
100
AcDbEntity
  8
ASSI
100
AcDbLine
 62
7
  6
CONTINUOUS
 10
53.4454917611
 20
3.2997096038
 11
53.4451293308
 21
3.275090865
  0
LINE
  5
333
100
AcDbEntity
  8
ASSI
100
AcDbLine
 62
7
  6
CONTINUOUS
 10
57.5074247458
 20
5.645003506
 11
58.2149620151
 21
4.4195130086
  0
LINE
  5
334
100
AcDbEntity
  8
CURVE
100
AcDbLine
 62
250
  6
CONTINUOUS
 10
56.079011173
 20
-57.0083723383
 11
56.079011173
 21
-57.2518433295
  0
LINE
  5
335
100
AcDbEntity
  8
CURVE
100
AcDbLine
 62
250
  6
CONTINUOUS
 10
56.3784246608
 20
-57.0765059039
 11
56.3784246608
 21
-56.848079669
  0
LINE
  5
336
100
AcDbEntity
  8
CURVE
100
AcDbLine
 62
250
  6
CONTINUOUS
 10
56.4464920444
 20
-58.6416876436
 11
56.4464920444
 21
-58.2337954227
  0
LINE
  5
337
100
AcDbEntity
  8
CURVE
100
AcDbLine
 62
250
  6
CONTINUOUS
 10
56.728905739
 20
-57.9965960081
 11
56.728905739
 21
-58.5767757044
  0
LINE
  5
338
100
AcDbEntity
  8
CURVE
100
AcDbLine
 62
250
  6
CONTINUOUS
 10
57.0938775648
 20
-61.7113870011
 11
57.0938775648
 21
-61.285358526
  0
LINE
  5
339
100
AcDbEntity
  8
CURVE
100
AcDbLine
 62
250
  6
CONTINUOUS
 10
57.0938775769
 20
-57.1156041057
 11
57.0938775769
 21
-56.6912899393
  0
LINE
  5
33A
100
AcDbEntity
  8
CURVE
100
AcDbLine
 62
250
  6
CONTINUOUS
 10
57.0938775769
 20
-56.0388862467
 11
57.0938775769
 21
-55.6290964687
  0
LINE
  5
33B
100
AcDbEntity
  8
CURVE
100
AcDbLine
 62
250
  6
CONTINUOUS
 10
57.0938775648
 20
-57.2407068406
 11
57.0938775648
 21
-57.6897230363
  0
LINE
  5
33C
100
AcDbEntity
  8
CURVE
100
AcDbLine
 62
250
  6
CONTINUOUS
 10
57.0938775648
 20
-58.4978244928
 11
57.0938775648
 21
-58.9192301132
  0
LINE
  5
33D
100
AcDbEntity
  8
CURVE
100
AcDbLine
 62
250
  6
CONTINUOUS
 10
57.0938775648
 20
-58.9861284218
 11
57.0938775648
 21
-59.4028973076
  0
LINE
  5
33E
100
AcDbEntity
  8
CURVE
100
AcDbLine
 62
250
  6
CONTINUOUS
 10
57.0938775648
 20
-59.996973328
 11
57.0938775648
 21
-60.0567242558
  0
LINE
  5
33F
100
AcDbEntity
  8
CURVE
100
AcDbLine
 62
250
  6
CONTINUOUS
 10
57.0938775648
 20
-60.648443943
 11
57.0938775648
 21
-61.0560144746
  0
LINE
  5
340
100
AcDbEntity
  8
CURVE
100
AcDbLine
 62
250
  6
CONTINUOUS
 10
57.0938775648
 20
-62.5255336035
 11
57.0938775648
 21
-62.9009711309
  0
LINE
  5
341
100
AcDbEntity
  8
ASSI
100
AcDbLine
 62
7
  6
CONTINUOUS
 10
58.2149620151
 20
-67.4288772115
 11
58.2149620151
 21
4.4195130086
  0
LWPOLYLINE
  5
342
100
AcDbEntity
  8
CURVE
100
AcDbPolyline
 62
250
  6
CONTINUOUS
 90
48
 70
0
 10
56.3784246608
 20
-56.848079669
 10
56.3784992625
 20
-56.8414799047
 10
56.3787238812
 20
-56.8347877211
 10
56.3790997376
 20
-56.8280092122
 10
56.3796280524
 20
-56.821150472
 10
56.380310046
 20
-56.8142175946
 10
56.3811469392
 20
-56.8072166737
 10
56.3821399526
 20
-56.8001538036
 10
56.3832903066
 20
-56.7930350782
 10
56.3845992221
 20
-56.7858665914
 10
56.3860679195
 20
-56.7786544374
 10
56.3876976195
 20
-56.7714047099
 10
56.3894895427
 20
-56.7641235032
 10
56.3914449096
 20
-56.7568169111
 10
56.3935649411
 20
-56.7494910276
 10
56.3958508575
 20
-56.7421519468
 10
56.3983038796
 20
-56.7348057626
 10
56.4009252279
 20
-56.7274585691
 10
56.4037883125
 20
-56.719929159
 10
56.4068241612
 20
-56.7124094918
 10
56.4100272421
 20
-56.7049039635
 10
56.4133920231
 20
-56.6974169699
 10
56.4169129723
 20
-56.689952907
 10
56.4205845576
 20
-56.6825161707
 10
56.424401247
 20
-56.6751111569
 10
56.4283575085
 20
-56.6677422615
 10
56.4324478101
 20
-56.6604138805
 10
56.4366666198
 20
-56.6531304097
 10
56.4410084056
 20
-56.6458962451
 10
56.4454676355
 20
-56.6387157825
 10
56.4500387773
 20
-56.631593418
 10
56.4547162993
 20
-56.6245335473
 10
56.4594946692
 20
-56.6175405665
 10
56.4643683552
 20
-56.6106188714
 10
56.4693318252
 20
-56.603772858
 10
56.4743795471
 20
-56.5970069222
 10
56.4795059891
 20
-56.5903254598
 10
56.484705619
 20
-56.5837328668
 10
56.4899729049
 20
-56.5772335392
 10
56.4953023147
 20
-56.5708318727
 10
56.5006883165
 20
-56.5645322634
 10
56.5061253781
 20
-56.5583391072
 10
56.5116079677
 20
-56.5522567999
 10
56.5171305532
 20
-56.5462897376
 10
56.5226876026
 20
-56.540442316
 10
56.5282735839
 20
-56.5347189312
 10
56.533882965
 20
-56.5291239789
 10
56.539510214
 20
-56.5236618553
  0
LWPOLYLINE
  5
343
100
AcDbEntity
  8
CURVE
100
AcDbPolyline
 62
250
  6
CONTINUOUS
 90
49
 70
0
 10
55.5663752504
 20
-57.1941032223
 10
55.567281639
 20
-57.1858071518
 10
55.5683770831
 20
-57.1774087572
 10
55.5696610512
 20
-57.1689169248
 10
55.5711330119
 20
-57.1603405408
 10
55.5727924338
 20
-57.1516884915
 10
55.5746387852
 20
-57.1429696631
 10
55.5766715349
 20
-57.1341929418
 10
55.5788901511
 20
-57.1253672141
 10
55.5812941026
 20
-57.116501366
 10
55.5838828577
 20
-57.1076042838
 10
55.5866558851
 20
-57.0986848539
 10
55.5896126532
 20
-57.0897519624
 10
55.5927526306
 20
-57.0808144956
 10
55.5960752858
 20
-57.0718813399
 10
55.5995800872
 20
-57.0629613813
 10
55.6032665035
 20
-57.0540635062
 10
55.6071340031
 20
-57.0451966009
 10
55.6111820546
 20
-57.0363695516
 10
55.6154101265
 20
-57.0275912445
 10
55.6198176872
 20
-57.0188705659
 10
55.6244042054
 20
-57.0102164021
 10
55.6291691496
 20
-57.0016376394
 10
55.6341119881
 20
-56.9931431639
 10
55.6392321897
 20
-56.9847418619
 10
55.644498911
 20
-56.9764867559
 10
55.6499323006
 20
-56.9683395318
 10
55.6555240962
 20
-56.9603071091
 10
55.6612660355
 20
-56.952396407
 10
55.6671498562
 20
-56.9446143449
 10
55.6731672961
 20
-56.9369678422
 10
55.6793100928
 20
-56.9294638182
 10
55.6855699842
 20
-56.9221091922
 10
55.6919387078
 20
-56.9149108836
 10
55.6984080016
 20
-56.9078758117
 10
55.7049696031
 20
-56.9010108959
 10
55.7116152501
 20
-56.8943230555
 10
55.7183366803
 20
-56.8878192099
 10
55.7251256315
 20
-56.8815062783
 10
55.7319738414
 20
-56.8753911802
 10
55.7388730476
 20
-56.8694808349
 10
55.745814988
 20
-56.8637821618
 10
55.7527914002
 20
-56.8583020801
 10
55.759794022
 20
-56.8530475092
 10
55.7668145911
 20
-56.8480253684
 10
55.7738448452
 20
-56.8432425772
 10
55.780876522
 20
-56.8387060549
 10
55.7879013593
 20
-56.8344227207
 10
55.7949110948
 20
-56.830399494
  0
LWPOLYLINE
  5
344
100
AcDbEntity
  8
CURVE
100
AcDbPolyline
 62
250
  6
CONTINUOUS
 90
32
 70
0
 10
55.3062940564
 20
-57.0267064581
 10
55.2986913432
 20
-57.0554610625
 10
55.2917423158
 20
-57.0841004741
 10
55.2854152638
 20
-57.1126208552
 10
55.2796784771
 20
-57.1410183683
 10
55.2745002455
 20
-57.1692891756
 10
55.2698488585
 20
-57.1974294395
 10
55.2656926061
 20
-57.2254353224
 10
55.2619997779
 20
-57.2533029865
 10
55.2587386636
 20
-57.2810285943
 10
55.2558775532
 20
-57.308608308
 10
55.2533847362
 20
-57.33603829
 10
55.2512285024
 20
-57.3633147027
 10
55.248562959
 20
-57.4040446769
 10
55.246559441
 20
-57.4444292484
 10
55.2451903495
 20
-57.4844790698
 10
55.2444280853
 20
-57.5242047941
 10
55.2442450494
 20
-57.563617074
 10
55.2446136427
 20
-57.6027265622
 10
55.2455062662
 20
-57.6415439117
 10
55.2468953209
 20
-57.6800797752
 10
55.2487532076
 20
-57.7183448055
 10
55.2510523273
 20
-57.7563496554
 10
55.253765081
 20
-57.7941049776
 10
55.2568638695
 20
-57.8316214251
 10
55.260321094
 20
-57.8689096506
 10
55.2641091552
 20
-57.9059803069
 10
55.2682004542
 20
-57.9428440467
 10
55.2725673919
 20
-57.9795115229
 10
55.2771823692
 20
-58.0159933884
 10
55.2820177871
 20
-58.0523002958
 10
55.2870460465
 20
-58.088442898
  0
LINE
  5
345
100
AcDbEntity
  8
CURVE
100
AcDbLine
 62
7
  6
CONTINUOUS
 10
55.4822410935
 20
-56.6944121167
 11
55.6584714534
 21
-56.5181817569
  0
LINE
  5
346
100
AcDbEntity
  8
CURVE
100
AcDbLine
 62
7
  6
CONTINUOUS
 10
55.2890661517
 20
-57.0975977726
 11
56.0163059749
 21
-56.3703579493
  0
LINE
  5
347
100
AcDbEntity
  8
CURVE
100
AcDbLine
 62
7
  6
CONTINUOUS
 10
55.2530231412
 20
-57.343651497
 11
56.1751561557
 21
-56.4215184825
  0
LWPOLYLINE
  5
348
100
AcDbEntity
  8
CURVE
100
AcDbPolyline
 62
250
  6
CONTINUOUS
 90
44
 70
0
 10
56.5424528759
 20
-56.0888875997
 10
56.5282837118
 20
-56.1010617154
 10
56.5140491363
 20
-56.1134864335
 10
56.499719726
 20
-56.1262387563
 10
56.491844856
 20
-56.1333672222
 10
56.4839408624
 20
-56.1406139723
 10
56.4760156891
 20
-56.1479765923
 10
56.4680772801
 20
-56.1554526681
 10
56.4601335792
 20
-56.1630397854
 10
56.4521925303
 20
-56.1707355301
 10
56.4442620774
 20
-56.178537488
 10
56.4363501643
 20
-56.1864432449
 10
56.428464735
 20
-56.1944503866
 10
56.4206137333
 20
-56.2025564989
 10
56.4128051032
 20
-56.2107591676
 10
56.4050467885
 20
-56.2190559786
 10
56.3973467332
 20
-56.2274445176
 10
56.3897128812
 20
-56.2359223705
 10
56.3821531763
 20
-56.2444871231
 10
56.3746755625
 20
-56.2531363611
 10
56.3672879837
 20
-56.2618676704
 10
56.3599983837
 20
-56.2706786368
 10
56.3528147065
 20
-56.2795668462
 10
56.345744896
 20
-56.2885298843
 10
56.3387968961
 20
-56.2975653369
 10
56.3319786506
 20
-56.3066707898
 10
56.3252981036
 20
-56.3158438289
 10
56.3187631988
 20
-56.32508204
 10
56.3123818802
 20
-56.3343830089
 10
56.3061620918
 20
-56.3437443214
 10
56.3001117773
 20
-56.3531635632
 10
56.2942388807
 20
-56.3626383203
 10
56.288551346
 20
-56.3721661784
 10
56.2830571169
 20
-56.3817447233
 10
56.2777641375
 20
-56.3913715409
 10
56.2726803516
 20
-56.401044217
 10
56.2678137031
 20
-56.4107603373
 10
56.2631721359
 20
-56.4205174877
 10
56.2587635939
 20
-56.430313254
 10
56.2545960211
 20
-56.440145222
 10
56.2506773613
 20
-56.4500109775
 10
56.2470155584
 20
-56.4599081063
 10
56.2436185563
 20
-56.4698341942
 10
56.240494299
 20
-56.4797868272
  0
LINE
  5
349
100
AcDbEntity
  8
CURVE
100
AcDbLine
 62
250
  6
CONTINUOUS
 10
56.5707126634
 20
-56.0649831668
 11
56.5424528759
 21
-56.0888875997
  0
LINE
  5
34A
100
AcDbEntity
  8
CURVE
100
AcDbLine
 62
250
  6
CONTINUOUS
 10
56.7312050756
 20
-55.930506995
 11
56.5707126634
 21
-56.0649831668
  0
LINE
  5
34B
100
AcDbEntity
  8
CURVE
100
AcDbLine
 62
250
  6
CONTINUOUS
 10
57.0938775769
 20
-55.6290964687
 11
57.0286078482
 21
-55.6836764416
  0
LINE
  5
34C
100
AcDbEntity
  8
CURVE
100
AcDbLine
 62
250
  6
CONTINUOUS
 10
57.0286078482
 20
-55.6836764416
 11
56.7312050756
 21
-55.930506995
  0
LWPOLYLINE
  5
34D
100
AcDbEntity
  8
CURVE
100
AcDbPolyline
 62
250
  6
CONTINUOUS
 90
59
 70
0
 10
55.7949110948
 20
-56.830399494
 10
55.8028488114
 20
-56.8261022293
 10
55.81084791
 20
-56.8219974318
 10
55.8188974351
 20
-56.8180911001
 10
55.826986431
 20
-56.8143892327
 10
55.8351039421
 20
-56.8108978282
 10
55.843239013
 20
-56.8076228851
 10
55.851380688
 20
-56.804570402
 10
55.8595180115
 20
-56.8017463773
 10
55.867640028
 20
-56.7991568096
 10
55.875735782
 20
-56.7968076974
 10
55.8837943178
 20
-56.7947050393
 10
55.8918046798
 20
-56.7928548337
 10
55.8997559125
 20
-56.7912630792
 10
55.9076370604
 20
-56.7899357744
 10
55.9154371678
 20
-56.7888789178
 10
55.9231452792
 20
-56.7880985078
 10
55.930750439
 20
-56.7876005431
 10
55.9382416916
 20
-56.7873910221
 10
55.9456080815
 20
-56.7874759435
 10
55.9528386531
 20
-56.7878613056
 10
55.9599224508
 20
-56.7885531071
 10
55.9668485191
 20
-56.7895573465
 10
55.9736059023
 20
-56.7908800223
 10
55.9801836449
 20
-56.792527133
 10
55.9865707913
 20
-56.7945046772
 10
55.992756386
 20
-56.7968186534
 10
55.9987294734
 20
-56.7994750601
 10
56.0044790978
 20
-56.8024798959
 10
56.0099943039
 20
-56.8058391592
 10
56.0152641358
 20
-56.8095588487
 10
56.0202146137
 20
-56.8135843816
 10
56.0249209287
 20
-56.8179532207
 10
56.0293884004
 20
-56.8226520354
 10
56.0336223484
 20
-56.827667495
 10
56.0376280926
 20
-56.832986269
 10
56.0414109524
 20
-56.8385950265
 10
56.0449762477
 20
-56.8444804371
 10
56.0483292981
 20
-56.85062917
 10
56.0514754233
 20
-56.8570278947
 10
56.0544199428
 20
-56.8636632804
 10
56.0571681765
 20
-56.8705219966
 10
56.059725444
 20
-56.8775907125
 10
56.062097065
 20
-56.8848560977
 10
56.064288359
 20
-56.8923048214
 10
56.0663046459
 20
-56.8999235529
 10
56.0681512453
 20
-56.9076989617
 10
56.0698334768
 20
-56.9156177171
 10
56.0713566602
 20
-56.9236664884
 10
56.0727261151
 20
-56.931831945
 10
56.0739471611
 20
-56.9401007564
 10
56.0750251181
 20
-56.9484595917
 10
56.0759653055
 20
-56.9568951205
 10
56.0767730431
 20
-56.965394012
 10
56.0774536507
 20
-56.9739429356
 10
56.0780124477
 20
-56.9825285607
 10
56.078454754
 20
-56.9911375566
 10
56.0787858892
 20
-56.9997565927
 10
56.079011173
 20
-57.0083723383
  0
LINE
  5
34E
100
AcDbEntity
  8
CURVE
100
AcDbLine
 62
250
  6
CONTINUOUS
 10
56.240494299
 20
-56.4797868272
 11
56.2296912849
 21
-56.4856034133
  0
LINE
  5
34F
100
AcDbEntity
  8
CURVE
100
AcDbLine
 62
250
  6
CONTINUOUS
 10
57.0938775769
 20
-56.6912899393
 11
56.3784246608
 21
-57.0765059039
  0
LINE
  5
350
100
AcDbEntity
  8
CURVE
100
AcDbLine
 62
250
  6
CONTINUOUS
 10
56.079011173
 20
-57.2518433295
 11
55.5771371363
 21
-57.5220636148
  0
LINE
  5
351
100
AcDbEntity
  8
CURVE
100
AcDbLine
 62
250
  6
CONTINUOUS
 10
55.2870460465
 20
-58.088442898
 11
57.0938775769
 21
-57.1156041057
  0
LINE
  5
352
100
AcDbEntity
  8
CURVE
100
AcDbLine
 62
250
  6
CONTINUOUS
 10
55.9001035447
 20
-61.1992617609
 11
57.0938775648
 21
-60.648443943
  0
LINE
  5
353
100
AcDbEntity
  8
CURVE
100
AcDbLine
 62
250
  6
CONTINUOUS
 10
57.0938775648
 20
-61.0560144746
 11
55.2656863881
 21
-61.8560666424
  0
LINE
  5
354
100
AcDbEntity
  8
CURVE
100
AcDbLine
 62
7
  6
CONTINUOUS
 10
55.2449268845
 20
-57.5617584678
 11
55.562362253
 21
-57.2443230993
  0
LINE
  5
355
100
AcDbEntity
  8
CURVE
100
AcDbLine
 62
7
  6
CONTINUOUS
 10
56.0039975288
 20
-56.8026878234
 11
57.0938775769
 21
-55.7128077754
  0
LINE
  5
356
100
AcDbEntity
  8
CURVE
100
AcDbLine
 62
7
  6
CONTINUOUS
 10
55.2519792504
 20
-57.7647168158
 11
55.5669743538
 21
-57.4497217125
  0
LINE
  5
357
100
AcDbEntity
  8
CURVE
100
AcDbLine
 62
7
  6
CONTINUOUS
 10
56.0740997423
 20
-56.942596324
 11
57.0938775769
 21
-55.9228184894
  0
LINE
  5
358
100
AcDbEntity
  8
CURVE
100
AcDbLine
 62
7
  6
CONTINUOUS
 10
55.2700072176
 20
-57.9566995627
 11
55.8533768483
 21
-57.373329932
  0
LINE
  5
359
100
AcDbEntity
  8
CURVE
100
AcDbLine
 62
7
  6
CONTINUOUS
 10
56.079011173
 20
-57.1476956073
 11
56.3784246608
 21
-56.8482821195
  0
LINE
  5
35A
100
AcDbEntity
  8
CURVE
100
AcDbLine
 62
7
  6
CONTINUOUS
 10
55.4196966912
 20
-58.0170208031
 11
56.3784246608
 21
-57.0582928335
  0
LINE
  5
35B
100
AcDbEntity
  8
CURVE
100
AcDbLine
 62
7
  6
CONTINUOUS
 10
55.874681444
 20
-57.7720467643
 11
56.7939510967
 21
-56.8527771116
  0
LINE
  5
35C
100
AcDbEntity
  8
CURVE
100
AcDbLine
 62
7
  6
CONTINUOUS
 10
56.3296661968
 20
-57.5270727255
 11
57.0938775769
 21
-56.7628613455
  0
LINE
  5
35D
100
AcDbEntity
  8
CURVE
100
AcDbLine
 62
7
  6
CONTINUOUS
 10
56.7846509496
 20
-57.2820986867
 11
57.0938775769
 21
-56.9728720595
  0
LINE
  5
35E
100
AcDbEntity
  8
CURVE
100
AcDbLine
 62
7
  6
CONTINUOUS
 10
55.2656863881
 20
-59.0110739622
 11
56.6081395977
 21
-57.6686207526
  0
LINE
  5
35F
100
AcDbEntity
  8
CURVE
100
AcDbLine
 62
7
  6
CONTINUOUS
 10
55.2656863881
 20
-59.2210846762
 11
57.0938775648
 21
-57.3928934995
  0
LINE
  5
360
100
AcDbEntity
  8
CURVE
100
AcDbLine
 62
7
  6
CONTINUOUS
 10
55.4722790265
 20
-59.2245027519
 11
55.9409626115
 21
-58.7558191669
  0
LINE
  5
361
100
AcDbEntity
  8
CURVE
100
AcDbLine
 62
7
  6
CONTINUOUS
 10
56.4464920444
 20
-58.250289734
 11
57.0938775648
 21
-57.6029042136
  0
LINE
  5
362
100
AcDbEntity
  8
CURVE
100
AcDbLine
 62
7
  6
CONTINUOUS
 10
55.7309938835
 20
-59.1757986089
 11
56.2122123922
 21
-58.6945801002
  0
LINE
  5
363
100
AcDbEntity
  8
CURVE
100
AcDbLine
 62
7
  6
CONTINUOUS
 10
56.4464920444
 20
-58.460300448
 11
56.728905739
 21
-58.1778867534
  0
LINE
  5
364
100
AcDbEntity
  8
CURVE
100
AcDbLine
 62
7
  6
CONTINUOUS
 10
55.9897087404
 20
-59.127094466
 11
56.728905739
 21
-58.3878974674
  0
LINE
  5
365
100
AcDbEntity
  8
CURVE
100
AcDbLine
 62
7
  6
CONTINUOUS
 10
56.2484235974
 20
-59.078390323
 11
56.7558714831
 21
-58.5709424373
  0
LINE
  5
366
100
AcDbEntity
  8
CURVE
100
AcDbLine
 62
7
  6
CONTINUOUS
 10
55.2656863881
 20
-60.2711382463
 11
55.5731423025
 21
-59.9636823319
  0
LINE
  5
367
100
AcDbEntity
  8
CURVE
100
AcDbLine
 62
7
  6
CONTINUOUS
 10
56.5071384544
 20
-59.02968618
 11
57.0238521458
 21
-58.5129724886
  0
LINE
  5
368
100
AcDbEntity
  8
CURVE
100
AcDbLine
 62
7
  6
CONTINUOUS
 10
55.2656863881
 20
-60.4811489603
 11
56.1611055987
 21
-59.5857297498
  0
LINE
  5
369
100
AcDbEntity
  8
CURVE
100
AcDbLine
 62
7
  6
CONTINUOUS
 10
56.7658533114
 20
-58.980982037
 11
57.0938775648
 21
-58.6529577836
  0
LINE
  5
36A
100
AcDbEntity
  8
CURVE
100
AcDbLine
 62
7
  6
CONTINUOUS
 10
55.3886023395
 20
-60.5682437229
 11
56.7490688948
 21
-59.2077771676
  0
LINE
  5
36B
100
AcDbEntity
  8
CURVE
100
AcDbLine
 62
7
  6
CONTINUOUS
 10
57.0245681684
 20
-58.9322778941
 11
57.0938775648
 21
-58.8629684976
  0
LINE
  5
36C
100
AcDbEntity
  8
CURVE
100
AcDbLine
 62
7
  6
CONTINUOUS
 10
55.6268980871
 20
-60.5399586894
 11
56.0529659437
 21
-60.1138908327
  0
LINE
  5
36D
100
AcDbEntity
  8
CURVE
100
AcDbLine
 62
7
  6
CONTINUOUS
 10
56.2434623303
 20
-59.9233944461
 11
57.0938775648
 21
-59.0729792116
  0
LINE
  5
36E
100
AcDbEntity
  8
CURVE
100
AcDbLine
 62
7
  6
CONTINUOUS
 10
55.8651938347
 20
-60.5116736558
 11
56.2895503428
 21
-60.0873171477
  0
LINE
  5
36F
100
AcDbEntity
  8
CURVE
100
AcDbLine
 62
7
  6
CONTINUOUS
 10
56.7847976278
 20
-59.5920698627
 11
57.0938775648
 21
-59.2829899257
  0
LINE
  5
370
100
AcDbEntity
  8
CURVE
100
AcDbLine
 62
7
  6
CONTINUOUS
 10
56.1034895822
 20
-60.4833886223
 11
56.5261347419
 21
-60.0607434626
  0
LINE
  5
371
100
AcDbEntity
  8
CURVE
100
AcDbLine
 62
7
  6
CONTINUOUS
 10
55.2656863881
 20
-61.5312025304
 11
56.7627191409
 21
-60.0341697776
  0
LINE
  5
372
100
AcDbEntity
  8
CURVE
100
AcDbLine
 62
7
  6
CONTINUOUS
 10
55.2656863881
 20
-61.7412132444
 11
56.99930354
 21
-60.0075960925
  0
LINE
  5
373
100
AcDbEntity
  8
CURVE
100
AcDbLine
 62
7
  6
CONTINUOUS
 10
55.4348909061
 20
-61.7820194404
 11
56.1183489174
 21
-61.0985614291
  0
LINE
  5
374
100
AcDbEntity
  8
CURVE
100
AcDbLine
 62
7
  6
CONTINUOUS
 10
55.8083226416
 20
-61.618598419
 11
56.5082749084
 21
-60.9186461521
  0
LINE
  5
375
100
AcDbEntity
  8
CURVE
100
AcDbLine
 62
7
  6
CONTINUOUS
 10
55.2655774164
 20
-62.3713543581
 11
55.4856874902
 21
-62.1512442843
  0
LINE
  5
376
100
AcDbEntity
  8
CURVE
100
AcDbLine
 62
7
  6
CONTINUOUS
 10
56.181754377
 20
-61.4551773975
 11
56.8982008995
 21
-60.7387308751
  0
LINE
  5
377
100
AcDbEntity
  8
CURVE
100
AcDbLine
 62
7
  6
CONTINUOUS
 10
55.2655774164
 20
-62.5813650721
 11
55.940672243
 21
-61.9062702455
  0
LINE
  5
378
100
AcDbEntity
  8
CURVE
100
AcDbLine
 62
7
  6
CONTINUOUS
 10
56.5551861125
 20
-61.2917563761
 11
57.0938775648
 21
-60.7530649237
  0
LINE
  5
379
100
AcDbEntity
  8
CURVE
100
AcDbLine
 62
7
  6
CONTINUOUS
 10
55.4726733216
 20
-62.584279881
 11
56.3956569958
 21
-61.6612962067
  0
LINE
  5
37A
100
AcDbEntity
  8
CURVE
100
AcDbLine
 62
7
  6
CONTINUOUS
 10
56.9286178479
 20
-61.1283353547
 11
57.0938775648
 21
-60.9630756378
  0
LINE
  5
37B
100
AcDbEntity
  8
CURVE
100
AcDbLine
 62
7
  6
CONTINUOUS
 10
55.2656863881
 20
-63.0012775284
 11
55.4454106967
 21
-62.8215532199
  0
LINE
  5
37C
100
AcDbEntity
  8
CURVE
100
AcDbLine
 62
7
  6
CONTINUOUS
 10
55.9276580744
 20
-62.3393058422
 11
56.8506417486
 21
-61.4163221679
  0
LINE
  5
37D
100
AcDbEntity
  8
CURVE
100
AcDbLine
 62
7
  6
CONTINUOUS
 10
55.2656863881
 20
-63.2112882425
 11
55.7013879288
 21
-62.7755867018
  0
LINE
  5
37E
100
AcDbEntity
  8
CURVE
100
AcDbLine
 62
7
  6
CONTINUOUS
 10
56.3826428272
 20
-62.0943318034
 11
57.0938775648
 21
-61.3830970658
  0
LINE
  5
37F
100
AcDbEntity
  8
CURVE
100
AcDbLine
 62
7
  6
CONTINUOUS
 10
55.447356424
 20
-63.2396289206
 11
55.9573651608
 21
-62.7296201838
  0
LINE
  5
380
100
AcDbEntity
  8
CURVE
100
AcDbLine
 62
7
  6
CONTINUOUS
 10
56.83762758
 20
-61.8493577646
 11
57.0938775648
 21
-61.5931077798
  0
LINE
  5
381
100
AcDbEntity
  8
CURVE
100
AcDbLine
 62
7
  6
CONTINUOUS
 10
55.7165391204
 20
-63.1804569382
 11
56.2133423929
 21
-62.6836536658
  0
LINE
  5
382
100
AcDbEntity
  8
CURVE
100
AcDbLine
 62
7
  6
CONTINUOUS
 10
55.9857218167
 20
-63.1212849559
 11
56.4693196249
 21
-62.6376871477
  0
LINE
  5
383
100
AcDbEntity
  8
CURVE
100
AcDbLine
 62
7
  6
CONTINUOUS
 10
56.2549045131
 20
-63.0621129736
 11
56.725296857
 21
-62.5917206297
  0
LINE
  5
384
100
AcDbEntity
  8
CURVE
100
AcDbLine
 62
7
  6
CONTINUOUS
 10
55.2656863881
 20
-64.2613418125
 11
56.981274089
 21
-62.5457541116
  0
LINE
  5
385
100
AcDbEntity
  8
CURVE
100
AcDbLine
 62
7
  6
CONTINUOUS
 10
55.2656863881
 20
-64.4713525265
 11
57.0938775648
 21
-62.6431613499
  0
LINE
  5
386
100
AcDbEntity
  8
CURVE
100
AcDbLine
 62
7
  6
CONTINUOUS
 10
56.6499064696
 20
-63.297143159
 11
57.0938775648
 21
-62.8531720639
  0
LINE
  5
387
100
AcDbEntity
  8
CURVE
100
AcDbLine
 62
250
  6
CONTINUOUS
 10
57.0938775648
 20
-60.0567242558
 11
55.9001035447
 21
-61.1992617609
  0
LINE
  5
388
100
AcDbEntity
  8
CURVE
100
AcDbLine
 62
250
  6
CONTINUOUS
 10
55.2656863881
 20
-61.4303908825
 11
56.2807036678
 21
-60.4623538098
  0
LWPOLYLINE
  5
389
100
AcDbEntity
  8
CURVE
100
AcDbPolyline
 62
250
  6
CONTINUOUS
 90
7
 70
0
 10
56.539510214
 20
-56.5236618553
 10
56.5648098798
 20
-56.4996847122
 10
56.5902398351
 20
-56.4760595164
 10
56.6157856804
 20
-56.4527481254
 10
56.6414330163
 20
-56.4297123967
 10
56.6671674433
 20
-56.4069141876
 10
56.6929745618
 20
-56.3843153558
  0
LINE
  5
38A
100
AcDbEntity
  8
CURVE
100
AcDbLine
 62
250
  6
CONTINUOUS
 10
57.0938775648
 20
-62.9009711309
 11
55.2656863881
 21
-64.5323345557
  0
LINE
  5
38B
100
AcDbEntity
  8
CURVE
100
AcDbLine
 62
250
  6
CONTINUOUS
 10
55.2656863881
 20
-58.8512633369
 11
57.0938775648
 21
-57.2407068406
  0
LINE
  5
38C
100
AcDbEntity
  8
CURVE
100
AcDbLine
 62
250
  6
CONTINUOUS
 10
56.6929745618
 20
-56.3843153558
 11
56.7447492756
 21
-56.3395632535
  0
LINE
  5
38D
100
AcDbEntity
  8
CURVE
100
AcDbLine
 62
250
  6
CONTINUOUS
 10
56.8485374247
 20
-56.250773304
 11
57.0938775769
 21
-56.0388862467
  0
LINE
  5
38E
100
AcDbEntity
  8
CURVE
100
AcDbLine
 62
250
  6
CONTINUOUS
 10
56.7447492756
 20
-56.3395632535
 11
56.8485374247
 21
-56.250773304
  0
LINE
  5
38F
100
AcDbEntity
  8
CURVE
100
AcDbLine
 62
250
  6
CONTINUOUS
 10
55.2656863881
 20
-64.0695363416
 11
56.5240872094
 21
-63.0029409912
  0
LINE
  5
390
100
AcDbEntity
  8
CURVE
100
AcDbLine
 62
250
  6
CONTINUOUS
 10
57.0938775648
 20
-57.6897230363
 11
56.728905739
 21
-57.9965960081
  0
LINE
  5
391
100
AcDbEntity
  8
CURVE
100
AcDbLine
 62
250
  6
CONTINUOUS
 10
56.4464920444
 20
-58.2337954227
 11
55.7680269171
 21
-58.7948622235
  0
LINE
  5
392
100
AcDbEntity
  8
CURVE
100
AcDbLine
 62
250
  6
CONTINUOUS
 10
55.2656863881
 20
-60.1613201054
 11
57.0938775648
 21
-58.9861284218
  0
LINE
  5
393
100
AcDbEntity
  8
CURVE
100
AcDbLine
 62
250
  6
CONTINUOUS
 10
57.0938775648
 20
-59.4028973076
 11
55.9050796753
 21
-60.1305017468
  0
LINE
  5
394
100
AcDbEntity
  8
ASSI
100
AcDbLine
 62
7
  6
CONTINUOUS
 10
52.4355926134
 20
-69.2540838972
 11
52.7145685475
 21
-69.0930378217
  0
LINE
  5
395
100
AcDbEntity
  8
ASSI
100
AcDbLine
 62
7
  6
CONTINUOUS
 10
53.4451293308
 20
-69.8654584819
 11
54.1315276785
 21
-69.4692172775
  0
LINE
  5
396
100
AcDbEntity
  8
ASSI
100
AcDbLine
 62
7
  6
CONTINUOUS
 10
58.2149620151
 20
-67.4288772115
 11
57.5074247458
 21
-67.8373214053
  0
LINE
  5
397
100
AcDbEntity
  8
CURVE
100
AcDbLine
 62
250
  6
CONTINUOUS
 10
57.0938775648
 20
-61.285358526
 11
55.2655774164
 21
-62.2697565057
  0
LINE
  5
398
100
AcDbEntity
  8
CURVE
100
AcDbLine
 62
250
  6
CONTINUOUS
 10
55.2655774164
 20
-62.6957849809
 11
57.0938775648
 21
-61.7113870011
  0
LINE
  5
399
100
AcDbEntity
  8
ASSI
100
AcDbLine
 62
7
  6
CONTINUOUS
 10
54.1530290304
 20
-69.4576557258
 11
54.1315276785
 21
-69.4692172775
  0
LINE
  5
39A
100
AcDbEntity
  8
ASSI
100
AcDbLine
 62
7
  6
CONTINUOUS
 10
54.1530290304
 20
-69.4576557258
 11
58.2149620151
 21
-67.4288772115
  0
LINE
  5
39B
100
AcDbEntity
  8
ASSI
100
AcDbLine
 62
7
  6
CONTINUOUS
 10
53.4454917611
 20
-69.8660999196
 11
57.5074247458
 21
-67.8373214053
  0
ENDSEC
  0
SECTION
  2
OBJECTS
  0
DICTIONARY
  5
C
100
AcDbDictionary
280
0
281
1
  3
ACAD_GROUP
350
D
  3
ACAD_MLINESTYLE
350
17
  3
ACAD_LAYOUT
350
1A
  3
ACAD_PLOTSETTINGS
350
19
  3
ACAD_PLOTSTYLENAME
350
E
  0
DICTIONARY
  5
D
102
{ACAD_REACTORS
330
C
102
}
100
AcDbDictionary
280
0
281
1
  0
ACDBDICTIONARYWDFLT
  5
E
102
{ACAD_REACTORS
330
C
102
}
100
AcDbDictionary
281
1
  3
Normal
350
F
100
AcDbDictionaryWithDefault
340
F
  0
DICTIONARY
  5
17
102
{ACAD_REACTORS
330
C
102
}
100
AcDbDictionary
280
0
281
1
  3
Standard
350
18
  0
DICTIONARY
  5
19
102
{ACAD_REACTORS
330
C
102
}
100
AcDbDictionary
281
1
  0
DICTIONARY
  5
1A
102
{ACAD_REACTORS
330
C
102
}
100
AcDbDictionary
281
1
  3
Model
350
39C
  3
Layout1
350
39D
  0
ACDBPLACEHOLDER
  5
F
102
{ACAD_REACTORS
330
E
102
}
  0
MLINESTYLE
  5
18
102
{ACAD_REACTORS
330
17
102
}
100
AcDbMlineStyle
  2
STANDARD
 70
0
  3

 62
256
 51
90.0
 52
90.0
 71
2
 49
0.5
 62
256
  6
BYLAYER
 49
-0.5
 62
256
  6
BYLAYER
  0
LAYOUT
  5
39C
102
{ACAD_REACTORS
330
1A
102
}
100
AcDbPlotSettings
  1

  2
none_device
  4
ISO_A4_(297.00_x_210.00_MM)
  6

 40
0.0
 41
0.0
 42
0.0
 43
0.0
 44
297.0
 45
210.0
 46
0.0
 47
0.0
 48
0.0
 49
0.0
140
0.0
141
0.0
142
1.0
143
1.0
 70
1024
 72
1
 73
0
 74
0
  7

 75
0
147
1.0
148
0.0
149
0.0
100
AcDbLayout
  1
Model
 70
0
 71
0
 10
0.0
 20
0.0
 11
297.0
 21
210.0
 12
0.0
 22
0.0
 32
0.0
 14
0.0
 24
0.0
 34
0.0
 15
0.0
 25
0.0
 35
0.0
146
0.0
 13
0.0
 23
0.0
 33
0.0
 16
1.0
 26
0.0
 36
0.0
 17
0.0
 27
1.0
 37
0.0
 76
0
330
21F
345
0
346
0
  0
LAYOUT
  5
39D
102
{ACAD_REACTORS
330
1A
102
}
100
AcDbPlotSettings
  1

  2
none_device
  4
ISO_A4_(297.00_x_210.00_MM)
  6

 40
0.0
 41
0.0
 42
0.0
 43
0.0
 44
297.0
 45
210.0
 46
0.0
 47
0.0
 48
0.0
 49
0.0
140
0.0
141
0.0
142
1.0
143
1.0
 70
0
 72
1
 73
0
 74
0
  7

 75
0
147
1.0
148
0.0
149
0.0
100
AcDbLayout
  1
Layout1
 70
0
 71
1
 10
0.0
 20
0.0
 11
297.0
 21
210.0
 12
0.0
 22
0.0
 32
0.0
 14
0.0
 24
0.0
 34
0.0
 15
0.0
 25
0.0
 35
0.0
146
0.0
 13
0.0
 23
0.0
 33
0.0
 16
1.0
 26
0.0
 36
0.0
 17
0.0
 27
1.0
 37
0.0
 76
0
330
220
345
0
346
0
  0
ENDSEC
  0
EOF
