  0
SECTION
  2
HEADER
  9
$ACADVER
  1
AC1024
  9
$DWGCODEPAGE
  3
ANSI_1252
  9
$EXTMAX
 10
297.0
 20
210.0
 30
0.0
  9
$EXTMIN
 10
0.0
 20
0.0
 30
0.0
  9
$LIMMIN
 10
0.0
 20
0.0
  9
$LIMMAX
 10
297.0
 20
210.0
  9
$VIEWCTR
 10
148.5
 20
105.0
  9
$VIEWSIZE
 40
210.0
  9
$CLAYER
  8
0
  9
$LTSCALE
 40
16.335
  9
$CELTYPE
  6
BYLAYER
  9
$DIMSCALE
 40
1.0
  9
$DIMASZ
 40
3.0
  9
$DIMEXO
 40
0.5
  9
$DIMDLI
 40
11.286
  9
$DIMEXE
 40
1.5
  9
$DIMCEN
 40
2.673
  9
$DIMLFAC
 40
1.0
  9
$DIMBLK
  1
_FILLED
  9
$DIMALT
 70
0
  9
$DIMALTF
 40
0.0393700787
  9
$DIMTXT
 40
3.0
  9
$DIMTOL
 70
1
  9
$DIMLIM
 70
0
  9
$DIMTFAC
 40
1.0
  9
$DIMTP
 40
0.01
  9
$DIMTM
 40
0.01
  9
$DIMGAP
 40
0.625
  9
$DIMDSEP
 70
44
  9
$AUNITS
 70
0
  9
$PDMODE
 70
3
  9
$PDSIZE
 40
3.0
  9
$HANDSEED
  5
36F
  9
$TILEMODE
 70
1
  9
$MEASUREMENT
 70
1
  9
$INSUNITS
 70
4
  0
ENDSEC
  0
SECTION
  2
CLASSES
  0
CLASS
  1
ACDBDICTIONARYWDFLT
  2
AcDbDictionaryWithDefault
  3
AutoCAD 2000
 90
0
 91
1
280
0
281
0
  0
CLASS
  1
ACDBPLACEHOLDER
  2
AcDbPlaceHolder
  3
AutoCAD 2000
 90
0
 91
1
280
0
281
0
  0
CLASS
  1
LAYOUT
  2
AcDbLayout
  3
AutoCAD 2000
 90
0
 91
0
280
0
281
0
  0
ENDSEC
  0
SECTION
  2
TABLES
  0
TABLE
  2
VPORT
  5
8
100
AcDbSymbolTable
 70
2
  0
VPORT
  5
1F4
100
AcDbSymbolTableRecord
100
AcDbViewportTableRecord
  2
*ACTIVE
 70
0
 10
0.0
 20
0.0
 11
1.0
 21
1.0
 12
148.5
 22
105.0
 13
0.0
 23
0.0
 14
1.0
 24
1.0
 15
0.0
 25
0.0
 16
0.0
 26
0.0
 36
1.0
 17
0.0
 27
0.0
 37
0.0
 40
210.0
 41
1.4142857143
 42
50.0
 43
0.0
 44
0.0
 50
0.0
 51
0.0
 71
0
 72
100
 73
1
 74
1
 75
0
 76
0
 77
0
 78
0
  0
ENDTAB
  0
TABLE
  2
LTYPE
  5
5
100
AcDbSymbolTable
 70
6
  0
LTYPE
  5
14
100
AcDbSymbolTableRecord
100
AcDbLinetypeTableRecord
  2
BYBLOCK
 70
0
  3

 72
65
 73
0
 40
0.0
  0
LTYPE
  5
15
100
AcDbSymbolTableRecord
100
AcDbLinetypeTableRecord
  2
BYLAYER
 70
0
  3

 72
65
 73
0
 40
0.0
  0
LTYPE
  5
16
100
AcDbSymbolTableRecord
100
AcDbLinetypeTableRecord
  2
CONTINUOUS
 70
64
  3
Solid line
 72
65
 73
0
 40
0.0
  0
LTYPE
  5
1F5
100
AcDbSymbolTableRecord
100
AcDbLinetypeTableRecord
  2
CENTER
 70
64
  3
____ _ ____ _ ____ _ ____ _ ____ _ ____ _ ____
 72
65
 73
4
 40
0.6
 49
0.375
 74
0
 49
-0.075
 74
0
 49
0.075
 74
0
 49
-0.075
 74
0
  0
LTYPE
  5
1F6
100
AcDbSymbolTableRecord
100
AcDbLinetypeTableRecord
  2
HIDDEN
 70
64
  3
- - - - - - - - - - - - - - - - - - - -
 72
65
 73
2
 40
0.2
 49
0.1
 74
0
 49
-0.1
 74
0
  0
LTYPE
  5
1F7
100
AcDbSymbolTableRecord
100
AcDbLinetypeTableRecord
  2
PHANTOM
 70
64
  3
_____ _ _ _____ _ _ _____ _ _ _____
 72
65
 73
6
 40
0.8
 49
0.45
 74
0
 49
-0.05
 74
0
 49
0.1
 74
0
 49
-0.05
 74
0
 49
0.1
 74
0
 49
-0.05
 74
0
  0
LTYPE
  5
1F8
100
AcDbSymbolTableRecord
100
AcDbLinetypeTableRecord
  2
DOT
 70
64
  3
. . . . . . . . . . . . . . . . . . . .
 72
65
 73
2
 40
0.2
 49
0.1
 74
0
 49
-0.1
 74
0
  0
LTYPE
  5
1F9
100
AcDbSymbolTableRecord
100
AcDbLinetypeTableRecord
  2
DASHED
 70
64
  3
- - - - - - - - - - - - - - - - - - - -
 72
65
 73
2
 40
0.2
 49
0.1
 74
0
 49
-0.1
 74
0
  0
ENDTAB
  0
TABLE
  2
LAYER
  5
2
100
AcDbSymbolTable
 70
36
  0
LAYER
  5
10
100
AcDbSymbolTableRecord
100
AcDbLayerTableRecord
  2
0
 70
0
 62
7
  6
CONTINUOUS
370
-3
390
F
  0
LAYER
  5
1FA
100
AcDbSymbolTableRecord
100
AcDbLayerTableRecord
  2
DEFAULT_1
 70
0
 62
7
  6
CENTER
370
-3
390
F
  0
LAYER
  5
1FB
100
AcDbSymbolTableRecord
100
AcDbLayerTableRecord
  2
DEFAULT_2
 70
0
 62
7
  6
HIDDEN
370
-3
390
F
  0
LAYER
  5
1FC
100
AcDbSymbolTableRecord
100
AcDbLayerTableRecord
  2
DEFAULT_3
 70
0
 62
7
  6
PHANTOM
370
-3
390
F
  0
LAYER
  5
1FD
100
AcDbSymbolTableRecord
100
AcDbLayerTableRecord
  2
ASSI
 70
0
 62
7
  6
CONTINUOUS
370
-3
390
F
  0
LAYER
  5
1FE
100
AcDbSymbolTableRecord
100
AcDbLayerTableRecord
  2
COORDINATE
 70
0
 62
7
  6
CONTINUOUS
370
-3
390
F
  0
LAYER
  5
1FF
100
AcDbSymbolTableRecord
100
AcDbLayerTableRecord
  2
COORD_ORIGINE
 70
0
 62
7
  6
CONTINUOUS
370
-3
390
F
  0
LAYER
  5
200
100
AcDbSymbolTableRecord
100
AcDbLayerTableRecord
  2
COPY_PUBLISH
 70
0
 62
7
  6
CONTINUOUS
370
-3
390
F
  0
LAYER
  5
201
100
AcDbSymbolTableRecord
100
AcDbLayerTableRecord
  2
COSMETIC
 70
0
 62
7
  6
CONTINUOUS
370
-3
390
F
  0
LAYER
  5
202
100
AcDbSymbolTableRecord
100
AcDbLayerTableRecord
  2
COSMETICI
 70
0
 62
7
  6
CONTINUOUS
370
-3
390
F
  0
LAYER
  5
203
100
AcDbSymbolTableRecord
100
AcDbLayerTableRecord
  2
CURVE
 70
0
 62
7
  6
CONTINUOUS
370
-3
390
F
  0
LAYER
  5
204
100
AcDbSymbolTableRecord
100
AcDbLayerTableRecord
  2
CURVE_COSTRUZIONE
 70
0
 62
7
  6
CONTINUOUS
370
-3
390
F
  0
LAYER
  5
205
100
AcDbSymbolTableRecord
100
AcDbLayerTableRecord
  2
CURVE_TASSELLI
 70
0
 62
7
  6
CONTINUOUS
370
-3
390
F
  0
LAYER
  5
206
100
AcDbSymbolTableRecord
100
AcDbLayerTableRecord
  2
DRAFT
 70
0
 62
7
  6
CONTINUOUS
370
-3
390
F
  0
LAYER
  5
207
100
AcDbSymbolTableRecord
100
AcDbLayerTableRecord
  2
IMPORT_IGES
 70
0
 62
7
  6
CONTINUOUS
370
-3
390
F
  0
LAYER
  5
208
100
AcDbSymbolTableRecord
100
AcDbLayerTableRecord
  2
INTFCLR_2
 70
0
 62
7
  6
CONTINUOUS
370
-3
390
F
  0
LAYER
  5
209
100
AcDbSymbolTableRecord
100
AcDbLayerTableRecord
  2
INTF_1
 70
0
 62
7
  6
CONTINUOUS
370
-3
390
F
  0
LAYER
  5
20A
100
AcDbSymbolTableRecord
100
AcDbLayerTableRecord
  2
INTF_6
 70
0
 62
7
  6
CONTINUOUS
370
-3
390
F
  0
LAYER
  5
20B
100
AcDbSymbolTableRecord
100
AcDbLayerTableRecord
  2
INTF_7
 70
0
 62
7
  6
CONTINUOUS
370
-3
390
F
  0
LAYER
  5
20C
100
AcDbSymbolTableRecord
100
AcDbLayerTableRecord
  2
INTF_CYAN
 70
0
 62
7
  6
CONTINUOUS
370
-3
390
F
  0
LAYER
  5
20D
100
AcDbSymbolTableRecord
100
AcDbLayerTableRecord
  2
LIVELLO_1
 70
0
 62
7
  6
CONTINUOUS
370
-3
390
F
  0
LAYER
  5
20E
100
AcDbSymbolTableRecord
100
AcDbLayerTableRecord
  2
NOTE
 70
0
 62
7
  6
CONTINUOUS
370
-3
390
F
  0
LAYER
  5
20F
100
AcDbSymbolTableRecord
100
AcDbLayerTableRecord
  2
PIANI
 70
0
 62
7
  6
CONTINUOUS
370
-3
390
F
  0
LAYER
  5
210
100
AcDbSymbolTableRecord
100
AcDbLayerTableRecord
  2
PIANI_ORIGINE
 70
0
 62
7
  6
CONTINUOUS
370
-3
390
F
  0
LAYER
  5
211
100
AcDbSymbolTableRecord
100
AcDbLayerTableRecord
  2
PIANI_RIFERIMENTO
 70
0
 62
7
  6
CONTINUOUS
370
-3
390
F
  0
LAYER
  5
212
100
AcDbSymbolTableRecord
100
AcDbLayerTableRecord
  2
PUNTI
 70
0
 62
7
  6
CONTINUOUS
370
-3
390
F
  0
LAYER
  5
213
100
AcDbSymbolTableRecord
100
AcDbLayerTableRecord
  2
RACCORDO
 70
0
 62
7
  6
CONTINUOUS
370
-3
390
F
  0
LAYER
  5
214
100
AcDbSymbolTableRecord
100
AcDbLayerTableRecord
  2
RGB__255__255__255__
 70
0
 62
7
  6
CONTINUOUS
370
-3
390
F
  0
LAYER
  5
215
100
AcDbSymbolTableRecord
100
AcDbLayerTableRecord
  2
RGB____0____0____0__
 70
0
 62
7
  6
CONTINUOUS
370
-3
390
F
  0
LAYER
  5
216
100
AcDbSymbolTableRecord
100
AcDbLayerTableRecord
  2
SIMBOLI
 70
0
 62
7
  6
CONTINUOUS
370
-3
390
F
  0
LAYER
  5
217
100
AcDbSymbolTableRecord
100
AcDbLayerTableRecord
  2
SMUSSO
 70
0
 62
7
  6
CONTINUOUS
370
-3
390
F
  0
LAYER
  5
218
100
AcDbSymbolTableRecord
100
AcDbLayerTableRecord
  2
SUPERFICI
 70
0
 62
7
  6
CONTINUOUS
370
-3
390
F
  0
LAYER
  5
219
100
AcDbSymbolTableRecord
100
AcDbLayerTableRecord
  2
TRASH
 70
0
 62
7
  6
CONTINUOUS
370
-3
390
F
  0
LAYER
  5
21A
100
AcDbSymbolTableRecord
100
AcDbLayerTableRecord
  2
WHITE
 70
0
 62
7
  6
CONTINUOUS
370
-3
390
F
  0
LAYER
  5
21B
100
AcDbSymbolTableRecord
100
AcDbLayerTableRecord
  2
XSEC_DATUMS
 70
0
 62
7
  6
CONTINUOUS
370
-3
390
F
  0
ENDTAB
  0
TABLE
  2
STYLE
  5
3
100
AcDbSymbolTable
 70
1
  0
STYLE
  5
11
100
AcDbSymbolTableRecord
100
AcDbTextStyleTableRecord
  2
STANDARD
 70
0
 40
0.0
 41
0.8
 50
0.0
 71
0
 42
0.2
  3
txt
  4

  0
STYLE
  5
21C
100
AcDbSymbolTableRecord
100
AcDbTextStyleTableRecord
  2
TEXTSTYLE_1
 70
0
 40
0.0
 41
0.8
 50
0.0
 71
0
 42
0.2
  3
gdt
  4

  0
ENDTAB
  0
TABLE
  2
VIEW
  5
6
100
AcDbSymbolTable
 70
0
  0
ENDTAB
  0
TABLE
  2
UCS
  5
7
100
AcDbSymbolTable
 70
0
  0
ENDTAB
  0
TABLE
  2
APPID
  5
9
100
AcDbSymbolTable
 70
1
  0
APPID
  5
21D
100
AcDbSymbolTableRecord
100
AcDbRegAppTableRecord
  2
ACAD
 70
0
  0
ENDTAB
  0
TABLE
  2
BLOCK_RECORD
  5
1
100
AcDbSymbolTable
 70
0
  0
BLOCK_RECORD
  5
21E
100
AcDbSymbolTableRecord
100
AcDbBlockTableRecord
  2
*Model_Space
  0
BLOCK_RECORD
  5
21F
100
AcDbSymbolTableRecord
100
AcDbBlockTableRecord
  2
*Paper_Space
  0
BLOCK_RECORD
  5
220
100
AcDbSymbolTableRecord
100
AcDbBlockTableRecord
  2
_FILLED
  0
ENDTAB
  0
TABLE
  2
DIMSTYLE
  5
A
100
AcDbSymbolTable
 70
1
100
AcDbDimStyleTable
 71
0
  0
DIMSTYLE
105
221
100
AcDbSymbolTableRecord
100
AcDbDimStyleTableRecord
  2
STANDARD
 70
0
  3

  4

 40
1.0
 41
3.0
 42
0.5
 43
0.38
 44
1.5
 45
0.0
 46
0.0
 47
0.01
 48
0.01
140
3.0
141
0.09
142
0.0
143
25.4
144
1.0
145
0.0
146
1.0
147
0.625
 71
1
 72
0
 73
0
 74
0
 75
0
 76
0
 77
1
 78
8
 79
2
170
0
171
1
172
0
173
0
174
0
175
0
176
0
177
0
178
0
270
2
179
2
271
2
272
2
273
2
274
2
275
0
280
0
281
0
282
0
283
1
284
8
285
0
286
0
287
3
288
0
340
11
278
44
341
220
342
220
343
220
344
220
  0
ENDTAB
  0
ENDSEC
  0
SECTION
  2
BLOCKS
  0
BLOCK
  5
20
100
AcDbEntity
  8
0
100
AcDbBlockBegin
  2
*Model_Space
 70
0
 10
0.0
 20
0.0
 30
0.0
  3
*Model_Space
  1

  0
ENDBLK
  5
21
100
AcDbEntity
  8
0
100
AcDbBlockEnd
  0
BLOCK
  5
1C
100
AcDbEntity
  8
0
100
AcDbBlockBegin
  2
*Paper_Space
 70
0
 10
0.0
 20
0.0
 30
0.0
  3
*Paper_Space
  1

  0
ENDBLK
  5
1D
100
AcDbEntity
  8
0
100
AcDbBlockEnd
  0
BLOCK
  5
222
100
AcDbEntity
  8
0
100
AcDbBlockBegin
  2
_FILLED
 70
64
 10
0.0
 20
0.0
  3
_FILLED
  1

  0
SOLID
  5
223
100
AcDbEntity
  8
0
  6
BYBLOCK
 62
0
100
AcDbTrace
 10
0.0
 20
0.0
 11
-1.0
 21
0.3166666667
 12
-1.0
 22
-0.3166666667
 13
-1.0
 23
-0.3166666667
  0
ENDBLK
  5
224
100
AcDbEntity
  8
0
  6
BYBLOCK
 62
0
100
AcDbBlockEnd
  0
ENDSEC
  0
SECTION
  2
ENTITIES
  0
LINE
  5
225
100
AcDbEntity
  8
0
100
AcDbLine
 62
7
  6
CONTINUOUS
 10
117.0763091671
 20
155.8444988492
 11
120.8641229543
 21
158.3480657406
  0
LINE
  5
226
100
AcDbEntity
  8
ASSI
100
AcDbLine
 62
7
  6
CONTINUOUS
 10
117.0763091671
 20
155.8444988492
 11
120.8641229543
 21
158.3480657406
  0
LINE
  5
227
100
AcDbEntity
  8
0
100
AcDbLine
 62
7
  6
CONTINUOUS
 10
117.7838464364
 20
156.2529430431
 11
121.5716602236
 21
158.7565099344
  0
LINE
  5
228
100
AcDbEntity
  8
ASSI
100
AcDbLine
 62
7
  6
CONTINUOUS
 10
117.7838464364
 20
156.2529430431
 11
121.5716602236
 21
158.7565099344
  0
LINE
  5
229
100
AcDbEntity
  8
0
100
AcDbLine
 62
7
  6
CONTINUOUS
 10
117.7630828223
 20
156.2401036921
 11
117.7838464364
 21
156.2529430431
  0
LINE
  5
22A
100
AcDbEntity
  8
ASSI
100
AcDbLine
 62
7
  6
CONTINUOUS
 10
117.7630828223
 20
156.2401036921
 11
117.7838464364
 21
156.2529430431
  0
LINE
  5
22B
100
AcDbEntity
  8
0
100
AcDbLine
 62
7
  6
CONTINUOUS
 10
120.8641229543
 20
158.3480657406
 11
121.5716602236
 21
158.7565099344
  0
LINE
  5
22C
100
AcDbEntity
  8
ASSI
100
AcDbLine
 62
7
  6
CONTINUOUS
 10
120.8641229543
 20
158.3480657406
 11
121.5716602236
 21
158.7565099344
  0
LINE
  5
22D
100
AcDbEntity
  8
0
100
AcDbLine
 62
7
  6
CONTINUOUS
 10
117.7630828223
 20
156.2401036921
 11
117.0766844746
 21
155.8438624877
  0
LINE
  5
22E
100
AcDbEntity
  8
ASSI
100
AcDbLine
 62
7
  6
CONTINUOUS
 10
117.7630828223
 20
156.2401036921
 11
117.0766844746
 21
155.8438624877
  0
LINE
  5
22F
100
AcDbEntity
  8
0
100
AcDbLine
 62
7
  6
CONTINUOUS
 10
117.3803935224
 20
154.8248752537
 11
117.1014175883
 21
154.6638291782
  0
LINE
  5
230
100
AcDbEntity
  8
ASSI
100
AcDbLine
 62
7
  6
CONTINUOUS
 10
117.3803935224
 20
154.8248752537
 11
117.1014175883
 21
154.6638291782
  0
LINE
  5
231
100
AcDbEntity
  8
CURVE
100
AcDbLine
 62
250
  6
CONTINUOUS
 10
182.8128584554
 20
54.1808983412
 11
181.5544576341
 21
53.9042755412
  0
LINE
  5
232
100
AcDbEntity
  8
CURVE
100
AcDbLine
 62
250
  6
CONTINUOUS
 10
181.5544576341
 20
54.3300125365
 11
183.3826488108
 21
54.6583057289
  0
LINE
  5
233
100
AcDbEntity
  8
CURVE
100
AcDbLine
 62
250
  6
CONTINUOUS
 10
182.056798163
 20
58.388977109
 11
182.7352632904
 21
58.5421516888
  0
LINE
  5
234
100
AcDbEntity
  8
CURVE
100
AcDbLine
 62
250
  6
CONTINUOUS
 10
183.017676985
 20
58.607063628
 11
183.3826488108
 21
58.6860148396
  0
LINE
  5
235
100
AcDbEntity
  8
CURVE
100
AcDbLine
 62
250
  6
CONTINUOUS
 10
183.3826488108
 20
58.2646092192
 11
181.5544576341
 21
57.920444661
  0
LINE
  5
236
100
AcDbEntity
  8
CURVE
100
AcDbLine
 62
250
  6
CONTINUOUS
 10
182.5694749138
 20
56.7214855226
 11
181.5544576341
 21
56.6010058326
  0
LINE
  5
237
100
AcDbEntity
  8
CURVE
100
AcDbLine
 62
250
  6
CONTINUOUS
 10
182.1938509213
 20
57.0533375856
 11
183.3826488108
 21
57.1868660044
  0
LINE
  5
238
100
AcDbEntity
  8
0
100
AcDbLine
 62
7
  6
CONTINUOUS
 10
117.3803935224
 20
154.8248752537
 11
117.7630828223
 21
156.2401036921
  0
LINE
  5
239
100
AcDbEntity
  8
ASSI
100
AcDbLine
 62
7
  6
CONTINUOUS
 10
117.3803935224
 20
154.8248752537
 11
117.7630828223
 21
156.2401036921
  0
LINE
  5
23A
100
AcDbEntity
  8
0
100
AcDbLine
 62
7
  6
CONTINUOUS
 10
179.0033397935
 20
48.0908015108
 11
180.4202989244
 21
47.714622055
  0
LINE
  5
23B
100
AcDbEntity
  8
ASSI
100
AcDbLine
 62
7
  6
CONTINUOUS
 10
179.0033397935
 20
48.0908015108
 11
180.4202989244
 21
47.714622055
  0
LINE
  5
23C
100
AcDbEntity
  8
0
100
AcDbLine
 62
7
  6
CONTINUOUS
 10
117.1014175883
 20
83.8321955788
 11
117.3803935224
 21
83.3489950873
  0
LINE
  5
23D
100
AcDbEntity
  8
ASSI
100
AcDbLine
 62
7
  6
CONTINUOUS
 10
117.1014175883
 20
83.8321955788
 11
117.3803935224
 21
83.3489950873
  0
LINE
  5
23E
100
AcDbEntity
  8
0
100
AcDbLine
 62
7
  6
CONTINUOUS
 10
117.1014175883
 20
83.8321955788
 11
117.0766844746
 21
84.2884311563
  0
LINE
  5
23F
100
AcDbEntity
  8
ASSI
100
AcDbLine
 62
7
  6
CONTINUOUS
 10
117.1014175883
 20
83.8321955788
 11
117.0766844746
 21
84.2884311563
  0
LINE
  5
240
100
AcDbEntity
  8
0
100
AcDbLine
 62
7
  6
CONTINUOUS
 10
117.3803935224
 20
83.3489950873
 11
117.7630828223
 21
83.0995543452
  0
LINE
  5
241
100
AcDbEntity
  8
ASSI
100
AcDbLine
 62
7
  6
CONTINUOUS
 10
117.3803935224
 20
83.3489950873
 11
117.7630828223
 21
83.0995543452
  0
LINE
  5
242
100
AcDbEntity
  8
0
100
AcDbLine
 62
7
  6
CONTINUOUS
 10
117.1014175883
 20
154.6638291782
 11
117.0766844746
 21
155.8438624877
  0
LINE
  5
243
100
AcDbEntity
  8
ASSI
100
AcDbLine
 62
7
  6
CONTINUOUS
 10
117.1014175883
 20
154.6638291782
 11
117.0766844746
 21
155.8438624877
  0
LINE
  5
244
100
AcDbEntity
  8
0
100
AcDbLine
 62
7
  6
CONTINUOUS
 10
117.0766844746
 20
84.2884311563
 11
117.0763091671
 21
84.312624017
  0
LINE
  5
245
100
AcDbEntity
  8
ASSI
100
AcDbLine
 62
7
  6
CONTINUOUS
 10
117.0766844746
 20
84.2884311563
 11
117.0763091671
 21
84.312624017
  0
LINE
  5
246
100
AcDbEntity
  8
0
100
AcDbLine
 62
7
  6
CONTINUOUS
 10
117.0763091671
 20
155.8444988492
 11
117.0763091671
 21
84.312624017
  0
LINE
  5
247
100
AcDbEntity
  8
ASSI
100
AcDbLine
 62
7
  6
CONTINUOUS
 10
117.0763091671
 20
155.8444988492
 11
117.0763091671
 21
84.312624017
  0
LINE
  5
248
100
AcDbEntity
  8
0
100
AcDbLine
 62
7
  6
CONTINUOUS
 10
117.1014175883
 20
154.6638291782
 11
117.1014175883
 21
83.8321955788
  0
LINE
  5
249
100
AcDbEntity
  8
ASSI
100
AcDbLine
 62
7
  6
CONTINUOUS
 10
117.1014175883
 20
154.6638291782
 11
117.1014175883
 21
83.8321955788
  0
LINE
  5
24A
100
AcDbEntity
  8
0
100
AcDbLine
 62
7
  6
CONTINUOUS
 10
117.7838464364
 20
83.0871335196
 11
179.734263007
 21
47.3177394128
  0
LINE
  5
24B
100
AcDbEntity
  8
ASSI
100
AcDbLine
 62
7
  6
CONTINUOUS
 10
117.7838464364
 20
83.0871335196
 11
179.734263007
 21
47.3177394128
  0
LINE
  5
24C
100
AcDbEntity
  8
0
100
AcDbLine
 62
7
  6
CONTINUOUS
 10
117.3803935224
 20
83.3489950873
 11
178.7243638594
 21
47.9297554352
  0
LINE
  5
24D
100
AcDbEntity
  8
ASSI
100
AcDbLine
 62
7
  6
CONTINUOUS
 10
117.3803935224
 20
83.3489950873
 11
178.7243638594
 21
47.9297554352
  0
LINE
  5
24E
100
AcDbEntity
  8
0
100
AcDbLine
 62
7
  6
CONTINUOUS
 10
117.7838464364
 20
83.0871335196
 11
117.7630828223
 21
83.0995543452
  0
LINE
  5
24F
100
AcDbEntity
  8
ASSI
100
AcDbLine
 62
7
  6
CONTINUOUS
 10
117.7838464364
 20
83.0871335196
 11
117.7630828223
 21
83.0995543452
  0
LINE
  5
250
100
AcDbEntity
  8
0
100
AcDbLine
 62
7
  6
CONTINUOUS
 10
178.7243638594
 20
47.9297554352
 11
179.7339005768
 21
47.3183808505
  0
LINE
  5
251
100
AcDbEntity
  8
ASSI
100
AcDbLine
 62
7
  6
CONTINUOUS
 10
178.7243638594
 20
47.9297554352
 11
179.7339005768
 21
47.3183808505
  0
LWPOLYLINE
  5
252
100
AcDbEntity
  8
0
100
AcDbPolyline
 62
7
  6
CONTINUOUS
 90
13
 70
0
 10
130.8728593679
 20
123.0893382327
 10
130.8614199191
 20
123.0754847333
 10
130.7846086164
 20
122.9662169605
 10
130.7146757953
 20
122.8491528138
 10
130.6516726737
 20
122.7242342407
 10
130.5955480337
 20
122.5915192937
 10
130.5467187511
 20
122.451993737
 10
130.505239148
 20
122.3056068581
 10
130.4710549024
 20
122.1524093695
 10
130.4444199238
 20
121.9935391732
 10
130.4254188489
 20
121.8293755698
 10
130.4139670411
 20
121.6595392586
 10
130.4100645003
 20
121.4840302398
  0
LWPOLYLINE
  5
253
100
AcDbEntity
  8
ASSI
100
AcDbPolyline
 62
7
  6
CONTINUOUS
 90
13
 70
0
 10
130.8728593679
 20
123.0893382327
 10
130.8614199191
 20
123.0754847333
 10
130.7846086164
 20
122.9662169605
 10
130.7146757953
 20
122.8491528138
 10
130.6516726737
 20
122.7242342407
 10
130.5955480337
 20
122.5915192937
 10
130.5467187511
 20
122.451993737
 10
130.505239148
 20
122.3056068581
 10
130.4710549024
 20
122.1524093695
 10
130.4444199238
 20
121.9935391732
 10
130.4254188489
 20
121.8293755698
 10
130.4139670411
 20
121.6595392586
 10
130.4100645003
 20
121.4840302398
  0
LWPOLYLINE
  5
254
100
AcDbEntity
  8
0
100
AcDbPolyline
 62
7
  6
CONTINUOUS
 90
15
 70
0
 10
130.3209244082
 20
122.9036011551
 10
130.3482842817
 20
122.9190058568
 10
130.4607113053
 20
122.9745460442
 10
130.5781987416
 20
123.0205440896
 10
130.7004546031
 20
123.056885598
 10
130.827174888
 20
123.0834801275
 10
130.9580445714
 20
123.1002615023
 10
131.0927383611
 20
123.1071879431
 10
131.2309213445
 20
123.1042421621
 10
131.3722498121
 20
123.0914314465
 10
131.5163723628
 20
123.0687876301
 10
131.6629307051
 20
123.0363669872
 10
131.8115603737
 20
122.9942501296
 10
131.9618918135
 20
122.9425417746
 10
132.1135512851
 20
122.8813704721
  0
LWPOLYLINE
  5
255
100
AcDbEntity
  8
ASSI
100
AcDbPolyline
 62
7
  6
CONTINUOUS
 90
15
 70
0
 10
130.3209244082
 20
122.9036011551
 10
130.3482842817
 20
122.9190058568
 10
130.4607113053
 20
122.9745460442
 10
130.5781987416
 20
123.0205440896
 10
130.7004546031
 20
123.056885598
 10
130.827174888
 20
123.0834801275
 10
130.9580445714
 20
123.1002615023
 10
131.0927383611
 20
123.1071879431
 10
131.2309213445
 20
123.1042421621
 10
131.3722498121
 20
123.0914314465
 10
131.5163723628
 20
123.0687876301
 10
131.6629307051
 20
123.0363669872
 10
131.8115603737
 20
122.9942501296
 10
131.9618918135
 20
122.9425417746
 10
132.1135512851
 20
122.8813704721
  0
LWPOLYLINE
  5
256
100
AcDbEntity
  8
0
100
AcDbPolyline
 62
7
  6
CONTINUOUS
 90
17
 70
0
 10
129.4201150066
 20
120.9124458091
 10
129.4239378941
 20
121.0872568686
 10
129.4353973096
 20
121.2572216278
 10
129.4544651499
 20
121.4219173388
 10
129.4810944756
 20
121.5809347272
 10
129.5152194249
 20
121.7338777476
 10
129.556755179
 20
121.8803647335
 10
129.6055986346
 20
122.0200312344
 10
129.6616285795
 20
122.1525299426
 10
129.7247055182
 20
122.2775305502
 10
129.7946726443
 20
122.3947221364
 10
129.8713561086
 20
122.5038133545
 10
129.9545649967
 20
122.6045325436
 10
130.0440922858
 20
122.696629185
 10
130.1397154975
 20
122.7798744798
 10
130.2411969473
 20
122.8540615266
 10
130.3209244082
 20
122.9036011551
  0
LWPOLYLINE
  5
257
100
AcDbEntity
  8
ASSI
100
AcDbPolyline
 62
7
  6
CONTINUOUS
 90
17
 70
0
 10
129.4201150066
 20
120.9124458091
 10
129.4239378941
 20
121.0872568686
 10
129.4353973096
 20
121.2572216278
 10
129.4544651499
 20
121.4219173388
 10
129.4810944756
 20
121.5809347272
 10
129.5152194249
 20
121.7338777476
 10
129.556755179
 20
121.8803647335
 10
129.6055986346
 20
122.0200312344
 10
129.6616285795
 20
122.1525299426
 10
129.7247055182
 20
122.2775305502
 10
129.7946726443
 20
122.3947221364
 10
129.8713561086
 20
122.5038133545
 10
129.9545649967
 20
122.6045325436
 10
130.0440922858
 20
122.696629185
 10
130.1397154975
 20
122.7798744798
 10
130.2411969473
 20
122.8540615266
 10
130.3209244082
 20
122.9036011551
  0
LWPOLYLINE
  5
258
100
AcDbEntity
  8
0
100
AcDbPolyline
 62
7
  6
CONTINUOUS
 90
17
 70
0
 10
129.4201150066
 20
104.1748051349
 10
129.4239378941
 20
104.3496161944
 10
129.4353973096
 20
104.5195809536
 10
129.4544651499
 20
104.6842766646
 10
129.4810944756
 20
104.843294053
 10
129.5152194249
 20
104.9962370734
 10
129.556755179
 20
105.1427240593
 10
129.6055986346
 20
105.2823905601
 10
129.6616285795
 20
105.4148892683
 10
129.7247055182
 20
105.5398898759
 10
129.7946726443
 20
105.6570814622
 10
129.8713561086
 20
105.7661726803
 10
129.9545649967
 20
105.8668918694
 10
130.0440922858
 20
105.9589885107
 10
130.1397154975
 20
106.0422338055
 10
130.2411969473
 20
106.1164208524
 10
130.3209244082
 20
106.1659604808
  0
LWPOLYLINE
  5
259
100
AcDbEntity
  8
ASSI
100
AcDbPolyline
 62
7
  6
CONTINUOUS
 90
17
 70
0
 10
129.4201150066
 20
104.1748051349
 10
129.4239378941
 20
104.3496161944
 10
129.4353973096
 20
104.5195809536
 10
129.4544651499
 20
104.6842766646
 10
129.4810944756
 20
104.843294053
 10
129.5152194249
 20
104.9962370734
 10
129.556755179
 20
105.1427240593
 10
129.6055986346
 20
105.2823905601
 10
129.6616285795
 20
105.4148892683
 10
129.7247055182
 20
105.5398898759
 10
129.7946726443
 20
105.6570814622
 10
129.8713561086
 20
105.7661726803
 10
129.9545649967
 20
105.8668918694
 10
130.0440922858
 20
105.9589885107
 10
130.1397154975
 20
106.0422338055
 10
130.2411969473
 20
106.1164208524
 10
130.3209244082
 20
106.1659604808
  0
LWPOLYLINE
  5
25A
100
AcDbEntity
  8
0
100
AcDbPolyline
 62
7
  6
CONTINUOUS
 90
33
 70
0
 10
128.7130082254
 20
120.9124458091
 10
128.7173577729
 20
121.1081104291
 10
128.7301239038
 20
121.2974541533
 10
128.7513066182
 20
121.4804769817
 10
128.7810000552
 20
121.6576025371
 10
128.8191100757
 20
121.8284071966
 10
128.8653542625
 20
121.9916200917
 10
128.9197933832
 20
122.1471843789
 10
128.9823666703
 20
122.2951569017
 10
129.0526094038
 20
122.4344373212
 10
129.1305787908
 20
122.5649606755
 10
129.2162176243
 20
122.6867919265
 10
129.3088895628
 20
122.7990256221
 10
129.4086468768
 20
122.901590089
 10
129.5154372959
 20
122.9945570005
 10
129.6284676672
 20
123.0772359248
 10
129.7477843791
 20
123.1495502834
 10
129.8733410433
 20
123.2115766548
 10
130.0042053413
 20
123.2628543426
 10
130.1404168734
 20
123.3033033814
 10
130.2819360395
 20
123.3330037366
 10
130.4277117206
 20
123.3517346077
 10
130.5777756798
 20
123.359414291
 10
130.7320961542
 20
123.3561244902
 10
130.8895267363
 20
123.3418895168
 10
131.0500905734
 20
123.3166278348
 10
131.2137645182
 20
123.2804209803
 10
131.3793327216
 20
123.2335378723
 10
131.5468092687
 20
123.1758990031
 10
131.7161800745
 20
123.1075838804
 10
131.8861870341
 20
123.0290999466
 10
132.0568348824
 20
122.9403714775
 10
132.1421453002
 20
122.8923858633
  0
LWPOLYLINE
  5
25B
100
AcDbEntity
  8
ASSI
100
AcDbPolyline
 62
7
  6
CONTINUOUS
 90
33
 70
0
 10
128.7130082254
 20
120.9124458091
 10
128.7173577729
 20
121.1081104291
 10
128.7301239038
 20
121.2974541533
 10
128.7513066182
 20
121.4804769817
 10
128.7810000552
 20
121.6576025371
 10
128.8191100757
 20
121.8284071966
 10
128.8653542625
 20
121.9916200917
 10
128.9197933832
 20
122.1471843789
 10
128.9823666703
 20
122.2951569017
 10
129.0526094038
 20
122.4344373212
 10
129.1305787908
 20
122.5649606755
 10
129.2162176243
 20
122.6867919265
 10
129.3088895628
 20
122.7990256221
 10
129.4086468768
 20
122.901590089
 10
129.5154372959
 20
122.9945570005
 10
129.6284676672
 20
123.0772359248
 10
129.7477843791
 20
123.1495502834
 10
129.8733410433
 20
123.2115766548
 10
130.0042053413
 20
123.2628543426
 10
130.1404168734
 20
123.3033033814
 10
130.2819360395
 20
123.3330037366
 10
130.4277117206
 20
123.3517346077
 10
130.5777756798
 20
123.359414291
 10
130.7320961542
 20
123.3561244902
 10
130.8895267363
 20
123.3418895168
 10
131.0500905734
 20
123.3166278348
 10
131.2137645182
 20
123.2804209803
 10
131.3793327216
 20
123.2335378723
 10
131.5468092687
 20
123.1758990031
 10
131.7161800745
 20
123.1075838804
 10
131.8861870341
 20
123.0290999466
 10
132.0568348824
 20
122.9403714775
 10
132.1421453002
 20
122.8923858633
  0
LWPOLYLINE
  5
25C
100
AcDbEntity
  8
0
100
AcDbPolyline
 62
7
  6
CONTINUOUS
 90
33
 70
0
 10
128.7130082254
 20
104.1748051349
 10
128.7173577729
 20
104.3704697549
 10
128.7301239038
 20
104.5598134791
 10
128.7513066182
 20
104.7428363074
 10
128.7810000552
 20
104.9199618628
 10
128.8191100757
 20
105.0907665224
 10
128.8653542625
 20
105.2539794174
 10
128.9197933832
 20
105.4095437047
 10
128.9823666703
 20
105.5575162274
 10
129.0526094038
 20
105.696796647
 10
129.1305787908
 20
105.8273200012
 10
129.2162176243
 20
105.9491512522
 10
129.3088895628
 20
106.0613849479
 10
129.4086468768
 20
106.1639494148
 10
129.5154372959
 20
106.2569163263
 10
129.6284676672
 20
106.3395952506
 10
129.7477843791
 20
106.4119096092
 10
129.8733410433
 20
106.4739359806
 10
130.0042053413
 20
106.5252136683
 10
130.1404168734
 20
106.5656627071
 10
130.2819360395
 20
106.5953630623
 10
130.4277117206
 20
106.6140939335
 10
130.5777756798
 20
106.6217736167
 10
130.7320961542
 20
106.6184838159
 10
130.8895267363
 20
106.6042488425
 10
131.0500905734
 20
106.5789871606
 10
131.2137645182
 20
106.542780306
 10
131.3793327216
 20
106.495897198
 10
131.5468092687
 20
106.4382583288
 10
131.7161800745
 20
106.3699432062
 10
131.8861870341
 20
106.2914592724
 10
132.0568348824
 20
106.2027308032
 10
132.1421453002
 20
106.1547451891
  0
LWPOLYLINE
  5
25D
100
AcDbEntity
  8
ASSI
100
AcDbPolyline
 62
7
  6
CONTINUOUS
 90
33
 70
0
 10
128.7130082254
 20
104.1748051349
 10
128.7173577729
 20
104.3704697549
 10
128.7301239038
 20
104.5598134791
 10
128.7513066182
 20
104.7428363074
 10
128.7810000552
 20
104.9199618628
 10
128.8191100757
 20
105.0907665224
 10
128.8653542625
 20
105.2539794174
 10
128.9197933832
 20
105.4095437047
 10
128.9823666703
 20
105.5575162274
 10
129.0526094038
 20
105.696796647
 10
129.1305787908
 20
105.8273200012
 10
129.2162176243
 20
105.9491512522
 10
129.3088895628
 20
106.0613849479
 10
129.4086468768
 20
106.1639494148
 10
129.5154372959
 20
106.2569163263
 10
129.6284676672
 20
106.3395952506
 10
129.7477843791
 20
106.4119096092
 10
129.8733410433
 20
106.4739359806
 10
130.0042053413
 20
106.5252136683
 10
130.1404168734
 20
106.5656627071
 10
130.2819360395
 20
106.5953630623
 10
130.4277117206
 20
106.6140939335
 10
130.5777756798
 20
106.6217736167
 10
130.7320961542
 20
106.6184838159
 10
130.8895267363
 20
106.6042488425
 10
131.0500905734
 20
106.5789871606
 10
131.2137645182
 20
106.542780306
 10
131.3793327216
 20
106.495897198
 10
131.5468092687
 20
106.4382583288
 10
131.7161800745
 20
106.3699432062
 10
131.8861870341
 20
106.2914592724
 10
132.0568348824
 20
106.2027308032
 10
132.1421453002
 20
106.1547451891
  0
LWPOLYLINE
  5
25E
100
AcDbEntity
  8
0
100
AcDbPolyline
 62
7
  6
CONTINUOUS
 90
44
 70
0
 10
130.4100645003
 20
104.7463895655
 10
130.4139670411
 20
104.5663739904
 10
130.4254188489
 20
104.3833134186
 10
130.4444199238
 20
104.1972078502
 10
130.4710549024
 20
104.0075802482
 10
130.505239148
 20
103.8149076497
 10
130.5467187511
 20
103.6206211649
 10
130.5955480337
 20
103.4247087766
 10
130.6516726737
 20
103.2271825021
 10
130.7146757953
 20
103.0295095034
 10
130.7846086164
 20
102.8316886878
 10
130.8614199191
 20
102.633721148
 10
130.9445391736
 20
102.4370773235
 10
131.0340133496
 20
102.2417670708
 10
131.1297954774
 20
102.0477805333
 10
131.231174118
 20
101.8565585811
 10
131.3381909436
 20
101.6681217995
 10
131.4508042821
 20
101.4824496031
 10
131.5681776775
 20
101.3009211056
 10
131.6903465737
 20
101.1235671614
 10
131.8172755269
 20
100.9503569162
 10
131.9480217494
 20
100.7825769201
 10
132.082613665
 20
100.6202676074
 10
132.2210228498
 20
100.4633885439
 10
132.3622212448
 20
100.3131049771
 10
132.5062296188
 20
100.1694660178
 10
132.6530272028
 20
100.0324225551
 10
132.8015236316
 20
99.9029925041
 10
132.9517315547
 20
99.7812325551
 10
133.1036383225
 20
99.6670860177
 10
133.2561156201
 20
99.561400736
 10
133.4091676958
 20
99.4642397134
 10
133.5627903012
 20
99.3755399464
 10
133.7158423768
 20
99.2959602685
 10
133.8683196744
 20
99.2255685889
 10
134.0202264422
 20
99.1642969985
 10
134.1704343654
 20
99.1126006029
 10
134.3189307941
 20
99.0705507002
 10
134.4657283781
 20
99.0380759924
 10
134.6097367521
 20
99.0154176912
 10
134.7509351471
 20
99.0026488908
 10
134.8893443319
 20
98.9996964969
 10
135.0239362475
 20
99.0065824391
 10
135.1092106876
 20
99.0175380172
  0
LWPOLYLINE
  5
25F
100
AcDbEntity
  8
ASSI
100
AcDbPolyline
 62
7
  6
CONTINUOUS
 90
44
 70
0
 10
130.4100645003
 20
104.7463895655
 10
130.4139670411
 20
104.5663739904
 10
130.4254188489
 20
104.3833134186
 10
130.4444199238
 20
104.1972078502
 10
130.4710549024
 20
104.0075802482
 10
130.505239148
 20
103.8149076497
 10
130.5467187511
 20
103.6206211649
 10
130.5955480337
 20
103.4247087766
 10
130.6516726737
 20
103.2271825021
 10
130.7146757953
 20
103.0295095034
 10
130.7846086164
 20
102.8316886878
 10
130.8614199191
 20
102.633721148
 10
130.9445391736
 20
102.4370773235
 10
131.0340133496
 20
102.2417670708
 10
131.1297954774
 20
102.0477805333
 10
131.231174118
 20
101.8565585811
 10
131.3381909436
 20
101.6681217995
 10
131.4508042821
 20
101.4824496031
 10
131.5681776775
 20
101.3009211056
 10
131.6903465737
 20
101.1235671614
 10
131.8172755269
 20
100.9503569162
 10
131.9480217494
 20
100.7825769201
 10
132.082613665
 20
100.6202676074
 10
132.2210228498
 20
100.4633885439
 10
132.3622212448
 20
100.3131049771
 10
132.5062296188
 20
100.1694660178
 10
132.6530272028
 20
100.0324225551
 10
132.8015236316
 20
99.9029925041
 10
132.9517315547
 20
99.7812325551
 10
133.1036383225
 20
99.6670860177
 10
133.2561156201
 20
99.561400736
 10
133.4091676958
 20
99.4642397134
 10
133.5627903012
 20
99.3755399464
 10
133.7158423768
 20
99.2959602685
 10
133.8683196744
 20
99.2255685889
 10
134.0202264422
 20
99.1642969985
 10
134.1704343654
 20
99.1126006029
 10
134.3189307941
 20
99.0705507002
 10
134.4657283781
 20
99.0380759924
 10
134.6097367521
 20
99.0154176912
 10
134.7509351471
 20
99.0026488908
 10
134.8893443319
 20
98.9996964969
 10
135.0239362475
 20
99.0065824391
 10
135.1092106876
 20
99.0175380172
  0
LWPOLYLINE
  5
260
100
AcDbEntity
  8
0
100
AcDbPolyline
 62
7
  6
CONTINUOUS
 90
44
 70
0
 10
130.4100645003
 20
121.4840302398
 10
130.4139670411
 20
121.3040146646
 10
130.4254188489
 20
121.1209540929
 10
130.4444199238
 20
120.9348485244
 10
130.4710549024
 20
120.7452209225
 10
130.505239148
 20
120.5525483239
 10
130.5467187511
 20
120.3582618391
 10
130.5955480337
 20
120.1623494509
 10
130.6516726737
 20
119.9648231764
 10
130.7146757953
 20
119.7671501776
 10
130.7846086164
 20
119.5693293621
 10
130.8614199191
 20
119.3713618223
 10
130.9445391736
 20
119.1747179977
 10
131.0340133496
 20
118.979407745
 10
131.1297954774
 20
118.7854212076
 10
131.231174118
 20
118.5941992553
 10
131.3381909436
 20
118.4057624737
 10
131.4508042821
 20
118.2200902773
 10
131.5681776775
 20
118.0385617798
 10
131.6903465737
 20
117.8612078357
 10
131.8172755269
 20
117.6879975904
 10
131.9480217494
 20
117.5202175943
 10
132.082613665
 20
117.3579082817
 10
132.2210228498
 20
117.2010292182
 10
132.3622212448
 20
117.0507456514
 10
132.5062296188
 20
116.907106692
 10
132.6530272028
 20
116.7700632294
 10
132.8015236316
 20
116.6406331784
 10
132.9517315547
 20
116.5188732293
 10
133.1036383225
 20
116.404726692
 10
133.2561156201
 20
116.2990414103
 10
133.4091676958
 20
116.2018803876
 10
133.5627903012
 20
116.1131806206
 10
133.7158423768
 20
116.0336009427
 10
133.8683196744
 20
115.9632092632
 10
134.0202264422
 20
115.9019376727
 10
134.1704343654
 20
115.8502412771
 10
134.3189307941
 20
115.8081913745
 10
134.4657283781
 20
115.7757166667
 10
134.6097367521
 20
115.7530583655
 10
134.7509351471
 20
115.740289565
 10
134.8893443319
 20
115.7373371712
 10
135.0239362475
 20
115.7442231134
 10
135.1092106876
 20
115.7551786914
  0
LWPOLYLINE
  5
261
100
AcDbEntity
  8
ASSI
100
AcDbPolyline
 62
7
  6
CONTINUOUS
 90
44
 70
0
 10
130.4100645003
 20
121.4840302398
 10
130.4139670411
 20
121.3040146646
 10
130.4254188489
 20
121.1209540929
 10
130.4444199238
 20
120.9348485244
 10
130.4710549024
 20
120.7452209225
 10
130.505239148
 20
120.5525483239
 10
130.5467187511
 20
120.3582618391
 10
130.5955480337
 20
120.1623494509
 10
130.6516726737
 20
119.9648231764
 10
130.7146757953
 20
119.7671501776
 10
130.7846086164
 20
119.5693293621
 10
130.8614199191
 20
119.3713618223
 10
130.9445391736
 20
119.1747179977
 10
131.0340133496
 20
118.979407745
 10
131.1297954774
 20
118.7854212076
 10
131.231174118
 20
118.5941992553
 10
131.3381909436
 20
118.4057624737
 10
131.4508042821
 20
118.2200902773
 10
131.5681776775
 20
118.0385617798
 10
131.6903465737
 20
117.8612078357
 10
131.8172755269
 20
117.6879975904
 10
131.9480217494
 20
117.5202175943
 10
132.082613665
 20
117.3579082817
 10
132.2210228498
 20
117.2010292182
 10
132.3622212448
 20
117.0507456514
 10
132.5062296188
 20
116.907106692
 10
132.6530272028
 20
116.7700632294
 10
132.8015236316
 20
116.6406331784
 10
132.9517315547
 20
116.5188732293
 10
133.1036383225
 20
116.404726692
 10
133.2561156201
 20
116.2990414103
 10
133.4091676958
 20
116.2018803876
 10
133.5627903012
 20
116.1131806206
 10
133.7158423768
 20
116.0336009427
 10
133.8683196744
 20
115.9632092632
 10
134.0202264422
 20
115.9019376727
 10
134.1704343654
 20
115.8502412771
 10
134.3189307941
 20
115.8081913745
 10
134.4657283781
 20
115.7757166667
 10
134.6097367521
 20
115.7530583655
 10
134.7509351471
 20
115.740289565
 10
134.8893443319
 20
115.7373371712
 10
135.0239362475
 20
115.7442231134
 10
135.1092106876
 20
115.7551786914
  0
LWPOLYLINE
  5
262
100
AcDbEntity
  8
0
100
AcDbPolyline
 62
7
  6
CONTINUOUS
 90
13
 70
0
 10
130.8728593679
 20
106.3516975585
 10
130.8614199191
 20
106.337844059
 10
130.7846086164
 20
106.2285762862
 10
130.7146757953
 20
106.1115121396
 10
130.6516726737
 20
105.9865935664
 10
130.5955480337
 20
105.8538786194
 10
130.5467187511
 20
105.7143530627
 10
130.505239148
 20
105.5679661838
 10
130.4710549024
 20
105.4147686952
 10
130.4444199238
 20
105.2558984989
 10
130.4254188489
 20
105.0917348955
 10
130.4139670411
 20
104.9218985844
 10
130.4100645003
 20
104.7463895655
  0
LWPOLYLINE
  5
263
100
AcDbEntity
  8
ASSI
100
AcDbPolyline
 62
7
  6
CONTINUOUS
 90
13
 70
0
 10
130.8728593679
 20
106.3516975585
 10
130.8614199191
 20
106.337844059
 10
130.7846086164
 20
106.2285762862
 10
130.7146757953
 20
106.1115121396
 10
130.6516726737
 20
105.9865935664
 10
130.5955480337
 20
105.8538786194
 10
130.5467187511
 20
105.7143530627
 10
130.505239148
 20
105.5679661838
 10
130.4710549024
 20
105.4147686952
 10
130.4444199238
 20
105.2558984989
 10
130.4254188489
 20
105.0917348955
 10
130.4139670411
 20
104.9218985844
 10
130.4100645003
 20
104.7463895655
  0
LWPOLYLINE
  5
264
100
AcDbEntity
  8
0
100
AcDbPolyline
 62
7
  6
CONTINUOUS
 90
49
 70
0
 10
134.6711346014
 20
115.3693015012
 10
134.6437747279
 20
115.3538967995
 10
134.5313477042
 20
115.2983566121
 10
134.413860268
 20
115.2523585666
 10
134.2916044064
 20
115.2160170583
 10
134.1648841216
 20
115.1894225288
 10
134.0340144382
 20
115.172641154
 10
133.8993206484
 20
115.1657147132
 10
133.7611376651
 20
115.1686604941
 10
133.6198091975
 20
115.1814712097
 10
133.4756866468
 20
115.2041150262
 10
133.3291283045
 20
115.2365356691
 10
133.1804986359
 20
115.2786525267
 10
133.0301671961
 20
115.3303608817
 10
132.8785077244
 20
115.3915321842
 10
132.7258973038
 20
115.4620143421
 10
132.5727153658
 20
115.5416321186
 10
132.4193427589
 20
115.6301875651
 10
132.2661608197
 20
115.7274605028
 10
132.1135503962
 20
115.833209087
 10
131.9618909206
 20
115.9471703963
 10
131.8115594781
 20
116.0690610756
 10
131.6629298075
 20
116.1985780904
 10
131.5163714646
 20
116.3353994049
 10
131.3722489188
 20
116.479184751
 10
131.2309204636
 20
116.6295766542
 10
131.0927374976
 20
116.7862011609
 10
130.9580437272
 20
116.9486686544
 10
130.827174067
 20
117.1165750952
 10
130.7004538072
 20
117.2895030673
 10
130.5781979639
 20
117.467022625
 10
130.4607105382
 20
117.6486922765
 10
130.3482835206
 20
117.8340604447
 10
130.2411961871
 20
118.0226666326
 10
130.1397147293
 20
118.2140420296
 10
130.0440915087
 20
118.4077107451
 10
129.9545642248
 20
118.6031913755
 10
129.871355355
 20
118.799998209
 10
129.7946719214
 20
118.9976416606
 10
129.7247048483
 20
119.1956295733
 10
129.661627982
 20
119.3934698373
 10
129.6055981219
 20
119.5906704622
 10
129.5567547619
 20
119.7867400411
 10
129.5152191086
 20
119.9811912894
 10
129.4810942568
 20
120.1735407049
 10
129.4544650177
 20
120.3633086838
 10
129.4353972467
 20
120.5500231312
 10
129.4239378774
 20
120.7332205714
 10
129.4201150066
 20
120.9124458091
  0
LWPOLYLINE
  5
265
100
AcDbEntity
  8
ASSI
100
AcDbPolyline
 62
7
  6
CONTINUOUS
 90
49
 70
0
 10
134.6711346014
 20
115.3693015012
 10
134.6437747279
 20
115.3538967995
 10
134.5313477042
 20
115.2983566121
 10
134.413860268
 20
115.2523585666
 10
134.2916044064
 20
115.2160170583
 10
134.1648841216
 20
115.1894225288
 10
134.0340144382
 20
115.172641154
 10
133.8993206484
 20
115.1657147132
 10
133.7611376651
 20
115.1686604941
 10
133.6198091975
 20
115.1814712097
 10
133.4756866468
 20
115.2041150262
 10
133.3291283045
 20
115.2365356691
 10
133.1804986359
 20
115.2786525267
 10
133.0301671961
 20
115.3303608817
 10
132.8785077244
 20
115.3915321842
 10
132.7258973038
 20
115.4620143421
 10
132.5727153658
 20
115.5416321186
 10
132.4193427589
 20
115.6301875651
 10
132.2661608197
 20
115.7274605028
 10
132.1135503962
 20
115.833209087
 10
131.9618909206
 20
115.9471703963
 10
131.8115594781
 20
116.0690610756
 10
131.6629298075
 20
116.1985780904
 10
131.5163714646
 20
116.3353994049
 10
131.3722489188
 20
116.479184751
 10
131.2309204636
 20
116.6295766542
 10
131.0927374976
 20
116.7862011609
 10
130.9580437272
 20
116.9486686544
 10
130.827174067
 20
117.1165750952
 10
130.7004538072
 20
117.2895030673
 10
130.5781979639
 20
117.467022625
 10
130.4607105382
 20
117.6486922765
 10
130.3482835206
 20
117.8340604447
 10
130.2411961871
 20
118.0226666326
 10
130.1397147293
 20
118.2140420296
 10
130.0440915087
 20
118.4077107451
 10
129.9545642248
 20
118.6031913755
 10
129.871355355
 20
118.799998209
 10
129.7946719214
 20
118.9976416606
 10
129.7247048483
 20
119.1956295733
 10
129.661627982
 20
119.3934698373
 10
129.6055981219
 20
119.5906704622
 10
129.5567547619
 20
119.7867400411
 10
129.5152191086
 20
119.9811912894
 10
129.4810942568
 20
120.1735407049
 10
129.4544650177
 20
120.3633086838
 10
129.4353972467
 20
120.5500231312
 10
129.4239378774
 20
120.7332205714
 10
129.4201150066
 20
120.9124458091
  0
LWPOLYLINE
  5
266
100
AcDbEntity
  8
0
100
AcDbPolyline
 62
7
  6
CONTINUOUS
 90
64
 70
0
 10
135.571944003
 20
116.9521822538
 10
135.5675944555
 20
116.7565176338
 10
135.5548283246
 20
116.5671739096
 10
135.5336456102
 20
116.3841510813
 10
135.5039521732
 20
116.2070255259
 10
135.4658421527
 20
116.0362208663
 10
135.4195979659
 20
115.8730079713
 10
135.3651588452
 20
115.717443684
 10
135.3025855581
 20
115.5694711613
 10
135.2323428246
 20
115.4301907417
 10
135.1543734376
 20
115.2996673875
 10
135.0687346041
 20
115.1778361365
 10
134.9760626656
 20
115.0656024408
 10
134.8763053516
 20
114.9630379739
 10
134.7695149325
 20
114.8700710624
 10
134.6564845612
 20
114.7873921381
 10
134.5371678493
 20
114.7150777795
 10
134.4116111851
 20
114.6530514081
 10
134.2807468871
 20
114.6017737204
 10
134.144535355
 20
114.5613246816
 10
134.0030161889
 20
114.5316243264
 10
133.8572405078
 20
114.5128934552
 10
133.7071765485
 20
114.505213772
 10
133.5528560742
 20
114.5085035728
 10
133.3954254921
 20
114.5227385462
 10
133.234861655
 20
114.5480002281
 10
133.0711877102
 20
114.5842070827
 10
132.9056195068
 20
114.6310901907
 10
132.7381429597
 20
114.6887290599
 10
132.5687721539
 20
114.7570441825
 10
132.3987651943
 20
114.8355281163
 10
132.228117346
 20
114.9242565855
 10
132.0568333439
 20
115.0231538659
 10
131.8861854968
 20
115.1314853425
 10
131.7161785394
 20
115.2493212722
 10
131.5468077371
 20
115.3765913982
 10
131.3793311949
 20
115.5123503355
 10
131.213762996
 20
115.656661329
 10
131.0500890572
 20
115.8094611337
 10
130.8895252341
 20
115.9696146296
 10
130.732094675
 20
116.1371766231
 10
130.5777742317
 20
116.3120923077
 10
130.427710315
 20
116.4930621435
 10
130.2819346969
 20
116.6801311408
 10
130.1404156055
 20
116.8732542893
 10
130.0042041355
 20
117.0709970178
 10
129.8733398781
 20
117.2733935712
 10
129.7477832421
 20
117.4804097047
 10
129.6284665496
 20
117.690508113
 10
129.5154361807
 20
117.903711828
 10
129.4086457551
 20
118.1199978179
 10
129.3088884543
 20
118.3377596813
 10
129.2162165574
 20
118.5570087272
 10
129.1305777852
 20
118.7777336467
 10
129.0526084817
 20
118.9982941121
 10
128.9823658623
 20
119.2186890086
 10
128.9197927116
 20
119.4389194509
 10
128.865353727
 20
119.6573484553
 10
128.8191096771
 20
119.8739626758
 10
128.7809997933
 20
120.0887754584
 10
128.7513064671
 20
120.3001898575
 10
128.730123829
 20
120.5076735581
 10
128.7173577484
 20
120.7117588753
 10
128.7130082254
 20
120.9124458091
  0
LWPOLYLINE
  5
267
100
AcDbEntity
  8
ASSI
100
AcDbPolyline
 62
7
  6
CONTINUOUS
 90
64
 70
0
 10
135.571944003
 20
116.9521822538
 10
135.5675944555
 20
116.7565176338
 10
135.5548283246
 20
116.5671739096
 10
135.5336456102
 20
116.3841510813
 10
135.5039521732
 20
116.2070255259
 10
135.4658421527
 20
116.0362208663
 10
135.4195979659
 20
115.8730079713
 10
135.3651588452
 20
115.717443684
 10
135.3025855581
 20
115.5694711613
 10
135.2323428246
 20
115.4301907417
 10
135.1543734376
 20
115.2996673875
 10
135.0687346041
 20
115.1778361365
 10
134.9760626656
 20
115.0656024408
 10
134.8763053516
 20
114.9630379739
 10
134.7695149325
 20
114.8700710624
 10
134.6564845612
 20
114.7873921381
 10
134.5371678493
 20
114.7150777795
 10
134.4116111851
 20
114.6530514081
 10
134.2807468871
 20
114.6017737204
 10
134.144535355
 20
114.5613246816
 10
134.0030161889
 20
114.5316243264
 10
133.8572405078
 20
114.5128934552
 10
133.7071765485
 20
114.505213772
 10
133.5528560742
 20
114.5085035728
 10
133.3954254921
 20
114.5227385462
 10
133.234861655
 20
114.5480002281
 10
133.0711877102
 20
114.5842070827
 10
132.9056195068
 20
114.6310901907
 10
132.7381429597
 20
114.6887290599
 10
132.5687721539
 20
114.7570441825
 10
132.3987651943
 20
114.8355281163
 10
132.228117346
 20
114.9242565855
 10
132.0568333439
 20
115.0231538659
 10
131.8861854968
 20
115.1314853425
 10
131.7161785394
 20
115.2493212722
 10
131.5468077371
 20
115.3765913982
 10
131.3793311949
 20
115.5123503355
 10
131.213762996
 20
115.656661329
 10
131.0500890572
 20
115.8094611337
 10
130.8895252341
 20
115.9696146296
 10
130.732094675
 20
116.1371766231
 10
130.5777742317
 20
116.3120923077
 10
130.427710315
 20
116.4930621435
 10
130.2819346969
 20
116.6801311408
 10
130.1404156055
 20
116.8732542893
 10
130.0042041355
 20
117.0709970178
 10
129.8733398781
 20
117.2733935712
 10
129.7477832421
 20
117.4804097047
 10
129.6284665496
 20
117.690508113
 10
129.5154361807
 20
117.903711828
 10
129.4086457551
 20
118.1199978179
 10
129.3088884543
 20
118.3377596813
 10
129.2162165574
 20
118.5570087272
 10
129.1305777852
 20
118.7777336467
 10
129.0526084817
 20
118.9982941121
 10
128.9823658623
 20
119.2186890086
 10
128.9197927116
 20
119.4389194509
 10
128.865353727
 20
119.6573484553
 10
128.8191096771
 20
119.8739626758
 10
128.7809997933
 20
120.0887754584
 10
128.7513064671
 20
120.3001898575
 10
128.730123829
 20
120.5076735581
 10
128.7173577484
 20
120.7117588753
 10
128.7130082254
 20
120.9124458091
  0
LWPOLYLINE
  5
268
100
AcDbEntity
  8
0
100
AcDbPolyline
 62
7
  6
CONTINUOUS
 90
64
 70
0
 10
135.571944003
 20
100.2145415796
 10
135.5675944555
 20
100.0188769596
 10
135.5548283246
 20
99.8295332354
 10
135.5336456102
 20
99.646510407
 10
135.5039521732
 20
99.4693848516
 10
135.4658421527
 20
99.2985801921
 10
135.4195979659
 20
99.135367297
 10
135.3651588452
 20
98.9798030098
 10
135.3025855581
 20
98.831830487
 10
135.2323428246
 20
98.6925500675
 10
135.1543734376
 20
98.5620267132
 10
135.0687346041
 20
98.4401954622
 10
134.9760626656
 20
98.3279617666
 10
134.8763053516
 20
98.2253972997
 10
134.7695149325
 20
98.1324303882
 10
134.6564845612
 20
98.0497514639
 10
134.5371678493
 20
97.9774371053
 10
134.4116111851
 20
97.9154107339
 10
134.2807468871
 20
97.8641330461
 10
134.144535355
 20
97.8236840073
 10
134.0030161889
 20
97.7939836521
 10
133.8572405078
 20
97.775252781
 10
133.7071765485
 20
97.7675730977
 10
133.5528560742
 20
97.7708628985
 10
133.3954254921
 20
97.7850978719
 10
133.234861655
 20
97.8103595539
 10
133.0711877102
 20
97.8465664084
 10
132.9056195068
 20
97.8934495164
 10
132.7381429597
 20
97.9510883856
 10
132.5687721539
 20
98.0194035083
 10
132.3987651943
 20
98.0978874421
 10
132.228117346
 20
98.1866159112
 10
132.0568333439
 20
98.2855131916
 10
131.8861854968
 20
98.3938446683
 10
131.7161785394
 20
98.511680598
 10
131.5468077371
 20
98.638950724
 10
131.3793311949
 20
98.7747096612
 10
131.213762996
 20
98.9190206547
 10
131.0500890572
 20
99.0718204595
 10
130.8895252341
 20
99.2319739553
 10
130.732094675
 20
99.3995359489
 10
130.5777742317
 20
99.5744516335
 10
130.427710315
 20
99.7554214692
 10
130.2819346969
 20
99.9424904665
 10
130.1404156055
 20
100.135613615
 10
130.0042041355
 20
100.3333563436
 10
129.8733398781
 20
100.5357528969
 10
129.7477832421
 20
100.7427690304
 10
129.6284665496
 20
100.9528674387
 10
129.5154361807
 20
101.1660711538
 10
129.4086457551
 20
101.3823571436
 10
129.3088884543
 20
101.6001190071
 10
129.2162165574
 20
101.819368053
 10
129.1305777852
 20
102.0400929725
 10
129.0526084817
 20
102.2606534378
 10
128.9823658623
 20
102.4810483343
 10
128.9197927116
 20
102.7012787767
 10
128.865353727
 20
102.9197077811
 10
128.8191096771
 20
103.1363220016
 10
128.7809997933
 20
103.3511347841
 10
128.7513064671
 20
103.5625491833
 10
128.730123829
 20
103.7700328839
 10
128.7173577484
 20
103.9741182011
 10
128.7130082254
 20
104.1748051349
  0
LWPOLYLINE
  5
269
100
AcDbEntity
  8
ASSI
100
AcDbPolyline
 62
7
  6
CONTINUOUS
 90
64
 70
0
 10
135.571944003
 20
100.2145415796
 10
135.5675944555
 20
100.0188769596
 10
135.5548283246
 20
99.8295332354
 10
135.5336456102
 20
99.646510407
 10
135.5039521732
 20
99.4693848516
 10
135.4658421527
 20
99.2985801921
 10
135.4195979659
 20
99.135367297
 10
135.3651588452
 20
98.9798030098
 10
135.3025855581
 20
98.831830487
 10
135.2323428246
 20
98.6925500675
 10
135.1543734376
 20
98.5620267132
 10
135.0687346041
 20
98.4401954622
 10
134.9760626656
 20
98.3279617666
 10
134.8763053516
 20
98.2253972997
 10
134.7695149325
 20
98.1324303882
 10
134.6564845612
 20
98.0497514639
 10
134.5371678493
 20
97.9774371053
 10
134.4116111851
 20
97.9154107339
 10
134.2807468871
 20
97.8641330461
 10
134.144535355
 20
97.8236840073
 10
134.0030161889
 20
97.7939836521
 10
133.8572405078
 20
97.775252781
 10
133.7071765485
 20
97.7675730977
 10
133.5528560742
 20
97.7708628985
 10
133.3954254921
 20
97.7850978719
 10
133.234861655
 20
97.8103595539
 10
133.0711877102
 20
97.8465664084
 10
132.9056195068
 20
97.8934495164
 10
132.7381429597
 20
97.9510883856
 10
132.5687721539
 20
98.0194035083
 10
132.3987651943
 20
98.0978874421
 10
132.228117346
 20
98.1866159112
 10
132.0568333439
 20
98.2855131916
 10
131.8861854968
 20
98.3938446683
 10
131.7161785394
 20
98.511680598
 10
131.5468077371
 20
98.638950724
 10
131.3793311949
 20
98.7747096612
 10
131.213762996
 20
98.9190206547
 10
131.0500890572
 20
99.0718204595
 10
130.8895252341
 20
99.2319739553
 10
130.732094675
 20
99.3995359489
 10
130.5777742317
 20
99.5744516335
 10
130.427710315
 20
99.7554214692
 10
130.2819346969
 20
99.9424904665
 10
130.1404156055
 20
100.135613615
 10
130.0042041355
 20
100.3333563436
 10
129.8733398781
 20
100.5357528969
 10
129.7477832421
 20
100.7427690304
 10
129.6284665496
 20
100.9528674387
 10
129.5154361807
 20
101.1660711538
 10
129.4086457551
 20
101.3823571436
 10
129.3088884543
 20
101.6001190071
 10
129.2162165574
 20
101.819368053
 10
129.1305777852
 20
102.0400929725
 10
129.0526084817
 20
102.2606534378
 10
128.9823658623
 20
102.4810483343
 10
128.9197927116
 20
102.7012787767
 10
128.865353727
 20
102.9197077811
 10
128.8191096771
 20
103.1363220016
 10
128.7809997933
 20
103.3511347841
 10
128.7513064671
 20
103.5625491833
 10
128.730123829
 20
103.7700328839
 10
128.7173577484
 20
103.9741182011
 10
128.7130082254
 20
104.1748051349
  0
LINE
  5
26A
100
AcDbEntity
  8
0
100
AcDbLine
 62
7
  6
CONTINUOUS
 10
135.5667843929
 20
117.1658196688
 11
135.5566617
 21
117.0156810284
  0
LINE
  5
26B
100
AcDbEntity
  8
ASSI
100
AcDbLine
 62
7
  6
CONTINUOUS
 10
135.5667843929
 20
117.1658196688
 11
135.5566617
 21
117.0156810284
  0
LINE
  5
26C
100
AcDbEntity
  8
0
100
AcDbLine
 62
7
  6
CONTINUOUS
 10
135.5667843929
 20
100.4281789946
 11
135.5566617
 21
100.2780403542
  0
LINE
  5
26D
100
AcDbEntity
  8
ASSI
100
AcDbLine
 62
7
  6
CONTINUOUS
 10
135.5667843929
 20
100.4281789946
 11
135.5566617
 21
100.2780403542
  0
LWPOLYLINE
  5
26E
100
AcDbEntity
  8
0
100
AcDbPolyline
 62
7
  6
CONTINUOUS
 90
15
 70
0
 10
135.5566617
 20
117.0156810284
 10
135.5375938597
 20
116.8509853175
 10
135.510964534
 20
116.6919679291
 10
135.4768395847
 20
116.5390249087
 10
135.4353038306
 20
116.3925379228
 10
135.386460375
 20
116.2528714219
 10
135.3304304301
 20
116.1203727137
 10
135.2673534914
 20
115.9953721061
 10
135.1973863653
 20
115.8781805198
 10
135.120702901
 20
115.7690893018
 10
135.0374940129
 20
115.6683701127
 10
134.9479667238
 20
115.5762734713
 10
134.8523435121
 20
115.4930281765
 10
134.7508620623
 20
115.4188411297
 10
134.6711346014
 20
115.3693015012
  0
LWPOLYLINE
  5
26F
100
AcDbEntity
  8
ASSI
100
AcDbPolyline
 62
7
  6
CONTINUOUS
 90
15
 70
0
 10
135.5566617
 20
117.0156810284
 10
135.5375938597
 20
116.8509853175
 10
135.510964534
 20
116.6919679291
 10
135.4768395847
 20
116.5390249087
 10
135.4353038306
 20
116.3925379228
 10
135.386460375
 20
116.2528714219
 10
135.3304304301
 20
116.1203727137
 10
135.2673534914
 20
115.9953721061
 10
135.1973863653
 20
115.8781805198
 10
135.120702901
 20
115.7690893018
 10
135.0374940129
 20
115.6683701127
 10
134.9479667238
 20
115.5762734713
 10
134.8523435121
 20
115.4930281765
 10
134.7508620623
 20
115.4188411297
 10
134.6711346014
 20
115.3693015012
  0
LWPOLYLINE
  5
270
100
AcDbEntity
  8
0
100
AcDbPolyline
 62
7
  6
CONTINUOUS
 90
15
 70
0
 10
135.5566617
 20
100.2780403542
 10
135.5375938597
 20
100.1133446432
 10
135.510964534
 20
99.9543272548
 10
135.4768395847
 20
99.8013842344
 10
135.4353038306
 20
99.6548972485
 10
135.386460375
 20
99.5152307477
 10
135.3304304301
 20
99.3827320395
 10
135.2673534914
 20
99.2577314318
 10
135.1973863653
 20
99.1405398456
 10
135.120702901
 20
99.0314486275
 10
135.0374940129
 20
98.9307294384
 10
134.9479667238
 20
98.838632797
 10
134.8523435121
 20
98.7553875022
 10
134.7508620623
 20
98.6812004554
 10
134.6711346014
 20
98.6316608269
  0
LWPOLYLINE
  5
271
100
AcDbEntity
  8
ASSI
100
AcDbPolyline
 62
7
  6
CONTINUOUS
 90
15
 70
0
 10
135.5566617
 20
100.2780403542
 10
135.5375938597
 20
100.1133446432
 10
135.510964534
 20
99.9543272548
 10
135.4768395847
 20
99.8013842344
 10
135.4353038306
 20
99.6548972485
 10
135.386460375
 20
99.5152307477
 10
135.3304304301
 20
99.3827320395
 10
135.2673534914
 20
99.2577314318
 10
135.1973863653
 20
99.1405398456
 10
135.120702901
 20
99.0314486275
 10
135.0374940129
 20
98.9307294384
 10
134.9479667238
 20
98.838632797
 10
134.8523435121
 20
98.7553875022
 10
134.7508620623
 20
98.6812004554
 10
134.6711346014
 20
98.6316608269
  0
LWPOLYLINE
  5
272
100
AcDbEntity
  8
0
100
AcDbPolyline
 62
7
  6
CONTINUOUS
 90
15
 70
0
 10
130.3209244082
 20
106.1659604808
 10
130.3482842817
 20
106.1813651825
 10
130.4607113053
 20
106.23690537
 10
130.5781987416
 20
106.2829034154
 10
130.7004546031
 20
106.3192449237
 10
130.827174888
 20
106.3458394532
 10
130.9580445714
 20
106.3626208281
 10
131.0927383611
 20
106.3695472689
 10
131.2309213445
 20
106.3666014879
 10
131.3722498121
 20
106.3537907723
 10
131.5163723628
 20
106.3311469559
 10
131.6629307051
 20
106.298726313
 10
131.8115603737
 20
106.2566094553
 10
131.9618918135
 20
106.2049011003
 10
132.1135512851
 20
106.1437297979
  0
LWPOLYLINE
  5
273
100
AcDbEntity
  8
ASSI
100
AcDbPolyline
 62
7
  6
CONTINUOUS
 90
15
 70
0
 10
130.3209244082
 20
106.1659604808
 10
130.3482842817
 20
106.1813651825
 10
130.4607113053
 20
106.23690537
 10
130.5781987416
 20
106.2829034154
 10
130.7004546031
 20
106.3192449237
 10
130.827174888
 20
106.3458394532
 10
130.9580445714
 20
106.3626208281
 10
131.0927383611
 20
106.3695472689
 10
131.2309213445
 20
106.3666014879
 10
131.3722498121
 20
106.3537907723
 10
131.5163723628
 20
106.3311469559
 10
131.6629307051
 20
106.298726313
 10
131.8115603737
 20
106.2566094553
 10
131.9618918135
 20
106.2049011003
 10
132.1135512851
 20
106.1437297979
  0
LWPOLYLINE
  5
274
100
AcDbEntity
  8
0
100
AcDbPolyline
 62
7
  6
CONTINUOUS
 90
13
 70
0
 10
146.7827619446
 20
113.9031598829
 10
146.7713224958
 20
113.8893063834
 10
146.6945111931
 20
113.7800386106
 10
146.624578372
 20
113.6629744639
 10
146.5615752504
 20
113.5380558908
 10
146.5054506104
 20
113.4053409438
 10
146.4566213278
 20
113.2658153871
 10
146.4151417247
 20
113.1194285082
 10
146.3809574791
 20
112.9662310196
 10
146.3543225005
 20
112.8073608233
 10
146.3353214256
 20
112.6431972199
 10
146.3238696178
 20
112.4733609088
 10
146.319967077
 20
112.2978518899
  0
LWPOLYLINE
  5
275
100
AcDbEntity
  8
ASSI
100
AcDbPolyline
 62
7
  6
CONTINUOUS
 90
13
 70
0
 10
146.7827619446
 20
113.9031598829
 10
146.7713224958
 20
113.8893063834
 10
146.6945111931
 20
113.7800386106
 10
146.624578372
 20
113.6629744639
 10
146.5615752504
 20
113.5380558908
 10
146.5054506104
 20
113.4053409438
 10
146.4566213278
 20
113.2658153871
 10
146.4151417247
 20
113.1194285082
 10
146.3809574791
 20
112.9662310196
 10
146.3543225005
 20
112.8073608233
 10
146.3353214256
 20
112.6431972199
 10
146.3238696178
 20
112.4733609088
 10
146.319967077
 20
112.2978518899
  0
LWPOLYLINE
  5
276
100
AcDbEntity
  8
0
100
AcDbPolyline
 62
7
  6
CONTINUOUS
 90
15
 70
0
 10
146.2308269849
 20
113.7174228052
 10
146.2581868584
 20
113.7328275069
 10
146.370613882
 20
113.7883676943
 10
146.4881013183
 20
113.8343657398
 10
146.6103571798
 20
113.8707072481
 10
146.7370774647
 20
113.8973017776
 10
146.8679471481
 20
113.9140831524
 10
147.0026409378
 20
113.9210095932
 10
147.1408239212
 20
113.9180638123
 10
147.2821523888
 20
113.9052530967
 10
147.4262749395
 20
113.8826092802
 10
147.5728332818
 20
113.8501886374
 10
147.7214629504
 20
113.8080717797
 10
147.8717943902
 20
113.7563634247
 10
148.0234538618
 20
113.6951921222
  0
LWPOLYLINE
  5
277
100
AcDbEntity
  8
ASSI
100
AcDbPolyline
 62
7
  6
CONTINUOUS
 90
15
 70
0
 10
146.2308269849
 20
113.7174228052
 10
146.2581868584
 20
113.7328275069
 10
146.370613882
 20
113.7883676943
 10
146.4881013183
 20
113.8343657398
 10
146.6103571798
 20
113.8707072481
 10
146.7370774647
 20
113.8973017776
 10
146.8679471481
 20
113.9140831524
 10
147.0026409378
 20
113.9210095932
 10
147.1408239212
 20
113.9180638123
 10
147.2821523888
 20
113.9052530967
 10
147.4262749395
 20
113.8826092802
 10
147.5728332818
 20
113.8501886374
 10
147.7214629504
 20
113.8080717797
 10
147.8717943902
 20
113.7563634247
 10
148.0234538618
 20
113.6951921222
  0
LWPOLYLINE
  5
278
100
AcDbEntity
  8
0
100
AcDbPolyline
 62
7
  6
CONTINUOUS
 90
3
 70
0
 10
163.9333564385
 20
87.7713730981
 10
164.0859668591
 20
87.7008909402
 10
164.1418947939
 20
87.6718218615
  0
LWPOLYLINE
  5
279
100
AcDbEntity
  8
ASSI
100
AcDbPolyline
 62
7
  6
CONTINUOUS
 90
3
 70
0
 10
163.9333564385
 20
87.7713730981
 10
164.0859668591
 20
87.7008909402
 10
164.1418947939
 20
87.6718218615
  0
LWPOLYLINE
  5
27A
100
AcDbEntity
  8
0
100
AcDbPolyline
 62
7
  6
CONTINUOUS
 90
44
 70
0
 10
146.319967077
 20
95.5602112156
 10
146.3238696178
 20
95.3801956405
 10
146.3353214256
 20
95.1971350687
 10
146.3543225005
 20
95.0110295003
 10
146.3809574791
 20
94.8214018984
 10
146.4151417247
 20
94.6287292998
 10
146.4566213278
 20
94.434442815
 10
146.5054506104
 20
94.2385304267
 10
146.5615752504
 20
94.0410041523
 10
146.624578372
 20
93.8433311535
 10
146.6945111931
 20
93.645510338
 10
146.7713224958
 20
93.4475427981
 10
146.8544417503
 20
93.2508989736
 10
146.9439159263
 20
93.0555887209
 10
147.0396980541
 20
92.8616021834
 10
147.1410766947
 20
92.6703802312
 10
147.2480935203
 20
92.4819434496
 10
147.3607068588
 20
92.2962712532
 10
147.4780802542
 20
92.1147427557
 10
147.6002491504
 20
91.9373888116
 10
147.7271781036
 20
91.7641785663
 10
147.8579243261
 20
91.5963985702
 10
147.9925162417
 20
91.4340892576
 10
148.1309254265
 20
91.2772101941
 10
148.2721238215
 20
91.1269266272
 10
148.4161321955
 20
90.9832876679
 10
148.5629297795
 20
90.8462442052
 10
148.7114262082
 20
90.7168141542
 10
148.8616341314
 20
90.5950542052
 10
149.0135408992
 20
90.4809076679
 10
149.1660181968
 20
90.3752223861
 10
149.3190702725
 20
90.2780613635
 10
149.4726928778
 20
90.1893615965
 10
149.6257449535
 20
90.1097819186
 10
149.7782222511
 20
90.039390239
 10
149.9301290189
 20
89.9781186486
 10
150.0803369421
 20
89.926422253
 10
150.2288333708
 20
89.8843723503
 10
150.3756309548
 20
89.8518976425
 10
150.5196393288
 20
89.8292393413
 10
150.6608377238
 20
89.8164705409
 10
150.7992469086
 20
89.813518147
 10
150.9338388242
 20
89.8204040892
 10
151.0191132643
 20
89.8313596673
  0
LWPOLYLINE
  5
27B
100
AcDbEntity
  8
ASSI
100
AcDbPolyline
 62
7
  6
CONTINUOUS
 90
44
 70
0
 10
146.319967077
 20
95.5602112156
 10
146.3238696178
 20
95.3801956405
 10
146.3353214256
 20
95.1971350687
 10
146.3543225005
 20
95.0110295003
 10
146.3809574791
 20
94.8214018984
 10
146.4151417247
 20
94.6287292998
 10
146.4566213278
 20
94.434442815
 10
146.5054506104
 20
94.2385304267
 10
146.5615752504
 20
94.0410041523
 10
146.624578372
 20
93.8433311535
 10
146.6945111931
 20
93.645510338
 10
146.7713224958
 20
93.4475427981
 10
146.8544417503
 20
93.2508989736
 10
146.9439159263
 20
93.0555887209
 10
147.0396980541
 20
92.8616021834
 10
147.1410766947
 20
92.6703802312
 10
147.2480935203
 20
92.4819434496
 10
147.3607068588
 20
92.2962712532
 10
147.4780802542
 20
92.1147427557
 10
147.6002491504
 20
91.9373888116
 10
147.7271781036
 20
91.7641785663
 10
147.8579243261
 20
91.5963985702
 10
147.9925162417
 20
91.4340892576
 10
148.1309254265
 20
91.2772101941
 10
148.2721238215
 20
91.1269266272
 10
148.4161321955
 20
90.9832876679
 10
148.5629297795
 20
90.8462442052
 10
148.7114262082
 20
90.7168141542
 10
148.8616341314
 20
90.5950542052
 10
149.0135408992
 20
90.4809076679
 10
149.1660181968
 20
90.3752223861
 10
149.3190702725
 20
90.2780613635
 10
149.4726928778
 20
90.1893615965
 10
149.6257449535
 20
90.1097819186
 10
149.7782222511
 20
90.039390239
 10
149.9301290189
 20
89.9781186486
 10
150.0803369421
 20
89.926422253
 10
150.2288333708
 20
89.8843723503
 10
150.3756309548
 20
89.8518976425
 10
150.5196393288
 20
89.8292393413
 10
150.6608377238
 20
89.8164705409
 10
150.7992469086
 20
89.813518147
 10
150.9338388242
 20
89.8204040892
 10
151.0191132643
 20
89.8313596673
  0
LWPOLYLINE
  5
27C
100
AcDbEntity
  8
0
100
AcDbPolyline
 62
7
  6
CONTINUOUS
 90
44
 70
0
 10
146.319967077
 20
112.2978518899
 10
146.3238696178
 20
112.1178363148
 10
146.3353214256
 20
111.934775743
 10
146.3543225005
 20
111.7486701745
 10
146.3809574791
 20
111.5590425726
 10
146.4151417247
 20
111.366369974
 10
146.4566213278
 20
111.1720834892
 10
146.5054506104
 20
110.976171101
 10
146.5615752504
 20
110.7786448265
 10
146.624578372
 20
110.5809718278
 10
146.6945111931
 20
110.3831510122
 10
146.7713224958
 20
110.1851834724
 10
146.8544417503
 20
109.9885396479
 10
146.9439159263
 20
109.7932293951
 10
147.0396980541
 20
109.5992428577
 10
147.1410766947
 20
109.4080209054
 10
147.2480935203
 20
109.2195841239
 10
147.3607068588
 20
109.0339119275
 10
147.4780802542
 20
108.85238343
 10
147.6002491504
 20
108.6750294858
 10
147.7271781036
 20
108.5018192406
 10
147.8579243261
 20
108.3340392445
 10
147.9925162417
 20
108.1717299318
 10
148.1309254265
 20
108.0148508683
 10
148.2721238215
 20
107.8645673015
 10
148.4161321955
 20
107.7209283422
 10
148.5629297795
 20
107.5838848795
 10
148.7114262082
 20
107.4544548285
 10
148.8616341314
 20
107.3326948795
 10
149.0135408992
 20
107.2185483421
 10
149.1660181968
 20
107.1128630604
 10
149.3190702725
 20
107.0157020378
 10
149.4726928778
 20
106.9270022707
 10
149.6257449535
 20
106.8474225928
 10
149.7782222511
 20
106.7770309133
 10
149.9301290189
 20
106.7157593228
 10
150.0803369421
 20
106.6640629273
 10
150.2288333708
 20
106.6220130246
 10
150.3756309548
 20
106.5895383168
 10
150.5196393288
 20
106.5668800156
 10
150.6608377238
 20
106.5541112151
 10
150.7992469086
 20
106.5511588213
 10
150.9338388242
 20
106.5580447635
 10
151.0191132643
 20
106.5690003416
  0
LWPOLYLINE
  5
27D
100
AcDbEntity
  8
ASSI
100
AcDbPolyline
 62
7
  6
CONTINUOUS
 90
44
 70
0
 10
146.319967077
 20
112.2978518899
 10
146.3238696178
 20
112.1178363148
 10
146.3353214256
 20
111.934775743
 10
146.3543225005
 20
111.7486701745
 10
146.3809574791
 20
111.5590425726
 10
146.4151417247
 20
111.366369974
 10
146.4566213278
 20
111.1720834892
 10
146.5054506104
 20
110.976171101
 10
146.5615752504
 20
110.7786448265
 10
146.624578372
 20
110.5809718278
 10
146.6945111931
 20
110.3831510122
 10
146.7713224958
 20
110.1851834724
 10
146.8544417503
 20
109.9885396479
 10
146.9439159263
 20
109.7932293951
 10
147.0396980541
 20
109.5992428577
 10
147.1410766947
 20
109.4080209054
 10
147.2480935203
 20
109.2195841239
 10
147.3607068588
 20
109.0339119275
 10
147.4780802542
 20
108.85238343
 10
147.6002491504
 20
108.6750294858
 10
147.7271781036
 20
108.5018192406
 10
147.8579243261
 20
108.3340392445
 10
147.9925162417
 20
108.1717299318
 10
148.1309254265
 20
108.0148508683
 10
148.2721238215
 20
107.8645673015
 10
148.4161321955
 20
107.7209283422
 10
148.5629297795
 20
107.5838848795
 10
148.7114262082
 20
107.4544548285
 10
148.8616341314
 20
107.3326948795
 10
149.0135408992
 20
107.2185483421
 10
149.1660181968
 20
107.1128630604
 10
149.3190702725
 20
107.0157020378
 10
149.4726928778
 20
106.9270022707
 10
149.6257449535
 20
106.8474225928
 10
149.7782222511
 20
106.7770309133
 10
149.9301290189
 20
106.7157593228
 10
150.0803369421
 20
106.6640629273
 10
150.2288333708
 20
106.6220130246
 10
150.3756309548
 20
106.5895383168
 10
150.5196393288
 20
106.5668800156
 10
150.6608377238
 20
106.5541112151
 10
150.7992469086
 20
106.5511588213
 10
150.9338388242
 20
106.5580447635
 10
151.0191132643
 20
106.5690003416
  0
LWPOLYLINE
  5
27E
100
AcDbEntity
  8
0
100
AcDbPolyline
 62
7
  6
CONTINUOUS
 90
17
 70
0
 10
145.3300175833
 20
111.7262674592
 10
145.3338404708
 20
111.9010785187
 10
145.3452998863
 20
112.071043278
 10
145.3643677266
 20
112.2357389889
 10
145.3909970523
 20
112.3947563773
 10
145.4251220016
 20
112.5476993978
 10
145.4666577557
 20
112.6941863836
 10
145.5155012113
 20
112.8338528845
 10
145.5715311562
 20
112.9663515927
 10
145.6346080949
 20
113.0913522003
 10
145.7045752209
 20
113.2085437866
 10
145.7812586853
 20
113.3176350046
 10
145.8644675734
 20
113.4183541938
 10
145.9539948625
 20
113.5104508351
 10
146.0496180742
 20
113.5936961299
 10
146.151099524
 20
113.6678831768
 10
146.2308269849
 20
113.7174228052
  0
LWPOLYLINE
  5
27F
100
AcDbEntity
  8
ASSI
100
AcDbPolyline
 62
7
  6
CONTINUOUS
 90
17
 70
0
 10
145.3300175833
 20
111.7262674592
 10
145.3338404708
 20
111.9010785187
 10
145.3452998863
 20
112.071043278
 10
145.3643677266
 20
112.2357389889
 10
145.3909970523
 20
112.3947563773
 10
145.4251220016
 20
112.5476993978
 10
145.4666577557
 20
112.6941863836
 10
145.5155012113
 20
112.8338528845
 10
145.5715311562
 20
112.9663515927
 10
145.6346080949
 20
113.0913522003
 10
145.7045752209
 20
113.2085437866
 10
145.7812586853
 20
113.3176350046
 10
145.8644675734
 20
113.4183541938
 10
145.9539948625
 20
113.5104508351
 10
146.0496180742
 20
113.5936961299
 10
146.151099524
 20
113.6678831768
 10
146.2308269849
 20
113.7174228052
  0
LWPOLYLINE
  5
280
100
AcDbEntity
  8
0
100
AcDbPolyline
 62
7
  6
CONTINUOUS
 90
17
 70
0
 10
145.3300175833
 20
94.988626785
 10
145.3338404708
 20
95.1634378445
 10
145.3452998863
 20
95.3334026037
 10
145.3643677266
 20
95.4980983147
 10
145.3909970523
 20
95.6571157031
 10
145.4251220016
 20
95.8100587235
 10
145.4666577557
 20
95.9565457094
 10
145.5155012113
 20
96.0962122102
 10
145.5715311562
 20
96.2287109185
 10
145.6346080949
 20
96.3537115261
 10
145.7045752209
 20
96.4709031123
 10
145.7812586853
 20
96.5799943304
 10
145.8644675734
 20
96.6807135195
 10
145.9539948625
 20
96.7728101609
 10
146.0496180742
 20
96.8560554557
 10
146.151099524
 20
96.9302425025
 10
146.2308269849
 20
96.979782131
  0
LWPOLYLINE
  5
281
100
AcDbEntity
  8
ASSI
100
AcDbPolyline
 62
7
  6
CONTINUOUS
 90
17
 70
0
 10
145.3300175833
 20
94.988626785
 10
145.3338404708
 20
95.1634378445
 10
145.3452998863
 20
95.3334026037
 10
145.3643677266
 20
95.4980983147
 10
145.3909970523
 20
95.6571157031
 10
145.4251220016
 20
95.8100587235
 10
145.4666577557
 20
95.9565457094
 10
145.5155012113
 20
96.0962122102
 10
145.5715311562
 20
96.2287109185
 10
145.6346080949
 20
96.3537115261
 10
145.7045752209
 20
96.4709031123
 10
145.7812586853
 20
96.5799943304
 10
145.8644675734
 20
96.6807135195
 10
145.9539948625
 20
96.7728101609
 10
146.0496180742
 20
96.8560554557
 10
146.151099524
 20
96.9302425025
 10
146.2308269849
 20
96.979782131
  0
LWPOLYLINE
  5
282
100
AcDbEntity
  8
0
100
AcDbPolyline
 62
7
  6
CONTINUOUS
 90
33
 70
0
 10
144.6229108021
 20
111.7262674592
 10
144.6272603496
 20
111.9219320793
 10
144.6400264805
 20
112.1112758035
 10
144.6612091949
 20
112.2942986318
 10
144.6909026319
 20
112.4714241872
 10
144.7290126524
 20
112.6422288468
 10
144.7752568392
 20
112.8054417418
 10
144.8296959599
 20
112.9610060291
 10
144.892269247
 20
113.1089785518
 10
144.9625119805
 20
113.2482589714
 10
145.0404813675
 20
113.3787823256
 10
145.126120201
 20
113.5006135766
 10
145.2187921395
 20
113.6128472723
 10
145.3185494535
 20
113.7154117391
 10
145.4253398726
 20
113.8083786507
 10
145.5383702439
 20
113.891057575
 10
145.6576869558
 20
113.9633719336
 10
145.78324362
 20
114.0253983049
 10
145.914107918
 20
114.0766759927
 10
146.0503194501
 20
114.1171250315
 10
146.1918386161
 20
114.1468253867
 10
146.3376142973
 20
114.1655562579
 10
146.4876782565
 20
114.1732359411
 10
146.6419987309
 20
114.1699461403
 10
146.799429313
 20
114.1557111669
 10
146.9599931501
 20
114.130449485
 10
147.1236670949
 20
114.0942426304
 10
147.2892352983
 20
114.0473595224
 10
147.4567118454
 20
113.9897206532
 10
147.6260826512
 20
113.9214055306
 10
147.7960896108
 20
113.8429215968
 10
147.9667374591
 20
113.7541931276
 10
148.0520478769
 20
113.7062075135
  0
LWPOLYLINE
  5
283
100
AcDbEntity
  8
ASSI
100
AcDbPolyline
 62
7
  6
CONTINUOUS
 90
33
 70
0
 10
144.6229108021
 20
111.7262674592
 10
144.6272603496
 20
111.9219320793
 10
144.6400264805
 20
112.1112758035
 10
144.6612091949
 20
112.2942986318
 10
144.6909026319
 20
112.4714241872
 10
144.7290126524
 20
112.6422288468
 10
144.7752568392
 20
112.8054417418
 10
144.8296959599
 20
112.9610060291
 10
144.892269247
 20
113.1089785518
 10
144.9625119805
 20
113.2482589714
 10
145.0404813675
 20
113.3787823256
 10
145.126120201
 20
113.5006135766
 10
145.2187921395
 20
113.6128472723
 10
145.3185494535
 20
113.7154117391
 10
145.4253398726
 20
113.8083786507
 10
145.5383702439
 20
113.891057575
 10
145.6576869558
 20
113.9633719336
 10
145.78324362
 20
114.0253983049
 10
145.914107918
 20
114.0766759927
 10
146.0503194501
 20
114.1171250315
 10
146.1918386161
 20
114.1468253867
 10
146.3376142973
 20
114.1655562579
 10
146.4876782565
 20
114.1732359411
 10
146.6419987309
 20
114.1699461403
 10
146.799429313
 20
114.1557111669
 10
146.9599931501
 20
114.130449485
 10
147.1236670949
 20
114.0942426304
 10
147.2892352983
 20
114.0473595224
 10
147.4567118454
 20
113.9897206532
 10
147.6260826512
 20
113.9214055306
 10
147.7960896108
 20
113.8429215968
 10
147.9667374591
 20
113.7541931276
 10
148.0520478769
 20
113.7062075135
  0
LWPOLYLINE
  5
284
100
AcDbEntity
  8
0
100
AcDbPolyline
 62
7
  6
CONTINUOUS
 90
33
 70
0
 10
144.6229108021
 20
94.988626785
 10
144.6272603496
 20
95.184291405
 10
144.6400264805
 20
95.3736351292
 10
144.6612091949
 20
95.5566579576
 10
144.6909026319
 20
95.733783513
 10
144.7290126524
 20
95.9045881725
 10
144.7752568392
 20
96.0678010676
 10
144.8296959599
 20
96.2233653548
 10
144.892269247
 20
96.3713378776
 10
144.9625119805
 20
96.5106182971
 10
145.0404813675
 20
96.6411416513
 10
145.126120201
 20
96.7629729024
 10
145.2187921395
 20
96.875206598
 10
145.3185494535
 20
96.9777710649
 10
145.4253398726
 20
97.0707379764
 10
145.5383702439
 20
97.1534169007
 10
145.6576869558
 20
97.2257312593
 10
145.78324362
 20
97.2877576307
 10
145.914107918
 20
97.3390353185
 10
146.0503194501
 20
97.3794843573
 10
146.1918386161
 20
97.4091847124
 10
146.3376142973
 20
97.4279155836
 10
146.4876782565
 20
97.4355952668
 10
146.6419987309
 20
97.4323054661
 10
146.799429313
 20
97.4180704927
 10
146.9599931501
 20
97.3928088107
 10
147.1236670949
 20
97.3566019561
 10
147.2892352983
 20
97.3097188481
 10
147.4567118454
 20
97.252079979
 10
147.6260826512
 20
97.1837648563
 10
147.7960896108
 20
97.1052809225
 10
147.9667374591
 20
97.0165524533
 10
148.0520478769
 20
96.9685668392
  0
LWPOLYLINE
  5
285
100
AcDbEntity
  8
ASSI
100
AcDbPolyline
 62
7
  6
CONTINUOUS
 90
33
 70
0
 10
144.6229108021
 20
94.988626785
 10
144.6272603496
 20
95.184291405
 10
144.6400264805
 20
95.3736351292
 10
144.6612091949
 20
95.5566579576
 10
144.6909026319
 20
95.733783513
 10
144.7290126524
 20
95.9045881725
 10
144.7752568392
 20
96.0678010676
 10
144.8296959599
 20
96.2233653548
 10
144.892269247
 20
96.3713378776
 10
144.9625119805
 20
96.5106182971
 10
145.0404813675
 20
96.6411416513
 10
145.126120201
 20
96.7629729024
 10
145.2187921395
 20
96.875206598
 10
145.3185494535
 20
96.9777710649
 10
145.4253398726
 20
97.0707379764
 10
145.5383702439
 20
97.1534169007
 10
145.6576869558
 20
97.2257312593
 10
145.78324362
 20
97.2877576307
 10
145.914107918
 20
97.3390353185
 10
146.0503194501
 20
97.3794843573
 10
146.1918386161
 20
97.4091847124
 10
146.3376142973
 20
97.4279155836
 10
146.4876782565
 20
97.4355952668
 10
146.6419987309
 20
97.4323054661
 10
146.799429313
 20
97.4180704927
 10
146.9599931501
 20
97.3928088107
 10
147.1236670949
 20
97.3566019561
 10
147.2892352983
 20
97.3097188481
 10
147.4567118454
 20
97.252079979
 10
147.6260826512
 20
97.1837648563
 10
147.7960896108
 20
97.1052809225
 10
147.9667374591
 20
97.0165524533
 10
148.0520478769
 20
96.9685668392
  0
LWPOLYLINE
  5
286
100
AcDbEntity
  8
0
100
AcDbPolyline
 62
7
  6
CONTINUOUS
 90
49
 70
0
 10
134.6711346014
 20
98.6316608269
 10
134.6437747279
 20
98.6162561253
 10
134.5313477042
 20
98.5607159378
 10
134.413860268
 20
98.5147178924
 10
134.2916044064
 20
98.4783763841
 10
134.1648841216
 20
98.4517818546
 10
134.0340144382
 20
98.4350004797
 10
133.8993206484
 20
98.4280740389
 10
133.7611376651
 20
98.4310198199
 10
133.6198091975
 20
98.4438305355
 10
133.4756866468
 20
98.4664743519
 10
133.3291283045
 20
98.4988949948
 10
133.1804986359
 20
98.5410118525
 10
133.0301671961
 20
98.5927202074
 10
132.8785077244
 20
98.6538915099
 10
132.7258973038
 20
98.7243736679
 10
132.5727153658
 20
98.8039914443
 10
132.4193427589
 20
98.8925468908
 10
132.2661608197
 20
98.9898198286
 10
132.1135503962
 20
99.0955684127
 10
131.9618909206
 20
99.2095297221
 10
131.8115594781
 20
99.3314204014
 10
131.6629298075
 20
99.4609374162
 10
131.5163714646
 20
99.5977587306
 10
131.3722489188
 20
99.7415440767
 10
131.2309204636
 20
99.89193598
 10
131.0927374976
 20
100.0485604866
 10
130.9580437272
 20
100.2110279801
 10
130.827174067
 20
100.378934421
 10
130.7004538072
 20
100.5518623931
 10
130.5781979639
 20
100.7293819507
 10
130.4607105382
 20
100.9110516022
 10
130.3482835206
 20
101.0964197704
 10
130.2411961871
 20
101.2850259583
 10
130.1397147293
 20
101.4764013554
 10
130.0440915087
 20
101.6700700709
 10
129.9545642248
 20
101.8655507012
 10
129.871355355
 20
102.0623575348
 10
129.7946719214
 20
102.2600009863
 10
129.7247048483
 20
102.457988899
 10
129.661627982
 20
102.655829163
 10
129.6055981219
 20
102.8530297879
 10
129.5567547619
 20
103.0490993669
 10
129.5152191086
 20
103.2435506152
 10
129.4810942568
 20
103.4359000306
 10
129.4544650177
 20
103.6256680095
 10
129.4353972467
 20
103.8123824569
 10
129.4239378774
 20
103.9955798971
 10
129.4201150066
 20
104.1748051349
  0
LWPOLYLINE
  5
287
100
AcDbEntity
  8
ASSI
100
AcDbPolyline
 62
7
  6
CONTINUOUS
 90
49
 70
0
 10
134.6711346014
 20
98.6316608269
 10
134.6437747279
 20
98.6162561253
 10
134.5313477042
 20
98.5607159378
 10
134.413860268
 20
98.5147178924
 10
134.2916044064
 20
98.4783763841
 10
134.1648841216
 20
98.4517818546
 10
134.0340144382
 20
98.4350004797
 10
133.8993206484
 20
98.4280740389
 10
133.7611376651
 20
98.4310198199
 10
133.6198091975
 20
98.4438305355
 10
133.4756866468
 20
98.4664743519
 10
133.3291283045
 20
98.4988949948
 10
133.1804986359
 20
98.5410118525
 10
133.0301671961
 20
98.5927202074
 10
132.8785077244
 20
98.6538915099
 10
132.7258973038
 20
98.7243736679
 10
132.5727153658
 20
98.8039914443
 10
132.4193427589
 20
98.8925468908
 10
132.2661608197
 20
98.9898198286
 10
132.1135503962
 20
99.0955684127
 10
131.9618909206
 20
99.2095297221
 10
131.8115594781
 20
99.3314204014
 10
131.6629298075
 20
99.4609374162
 10
131.5163714646
 20
99.5977587306
 10
131.3722489188
 20
99.7415440767
 10
131.2309204636
 20
99.89193598
 10
131.0927374976
 20
100.0485604866
 10
130.9580437272
 20
100.2110279801
 10
130.827174067
 20
100.378934421
 10
130.7004538072
 20
100.5518623931
 10
130.5781979639
 20
100.7293819507
 10
130.4607105382
 20
100.9110516022
 10
130.3482835206
 20
101.0964197704
 10
130.2411961871
 20
101.2850259583
 10
130.1397147293
 20
101.4764013554
 10
130.0440915087
 20
101.6700700709
 10
129.9545642248
 20
101.8655507012
 10
129.871355355
 20
102.0623575348
 10
129.7946719214
 20
102.2600009863
 10
129.7247048483
 20
102.457988899
 10
129.661627982
 20
102.655829163
 10
129.6055981219
 20
102.8530297879
 10
129.5567547619
 20
103.0490993669
 10
129.5152191086
 20
103.2435506152
 10
129.4810942568
 20
103.4359000306
 10
129.4544650177
 20
103.6256680095
 10
129.4353972467
 20
103.8123824569
 10
129.4239378774
 20
103.9955798971
 10
129.4201150066
 20
104.1748051349
  0
LWPOLYLINE
  5
288
100
AcDbEntity
  8
0
100
AcDbPolyline
 62
7
  6
CONTINUOUS
 90
3
 70
0
 10
148.0234538618
 20
96.957551448
 10
148.1760642824
 20
96.8870692901
 10
148.2319922172
 20
96.8580002114
  0
LWPOLYLINE
  5
289
100
AcDbEntity
  8
ASSI
100
AcDbPolyline
 62
7
  6
CONTINUOUS
 90
3
 70
0
 10
148.0234538618
 20
96.957551448
 10
148.1760642824
 20
96.8870692901
 10
148.2319922172
 20
96.8580002114
  0
LWPOLYLINE
  5
28A
100
AcDbEntity
  8
0
100
AcDbPolyline
 62
7
  6
CONTINUOUS
 90
3
 70
0
 10
132.1135512851
 20
106.1437297979
 10
132.2661617057
 20
106.0732476399
 10
132.3220896405
 20
106.0441785613
  0
LWPOLYLINE
  5
28B
100
AcDbEntity
  8
ASSI
100
AcDbPolyline
 62
7
  6
CONTINUOUS
 90
3
 70
0
 10
132.1135512851
 20
106.1437297979
 10
132.2661617057
 20
106.0732476399
 10
132.3220896405
 20
106.0441785613
  0
LWPOLYLINE
  5
28C
100
AcDbEntity
  8
0
100
AcDbPolyline
 62
7
  6
CONTINUOUS
 90
33
 70
0
 10
132.1421453002
 20
106.1547451891
 10
132.2281188845
 20
106.1038335228
 10
132.3987667316
 20
105.9955020462
 10
132.568773689
 20
105.8776661165
 10
132.7381444913
 20
105.7503959905
 10
132.9056210335
 20
105.6146370533
 10
133.0711892324
 20
105.4703260597
 10
133.2348631712
 20
105.317526255
 10
133.3954269943
 20
105.1573727591
 10
133.5528575534
 20
104.9898107656
 10
133.7071779967
 20
104.814895081
 10
133.8572419134
 20
104.6339252452
 10
134.0030175315
 20
104.4468562479
 10
134.1445366229
 20
104.2537330994
 10
134.2807480929
 20
104.0559903709
 10
134.4116123503
 20
103.8535938175
 10
134.5371689863
 20
103.646577684
 10
134.6564856788
 20
103.4364792757
 10
134.7695160477
 20
103.2232755607
 10
134.8763064733
 20
103.0069895708
 10
134.9760637741
 20
102.7892277074
 10
135.068735671
 20
102.5699786615
 10
135.1543744432
 20
102.349253742
 10
135.2323437467
 20
102.1286932766
 10
135.3025863661
 20
101.9082983801
 10
135.3651595168
 20
101.6880679378
 10
135.4195985014
 20
101.4696389334
 10
135.4658425513
 20
101.2530247129
 10
135.5039524351
 20
101.0382119303
 10
135.5336457613
 20
100.8267975312
 10
135.5548283994
 20
100.6193138306
 10
135.56759448
 20
100.4152285134
 10
135.571944003
 20
100.2145415796
  0
LWPOLYLINE
  5
28D
100
AcDbEntity
  8
ASSI
100
AcDbPolyline
 62
7
  6
CONTINUOUS
 90
33
 70
0
 10
132.1421453002
 20
106.1547451891
 10
132.2281188845
 20
106.1038335228
 10
132.3987667316
 20
105.9955020462
 10
132.568773689
 20
105.8776661165
 10
132.7381444913
 20
105.7503959905
 10
132.9056210335
 20
105.6146370533
 10
133.0711892324
 20
105.4703260597
 10
133.2348631712
 20
105.317526255
 10
133.3954269943
 20
105.1573727591
 10
133.5528575534
 20
104.9898107656
 10
133.7071779967
 20
104.814895081
 10
133.8572419134
 20
104.6339252452
 10
134.0030175315
 20
104.4468562479
 10
134.1445366229
 20
104.2537330994
 10
134.2807480929
 20
104.0559903709
 10
134.4116123503
 20
103.8535938175
 10
134.5371689863
 20
103.646577684
 10
134.6564856788
 20
103.4364792757
 10
134.7695160477
 20
103.2232755607
 10
134.8763064733
 20
103.0069895708
 10
134.9760637741
 20
102.7892277074
 10
135.068735671
 20
102.5699786615
 10
135.1543744432
 20
102.349253742
 10
135.2323437467
 20
102.1286932766
 10
135.3025863661
 20
101.9082983801
 10
135.3651595168
 20
101.6880679378
 10
135.4195985014
 20
101.4696389334
 10
135.4658425513
 20
101.2530247129
 10
135.5039524351
 20
101.0382119303
 10
135.5336457613
 20
100.8267975312
 10
135.5548283994
 20
100.6193138306
 10
135.56759448
 20
100.4152285134
 10
135.571944003
 20
100.2145415796
  0
LWPOLYLINE
  5
28E
100
AcDbEntity
  8
0
100
AcDbPolyline
 62
7
  6
CONTINUOUS
 90
33
 70
0
 10
148.0520478769
 20
96.9685668392
 10
148.1380214612
 20
96.917655173
 10
148.3086693083
 20
96.8093236963
 10
148.4786762657
 20
96.6914877666
 10
148.648047068
 20
96.5642176406
 10
148.8155236102
 20
96.4284587034
 10
148.9810918091
 20
96.2841477099
 10
149.1447657479
 20
96.1313479051
 10
149.305329571
 20
95.9711944092
 10
149.4627601301
 20
95.8036324157
 10
149.6170805734
 20
95.6287167311
 10
149.7671444901
 20
95.4477468953
 10
149.9129201082
 20
95.260677898
 10
150.0544391996
 20
95.0675547496
 10
150.1906506696
 20
94.869812021
 10
150.321514927
 20
94.6674154676
 10
150.447071563
 20
94.4603993341
 10
150.5663882555
 20
94.2503009259
 10
150.6794186244
 20
94.0370972108
 10
150.78620905
 20
93.820811221
 10
150.8859663508
 20
93.6030493575
 10
150.9786382477
 20
93.3838003116
 10
151.0642770199
 20
93.1630753921
 10
151.1422463234
 20
92.9425149268
 10
151.2124889428
 20
92.7221200303
 10
151.2750620935
 20
92.5018895879
 10
151.3295010781
 20
92.2834605835
 10
151.375745128
 20
92.066846363
 10
151.4138550118
 20
91.8520335805
 10
151.443548338
 20
91.6406191813
 10
151.4647309761
 20
91.4331354807
 10
151.4774970567
 20
91.2290501635
 10
151.4818465797
 20
91.0283632297
  0
LWPOLYLINE
  5
28F
100
AcDbEntity
  8
ASSI
100
AcDbPolyline
 62
7
  6
CONTINUOUS
 90
33
 70
0
 10
148.0520478769
 20
96.9685668392
 10
148.1380214612
 20
96.917655173
 10
148.3086693083
 20
96.8093236963
 10
148.4786762657
 20
96.6914877666
 10
148.648047068
 20
96.5642176406
 10
148.8155236102
 20
96.4284587034
 10
148.9810918091
 20
96.2841477099
 10
149.1447657479
 20
96.1313479051
 10
149.305329571
 20
95.9711944092
 10
149.4627601301
 20
95.8036324157
 10
149.6170805734
 20
95.6287167311
 10
149.7671444901
 20
95.4477468953
 10
149.9129201082
 20
95.260677898
 10
150.0544391996
 20
95.0675547496
 10
150.1906506696
 20
94.869812021
 10
150.321514927
 20
94.6674154676
 10
150.447071563
 20
94.4603993341
 10
150.5663882555
 20
94.2503009259
 10
150.6794186244
 20
94.0370972108
 10
150.78620905
 20
93.820811221
 10
150.8859663508
 20
93.6030493575
 10
150.9786382477
 20
93.3838003116
 10
151.0642770199
 20
93.1630753921
 10
151.1422463234
 20
92.9425149268
 10
151.2124889428
 20
92.7221200303
 10
151.2750620935
 20
92.5018895879
 10
151.3295010781
 20
92.2834605835
 10
151.375745128
 20
92.066846363
 10
151.4138550118
 20
91.8520335805
 10
151.443548338
 20
91.6406191813
 10
151.4647309761
 20
91.4331354807
 10
151.4774970567
 20
91.2290501635
 10
151.4818465797
 20
91.0283632297
  0
LWPOLYLINE
  5
290
100
AcDbEntity
  8
0
100
AcDbPolyline
 62
7
  6
CONTINUOUS
 90
33
 70
0
 10
163.9619504536
 20
87.7823884893
 10
164.0479240379
 20
87.7314768231
 10
164.218571885
 20
87.6231453464
 10
164.3885788424
 20
87.5053094167
 10
164.5579496447
 20
87.3780392907
 10
164.7254261869
 20
87.2422803535
 10
164.8909943858
 20
87.09796936
 10
165.0546683246
 20
86.9451695552
 10
165.2152321477
 20
86.7850160594
 10
165.3726627068
 20
86.6174540658
 10
165.5269831501
 20
86.4425383812
 10
165.6770470668
 20
86.2615685455
 10
165.8228226849
 20
86.0744995482
 10
165.9643417763
 20
85.8813763997
 10
166.1005532463
 20
85.6836336711
 10
166.2314175037
 20
85.4812371178
 10
166.3569741397
 20
85.2742209843
 10
166.4762908322
 20
85.064122576
 10
166.5893212011
 20
84.8509188609
 10
166.6961116267
 20
84.6346328711
 10
166.7958689275
 20
84.4168710076
 10
166.8885408244
 20
84.1976219617
 10
166.9741795966
 20
83.9768970422
 10
167.0521489001
 20
83.7563365769
 10
167.1223915195
 20
83.5359416804
 10
167.1849646702
 20
83.315711238
 10
167.2394036548
 20
83.0972822336
 10
167.2856477047
 20
82.8806680131
 10
167.3237575885
 20
82.6658552306
 10
167.3534509147
 20
82.4544408314
 10
167.3746335528
 20
82.2469571308
 10
167.3873996334
 20
82.0428718136
 10
167.3917491563
 20
81.8421848798
  0
LWPOLYLINE
  5
291
100
AcDbEntity
  8
ASSI
100
AcDbPolyline
 62
7
  6
CONTINUOUS
 90
33
 70
0
 10
163.9619504536
 20
87.7823884893
 10
164.0479240379
 20
87.7314768231
 10
164.218571885
 20
87.6231453464
 10
164.3885788424
 20
87.5053094167
 10
164.5579496447
 20
87.3780392907
 10
164.7254261869
 20
87.2422803535
 10
164.8909943858
 20
87.09796936
 10
165.0546683246
 20
86.9451695552
 10
165.2152321477
 20
86.7850160594
 10
165.3726627068
 20
86.6174540658
 10
165.5269831501
 20
86.4425383812
 10
165.6770470668
 20
86.2615685455
 10
165.8228226849
 20
86.0744995482
 10
165.9643417763
 20
85.8813763997
 10
166.1005532463
 20
85.6836336711
 10
166.2314175037
 20
85.4812371178
 10
166.3569741397
 20
85.2742209843
 10
166.4762908322
 20
85.064122576
 10
166.5893212011
 20
84.8509188609
 10
166.6961116267
 20
84.6346328711
 10
166.7958689275
 20
84.4168710076
 10
166.8885408244
 20
84.1976219617
 10
166.9741795966
 20
83.9768970422
 10
167.0521489001
 20
83.7563365769
 10
167.1223915195
 20
83.5359416804
 10
167.1849646702
 20
83.315711238
 10
167.2394036548
 20
83.0972822336
 10
167.2856477047
 20
82.8806680131
 10
167.3237575885
 20
82.6658552306
 10
167.3534509147
 20
82.4544408314
 10
167.3746335528
 20
82.2469571308
 10
167.3873996334
 20
82.0428718136
 10
167.3917491563
 20
81.8421848798
  0
LINE
  5
292
100
AcDbEntity
  8
0
100
AcDbLine
 62
7
  6
CONTINUOUS
 10
151.4766869696
 20
107.9796413189
 11
151.4665642767
 21
107.8295026786
  0
LINE
  5
293
100
AcDbEntity
  8
ASSI
100
AcDbLine
 62
7
  6
CONTINUOUS
 10
151.4766869696
 20
107.9796413189
 11
151.4665642767
 21
107.8295026786
  0
LWPOLYLINE
  5
294
100
AcDbEntity
  8
0
100
AcDbPolyline
 62
7
  6
CONTINUOUS
 90
15
 70
0
 10
151.4665642767
 20
107.8295026786
 10
151.4474964364
 20
107.6648069676
 10
151.4208671107
 20
107.5057895792
 10
151.3867421614
 20
107.3528465588
 10
151.3452064073
 20
107.2063595729
 10
151.2963629517
 20
107.066693072
 10
151.2403330068
 20
106.9341943638
 10
151.1772560681
 20
106.8091937562
 10
151.107288942
 20
106.69200217
 10
151.0306054777
 20
106.5829109519
 10
150.9473965896
 20
106.4821917628
 10
150.8578693005
 20
106.3900951214
 10
150.7622460887
 20
106.3068498266
 10
150.660764639
 20
106.2326627798
 10
150.5810371781
 20
106.1831231513
  0
LWPOLYLINE
  5
295
100
AcDbEntity
  8
ASSI
100
AcDbPolyline
 62
7
  6
CONTINUOUS
 90
15
 70
0
 10
151.4665642767
 20
107.8295026786
 10
151.4474964364
 20
107.6648069676
 10
151.4208671107
 20
107.5057895792
 10
151.3867421614
 20
107.3528465588
 10
151.3452064073
 20
107.2063595729
 10
151.2963629517
 20
107.066693072
 10
151.2403330068
 20
106.9341943638
 10
151.1772560681
 20
106.8091937562
 10
151.107288942
 20
106.69200217
 10
151.0306054777
 20
106.5829109519
 10
150.9473965896
 20
106.4821917628
 10
150.8578693005
 20
106.3900951214
 10
150.7622460887
 20
106.3068498266
 10
150.660764639
 20
106.2326627798
 10
150.5810371781
 20
106.1831231513
  0
LINE
  5
296
100
AcDbEntity
  8
0
100
AcDbLine
 62
7
  6
CONTINUOUS
 10
179.734263007
 20
120.4835489363
 11
183.7961959918
 21
122.8288428385
  0
LINE
  5
297
100
AcDbEntity
  8
ASSI
100
AcDbLine
 62
7
  6
CONTINUOUS
 10
179.734263007
 20
120.4835489363
 11
183.7961959918
 21
122.8288428385
  0
LWPOLYLINE
  5
298
100
AcDbEntity
  8
0
100
AcDbPolyline
 62
7
  6
CONTINUOUS
 90
49
 70
0
 10
150.5810371781
 20
106.1831231513
 10
150.5536773046
 20
106.1677184496
 10
150.4412502809
 20
106.1121782622
 10
150.3237628447
 20
106.0661802168
 10
150.2015069831
 20
106.0298387084
 10
150.0747866983
 20
106.0032441789
 10
149.9439170149
 20
105.9864628041
 10
149.8092232251
 20
105.9795363633
 10
149.6710402418
 20
105.9824821443
 10
149.5297117742
 20
105.9952928599
 10
149.3855892235
 20
106.0179366763
 10
149.2390308812
 20
106.0503573192
 10
149.0904012126
 20
106.0924741768
 10
148.9400697728
 20
106.1441825318
 10
148.7884103011
 20
106.2053538343
 10
148.6357998805
 20
106.2758359922
 10
148.4826179425
 20
106.3554537687
 10
148.3292453356
 20
106.4440092152
 10
148.1760633964
 20
106.541282153
 10
148.0234529729
 20
106.6470307371
 10
147.8717934973
 20
106.7609920465
 10
147.7214620548
 20
106.8828827258
 10
147.5728323842
 20
107.0123997406
 10
147.4262740413
 20
107.149221055
 10
147.2821514955
 20
107.2930064011
 10
147.1408230403
 20
107.4433983043
 10
147.0026400743
 20
107.600022811
 10
146.8679463039
 20
107.7624903045
 10
146.7370766437
 20
107.9303967454
 10
146.6103563839
 20
108.1033247175
 10
146.4881005406
 20
108.2808442751
 10
146.3706131149
 20
108.4625139266
 10
146.2581860973
 20
108.6478820948
 10
146.1510987638
 20
108.8364882827
 10
146.049617306
 20
109.0278636797
 10
145.9539940854
 20
109.2215323953
 10
145.8644668015
 20
109.4170130256
 10
145.7812579317
 20
109.6138198591
 10
145.7045744981
 20
109.8114633107
 10
145.634607425
 20
110.0094512234
 10
145.5715305587
 20
110.2072914874
 10
145.5155006986
 20
110.4044921123
 10
145.4666573386
 20
110.6005616913
 10
145.4251216853
 20
110.7950129395
 10
145.3909968335
 20
110.987362355
 10
145.3643675944
 20
111.1771303339
 10
145.3452998234
 20
111.3638447813
 10
145.3338404541
 20
111.5470422215
 10
145.3300175833
 20
111.7262674592
  0
LWPOLYLINE
  5
299
100
AcDbEntity
  8
ASSI
100
AcDbPolyline
 62
7
  6
CONTINUOUS
 90
49
 70
0
 10
150.5810371781
 20
106.1831231513
 10
150.5536773046
 20
106.1677184496
 10
150.4412502809
 20
106.1121782622
 10
150.3237628447
 20
106.0661802168
 10
150.2015069831
 20
106.0298387084
 10
150.0747866983
 20
106.0032441789
 10
149.9439170149
 20
105.9864628041
 10
149.8092232251
 20
105.9795363633
 10
149.6710402418
 20
105.9824821443
 10
149.5297117742
 20
105.9952928599
 10
149.3855892235
 20
106.0179366763
 10
149.2390308812
 20
106.0503573192
 10
149.0904012126
 20
106.0924741768
 10
148.9400697728
 20
106.1441825318
 10
148.7884103011
 20
106.2053538343
 10
148.6357998805
 20
106.2758359922
 10
148.4826179425
 20
106.3554537687
 10
148.3292453356
 20
106.4440092152
 10
148.1760633964
 20
106.541282153
 10
148.0234529729
 20
106.6470307371
 10
147.8717934973
 20
106.7609920465
 10
147.7214620548
 20
106.8828827258
 10
147.5728323842
 20
107.0123997406
 10
147.4262740413
 20
107.149221055
 10
147.2821514955
 20
107.2930064011
 10
147.1408230403
 20
107.4433983043
 10
147.0026400743
 20
107.600022811
 10
146.8679463039
 20
107.7624903045
 10
146.7370766437
 20
107.9303967454
 10
146.6103563839
 20
108.1033247175
 10
146.4881005406
 20
108.2808442751
 10
146.3706131149
 20
108.4625139266
 10
146.2581860973
 20
108.6478820948
 10
146.1510987638
 20
108.8364882827
 10
146.049617306
 20
109.0278636797
 10
145.9539940854
 20
109.2215323953
 10
145.8644668015
 20
109.4170130256
 10
145.7812579317
 20
109.6138198591
 10
145.7045744981
 20
109.8114633107
 10
145.634607425
 20
110.0094512234
 10
145.5715305587
 20
110.2072914874
 10
145.5155006986
 20
110.4044921123
 10
145.4666573386
 20
110.6005616913
 10
145.4251216853
 20
110.7950129395
 10
145.3909968335
 20
110.987362355
 10
145.3643675944
 20
111.1771303339
 10
145.3452998234
 20
111.3638447813
 10
145.3338404541
 20
111.5470422215
 10
145.3300175833
 20
111.7262674592
  0
LINE
  5
29A
100
AcDbEntity
  8
0
100
AcDbLine
 62
7
  6
CONTINUOUS
 10
117.0763091671
 20
155.8444988492
 11
117.0766844746
 21
155.8438624877
  0
LINE
  5
29B
100
AcDbEntity
  8
ASSI
100
AcDbLine
 62
7
  6
CONTINUOUS
 10
117.0763091671
 20
155.8444988492
 11
117.0766844746
 21
155.8438624877
  0
LINE
  5
29C
100
AcDbEntity
  8
0
100
AcDbLine
 62
7
  6
CONTINUOUS
 10
179.7339005768
 20
47.3183808505
 11
179.734263007
 21
47.3177394128
  0
LINE
  5
29D
100
AcDbEntity
  8
ASSI
100
AcDbLine
 62
7
  6
CONTINUOUS
 10
179.7339005768
 20
47.3183808505
 11
179.734263007
 21
47.3177394128
  0
LWPOLYLINE
  5
29E
100
AcDbEntity
  8
0
100
AcDbPolyline
 62
7
  6
CONTINUOUS
 90
64
 70
0
 10
151.4818465797
 20
107.766003904
 10
151.4774970322
 20
107.5703392839
 10
151.4647309013
 20
107.3809955597
 10
151.4435481869
 20
107.1979727314
 10
151.4138547499
 20
107.020847176
 10
151.3757447294
 20
106.8500425165
 10
151.3295005426
 20
106.6868296214
 10
151.2750614219
 20
106.5312653342
 10
151.2124881348
 20
106.3832928114
 10
151.1422454013
 20
106.2440123918
 10
151.0642760143
 20
106.1134890376
 10
150.9786371808
 20
105.9916577866
 10
150.8859652423
 20
105.8794240909
 10
150.7862079283
 20
105.7768596241
 10
150.6794175092
 20
105.6838927125
 10
150.5663871379
 20
105.6012137882
 10
150.447070426
 20
105.5288994296
 10
150.3215137618
 20
105.4668730583
 10
150.1906494638
 20
105.4155953705
 10
150.0544379317
 20
105.3751463317
 10
149.9129187656
 20
105.3454459765
 10
149.7671430845
 20
105.3267151053
 10
149.6170791252
 20
105.3190354221
 10
149.4627586509
 20
105.3223252229
 10
149.3053280688
 20
105.3365601963
 10
149.1447642317
 20
105.3618218782
 10
148.9810902869
 20
105.3980287328
 10
148.8155220835
 20
105.4449118408
 10
148.6480455364
 20
105.50255071
 10
148.4786747306
 20
105.5708658326
 10
148.308667771
 20
105.6493497664
 10
148.1380199227
 20
105.7380782356
 10
147.9667359206
 20
105.836975516
 10
147.7960880735
 20
105.9453069927
 10
147.6260811161
 20
106.0631429223
 10
147.4567103138
 20
106.1904130483
 10
147.2892337716
 20
106.3261719856
 10
147.1236655727
 20
106.4704829791
 10
146.9599916339
 20
106.6232827839
 10
146.7994278108
 20
106.7834362797
 10
146.6419972517
 20
106.9509982732
 10
146.4876768084
 20
107.1259139578
 10
146.3376128917
 20
107.3068837936
 10
146.1918372736
 20
107.4939527909
 10
146.0503181822
 20
107.6870759394
 10
145.9141067122
 20
107.8848186679
 10
145.7832424548
 20
108.0872152213
 10
145.6576858188
 20
108.2942313548
 10
145.5383691263
 20
108.5043297631
 10
145.4253387574
 20
108.7175334781
 10
145.3185483318
 20
108.933819468
 10
145.218791031
 20
109.1515813314
 10
145.1261191341
 20
109.3708303773
 10
145.0404803619
 20
109.5915552969
 10
144.9625110584
 20
109.8121157622
 10
144.892268439
 20
110.0325106587
 10
144.8296952883
 20
110.252741101
 10
144.7752563037
 20
110.4711701055
 10
144.7290122538
 20
110.6877843259
 10
144.69090237
 20
110.9025971085
 10
144.6612090438
 20
111.1140115077
 10
144.6400264057
 20
111.3214952083
 10
144.6272603251
 20
111.5255805255
 10
144.6229108021
 20
111.7262674592
  0
LWPOLYLINE
  5
29F
100
AcDbEntity
  8
ASSI
100
AcDbPolyline
 62
7
  6
CONTINUOUS
 90
64
 70
0
 10
151.4818465797
 20
107.766003904
 10
151.4774970322
 20
107.5703392839
 10
151.4647309013
 20
107.3809955597
 10
151.4435481869
 20
107.1979727314
 10
151.4138547499
 20
107.020847176
 10
151.3757447294
 20
106.8500425165
 10
151.3295005426
 20
106.6868296214
 10
151.2750614219
 20
106.5312653342
 10
151.2124881348
 20
106.3832928114
 10
151.1422454013
 20
106.2440123918
 10
151.0642760143
 20
106.1134890376
 10
150.9786371808
 20
105.9916577866
 10
150.8859652423
 20
105.8794240909
 10
150.7862079283
 20
105.7768596241
 10
150.6794175092
 20
105.6838927125
 10
150.5663871379
 20
105.6012137882
 10
150.447070426
 20
105.5288994296
 10
150.3215137618
 20
105.4668730583
 10
150.1906494638
 20
105.4155953705
 10
150.0544379317
 20
105.3751463317
 10
149.9129187656
 20
105.3454459765
 10
149.7671430845
 20
105.3267151053
 10
149.6170791252
 20
105.3190354221
 10
149.4627586509
 20
105.3223252229
 10
149.3053280688
 20
105.3365601963
 10
149.1447642317
 20
105.3618218782
 10
148.9810902869
 20
105.3980287328
 10
148.8155220835
 20
105.4449118408
 10
148.6480455364
 20
105.50255071
 10
148.4786747306
 20
105.5708658326
 10
148.308667771
 20
105.6493497664
 10
148.1380199227
 20
105.7380782356
 10
147.9667359206
 20
105.836975516
 10
147.7960880735
 20
105.9453069927
 10
147.6260811161
 20
106.0631429223
 10
147.4567103138
 20
106.1904130483
 10
147.2892337716
 20
106.3261719856
 10
147.1236655727
 20
106.4704829791
 10
146.9599916339
 20
106.6232827839
 10
146.7994278108
 20
106.7834362797
 10
146.6419972517
 20
106.9509982732
 10
146.4876768084
 20
107.1259139578
 10
146.3376128917
 20
107.3068837936
 10
146.1918372736
 20
107.4939527909
 10
146.0503181822
 20
107.6870759394
 10
145.9141067122
 20
107.8848186679
 10
145.7832424548
 20
108.0872152213
 10
145.6576858188
 20
108.2942313548
 10
145.5383691263
 20
108.5043297631
 10
145.4253387574
 20
108.7175334781
 10
145.3185483318
 20
108.933819468
 10
145.218791031
 20
109.1515813314
 10
145.1261191341
 20
109.3708303773
 10
145.0404803619
 20
109.5915552969
 10
144.9625110584
 20
109.8121157622
 10
144.892268439
 20
110.0325106587
 10
144.8296952883
 20
110.252741101
 10
144.7752563037
 20
110.4711701055
 10
144.7290122538
 20
110.6877843259
 10
144.69090237
 20
110.9025971085
 10
144.6612090438
 20
111.1140115077
 10
144.6400264057
 20
111.3214952083
 10
144.6272603251
 20
111.5255805255
 10
144.6229108021
 20
111.7262674592
  0
LWPOLYLINE
  5
2A0
100
AcDbEntity
  8
0
100
AcDbPolyline
 62
7
  6
CONTINUOUS
 90
64
 70
0
 10
151.4818465797
 20
91.0283632297
 10
151.4774970322
 20
90.8326986097
 10
151.4647309013
 20
90.6433548855
 10
151.4435481869
 20
90.4603320571
 10
151.4138547499
 20
90.2832065018
 10
151.3757447294
 20
90.1124018422
 10
151.3295005426
 20
89.9491889471
 10
151.2750614219
 20
89.7936246599
 10
151.2124881348
 20
89.6456521371
 10
151.1422454013
 20
89.5063717176
 10
151.0642760143
 20
89.3758483634
 10
150.9786371808
 20
89.2540171123
 10
150.8859652423
 20
89.1417834167
 10
150.7862079283
 20
89.0392189498
 10
150.6794175092
 20
88.9462520383
 10
150.5663871379
 20
88.863573114
 10
150.447070426
 20
88.7912587554
 10
150.3215137618
 20
88.729232384
 10
150.1906494638
 20
88.6779546963
 10
150.0544379317
 20
88.6375056574
 10
149.9129187656
 20
88.6078053023
 10
149.7671430845
 20
88.5890744311
 10
149.6170791252
 20
88.5813947479
 10
149.4627586509
 20
88.5846845486
 10
149.3053280688
 20
88.598919522
 10
149.1447642317
 20
88.624181204
 10
148.9810902869
 20
88.6603880586
 10
148.8155220835
 20
88.7072711666
 10
148.6480455364
 20
88.7649100357
 10
148.4786747306
 20
88.8332251584
 10
148.308667771
 20
88.9117090922
 10
148.1380199227
 20
89.0004375614
 10
147.9667359206
 20
89.0993348417
 10
147.7960880735
 20
89.2076663184
 10
147.6260811161
 20
89.3255022481
 10
147.4567103138
 20
89.4527723741
 10
147.2892337716
 20
89.5885313113
 10
147.1236655727
 20
89.7328423048
 10
146.9599916339
 20
89.8856421096
 10
146.7994278108
 20
90.0457956055
 10
146.6419972517
 20
90.213357599
 10
146.4876768084
 20
90.3882732836
 10
146.3376128917
 20
90.5692431194
 10
146.1918372736
 20
90.7563121167
 10
146.0503181822
 20
90.9494352651
 10
145.9141067122
 20
91.1471779937
 10
145.7832424548
 20
91.3495745471
 10
145.6576858188
 20
91.5565906806
 10
145.5383691263
 20
91.7666890888
 10
145.4253387574
 20
91.9798928039
 10
145.3185483318
 20
92.1961787937
 10
145.218791031
 20
92.4139406572
 10
145.1261191341
 20
92.6331897031
 10
145.0404803619
 20
92.8539146226
 10
144.9625110584
 20
93.0744750879
 10
144.892268439
 20
93.2948699844
 10
144.8296952883
 20
93.5151004268
 10
144.7752563037
 20
93.7335294312
 10
144.7290122538
 20
93.9501436517
 10
144.69090237
 20
94.1649564342
 10
144.6612090438
 20
94.3763708334
 10
144.6400264057
 20
94.583854534
 10
144.6272603251
 20
94.7879398512
 10
144.6229108021
 20
94.988626785
  0
LWPOLYLINE
  5
2A1
100
AcDbEntity
  8
ASSI
100
AcDbPolyline
 62
7
  6
CONTINUOUS
 90
64
 70
0
 10
151.4818465797
 20
91.0283632297
 10
151.4774970322
 20
90.8326986097
 10
151.4647309013
 20
90.6433548855
 10
151.4435481869
 20
90.4603320571
 10
151.4138547499
 20
90.2832065018
 10
151.3757447294
 20
90.1124018422
 10
151.3295005426
 20
89.9491889471
 10
151.2750614219
 20
89.7936246599
 10
151.2124881348
 20
89.6456521371
 10
151.1422454013
 20
89.5063717176
 10
151.0642760143
 20
89.3758483634
 10
150.9786371808
 20
89.2540171123
 10
150.8859652423
 20
89.1417834167
 10
150.7862079283
 20
89.0392189498
 10
150.6794175092
 20
88.9462520383
 10
150.5663871379
 20
88.863573114
 10
150.447070426
 20
88.7912587554
 10
150.3215137618
 20
88.729232384
 10
150.1906494638
 20
88.6779546963
 10
150.0544379317
 20
88.6375056574
 10
149.9129187656
 20
88.6078053023
 10
149.7671430845
 20
88.5890744311
 10
149.6170791252
 20
88.5813947479
 10
149.4627586509
 20
88.5846845486
 10
149.3053280688
 20
88.598919522
 10
149.1447642317
 20
88.624181204
 10
148.9810902869
 20
88.6603880586
 10
148.8155220835
 20
88.7072711666
 10
148.6480455364
 20
88.7649100357
 10
148.4786747306
 20
88.8332251584
 10
148.308667771
 20
88.9117090922
 10
148.1380199227
 20
89.0004375614
 10
147.9667359206
 20
89.0993348417
 10
147.7960880735
 20
89.2076663184
 10
147.6260811161
 20
89.3255022481
 10
147.4567103138
 20
89.4527723741
 10
147.2892337716
 20
89.5885313113
 10
147.1236655727
 20
89.7328423048
 10
146.9599916339
 20
89.8856421096
 10
146.7994278108
 20
90.0457956055
 10
146.6419972517
 20
90.213357599
 10
146.4876768084
 20
90.3882732836
 10
146.3376128917
 20
90.5692431194
 10
146.1918372736
 20
90.7563121167
 10
146.0503181822
 20
90.9494352651
 10
145.9141067122
 20
91.1471779937
 10
145.7832424548
 20
91.3495745471
 10
145.6576858188
 20
91.5565906806
 10
145.5383691263
 20
91.7666890888
 10
145.4253387574
 20
91.9798928039
 10
145.3185483318
 20
92.1961787937
 10
145.218791031
 20
92.4139406572
 10
145.1261191341
 20
92.6331897031
 10
145.0404803619
 20
92.8539146226
 10
144.9625110584
 20
93.0744750879
 10
144.892268439
 20
93.2948699844
 10
144.8296952883
 20
93.5151004268
 10
144.7752563037
 20
93.7335294312
 10
144.7290122538
 20
93.9501436517
 10
144.69090237
 20
94.1649564342
 10
144.6612090438
 20
94.3763708334
 10
144.6400264057
 20
94.583854534
 10
144.6272603251
 20
94.7879398512
 10
144.6229108021
 20
94.988626785
  0
LINE
  5
2A2
100
AcDbEntity
  8
0
100
AcDbLine
 62
7
  6
CONTINUOUS
 10
151.4766869696
 20
91.2420006447
 11
151.4665642767
 21
91.0918620043
  0
LINE
  5
2A3
100
AcDbEntity
  8
ASSI
100
AcDbLine
 62
7
  6
CONTINUOUS
 10
151.4766869696
 20
91.2420006447
 11
151.4665642767
 21
91.0918620043
  0
LWPOLYLINE
  5
2A4
100
AcDbEntity
  8
0
100
AcDbPolyline
 62
7
  6
CONTINUOUS
 90
15
 70
0
 10
151.4665642767
 20
91.0918620043
 10
151.4474964364
 20
90.9271662934
 10
151.4208671107
 20
90.7681489049
 10
151.3867421614
 20
90.6152058845
 10
151.3452064073
 20
90.4687188986
 10
151.2963629517
 20
90.3290523978
 10
151.2403330068
 20
90.1965536896
 10
151.1772560681
 20
90.071553082
 10
151.107288942
 20
89.9543614957
 10
151.0306054777
 20
89.8452702776
 10
150.9473965896
 20
89.7445510885
 10
150.8578693005
 20
89.6524544472
 10
150.7622460887
 20
89.5692091524
 10
150.660764639
 20
89.4950221055
 10
150.5810371781
 20
89.4454824771
  0
LWPOLYLINE
  5
2A5
100
AcDbEntity
  8
ASSI
100
AcDbPolyline
 62
7
  6
CONTINUOUS
 90
15
 70
0
 10
151.4665642767
 20
91.0918620043
 10
151.4474964364
 20
90.9271662934
 10
151.4208671107
 20
90.7681489049
 10
151.3867421614
 20
90.6152058845
 10
151.3452064073
 20
90.4687188986
 10
151.2963629517
 20
90.3290523978
 10
151.2403330068
 20
90.1965536896
 10
151.1772560681
 20
90.071553082
 10
151.107288942
 20
89.9543614957
 10
151.0306054777
 20
89.8452702776
 10
150.9473965896
 20
89.7445510885
 10
150.8578693005
 20
89.6524544472
 10
150.7622460887
 20
89.5692091524
 10
150.660764639
 20
89.4950221055
 10
150.5810371781
 20
89.4454824771
  0
LWPOLYLINE
  5
2A6
100
AcDbEntity
  8
0
100
AcDbPolyline
 62
7
  6
CONTINUOUS
 90
13
 70
0
 10
146.7827619446
 20
97.1655192086
 10
146.7713224958
 20
97.1516657091
 10
146.6945111931
 20
97.0423979363
 10
146.624578372
 20
96.9253337897
 10
146.5615752504
 20
96.8004152165
 10
146.5054506104
 20
96.6677002695
 10
146.4566213278
 20
96.5281747129
 10
146.4151417247
 20
96.3817878339
 10
146.3809574791
 20
96.2285903454
 10
146.3543225005
 20
96.0697201491
 10
146.3353214256
 20
95.9055565457
 10
146.3238696178
 20
95.7357202345
 10
146.319967077
 20
95.5602112156
  0
LWPOLYLINE
  5
2A7
100
AcDbEntity
  8
ASSI
100
AcDbPolyline
 62
7
  6
CONTINUOUS
 90
13
 70
0
 10
146.7827619446
 20
97.1655192086
 10
146.7713224958
 20
97.1516657091
 10
146.6945111931
 20
97.0423979363
 10
146.624578372
 20
96.9253337897
 10
146.5615752504
 20
96.8004152165
 10
146.5054506104
 20
96.6677002695
 10
146.4566213278
 20
96.5281747129
 10
146.4151417247
 20
96.3817878339
 10
146.3809574791
 20
96.2285903454
 10
146.3543225005
 20
96.0697201491
 10
146.3353214256
 20
95.9055565457
 10
146.3238696178
 20
95.7357202345
 10
146.319967077
 20
95.5602112156
  0
LINE
  5
2A8
100
AcDbEntity
  8
0
100
AcDbLine
 62
7
  6
CONTINUOUS
 10
180.4418002763
 20
119.2580584389
 11
184.5037332611
 21
121.6033523411
  0
LINE
  5
2A9
100
AcDbEntity
  8
ASSI
100
AcDbLine
 62
7
  6
CONTINUOUS
 10
180.4418002763
 20
119.2580584389
 11
184.5037332611
 21
121.6033523411
  0
LWPOLYLINE
  5
2AA
100
AcDbEntity
  8
0
100
AcDbPolyline
 62
7
  6
CONTINUOUS
 90
15
 70
0
 10
146.2308269849
 20
96.979782131
 10
146.2581868584
 20
96.9951868326
 10
146.370613882
 20
97.0507270201
 10
146.4881013183
 20
97.0967250655
 10
146.6103571798
 20
97.1330665738
 10
146.7370774647
 20
97.1596611033
 10
146.8679471481
 20
97.1764424782
 10
147.0026409378
 20
97.183368919
 10
147.1408239212
 20
97.180423138
 10
147.2821523888
 20
97.1676124224
 10
147.4262749395
 20
97.144968606
 10
147.5728332818
 20
97.1125479631
 10
147.7214629504
 20
97.0704311054
 10
147.8717943902
 20
97.0187227505
 10
148.0234538618
 20
96.957551448
  0
LWPOLYLINE
  5
2AB
100
AcDbEntity
  8
ASSI
100
AcDbPolyline
 62
7
  6
CONTINUOUS
 90
15
 70
0
 10
146.2308269849
 20
96.979782131
 10
146.2581868584
 20
96.9951868326
 10
146.370613882
 20
97.0507270201
 10
146.4881013183
 20
97.0967250655
 10
146.6103571798
 20
97.1330665738
 10
146.7370774647
 20
97.1596611033
 10
146.8679471481
 20
97.1764424782
 10
147.0026409378
 20
97.183368919
 10
147.1408239212
 20
97.180423138
 10
147.2821523888
 20
97.1676124224
 10
147.4262749395
 20
97.144968606
 10
147.5728332818
 20
97.1125479631
 10
147.7214629504
 20
97.0704311054
 10
147.8717943902
 20
97.0187227505
 10
148.0234538618
 20
96.957551448
  0
LWPOLYLINE
  5
2AC
100
AcDbEntity
  8
0
100
AcDbPolyline
 62
7
  6
CONTINUOUS
 90
15
 70
0
 10
162.1407295616
 20
104.5312444553
 10
162.1680894351
 20
104.546649157
 10
162.2805164587
 20
104.6021893445
 10
162.398003895
 20
104.6481873899
 10
162.5202597565
 20
104.6845288982
 10
162.6469800413
 20
104.7111234277
 10
162.7778497248
 20
104.7279048026
 10
162.9125435145
 20
104.7348312434
 10
163.0507264979
 20
104.7318854624
 10
163.1920549655
 20
104.7190747468
 10
163.3361775162
 20
104.6964309304
 10
163.4827358585
 20
104.6640102875
 10
163.6313655271
 20
104.6218934298
 10
163.7816969669
 20
104.5701850749
 10
163.9333564385
 20
104.5090137724
  0
LWPOLYLINE
  5
2AD
100
AcDbEntity
  8
ASSI
100
AcDbPolyline
 62
7
  6
CONTINUOUS
 90
15
 70
0
 10
162.1407295616
 20
104.5312444553
 10
162.1680894351
 20
104.546649157
 10
162.2805164587
 20
104.6021893445
 10
162.398003895
 20
104.6481873899
 10
162.5202597565
 20
104.6845288982
 10
162.6469800413
 20
104.7111234277
 10
162.7778497248
 20
104.7279048026
 10
162.9125435145
 20
104.7348312434
 10
163.0507264979
 20
104.7318854624
 10
163.1920549655
 20
104.7190747468
 10
163.3361775162
 20
104.6964309304
 10
163.4827358585
 20
104.6640102875
 10
163.6313655271
 20
104.6218934298
 10
163.7816969669
 20
104.5701850749
 10
163.9333564385
 20
104.5090137724
  0
LWPOLYLINE
  5
2AE
100
AcDbEntity
  8
0
100
AcDbPolyline
 62
7
  6
CONTINUOUS
 90
13
 70
0
 10
162.6926645213
 20
104.716981533
 10
162.6812250725
 20
104.7031280335
 10
162.6044137698
 20
104.5938602607
 10
162.5344809487
 20
104.4767961141
 10
162.4714778271
 20
104.3518775409
 10
162.4153531871
 20
104.2191625939
 10
162.3665239045
 20
104.0796370372
 10
162.3250443014
 20
103.9332501583
 10
162.2908600558
 20
103.7800526697
 10
162.2642250772
 20
103.6211824734
 10
162.2452240023
 20
103.45701887
 10
162.2337721945
 20
103.2871825589
 10
162.2298696537
 20
103.11167354
  0
LWPOLYLINE
  5
2AF
100
AcDbEntity
  8
ASSI
100
AcDbPolyline
 62
7
  6
CONTINUOUS
 90
13
 70
0
 10
162.6926645213
 20
104.716981533
 10
162.6812250725
 20
104.7031280335
 10
162.6044137698
 20
104.5938602607
 10
162.5344809487
 20
104.4767961141
 10
162.4714778271
 20
104.3518775409
 10
162.4153531871
 20
104.2191625939
 10
162.3665239045
 20
104.0796370372
 10
162.3250443014
 20
103.9332501583
 10
162.2908600558
 20
103.7800526697
 10
162.2642250772
 20
103.6211824734
 10
162.2452240023
 20
103.45701887
 10
162.2337721945
 20
103.2871825589
 10
162.2298696537
 20
103.11167354
  0
LINE
  5
2B0
100
AcDbEntity
  8
0
100
AcDbLine
 62
7
  6
CONTINUOUS
 10
178.7243638594
 20
119.4056356016
 11
179.7339005768
 21
120.4589301974
  0
LINE
  5
2B1
100
AcDbEntity
  8
ASSI
100
AcDbLine
 62
7
  6
CONTINUOUS
 10
178.7243638594
 20
119.4056356016
 11
179.7339005768
 21
120.4589301974
  0
LINE
  5
2B2
100
AcDbEntity
  8
0
100
AcDbLine
 62
7
  6
CONTINUOUS
 10
179.0033397935
 20
118.9224351101
 11
180.4202989244
 21
119.2700533863
  0
LINE
  5
2B3
100
AcDbEntity
  8
ASSI
100
AcDbLine
 62
7
  6
CONTINUOUS
 10
179.0033397935
 20
118.9224351101
 11
180.4202989244
 21
119.2700533863
  0
LWPOLYLINE
  5
2B4
100
AcDbEntity
  8
0
100
AcDbPolyline
 62
7
  6
CONTINUOUS
 90
3
 70
0
 10
163.9333564385
 20
104.5090137724
 10
164.0859668591
 20
104.4385316144
 10
164.1418947939
 20
104.4094625358
  0
LWPOLYLINE
  5
2B5
100
AcDbEntity
  8
ASSI
100
AcDbPolyline
 62
7
  6
CONTINUOUS
 90
3
 70
0
 10
163.9333564385
 20
104.5090137724
 10
164.0859668591
 20
104.4385316144
 10
164.1418947939
 20
104.4094625358
  0
LWPOLYLINE
  5
2B6
100
AcDbEntity
  8
0
100
AcDbPolyline
 62
7
  6
CONTINUOUS
 90
3
 70
0
 10
148.0234538618
 20
113.6951921222
 10
148.1760642824
 20
113.6247099643
 10
148.2319922172
 20
113.5956408856
  0
LWPOLYLINE
  5
2B7
100
AcDbEntity
  8
ASSI
100
AcDbPolyline
 62
7
  6
CONTINUOUS
 90
3
 70
0
 10
148.0234538618
 20
113.6951921222
 10
148.1760642824
 20
113.6247099643
 10
148.2319922172
 20
113.5956408856
  0
LWPOLYLINE
  5
2B8
100
AcDbEntity
  8
0
100
AcDbPolyline
 62
7
  6
CONTINUOUS
 90
33
 70
0
 10
132.1421453002
 20
122.8923858633
 10
132.2281188845
 20
122.8414741971
 10
132.3987667316
 20
122.7331427204
 10
132.568773689
 20
122.6153067907
 10
132.7381444913
 20
122.4880366647
 10
132.9056210335
 20
122.3522777275
 10
133.0711892324
 20
122.207966734
 10
133.2348631712
 20
122.0551669292
 10
133.3954269943
 20
121.8950134334
 10
133.5528575534
 20
121.7274514398
 10
133.7071779967
 20
121.5525357552
 10
133.8572419134
 20
121.3715659195
 10
134.0030175315
 20
121.1844969222
 10
134.1445366229
 20
120.9913737737
 10
134.2807480929
 20
120.7936310451
 10
134.4116123503
 20
120.5912344918
 10
134.5371689863
 20
120.3842183583
 10
134.6564856788
 20
120.17411995
 10
134.7695160477
 20
119.9609162349
 10
134.8763064733
 20
119.7446302451
 10
134.9760637741
 20
119.5268683816
 10
135.068735671
 20
119.3076193357
 10
135.1543744432
 20
119.0868944162
 10
135.2323437467
 20
118.8663339509
 10
135.3025863661
 20
118.6459390544
 10
135.3651595168
 20
118.425708612
 10
135.4195985014
 20
118.2072796076
 10
135.4658425513
 20
117.9906653871
 10
135.5039524351
 20
117.7758526046
 10
135.5336457613
 20
117.5644382054
 10
135.5548283994
 20
117.3569545048
 10
135.56759448
 20
117.1528691876
 10
135.571944003
 20
116.9521822538
  0
LWPOLYLINE
  5
2B9
100
AcDbEntity
  8
ASSI
100
AcDbPolyline
 62
7
  6
CONTINUOUS
 90
33
 70
0
 10
132.1421453002
 20
122.8923858633
 10
132.2281188845
 20
122.8414741971
 10
132.3987667316
 20
122.7331427204
 10
132.568773689
 20
122.6153067907
 10
132.7381444913
 20
122.4880366647
 10
132.9056210335
 20
122.3522777275
 10
133.0711892324
 20
122.207966734
 10
133.2348631712
 20
122.0551669292
 10
133.3954269943
 20
121.8950134334
 10
133.5528575534
 20
121.7274514398
 10
133.7071779967
 20
121.5525357552
 10
133.8572419134
 20
121.3715659195
 10
134.0030175315
 20
121.1844969222
 10
134.1445366229
 20
120.9913737737
 10
134.2807480929
 20
120.7936310451
 10
134.4116123503
 20
120.5912344918
 10
134.5371689863
 20
120.3842183583
 10
134.6564856788
 20
120.17411995
 10
134.7695160477
 20
119.9609162349
 10
134.8763064733
 20
119.7446302451
 10
134.9760637741
 20
119.5268683816
 10
135.068735671
 20
119.3076193357
 10
135.1543744432
 20
119.0868944162
 10
135.2323437467
 20
118.8663339509
 10
135.3025863661
 20
118.6459390544
 10
135.3651595168
 20
118.425708612
 10
135.4195985014
 20
118.2072796076
 10
135.4658425513
 20
117.9906653871
 10
135.5039524351
 20
117.7758526046
 10
135.5336457613
 20
117.5644382054
 10
135.5548283994
 20
117.3569545048
 10
135.56759448
 20
117.1528691876
 10
135.571944003
 20
116.9521822538
  0
LWPOLYLINE
  5
2BA
100
AcDbEntity
  8
0
100
AcDbPolyline
 62
7
  6
CONTINUOUS
 90
33
 70
0
 10
148.0520478769
 20
113.7062075135
 10
148.1380214612
 20
113.6552958472
 10
148.3086693083
 20
113.5469643706
 10
148.4786762657
 20
113.4291284409
 10
148.648047068
 20
113.3018583149
 10
148.8155236102
 20
113.1660993776
 10
148.9810918091
 20
113.0217883841
 10
149.1447657479
 20
112.8689885793
 10
149.305329571
 20
112.7088350835
 10
149.4627601301
 20
112.54127309
 10
149.6170805734
 20
112.3663574054
 10
149.7671444901
 20
112.1853875696
 10
149.9129201082
 20
111.9983185723
 10
150.0544391996
 20
111.8051954238
 10
150.1906506696
 20
111.6074526953
 10
150.321514927
 20
111.4050561419
 10
150.447071563
 20
111.1980400084
 10
150.5663882555
 20
110.9879416001
 10
150.6794186244
 20
110.7747378851
 10
150.78620905
 20
110.5584518952
 10
150.8859663508
 20
110.3406900318
 10
150.9786382477
 20
110.1214409859
 10
151.0642770199
 20
109.9007160664
 10
151.1422463234
 20
109.680155601
 10
151.2124889428
 20
109.4597607045
 10
151.2750620935
 20
109.2395302622
 10
151.3295010781
 20
109.0211012577
 10
151.375745128
 20
108.8044870373
 10
151.4138550118
 20
108.5896742547
 10
151.443548338
 20
108.3782598555
 10
151.4647309761
 20
108.170776155
 10
151.4774970567
 20
107.9666908378
 10
151.4818465797
 20
107.766003904
  0
LWPOLYLINE
  5
2BB
100
AcDbEntity
  8
ASSI
100
AcDbPolyline
 62
7
  6
CONTINUOUS
 90
33
 70
0
 10
148.0520478769
 20
113.7062075135
 10
148.1380214612
 20
113.6552958472
 10
148.3086693083
 20
113.5469643706
 10
148.4786762657
 20
113.4291284409
 10
148.648047068
 20
113.3018583149
 10
148.8155236102
 20
113.1660993776
 10
148.9810918091
 20
113.0217883841
 10
149.1447657479
 20
112.8689885793
 10
149.305329571
 20
112.7088350835
 10
149.4627601301
 20
112.54127309
 10
149.6170805734
 20
112.3663574054
 10
149.7671444901
 20
112.1853875696
 10
149.9129201082
 20
111.9983185723
 10
150.0544391996
 20
111.8051954238
 10
150.1906506696
 20
111.6074526953
 10
150.321514927
 20
111.4050561419
 10
150.447071563
 20
111.1980400084
 10
150.5663882555
 20
110.9879416001
 10
150.6794186244
 20
110.7747378851
 10
150.78620905
 20
110.5584518952
 10
150.8859663508
 20
110.3406900318
 10
150.9786382477
 20
110.1214409859
 10
151.0642770199
 20
109.9007160664
 10
151.1422463234
 20
109.680155601
 10
151.2124889428
 20
109.4597607045
 10
151.2750620935
 20
109.2395302622
 10
151.3295010781
 20
109.0211012577
 10
151.375745128
 20
108.8044870373
 10
151.4138550118
 20
108.5896742547
 10
151.443548338
 20
108.3782598555
 10
151.4647309761
 20
108.170776155
 10
151.4774970567
 20
107.9666908378
 10
151.4818465797
 20
107.766003904
  0
LWPOLYLINE
  5
2BC
100
AcDbEntity
  8
0
100
AcDbPolyline
 62
7
  6
CONTINUOUS
 90
33
 70
0
 10
163.9619504536
 20
104.5200291636
 10
164.0479240379
 20
104.4691174973
 10
164.218571885
 20
104.3607860207
 10
164.3885788424
 20
104.242950091
 10
164.5579496447
 20
104.115679965
 10
164.7254261869
 20
103.9799210278
 10
164.8909943858
 20
103.8356100342
 10
165.0546683246
 20
103.6828102295
 10
165.2152321477
 20
103.5226567336
 10
165.3726627068
 20
103.3550947401
 10
165.5269831501
 20
103.1801790555
 10
165.6770470668
 20
102.9992092197
 10
165.8228226849
 20
102.8121402224
 10
165.9643417763
 20
102.619017074
 10
166.1005532463
 20
102.4212743454
 10
166.2314175037
 20
102.218877792
 10
166.3569741397
 20
102.0118616585
 10
166.4762908322
 20
101.8017632502
 10
166.5893212011
 20
101.5885595352
 10
166.6961116267
 20
101.3722735454
 10
166.7958689275
 20
101.1545116819
 10
166.8885408244
 20
100.935262636
 10
166.9741795966
 20
100.7145377165
 10
167.0521489001
 20
100.4939772511
 10
167.1223915195
 20
100.2735823546
 10
167.1849646702
 20
100.0533519123
 10
167.2394036548
 20
99.8349229079
 10
167.2856477047
 20
99.6183086874
 10
167.3237575885
 20
99.4034959048
 10
167.3534509147
 20
99.1920815057
 10
167.3746335528
 20
98.9845978051
 10
167.3873996334
 20
98.7805124879
 10
167.3917491563
 20
98.5798255541
  0
LWPOLYLINE
  5
2BD
100
AcDbEntity
  8
ASSI
100
AcDbPolyline
 62
7
  6
CONTINUOUS
 90
33
 70
0
 10
163.9619504536
 20
104.5200291636
 10
164.0479240379
 20
104.4691174973
 10
164.218571885
 20
104.3607860207
 10
164.3885788424
 20
104.242950091
 10
164.5579496447
 20
104.115679965
 10
164.7254261869
 20
103.9799210278
 10
164.8909943858
 20
103.8356100342
 10
165.0546683246
 20
103.6828102295
 10
165.2152321477
 20
103.5226567336
 10
165.3726627068
 20
103.3550947401
 10
165.5269831501
 20
103.1801790555
 10
165.6770470668
 20
102.9992092197
 10
165.8228226849
 20
102.8121402224
 10
165.9643417763
 20
102.619017074
 10
166.1005532463
 20
102.4212743454
 10
166.2314175037
 20
102.218877792
 10
166.3569741397
 20
102.0118616585
 10
166.4762908322
 20
101.8017632502
 10
166.5893212011
 20
101.5885595352
 10
166.6961116267
 20
101.3722735454
 10
166.7958689275
 20
101.1545116819
 10
166.8885408244
 20
100.935262636
 10
166.9741795966
 20
100.7145377165
 10
167.0521489001
 20
100.4939772511
 10
167.1223915195
 20
100.2735823546
 10
167.1849646702
 20
100.0533519123
 10
167.2394036548
 20
99.8349229079
 10
167.2856477047
 20
99.6183086874
 10
167.3237575885
 20
99.4034959048
 10
167.3534509147
 20
99.1920815057
 10
167.3746335528
 20
98.9845978051
 10
167.3873996334
 20
98.7805124879
 10
167.3917491563
 20
98.5798255541
  0
LWPOLYLINE
  5
2BE
100
AcDbEntity
  8
0
100
AcDbPolyline
 62
7
  6
CONTINUOUS
 90
44
 70
0
 10
162.2298696537
 20
86.3740328658
 10
162.2337721945
 20
86.1940172906
 10
162.2452240023
 20
86.0109567189
 10
162.2642250772
 20
85.8248511504
 10
162.2908600558
 20
85.6352235485
 10
162.3250443014
 20
85.4425509499
 10
162.3665239045
 20
85.2482644651
 10
162.4153531871
 20
85.0523520769
 10
162.4714778271
 20
84.8548258024
 10
162.5344809487
 20
84.6571528036
 10
162.6044137698
 20
84.4593319881
 10
162.6812250725
 20
84.2613644483
 10
162.764344327
 20
84.0647206237
 10
162.853818503
 20
83.869410371
 10
162.9496006308
 20
83.6754238336
 10
163.0509792714
 20
83.4842018813
 10
163.157996097
 20
83.2957650997
 10
163.2706094355
 20
83.1100929033
 10
163.3879828309
 20
82.9285644058
 10
163.5101517271
 20
82.7512104617
 10
163.6370806803
 20
82.5780002164
 10
163.7678269028
 20
82.4102202203
 10
163.9024188184
 20
82.2479109077
 10
164.0408280032
 20
82.0910318442
 10
164.1820263982
 20
81.9407482774
 10
164.3260347722
 20
81.797109318
 10
164.4728323562
 20
81.6600658554
 10
164.6213287849
 20
81.5306358043
 10
164.7715367081
 20
81.4088758553
 10
164.9234434759
 20
81.294729318
 10
165.0759207735
 20
81.1890440363
 10
165.2289728491
 20
81.0918830136
 10
165.3825954545
 20
81.0031832466
 10
165.5356475302
 20
80.9236035687
 10
165.6881248278
 20
80.8532118892
 10
165.8400315956
 20
80.7919402987
 10
165.9902395187
 20
80.7402439031
 10
166.1387359475
 20
80.6981940005
 10
166.2855335315
 20
80.6657192927
 10
166.4295419055
 20
80.6430609915
 10
166.5707403005
 20
80.630292191
 10
166.7091494853
 20
80.6273397972
 10
166.8437414009
 20
80.6342257394
 10
166.929015841
 20
80.6451813174
  0
LWPOLYLINE
  5
2BF
100
AcDbEntity
  8
ASSI
100
AcDbPolyline
 62
7
  6
CONTINUOUS
 90
44
 70
0
 10
162.2298696537
 20
86.3740328658
 10
162.2337721945
 20
86.1940172906
 10
162.2452240023
 20
86.0109567189
 10
162.2642250772
 20
85.8248511504
 10
162.2908600558
 20
85.6352235485
 10
162.3250443014
 20
85.4425509499
 10
162.3665239045
 20
85.2482644651
 10
162.4153531871
 20
85.0523520769
 10
162.4714778271
 20
84.8548258024
 10
162.5344809487
 20
84.6571528036
 10
162.6044137698
 20
84.4593319881
 10
162.6812250725
 20
84.2613644483
 10
162.764344327
 20
84.0647206237
 10
162.853818503
 20
83.869410371
 10
162.9496006308
 20
83.6754238336
 10
163.0509792714
 20
83.4842018813
 10
163.157996097
 20
83.2957650997
 10
163.2706094355
 20
83.1100929033
 10
163.3879828309
 20
82.9285644058
 10
163.5101517271
 20
82.7512104617
 10
163.6370806803
 20
82.5780002164
 10
163.7678269028
 20
82.4102202203
 10
163.9024188184
 20
82.2479109077
 10
164.0408280032
 20
82.0910318442
 10
164.1820263982
 20
81.9407482774
 10
164.3260347722
 20
81.797109318
 10
164.4728323562
 20
81.6600658554
 10
164.6213287849
 20
81.5306358043
 10
164.7715367081
 20
81.4088758553
 10
164.9234434759
 20
81.294729318
 10
165.0759207735
 20
81.1890440363
 10
165.2289728491
 20
81.0918830136
 10
165.3825954545
 20
81.0031832466
 10
165.5356475302
 20
80.9236035687
 10
165.6881248278
 20
80.8532118892
 10
165.8400315956
 20
80.7919402987
 10
165.9902395187
 20
80.7402439031
 10
166.1387359475
 20
80.6981940005
 10
166.2855335315
 20
80.6657192927
 10
166.4295419055
 20
80.6430609915
 10
166.5707403005
 20
80.630292191
 10
166.7091494853
 20
80.6273397972
 10
166.8437414009
 20
80.6342257394
 10
166.929015841
 20
80.6451813174
  0
LWPOLYLINE
  5
2C0
100
AcDbEntity
  8
0
100
AcDbPolyline
 62
7
  6
CONTINUOUS
 90
44
 70
0
 10
162.2298696537
 20
103.11167354
 10
162.2337721945
 20
102.9316579649
 10
162.2452240023
 20
102.7485973931
 10
162.2642250772
 20
102.5624918247
 10
162.2908600558
 20
102.3728642227
 10
162.3250443014
 20
102.1801916242
 10
162.3665239045
 20
101.9859051394
 10
162.4153531871
 20
101.7899927511
 10
162.4714778271
 20
101.5924664766
 10
162.5344809487
 20
101.3947934779
 10
162.6044137698
 20
101.1969726623
 10
162.6812250725
 20
100.9990051225
 10
162.764344327
 20
100.802361298
 10
162.853818503
 20
100.6070510453
 10
162.9496006308
 20
100.4130645078
 10
163.0509792714
 20
100.2218425556
 10
163.157996097
 20
100.033405774
 10
163.2706094355
 20
99.8477335776
 10
163.3879828309
 20
99.6662050801
 10
163.5101517271
 20
99.488851136
 10
163.6370806803
 20
99.3156408907
 10
163.7678269028
 20
99.1478608946
 10
163.9024188184
 20
98.9855515819
 10
164.0408280032
 20
98.8286725184
 10
164.1820263982
 20
98.6783889516
 10
164.3260347722
 20
98.5347499923
 10
164.4728323562
 20
98.3977065296
 10
164.6213287849
 20
98.2682764786
 10
164.7715367081
 20
98.1465165296
 10
164.9234434759
 20
98.0323699922
 10
165.0759207735
 20
97.9266847105
 10
165.2289728491
 20
97.8295236879
 10
165.3825954545
 20
97.7408239209
 10
165.5356475302
 20
97.661244243
 10
165.6881248278
 20
97.5908525634
 10
165.8400315956
 20
97.529580973
 10
165.9902395187
 20
97.4778845774
 10
166.1387359475
 20
97.4358346747
 10
166.2855335315
 20
97.4033599669
 10
166.4295419055
 20
97.3807016657
 10
166.5707403005
 20
97.3679328653
 10
166.7091494853
 20
97.3649804714
 10
166.8437414009
 20
97.3718664136
 10
166.929015841
 20
97.3828219917
  0
LWPOLYLINE
  5
2C1
100
AcDbEntity
  8
ASSI
100
AcDbPolyline
 62
7
  6
CONTINUOUS
 90
44
 70
0
 10
162.2298696537
 20
103.11167354
 10
162.2337721945
 20
102.9316579649
 10
162.2452240023
 20
102.7485973931
 10
162.2642250772
 20
102.5624918247
 10
162.2908600558
 20
102.3728642227
 10
162.3250443014
 20
102.1801916242
 10
162.3665239045
 20
101.9859051394
 10
162.4153531871
 20
101.7899927511
 10
162.4714778271
 20
101.5924664766
 10
162.5344809487
 20
101.3947934779
 10
162.6044137698
 20
101.1969726623
 10
162.6812250725
 20
100.9990051225
 10
162.764344327
 20
100.802361298
 10
162.853818503
 20
100.6070510453
 10
162.9496006308
 20
100.4130645078
 10
163.0509792714
 20
100.2218425556
 10
163.157996097
 20
100.033405774
 10
163.2706094355
 20
99.8477335776
 10
163.3879828309
 20
99.6662050801
 10
163.5101517271
 20
99.488851136
 10
163.6370806803
 20
99.3156408907
 10
163.7678269028
 20
99.1478608946
 10
163.9024188184
 20
98.9855515819
 10
164.0408280032
 20
98.8286725184
 10
164.1820263982
 20
98.6783889516
 10
164.3260347722
 20
98.5347499923
 10
164.4728323562
 20
98.3977065296
 10
164.6213287849
 20
98.2682764786
 10
164.7715367081
 20
98.1465165296
 10
164.9234434759
 20
98.0323699922
 10
165.0759207735
 20
97.9266847105
 10
165.2289728491
 20
97.8295236879
 10
165.3825954545
 20
97.7408239209
 10
165.5356475302
 20
97.661244243
 10
165.6881248278
 20
97.5908525634
 10
165.8400315956
 20
97.529580973
 10
165.9902395187
 20
97.4778845774
 10
166.1387359475
 20
97.4358346747
 10
166.2855335315
 20
97.4033599669
 10
166.4295419055
 20
97.3807016657
 10
166.5707403005
 20
97.3679328653
 10
166.7091494853
 20
97.3649804714
 10
166.8437414009
 20
97.3718664136
 10
166.929015841
 20
97.3828219917
  0
LWPOLYLINE
  5
2C2
100
AcDbEntity
  8
0
100
AcDbPolyline
 62
7
  6
CONTINUOUS
 90
17
 70
0
 10
161.23992016
 20
102.5400891094
 10
161.2437430475
 20
102.7149001689
 10
161.255202463
 20
102.8848649281
 10
161.2742703032
 20
103.0495606391
 10
161.300899629
 20
103.2085780275
 10
161.3350245783
 20
103.3615210479
 10
161.3765603324
 20
103.5080080338
 10
161.425403788
 20
103.6476745346
 10
161.4814337329
 20
103.7801732428
 10
161.5445106716
 20
103.9051738504
 10
161.6144777976
 20
104.0223654367
 10
161.691161262
 20
104.1314566548
 10
161.7743701501
 20
104.2321758439
 10
161.8638974392
 20
104.3242724852
 10
161.9595206509
 20
104.4075177801
 10
162.0610021007
 20
104.4817048269
 10
162.1407295616
 20
104.5312444553
  0
LWPOLYLINE
  5
2C3
100
AcDbEntity
  8
ASSI
100
AcDbPolyline
 62
7
  6
CONTINUOUS
 90
17
 70
0
 10
161.23992016
 20
102.5400891094
 10
161.2437430475
 20
102.7149001689
 10
161.255202463
 20
102.8848649281
 10
161.2742703032
 20
103.0495606391
 10
161.300899629
 20
103.2085780275
 10
161.3350245783
 20
103.3615210479
 10
161.3765603324
 20
103.5080080338
 10
161.425403788
 20
103.6476745346
 10
161.4814337329
 20
103.7801732428
 10
161.5445106716
 20
103.9051738504
 10
161.6144777976
 20
104.0223654367
 10
161.691161262
 20
104.1314566548
 10
161.7743701501
 20
104.2321758439
 10
161.8638974392
 20
104.3242724852
 10
161.9595206509
 20
104.4075177801
 10
162.0610021007
 20
104.4817048269
 10
162.1407295616
 20
104.5312444553
  0
LWPOLYLINE
  5
2C4
100
AcDbEntity
  8
0
100
AcDbPolyline
 62
7
  6
CONTINUOUS
 90
17
 70
0
 10
161.23992016
 20
85.8024484351
 10
161.2437430475
 20
85.9772594946
 10
161.255202463
 20
86.1472242538
 10
161.2742703032
 20
86.3119199648
 10
161.300899629
 20
86.4709373532
 10
161.3350245783
 20
86.6238803736
 10
161.3765603324
 20
86.7703673595
 10
161.425403788
 20
86.9100338604
 10
161.4814337329
 20
87.0425325686
 10
161.5445106716
 20
87.1675331762
 10
161.6144777976
 20
87.2847247624
 10
161.691161262
 20
87.3938159805
 10
161.7743701501
 20
87.4945351696
 10
161.8638974392
 20
87.586631811
 10
161.9595206509
 20
87.6698771058
 10
162.0610021007
 20
87.7440641526
 10
162.1407295616
 20
87.7936037811
  0
LWPOLYLINE
  5
2C5
100
AcDbEntity
  8
ASSI
100
AcDbPolyline
 62
7
  6
CONTINUOUS
 90
17
 70
0
 10
161.23992016
 20
85.8024484351
 10
161.2437430475
 20
85.9772594946
 10
161.255202463
 20
86.1472242538
 10
161.2742703032
 20
86.3119199648
 10
161.300899629
 20
86.4709373532
 10
161.3350245783
 20
86.6238803736
 10
161.3765603324
 20
86.7703673595
 10
161.425403788
 20
86.9100338604
 10
161.4814337329
 20
87.0425325686
 10
161.5445106716
 20
87.1675331762
 10
161.6144777976
 20
87.2847247624
 10
161.691161262
 20
87.3938159805
 10
161.7743701501
 20
87.4945351696
 10
161.8638974392
 20
87.586631811
 10
161.9595206509
 20
87.6698771058
 10
162.0610021007
 20
87.7440641526
 10
162.1407295616
 20
87.7936037811
  0
LWPOLYLINE
  5
2C6
100
AcDbEntity
  8
0
100
AcDbPolyline
 62
7
  6
CONTINUOUS
 90
33
 70
0
 10
160.5328133788
 20
102.5400891094
 10
160.5371629263
 20
102.7357537294
 10
160.5499290572
 20
102.9250974536
 10
160.5711117716
 20
103.1081202819
 10
160.6008052086
 20
103.2852458373
 10
160.6389152291
 20
103.4560504969
 10
160.6851594159
 20
103.6192633919
 10
160.7395985366
 20
103.7748276792
 10
160.8021718237
 20
103.9228002019
 10
160.8724145571
 20
104.0620806215
 10
160.9503839442
 20
104.1926039757
 10
161.0360227777
 20
104.3144352267
 10
161.1286947162
 20
104.4266689224
 10
161.2284520302
 20
104.5292333893
 10
161.3352424493
 20
104.6222003008
 10
161.4482728206
 20
104.7048792251
 10
161.5675895325
 20
104.7771935837
 10
161.6931461967
 20
104.8392199551
 10
161.8240104947
 20
104.8904976428
 10
161.9602220268
 20
104.9309466816
 10
162.1017411928
 20
104.9606470368
 10
162.247516874
 20
104.979377908
 10
162.3975808332
 20
104.9870575912
 10
162.5519013076
 20
104.9837677904
 10
162.7093318897
 20
104.969532817
 10
162.8698957268
 20
104.9442711351
 10
163.0335696716
 20
104.9080642805
 10
163.199137875
 20
104.8611811725
 10
163.3666144221
 20
104.8035423033
 10
163.5359852279
 20
104.7352271807
 10
163.7059921875
 20
104.6567432469
 10
163.8766400357
 20
104.5680147777
 10
163.9619504536
 20
104.5200291636
  0
LWPOLYLINE
  5
2C7
100
AcDbEntity
  8
ASSI
100
AcDbPolyline
 62
7
  6
CONTINUOUS
 90
33
 70
0
 10
160.5328133788
 20
102.5400891094
 10
160.5371629263
 20
102.7357537294
 10
160.5499290572
 20
102.9250974536
 10
160.5711117716
 20
103.1081202819
 10
160.6008052086
 20
103.2852458373
 10
160.6389152291
 20
103.4560504969
 10
160.6851594159
 20
103.6192633919
 10
160.7395985366
 20
103.7748276792
 10
160.8021718237
 20
103.9228002019
 10
160.8724145571
 20
104.0620806215
 10
160.9503839442
 20
104.1926039757
 10
161.0360227777
 20
104.3144352267
 10
161.1286947162
 20
104.4266689224
 10
161.2284520302
 20
104.5292333893
 10
161.3352424493
 20
104.6222003008
 10
161.4482728206
 20
104.7048792251
 10
161.5675895325
 20
104.7771935837
 10
161.6931461967
 20
104.8392199551
 10
161.8240104947
 20
104.8904976428
 10
161.9602220268
 20
104.9309466816
 10
162.1017411928
 20
104.9606470368
 10
162.247516874
 20
104.979377908
 10
162.3975808332
 20
104.9870575912
 10
162.5519013076
 20
104.9837677904
 10
162.7093318897
 20
104.969532817
 10
162.8698957268
 20
104.9442711351
 10
163.0335696716
 20
104.9080642805
 10
163.199137875
 20
104.8611811725
 10
163.3666144221
 20
104.8035423033
 10
163.5359852279
 20
104.7352271807
 10
163.7059921875
 20
104.6567432469
 10
163.8766400357
 20
104.5680147777
 10
163.9619504536
 20
104.5200291636
  0
LWPOLYLINE
  5
2C8
100
AcDbEntity
  8
0
100
AcDbPolyline
 62
7
  6
CONTINUOUS
 90
33
 70
0
 10
160.5328133788
 20
85.8024484351
 10
160.5371629263
 20
85.9981130551
 10
160.5499290572
 20
86.1874567793
 10
160.5711117716
 20
86.3704796077
 10
160.6008052086
 20
86.5476051631
 10
160.6389152291
 20
86.7184098226
 10
160.6851594159
 20
86.8816227177
 10
160.7395985366
 20
87.0371870049
 10
160.8021718237
 20
87.1851595277
 10
160.8724145571
 20
87.3244399472
 10
160.9503839442
 20
87.4549633015
 10
161.0360227777
 20
87.5767945525
 10
161.1286947162
 20
87.6890282481
 10
161.2284520302
 20
87.791592715
 10
161.3352424493
 20
87.8845596265
 10
161.4482728206
 20
87.9672385508
 10
161.5675895325
 20
88.0395529094
 10
161.6931461967
 20
88.1015792808
 10
161.8240104947
 20
88.1528569686
 10
161.9602220268
 20
88.1933060074
 10
162.1017411928
 20
88.2230063626
 10
162.247516874
 20
88.2417372337
 10
162.3975808332
 20
88.249416917
 10
162.5519013076
 20
88.2461271162
 10
162.7093318897
 20
88.2318921428
 10
162.8698957268
 20
88.2066304608
 10
163.0335696716
 20
88.1704236063
 10
163.199137875
 20
88.1235404983
 10
163.3666144221
 20
88.0659016291
 10
163.5359852279
 20
87.9975865064
 10
163.7059921875
 20
87.9191025726
 10
163.8766400357
 20
87.8303741035
 10
163.9619504536
 20
87.7823884893
  0
LWPOLYLINE
  5
2C9
100
AcDbEntity
  8
ASSI
100
AcDbPolyline
 62
7
  6
CONTINUOUS
 90
33
 70
0
 10
160.5328133788
 20
85.8024484351
 10
160.5371629263
 20
85.9981130551
 10
160.5499290572
 20
86.1874567793
 10
160.5711117716
 20
86.3704796077
 10
160.6008052086
 20
86.5476051631
 10
160.6389152291
 20
86.7184098226
 10
160.6851594159
 20
86.8816227177
 10
160.7395985366
 20
87.0371870049
 10
160.8021718237
 20
87.1851595277
 10
160.8724145571
 20
87.3244399472
 10
160.9503839442
 20
87.4549633015
 10
161.0360227777
 20
87.5767945525
 10
161.1286947162
 20
87.6890282481
 10
161.2284520302
 20
87.791592715
 10
161.3352424493
 20
87.8845596265
 10
161.4482728206
 20
87.9672385508
 10
161.5675895325
 20
88.0395529094
 10
161.6931461967
 20
88.1015792808
 10
161.8240104947
 20
88.1528569686
 10
161.9602220268
 20
88.1933060074
 10
162.1017411928
 20
88.2230063626
 10
162.247516874
 20
88.2417372337
 10
162.3975808332
 20
88.249416917
 10
162.5519013076
 20
88.2461271162
 10
162.7093318897
 20
88.2318921428
 10
162.8698957268
 20
88.2066304608
 10
163.0335696716
 20
88.1704236063
 10
163.199137875
 20
88.1235404983
 10
163.3666144221
 20
88.0659016291
 10
163.5359852279
 20
87.9975865064
 10
163.7059921875
 20
87.9191025726
 10
163.8766400357
 20
87.8303741035
 10
163.9619504536
 20
87.7823884893
  0
LWPOLYLINE
  5
2CA
100
AcDbEntity
  8
0
100
AcDbPolyline
 62
7
  6
CONTINUOUS
 90
49
 70
0
 10
150.5810371781
 20
89.4454824771
 10
150.5536773046
 20
89.4300777754
 10
150.4412502809
 20
89.3745375879
 10
150.3237628447
 20
89.3285395425
 10
150.2015069831
 20
89.2921980342
 10
150.0747866983
 20
89.2656035047
 10
149.9439170149
 20
89.2488221298
 10
149.8092232251
 20
89.241895689
 10
149.6710402418
 20
89.24484147
 10
149.5297117742
 20
89.2576521856
 10
149.3855892235
 20
89.280296002
 10
149.2390308812
 20
89.3127166449
 10
149.0904012126
 20
89.3548335026
 10
148.9400697728
 20
89.4065418576
 10
148.7884103011
 20
89.4677131601
 10
148.6357998805
 20
89.538195318
 10
148.4826179425
 20
89.6178130944
 10
148.3292453356
 20
89.706368541
 10
148.1760633964
 20
89.8036414787
 10
148.0234529729
 20
89.9093900629
 10
147.8717934973
 20
90.0233513722
 10
147.7214620548
 20
90.1452420515
 10
147.5728323842
 20
90.2747590663
 10
147.4262740413
 20
90.4115803807
 10
147.2821514955
 20
90.5553657268
 10
147.1408230403
 20
90.7057576301
 10
147.0026400743
 20
90.8623821367
 10
146.8679463039
 20
91.0248496302
 10
146.7370766437
 20
91.1927560711
 10
146.6103563839
 20
91.3656840432
 10
146.4881005406
 20
91.5432036008
 10
146.3706131149
 20
91.7248732523
 10
146.2581860973
 20
91.9102414205
 10
146.1510987638
 20
92.0988476084
 10
146.049617306
 20
92.2902230055
 10
145.9539940854
 20
92.483891721
 10
145.8644668015
 20
92.6793723514
 10
145.7812579317
 20
92.8761791849
 10
145.7045744981
 20
93.0738226364
 10
145.634607425
 20
93.2718105491
 10
145.5715305587
 20
93.4696508131
 10
145.5155006986
 20
93.6668514381
 10
145.4666573386
 20
93.862921017
 10
145.4251216853
 20
94.0573722653
 10
145.3909968335
 20
94.2497216807
 10
145.3643675944
 20
94.4394896596
 10
145.3452998234
 20
94.626204107
 10
145.3338404541
 20
94.8094015472
 10
145.3300175833
 20
94.988626785
  0
LWPOLYLINE
  5
2CB
100
AcDbEntity
  8
ASSI
100
AcDbPolyline
 62
7
  6
CONTINUOUS
 90
49
 70
0
 10
150.5810371781
 20
89.4454824771
 10
150.5536773046
 20
89.4300777754
 10
150.4412502809
 20
89.3745375879
 10
150.3237628447
 20
89.3285395425
 10
150.2015069831
 20
89.2921980342
 10
150.0747866983
 20
89.2656035047
 10
149.9439170149
 20
89.2488221298
 10
149.8092232251
 20
89.241895689
 10
149.6710402418
 20
89.24484147
 10
149.5297117742
 20
89.2576521856
 10
149.3855892235
 20
89.280296002
 10
149.2390308812
 20
89.3127166449
 10
149.0904012126
 20
89.3548335026
 10
148.9400697728
 20
89.4065418576
 10
148.7884103011
 20
89.4677131601
 10
148.6357998805
 20
89.538195318
 10
148.4826179425
 20
89.6178130944
 10
148.3292453356
 20
89.706368541
 10
148.1760633964
 20
89.8036414787
 10
148.0234529729
 20
89.9093900629
 10
147.8717934973
 20
90.0233513722
 10
147.7214620548
 20
90.1452420515
 10
147.5728323842
 20
90.2747590663
 10
147.4262740413
 20
90.4115803807
 10
147.2821514955
 20
90.5553657268
 10
147.1408230403
 20
90.7057576301
 10
147.0026400743
 20
90.8623821367
 10
146.8679463039
 20
91.0248496302
 10
146.7370766437
 20
91.1927560711
 10
146.6103563839
 20
91.3656840432
 10
146.4881005406
 20
91.5432036008
 10
146.3706131149
 20
91.7248732523
 10
146.2581860973
 20
91.9102414205
 10
146.1510987638
 20
92.0988476084
 10
146.049617306
 20
92.2902230055
 10
145.9539940854
 20
92.483891721
 10
145.8644668015
 20
92.6793723514
 10
145.7812579317
 20
92.8761791849
 10
145.7045744981
 20
93.0738226364
 10
145.634607425
 20
93.2718105491
 10
145.5715305587
 20
93.4696508131
 10
145.5155006986
 20
93.6668514381
 10
145.4666573386
 20
93.862921017
 10
145.4251216853
 20
94.0573722653
 10
145.3909968335
 20
94.2497216807
 10
145.3643675944
 20
94.4394896596
 10
145.3452998234
 20
94.626204107
 10
145.3338404541
 20
94.8094015472
 10
145.3300175833
 20
94.988626785
  0
LWPOLYLINE
  5
2CC
100
AcDbEntity
  8
0
100
AcDbPolyline
 62
7
  6
CONTINUOUS
 90
49
 70
0
 10
166.4909397548
 20
96.9969448014
 10
166.4635798813
 20
96.9815400998
 10
166.3511528576
 20
96.9259999123
 10
166.2336654214
 20
96.8800018669
 10
166.1114095598
 20
96.8436603586
 10
165.984689275
 20
96.8170658291
 10
165.8538195916
 20
96.8002844542
 10
165.7191258018
 20
96.7933580134
 10
165.5809428185
 20
96.7963037944
 10
165.4396143509
 20
96.80911451
 10
165.2954918002
 20
96.8317583264
 10
165.1489334578
 20
96.8641789693
 10
165.0003037893
 20
96.906295827
 10
164.8499723495
 20
96.9580041819
 10
164.6983128778
 20
97.0191754844
 10
164.5457024572
 20
97.0896576424
 10
164.3925205192
 20
97.1692754188
 10
164.2391479123
 20
97.2578308653
 10
164.0859659731
 20
97.3551038031
 10
163.9333555496
 20
97.4608523872
 10
163.781696074
 20
97.5748136966
 10
163.6313646315
 20
97.6967043759
 10
163.4827349609
 20
97.8262213907
 10
163.336176618
 20
97.9630427051
 10
163.1920540722
 20
98.1068280512
 10
163.050725617
 20
98.2572199545
 10
162.912542651
 20
98.4138444611
 10
162.7778488806
 20
98.5763119546
 10
162.6469792204
 20
98.7442183955
 10
162.5202589606
 20
98.9171463676
 10
162.3980031173
 20
99.0946659252
 10
162.2805156916
 20
99.2763355767
 10
162.168088674
 20
99.4617037449
 10
162.0610013405
 20
99.6503099328
 10
161.9595198827
 20
99.8416853299
 10
161.8638966621
 20
100.0353540454
 10
161.7743693782
 20
100.2308346757
 10
161.6911605084
 20
100.4276415093
 10
161.6144770748
 20
100.6252849608
 10
161.5445100017
 20
100.8232728735
 10
161.4814331354
 20
101.0211131375
 10
161.4254032753
 20
101.2183137624
 10
161.3765599153
 20
101.4143833414
 10
161.335024262
 20
101.6088345897
 10
161.3008994102
 20
101.8011840051
 10
161.2742701711
 20
101.990951984
 10
161.2552024001
 20
102.1776664314
 10
161.2437430308
 20
102.3608638716
 10
161.23992016
 20
102.5400891094
  0
LWPOLYLINE
  5
2CD
100
AcDbEntity
  8
ASSI
100
AcDbPolyline
 62
7
  6
CONTINUOUS
 90
49
 70
0
 10
166.4909397548
 20
96.9969448014
 10
166.4635798813
 20
96.9815400998
 10
166.3511528576
 20
96.9259999123
 10
166.2336654214
 20
96.8800018669
 10
166.1114095598
 20
96.8436603586
 10
165.984689275
 20
96.8170658291
 10
165.8538195916
 20
96.8002844542
 10
165.7191258018
 20
96.7933580134
 10
165.5809428185
 20
96.7963037944
 10
165.4396143509
 20
96.80911451
 10
165.2954918002
 20
96.8317583264
 10
165.1489334578
 20
96.8641789693
 10
165.0003037893
 20
96.906295827
 10
164.8499723495
 20
96.9580041819
 10
164.6983128778
 20
97.0191754844
 10
164.5457024572
 20
97.0896576424
 10
164.3925205192
 20
97.1692754188
 10
164.2391479123
 20
97.2578308653
 10
164.0859659731
 20
97.3551038031
 10
163.9333555496
 20
97.4608523872
 10
163.781696074
 20
97.5748136966
 10
163.6313646315
 20
97.6967043759
 10
163.4827349609
 20
97.8262213907
 10
163.336176618
 20
97.9630427051
 10
163.1920540722
 20
98.1068280512
 10
163.050725617
 20
98.2572199545
 10
162.912542651
 20
98.4138444611
 10
162.7778488806
 20
98.5763119546
 10
162.6469792204
 20
98.7442183955
 10
162.5202589606
 20
98.9171463676
 10
162.3980031173
 20
99.0946659252
 10
162.2805156916
 20
99.2763355767
 10
162.168088674
 20
99.4617037449
 10
162.0610013405
 20
99.6503099328
 10
161.9595198827
 20
99.8416853299
 10
161.8638966621
 20
100.0353540454
 10
161.7743693782
 20
100.2308346757
 10
161.6911605084
 20
100.4276415093
 10
161.6144770748
 20
100.6252849608
 10
161.5445100017
 20
100.8232728735
 10
161.4814331354
 20
101.0211131375
 10
161.4254032753
 20
101.2183137624
 10
161.3765599153
 20
101.4143833414
 10
161.335024262
 20
101.6088345897
 10
161.3008994102
 20
101.8011840051
 10
161.2742701711
 20
101.990951984
 10
161.2552024001
 20
102.1776664314
 10
161.2437430308
 20
102.3608638716
 10
161.23992016
 20
102.5400891094
  0
LWPOLYLINE
  5
2CE
100
AcDbEntity
  8
0
100
AcDbPolyline
 62
7
  6
CONTINUOUS
 90
3
 70
0
 10
132.1135512851
 20
122.8813704721
 10
132.2661617057
 20
122.8108883142
 10
132.3220896405
 20
122.7818192355
  0
LWPOLYLINE
  5
2CF
100
AcDbEntity
  8
ASSI
100
AcDbPolyline
 62
7
  6
CONTINUOUS
 90
3
 70
0
 10
132.1135512851
 20
122.8813704721
 10
132.2661617057
 20
122.8108883142
 10
132.3220896405
 20
122.7818192355
  0
LWPOLYLINE
  5
2D0
100
AcDbEntity
  8
0
100
AcDbPolyline
 62
7
  6
CONTINUOUS
 90
64
 70
0
 10
167.3917491563
 20
98.5798255541
 10
167.3873996089
 20
98.3841609341
 10
167.374633478
 20
98.1948172099
 10
167.3534507636
 20
98.0117943815
 10
167.3237573266
 20
97.8346688261
 10
167.2856473061
 20
97.6638641666
 10
167.2394031193
 20
97.5006512715
 10
167.1849639986
 20
97.3450869843
 10
167.1223907115
 20
97.1971144615
 10
167.052147978
 20
97.057834042
 10
166.974178591
 20
96.9273106878
 10
166.8885397575
 20
96.8054794367
 10
166.795867819
 20
96.6932457411
 10
166.696110505
 20
96.5906812742
 10
166.5893200859
 20
96.4977143627
 10
166.4762897146
 20
96.4150354384
 10
166.3569730027
 20
96.3427210798
 10
166.2314163385
 20
96.2806947084
 10
166.1005520405
 20
96.2294170206
 10
165.9643405084
 20
96.1889679818
 10
165.8228213423
 20
96.1592676266
 10
165.6770456612
 20
96.1405367555
 10
165.5269817019
 20
96.1328570722
 10
165.3726612276
 20
96.136146873
 10
165.2152306455
 20
96.1503818464
 10
165.0546668084
 20
96.1756435284
 10
164.8909928636
 20
96.2118503829
 10
164.7254246602
 20
96.258733491
 10
164.5579481131
 20
96.3163723601
 10
164.3885773073
 20
96.3846874828
 10
164.2185703477
 20
96.4631714166
 10
164.0479224994
 20
96.5518998858
 10
163.8766384973
 20
96.6507971661
 10
163.7059906502
 20
96.7591286428
 10
163.5359836928
 20
96.8769645725
 10
163.3666128905
 20
97.0042346985
 10
163.1991363483
 20
97.1399936357
 10
163.0335681494
 20
97.2843046292
 10
162.8698942106
 20
97.437104434
 10
162.7093303875
 20
97.5972579298
 10
162.5518998284
 20
97.7648199234
 10
162.3975793851
 20
97.939735608
 10
162.2475154684
 20
98.1207054437
 10
162.1017398503
 20
98.307774441
 10
161.9602207589
 20
98.5008975895
 10
161.8240092889
 20
98.6986403181
 10
161.6931450315
 20
98.9010368715
 10
161.5675883955
 20
99.1080530049
 10
161.448271703
 20
99.3181514132
 10
161.3352413341
 20
99.5313551283
 10
161.2284509085
 20
99.7476411181
 10
161.1286936077
 20
99.9654029816
 10
161.0360217108
 20
100.1846520275
 10
160.9503829386
 20
100.405376947
 10
160.8724136351
 20
100.6259374123
 10
160.8021710157
 20
100.8463323088
 10
160.739597865
 20
101.0665627512
 10
160.6851588804
 20
101.2849917556
 10
160.6389148305
 20
101.5016059761
 10
160.6008049467
 20
101.7164187586
 10
160.5711116205
 20
101.9278331578
 10
160.5499289824
 20
102.1353168584
 10
160.5371629018
 20
102.3394021756
 10
160.5328133788
 20
102.5400891094
  0
LWPOLYLINE
  5
2D1
100
AcDbEntity
  8
ASSI
100
AcDbPolyline
 62
7
  6
CONTINUOUS
 90
64
 70
0
 10
167.3917491563
 20
98.5798255541
 10
167.3873996089
 20
98.3841609341
 10
167.374633478
 20
98.1948172099
 10
167.3534507636
 20
98.0117943815
 10
167.3237573266
 20
97.8346688261
 10
167.2856473061
 20
97.6638641666
 10
167.2394031193
 20
97.5006512715
 10
167.1849639986
 20
97.3450869843
 10
167.1223907115
 20
97.1971144615
 10
167.052147978
 20
97.057834042
 10
166.974178591
 20
96.9273106878
 10
166.8885397575
 20
96.8054794367
 10
166.795867819
 20
96.6932457411
 10
166.696110505
 20
96.5906812742
 10
166.5893200859
 20
96.4977143627
 10
166.4762897146
 20
96.4150354384
 10
166.3569730027
 20
96.3427210798
 10
166.2314163385
 20
96.2806947084
 10
166.1005520405
 20
96.2294170206
 10
165.9643405084
 20
96.1889679818
 10
165.8228213423
 20
96.1592676266
 10
165.6770456612
 20
96.1405367555
 10
165.5269817019
 20
96.1328570722
 10
165.3726612276
 20
96.136146873
 10
165.2152306455
 20
96.1503818464
 10
165.0546668084
 20
96.1756435284
 10
164.8909928636
 20
96.2118503829
 10
164.7254246602
 20
96.258733491
 10
164.5579481131
 20
96.3163723601
 10
164.3885773073
 20
96.3846874828
 10
164.2185703477
 20
96.4631714166
 10
164.0479224994
 20
96.5518998858
 10
163.8766384973
 20
96.6507971661
 10
163.7059906502
 20
96.7591286428
 10
163.5359836928
 20
96.8769645725
 10
163.3666128905
 20
97.0042346985
 10
163.1991363483
 20
97.1399936357
 10
163.0335681494
 20
97.2843046292
 10
162.8698942106
 20
97.437104434
 10
162.7093303875
 20
97.5972579298
 10
162.5518998284
 20
97.7648199234
 10
162.3975793851
 20
97.939735608
 10
162.2475154684
 20
98.1207054437
 10
162.1017398503
 20
98.307774441
 10
161.9602207589
 20
98.5008975895
 10
161.8240092889
 20
98.6986403181
 10
161.6931450315
 20
98.9010368715
 10
161.5675883955
 20
99.1080530049
 10
161.448271703
 20
99.3181514132
 10
161.3352413341
 20
99.5313551283
 10
161.2284509085
 20
99.7476411181
 10
161.1286936077
 20
99.9654029816
 10
161.0360217108
 20
100.1846520275
 10
160.9503829386
 20
100.405376947
 10
160.8724136351
 20
100.6259374123
 10
160.8021710157
 20
100.8463323088
 10
160.739597865
 20
101.0665627512
 10
160.6851588804
 20
101.2849917556
 10
160.6389148305
 20
101.5016059761
 10
160.6008049467
 20
101.7164187586
 10
160.5711116205
 20
101.9278331578
 10
160.5499289824
 20
102.1353168584
 10
160.5371629018
 20
102.3394021756
 10
160.5328133788
 20
102.5400891094
  0
LWPOLYLINE
  5
2D2
100
AcDbEntity
  8
0
100
AcDbPolyline
 62
7
  6
CONTINUOUS
 90
64
 70
0
 10
167.3917491563
 20
81.8421848798
 10
167.3873996089
 20
81.6465202598
 10
167.374633478
 20
81.4571765356
 10
167.3534507636
 20
81.2741537073
 10
167.3237573266
 20
81.0970281519
 10
167.2856473061
 20
80.9262234923
 10
167.2394031193
 20
80.7630105973
 10
167.1849639986
 20
80.60744631
 10
167.1223907115
 20
80.4594737873
 10
167.052147978
 20
80.3201933677
 10
166.974178591
 20
80.1896700135
 10
166.8885397575
 20
80.0678387625
 10
166.795867819
 20
79.9556050668
 10
166.696110505
 20
79.8530405999
 10
166.5893200859
 20
79.7600736884
 10
166.4762897146
 20
79.6773947641
 10
166.3569730027
 20
79.6050804055
 10
166.2314163385
 20
79.5430540341
 10
166.1005520405
 20
79.4917763464
 10
165.9643405084
 20
79.4513273076
 10
165.8228213423
 20
79.4216269524
 10
165.6770456612
 20
79.4028960812
 10
165.5269817019
 20
79.395216398
 10
165.3726612276
 20
79.3985061988
 10
165.2152306455
 20
79.4127411722
 10
165.0546668084
 20
79.4380028541
 10
164.8909928636
 20
79.4742097087
 10
164.7254246602
 20
79.5210928167
 10
164.5579481131
 20
79.5787316859
 10
164.3885773073
 20
79.6470468085
 10
164.2185703477
 20
79.7255307423
 10
164.0479224994
 20
79.8142592115
 10
163.8766384973
 20
79.9131564919
 10
163.7059906502
 20
80.0214879685
 10
163.5359836928
 20
80.1393238982
 10
163.3666128905
 20
80.2665940242
 10
163.1991363483
 20
80.4023529614
 10
163.0335681494
 20
80.546663955
 10
162.8698942106
 20
80.6994637597
 10
162.7093303875
 20
80.8596172556
 10
162.5518998284
 20
81.0271792491
 10
162.3975793851
 20
81.2020949337
 10
162.2475154684
 20
81.3830647695
 10
162.1017398503
 20
81.5701337668
 10
161.9602207589
 20
81.7632569153
 10
161.8240092889
 20
81.9609996438
 10
161.6931450315
 20
82.1633961972
 10
161.5675883955
 20
82.3704123307
 10
161.448271703
 20
82.580510739
 10
161.3352413341
 20
82.793714454
 10
161.2284509085
 20
83.0100004439
 10
161.1286936077
 20
83.2277623073
 10
161.0360217108
 20
83.4470113532
 10
160.9503829386
 20
83.6677362727
 10
160.8724136351
 20
83.8882967381
 10
160.8021710157
 20
84.1086916346
 10
160.739597865
 20
84.3289220769
 10
160.6851588804
 20
84.5473510813
 10
160.6389148305
 20
84.7639653018
 10
160.6008049467
 20
84.9787780844
 10
160.5711116205
 20
85.1901924835
 10
160.5499289824
 20
85.3976761841
 10
160.5371629018
 20
85.6017615013
 10
160.5328133788
 20
85.8024484351
  0
LWPOLYLINE
  5
2D3
100
AcDbEntity
  8
ASSI
100
AcDbPolyline
 62
7
  6
CONTINUOUS
 90
64
 70
0
 10
167.3917491563
 20
81.8421848798
 10
167.3873996089
 20
81.6465202598
 10
167.374633478
 20
81.4571765356
 10
167.3534507636
 20
81.2741537073
 10
167.3237573266
 20
81.0970281519
 10
167.2856473061
 20
80.9262234923
 10
167.2394031193
 20
80.7630105973
 10
167.1849639986
 20
80.60744631
 10
167.1223907115
 20
80.4594737873
 10
167.052147978
 20
80.3201933677
 10
166.974178591
 20
80.1896700135
 10
166.8885397575
 20
80.0678387625
 10
166.795867819
 20
79.9556050668
 10
166.696110505
 20
79.8530405999
 10
166.5893200859
 20
79.7600736884
 10
166.4762897146
 20
79.6773947641
 10
166.3569730027
 20
79.6050804055
 10
166.2314163385
 20
79.5430540341
 10
166.1005520405
 20
79.4917763464
 10
165.9643405084
 20
79.4513273076
 10
165.8228213423
 20
79.4216269524
 10
165.6770456612
 20
79.4028960812
 10
165.5269817019
 20
79.395216398
 10
165.3726612276
 20
79.3985061988
 10
165.2152306455
 20
79.4127411722
 10
165.0546668084
 20
79.4380028541
 10
164.8909928636
 20
79.4742097087
 10
164.7254246602
 20
79.5210928167
 10
164.5579481131
 20
79.5787316859
 10
164.3885773073
 20
79.6470468085
 10
164.2185703477
 20
79.7255307423
 10
164.0479224994
 20
79.8142592115
 10
163.8766384973
 20
79.9131564919
 10
163.7059906502
 20
80.0214879685
 10
163.5359836928
 20
80.1393238982
 10
163.3666128905
 20
80.2665940242
 10
163.1991363483
 20
80.4023529614
 10
163.0335681494
 20
80.546663955
 10
162.8698942106
 20
80.6994637597
 10
162.7093303875
 20
80.8596172556
 10
162.5518998284
 20
81.0271792491
 10
162.3975793851
 20
81.2020949337
 10
162.2475154684
 20
81.3830647695
 10
162.1017398503
 20
81.5701337668
 10
161.9602207589
 20
81.7632569153
 10
161.8240092889
 20
81.9609996438
 10
161.6931450315
 20
82.1633961972
 10
161.5675883955
 20
82.3704123307
 10
161.448271703
 20
82.580510739
 10
161.3352413341
 20
82.793714454
 10
161.2284509085
 20
83.0100004439
 10
161.1286936077
 20
83.2277623073
 10
161.0360217108
 20
83.4470113532
 10
160.9503829386
 20
83.6677362727
 10
160.8724136351
 20
83.8882967381
 10
160.8021710157
 20
84.1086916346
 10
160.739597865
 20
84.3289220769
 10
160.6851588804
 20
84.5473510813
 10
160.6389148305
 20
84.7639653018
 10
160.6008049467
 20
84.9787780844
 10
160.5711116205
 20
85.1901924835
 10
160.5499289824
 20
85.3976761841
 10
160.5371629018
 20
85.6017615013
 10
160.5328133788
 20
85.8024484351
  0
LINE
  5
2D4
100
AcDbEntity
  8
0
100
AcDbLine
 62
7
  6
CONTINUOUS
 10
167.3865895463
 20
98.7934629691
 11
167.3764668534
 21
98.6433243287
  0
LINE
  5
2D5
100
AcDbEntity
  8
ASSI
100
AcDbLine
 62
7
  6
CONTINUOUS
 10
167.3865895463
 20
98.7934629691
 11
167.3764668534
 21
98.6433243287
  0
LWPOLYLINE
  5
2D6
100
AcDbEntity
  8
0
100
AcDbPolyline
 62
7
  6
CONTINUOUS
 90
15
 70
0
 10
167.3764668534
 20
98.6433243287
 10
167.3573990131
 20
98.4786286177
 10
167.3307696874
 20
98.3196112293
 10
167.2966447381
 20
98.1666682089
 10
167.255108984
 20
98.020181223
 10
167.2062655284
 20
97.8805147222
 10
167.1502355835
 20
97.748016014
 10
167.0871586448
 20
97.6230154063
 10
167.0171915187
 20
97.5058238201
 10
166.9405080544
 20
97.396732602
 10
166.8572991663
 20
97.2960134129
 10
166.7677718772
 20
97.2039167715
 10
166.6721486654
 20
97.1206714767
 10
166.5706672157
 20
97.0464844299
 10
166.4909397548
 20
96.9969448014
  0
LWPOLYLINE
  5
2D7
100
AcDbEntity
  8
ASSI
100
AcDbPolyline
 62
7
  6
CONTINUOUS
 90
15
 70
0
 10
167.3764668534
 20
98.6433243287
 10
167.3573990131
 20
98.4786286177
 10
167.3307696874
 20
98.3196112293
 10
167.2966447381
 20
98.1666682089
 10
167.255108984
 20
98.020181223
 10
167.2062655284
 20
97.8805147222
 10
167.1502355835
 20
97.748016014
 10
167.0871586448
 20
97.6230154063
 10
167.0171915187
 20
97.5058238201
 10
166.9405080544
 20
97.396732602
 10
166.8572991663
 20
97.2960134129
 10
166.7677718772
 20
97.2039167715
 10
166.6721486654
 20
97.1206714767
 10
166.5706672157
 20
97.0464844299
 10
166.4909397548
 20
96.9969448014
  0
LINE
  5
2D8
100
AcDbEntity
  8
0
100
AcDbLine
 62
7
  6
CONTINUOUS
 10
167.3865895463
 20
82.0558222948
 11
167.3764668534
 21
81.9056836544
  0
LINE
  5
2D9
100
AcDbEntity
  8
ASSI
100
AcDbLine
 62
7
  6
CONTINUOUS
 10
167.3865895463
 20
82.0558222948
 11
167.3764668534
 21
81.9056836544
  0
LWPOLYLINE
  5
2DA
100
AcDbEntity
  8
0
100
AcDbPolyline
 62
7
  6
CONTINUOUS
 90
15
 70
0
 10
167.3764668534
 20
81.9056836544
 10
167.3573990131
 20
81.7409879435
 10
167.3307696874
 20
81.5819705551
 10
167.2966447381
 20
81.4290275347
 10
167.255108984
 20
81.2825405488
 10
167.2062655284
 20
81.1428740479
 10
167.1502355835
 20
81.0103753397
 10
167.0871586448
 20
80.8853747321
 10
167.0171915187
 20
80.7681831458
 10
166.9405080544
 20
80.6590919278
 10
166.8572991663
 20
80.5583727387
 10
166.7677718772
 20
80.4662760973
 10
166.6721486654
 20
80.3830308025
 10
166.5706672157
 20
80.3088437557
 10
166.4909397548
 20
80.2593041272
  0
LWPOLYLINE
  5
2DB
100
AcDbEntity
  8
ASSI
100
AcDbPolyline
 62
7
  6
CONTINUOUS
 90
15
 70
0
 10
167.3764668534
 20
81.9056836544
 10
167.3573990131
 20
81.7409879435
 10
167.3307696874
 20
81.5819705551
 10
167.2966447381
 20
81.4290275347
 10
167.255108984
 20
81.2825405488
 10
167.2062655284
 20
81.1428740479
 10
167.1502355835
 20
81.0103753397
 10
167.0871586448
 20
80.8853747321
 10
167.0171915187
 20
80.7681831458
 10
166.9405080544
 20
80.6590919278
 10
166.8572991663
 20
80.5583727387
 10
166.7677718772
 20
80.4662760973
 10
166.6721486654
 20
80.3830308025
 10
166.5706672157
 20
80.3088437557
 10
166.4909397548
 20
80.2593041272
  0
LWPOLYLINE
  5
2DC
100
AcDbEntity
  8
0
100
AcDbPolyline
 62
7
  6
CONTINUOUS
 90
13
 70
0
 10
162.6926645213
 20
87.9793408587
 10
162.6812250725
 20
87.9654873593
 10
162.6044137698
 20
87.8562195865
 10
162.5344809487
 20
87.7391554398
 10
162.4714778271
 20
87.6142368667
 10
162.4153531871
 20
87.4815219197
 10
162.3665239045
 20
87.341996363
 10
162.3250443014
 20
87.1956094841
 10
162.2908600558
 20
87.0424119955
 10
162.2642250772
 20
86.8835417992
 10
162.2452240023
 20
86.7193781958
 10
162.2337721945
 20
86.5495418846
 10
162.2298696537
 20
86.3740328658
  0
LWPOLYLINE
  5
2DD
100
AcDbEntity
  8
ASSI
100
AcDbPolyline
 62
7
  6
CONTINUOUS
 90
13
 70
0
 10
162.6926645213
 20
87.9793408587
 10
162.6812250725
 20
87.9654873593
 10
162.6044137698
 20
87.8562195865
 10
162.5344809487
 20
87.7391554398
 10
162.4714778271
 20
87.6142368667
 10
162.4153531871
 20
87.4815219197
 10
162.3665239045
 20
87.341996363
 10
162.3250443014
 20
87.1956094841
 10
162.2908600558
 20
87.0424119955
 10
162.2642250772
 20
86.8835417992
 10
162.2452240023
 20
86.7193781958
 10
162.2337721945
 20
86.5495418846
 10
162.2298696537
 20
86.3740328658
  0
LWPOLYLINE
  5
2DE
100
AcDbEntity
  8
0
100
AcDbPolyline
 62
7
  6
CONTINUOUS
 90
15
 70
0
 10
162.1407295616
 20
87.7936037811
 10
162.1680894351
 20
87.8090084828
 10
162.2805164587
 20
87.8645486702
 10
162.398003895
 20
87.9105467156
 10
162.5202597565
 20
87.946888224
 10
162.6469800413
 20
87.9734827535
 10
162.7778497248
 20
87.9902641283
 10
162.9125435145
 20
87.9971905691
 10
163.0507264979
 20
87.9942447881
 10
163.1920549655
 20
87.9814340725
 10
163.3361775162
 20
87.9587902561
 10
163.4827358585
 20
87.9263696132
 10
163.6313655271
 20
87.8842527556
 10
163.7816969669
 20
87.8325444006
 10
163.9333564385
 20
87.7713730981
  0
LWPOLYLINE
  5
2DF
100
AcDbEntity
  8
ASSI
100
AcDbPolyline
 62
7
  6
CONTINUOUS
 90
15
 70
0
 10
162.1407295616
 20
87.7936037811
 10
162.1680894351
 20
87.8090084828
 10
162.2805164587
 20
87.8645486702
 10
162.398003895
 20
87.9105467156
 10
162.5202597565
 20
87.946888224
 10
162.6469800413
 20
87.9734827535
 10
162.7778497248
 20
87.9902641283
 10
162.9125435145
 20
87.9971905691
 10
163.0507264979
 20
87.9942447881
 10
163.1920549655
 20
87.9814340725
 10
163.3361775162
 20
87.9587902561
 10
163.4827358585
 20
87.9263696132
 10
163.6313655271
 20
87.8842527556
 10
163.7816969669
 20
87.8325444006
 10
163.9333564385
 20
87.7713730981
  0
LWPOLYLINE
  5
2E0
100
AcDbEntity
  8
CURVE
100
AcDbPolyline
 62
250
  6
CONTINUOUS
 90
73
 70
0
 10
182.5184625309
 20
60.6982359192
 10
182.5173195527
 20
60.7045719772
 10
182.5155675318
 20
60.7103757763
 10
182.5132740736
 20
60.7157007964
 10
182.5105067833
 20
60.7206005177
 10
182.507333266
 20
60.7251284202
 10
182.5038211272
 20
60.7293379841
 10
182.500037972
 20
60.7332826894
 10
182.4960514056
 20
60.7370160162
 10
182.4919290334
 20
60.7405914445
 10
182.4877384606
 20
60.7440624545
 10
182.4771452987
 20
60.7525474983
 10
182.4664943146
 20
60.76066203
 10
182.4557314619
 20
60.7683585812
 10
182.4448026942
 20
60.7755896833
 10
182.4336539652
 20
60.7823078677
 10
182.4222312284
 20
60.7884656658
 10
182.4104804374
 20
60.794015609
 10
182.3983475459
 20
60.7989102289
 10
182.3847696586
 20
60.8034175454
 10
182.3707202912
 20
60.8071160724
 10
182.3562367164
 20
60.8100168073
 10
182.3413562071
 20
60.8121307474
 10
182.326116036
 20
60.8134688902
 10
182.3105534761
 20
60.8140422329
 10
182.2947058
 20
60.8138617729
 10
182.2786102807
 20
60.8129385076
 10
182.262304191
 20
60.8112834343
 10
182.2458248037
 20
60.8089075504
 10
182.2292198429
 20
60.8058253469
 10
182.2124886839
 20
60.8020479267
 10
182.195640908
 20
60.7975886052
 10
182.1786860963
 20
60.7924606978
 10
182.1616338299
 20
60.7866775201
 10
182.1444936901
 20
60.7802523874
 10
182.1248055886
 20
60.7721390037
 10
182.1050401664
 20
60.7632307434
 10
182.0852224224
 20
60.7535542958
 10
182.0653773558
 20
60.7431363508
 10
182.0455299656
 20
60.7320035978
 10
182.0257052511
 20
60.7201827266
 10
182.0064207282
 20
60.7080135366
 10
181.9872049532
 20
60.6952040142
 10
181.9680813476
 20
60.6817426743
 10
181.9490733331
 20
60.6676180313
 10
181.9302043313
 20
60.6528186001
 10
181.9133814051
 20
60.6389323697
 10
181.8967101752
 20
60.624497959
 10
181.8802110858
 20
60.6095217183
 10
181.8639045813
 20
60.5940099982
 10
181.8478111059
 20
60.5779691492
 10
181.8305579836
 20
60.5599170113
 10
181.8136102493
 20
60.5412793345
 10
181.796996605
 20
60.5220901172
 10
181.7807457529
 20
60.5023833576
 10
181.7648863949
 20
60.4821930541
 10
181.7494472332
 20
60.461553205
 10
181.7344569699
 20
60.4404978086
 10
181.719944307
 20
60.4190608631
 10
181.7066996144
 20
60.3984938308
 10
181.6939169543
 20
60.3776412362
 10
181.6816067225
 20
60.3565275428
 10
181.6697793147
 20
60.3351772137
 10
181.6584451267
 20
60.3136147123
 10
181.6476145542
 20
60.2918645019
 10
181.637297993
 20
60.2699510457
 10
181.6301139348
 20
60.2538912303
 10
181.6232478652
 20
60.2377781971
 10
181.6167391543
 20
60.2216324634
 10
181.6106271724
 20
60.2054745468
 10
181.6049512896
 20
60.1893249648
 10
181.5997508762
 20
60.1732042348
 10
181.5950653024
 20
60.1571328743
  0
LWPOLYLINE
  5
2E1
100
AcDbEntity
  8
CURVE
100
AcDbPolyline
 62
250
  6
CONTINUOUS
 90
22
 70
0
 10
181.8659083823
 20
59.6617757176
 10
181.8636807137
 20
59.6754519455
 10
181.8615539337
 20
59.6892005834
 10
181.8595450848
 20
59.7030333911
 10
181.8576712093
 20
59.7169621288
 10
181.8559493499
 20
59.7309985562
 10
181.8543965489
 20
59.7451544334
 10
181.8529263605
 20
59.7605773686
 10
181.8516730356
 20
59.7761481323
 10
181.8506366449
 20
59.791861704
 10
181.8498172589
 20
59.8077130632
 10
181.849214948
 20
59.8236971892
 10
181.8488297829
 20
59.8398090616
 10
181.8486618341
 20
59.8560436599
 10
181.8487111722
 20
59.8723959634
 10
181.8489778676
 20
59.8888609516
 10
181.849461991
 20
59.9054336041
 10
181.8501636129
 20
59.9221089002
 10
181.8510828039
 20
59.9388818194
 10
181.8522196344
 20
59.9557473411
 10
181.8535741751
 20
59.9727004449
 10
181.8551464964
 20
59.9897361102
  0
LINE
  5
2E2
100
AcDbEntity
  8
0
100
AcDbLine
 62
7
  6
CONTINUOUS
 10
179.0033397935
 20
48.0908015108
 11
179.0033397935
 21
118.9224351101
  0
LINE
  5
2E3
100
AcDbEntity
  8
ASSI
100
AcDbLine
 62
7
  6
CONTINUOUS
 10
179.0033397935
 20
48.0908015108
 11
179.0033397935
 21
118.9224351101
  0
LINE
  5
2E4
100
AcDbEntity
  8
0
100
AcDbLine
 62
7
  6
CONTINUOUS
 10
180.4418002763
 20
47.7261836067
 11
180.4418002763
 21
119.2580584389
  0
LINE
  5
2E5
100
AcDbEntity
  8
ASSI
100
AcDbLine
 62
7
  6
CONTINUOUS
 10
180.4418002763
 20
47.7261836067
 11
180.4418002763
 21
119.2580584389
  0
LINE
  5
2E6
100
AcDbEntity
  8
CURVE
100
AcDbLine
 62
250
  6
CONTINUOUS
 10
181.5543486624
 20
54.9140828267
 11
181.5543486624
 21
54.4880543516
  0
LINE
  5
2E7
100
AcDbEntity
  8
CURVE
100
AcDbLine
 62
250
  6
CONTINUOUS
 10
181.5544576341
 20
52.6515047767
 11
181.5544576341
 21
53.1143029908
  0
LINE
  5
2E8
100
AcDbEntity
  8
CURVE
100
AcDbLine
 62
250
  6
CONTINUOUS
 10
181.5544576341
 20
53.9042755412
 11
181.5544576341
 21
54.3300125365
  0
LINE
  5
2E9
100
AcDbEntity
  8
CURVE
100
AcDbLine
 62
250
  6
CONTINUOUS
 10
181.5544576341
 20
55.32777269
 11
181.5544576341
 21
55.75344845
  0
LINE
  5
2EA
100
AcDbEntity
  8
CURVE
100
AcDbLine
 62
250
  6
CONTINUOUS
 10
181.5544576341
 20
56.6010058326
 11
181.5544576341
 21
57.0225192271
  0
LINE
  5
2EB
100
AcDbEntity
  8
CURVE
100
AcDbLine
 62
250
  6
CONTINUOUS
 10
181.5544576341
 20
57.920444661
 11
181.5544576341
 21
58.3325759956
  0
LINE
  5
2EC
100
AcDbEntity
  8
0
100
AcDbLine
 62
7
  6
CONTINUOUS
 10
179.734263007
 20
120.4835489363
 11
179.7339005768
 21
120.4589301974
  0
LINE
  5
2ED
100
AcDbEntity
  8
ASSI
100
AcDbLine
 62
7
  6
CONTINUOUS
 10
179.734263007
 20
120.4835489363
 11
179.7339005768
 21
120.4589301974
  0
LWPOLYLINE
  5
2EE
100
AcDbEntity
  8
0
100
AcDbPolyline
 62
7
  6
CONTINUOUS
 90
49
 70
0
 10
166.4909397548
 20
80.2593041272
 10
166.4635798813
 20
80.2438994255
 10
166.3511528576
 20
80.1883592381
 10
166.2336654214
 20
80.1423611926
 10
166.1114095598
 20
80.1060196843
 10
165.984689275
 20
80.0794251548
 10
165.8538195916
 20
80.06264378
 10
165.7191258018
 20
80.0557173392
 10
165.5809428185
 20
80.0586631201
 10
165.4396143509
 20
80.0714738357
 10
165.2954918002
 20
80.0941176522
 10
165.1489334578
 20
80.1265382951
 10
165.0003037893
 20
80.1686551527
 10
164.8499723495
 20
80.2203635077
 10
164.6983128778
 20
80.2815348102
 10
164.5457024572
 20
80.3520169681
 10
164.3925205192
 20
80.4316347446
 10
164.2391479123
 20
80.5201901911
 10
164.0859659731
 20
80.6174631288
 10
163.9333555496
 20
80.723211713
 10
163.781696074
 20
80.8371730223
 10
163.6313646315
 20
80.9590637016
 10
163.4827349609
 20
81.0885807164
 10
163.336176618
 20
81.2254020309
 10
163.1920540722
 20
81.369187377
 10
163.050725617
 20
81.5195792802
 10
162.912542651
 20
81.6762037869
 10
162.7778488806
 20
81.8386712803
 10
162.6469792204
 20
82.0065777212
 10
162.5202589606
 20
82.1795056933
 10
162.3980031173
 20
82.357025251
 10
162.2805156916
 20
82.5386949025
 10
162.168088674
 20
82.7240630707
 10
162.0610013405
 20
82.9126692586
 10
161.9595198827
 20
83.1040446556
 10
161.8638966621
 20
83.2977133711
 10
161.7743693782
 20
83.4931940015
 10
161.6911605084
 20
83.690000835
 10
161.6144770748
 20
83.8876442866
 10
161.5445100017
 20
84.0856321993
 10
161.4814331354
 20
84.2834724633
 10
161.4254032753
 20
84.4806730882
 10
161.3765599153
 20
84.6767426671
 10
161.335024262
 20
84.8711939154
 10
161.3008994102
 20
85.0635433309
 10
161.2742701711
 20
85.2533113098
 10
161.2552024001
 20
85.4400257572
 10
161.2437430308
 20
85.6232231974
 10
161.23992016
 20
85.8024484351
  0
LWPOLYLINE
  5
2EF
100
AcDbEntity
  8
ASSI
100
AcDbPolyline
 62
7
  6
CONTINUOUS
 90
49
 70
0
 10
166.4909397548
 20
80.2593041272
 10
166.4635798813
 20
80.2438994255
 10
166.3511528576
 20
80.1883592381
 10
166.2336654214
 20
80.1423611926
 10
166.1114095598
 20
80.1060196843
 10
165.984689275
 20
80.0794251548
 10
165.8538195916
 20
80.06264378
 10
165.7191258018
 20
80.0557173392
 10
165.5809428185
 20
80.0586631201
 10
165.4396143509
 20
80.0714738357
 10
165.2954918002
 20
80.0941176522
 10
165.1489334578
 20
80.1265382951
 10
165.0003037893
 20
80.1686551527
 10
164.8499723495
 20
80.2203635077
 10
164.6983128778
 20
80.2815348102
 10
164.5457024572
 20
80.3520169681
 10
164.3925205192
 20
80.4316347446
 10
164.2391479123
 20
80.5201901911
 10
164.0859659731
 20
80.6174631288
 10
163.9333555496
 20
80.723211713
 10
163.781696074
 20
80.8371730223
 10
163.6313646315
 20
80.9590637016
 10
163.4827349609
 20
81.0885807164
 10
163.336176618
 20
81.2254020309
 10
163.1920540722
 20
81.369187377
 10
163.050725617
 20
81.5195792802
 10
162.912542651
 20
81.6762037869
 10
162.7778488806
 20
81.8386712803
 10
162.6469792204
 20
82.0065777212
 10
162.5202589606
 20
82.1795056933
 10
162.3980031173
 20
82.357025251
 10
162.2805156916
 20
82.5386949025
 10
162.168088674
 20
82.7240630707
 10
162.0610013405
 20
82.9126692586
 10
161.9595198827
 20
83.1040446556
 10
161.8638966621
 20
83.2977133711
 10
161.7743693782
 20
83.4931940015
 10
161.6911605084
 20
83.690000835
 10
161.6144770748
 20
83.8876442866
 10
161.5445100017
 20
84.0856321993
 10
161.4814331354
 20
84.2834724633
 10
161.4254032753
 20
84.4806730882
 10
161.3765599153
 20
84.6767426671
 10
161.335024262
 20
84.8711939154
 10
161.3008994102
 20
85.0635433309
 10
161.2742701711
 20
85.2533113098
 10
161.2552024001
 20
85.4400257572
 10
161.2437430308
 20
85.6232231974
 10
161.23992016
 20
85.8024484351
  0
LINE
  5
2F0
100
AcDbEntity
  8
0
100
AcDbLine
 62
7
  6
CONTINUOUS
 10
180.4202989244
 20
119.2700533863
 11
180.4418002763
 21
119.2580584389
  0
LINE
  5
2F1
100
AcDbEntity
  8
ASSI
100
AcDbLine
 62
7
  6
CONTINUOUS
 10
180.4202989244
 20
119.2700533863
 11
180.4418002763
 21
119.2580584389
  0
LINE
  5
2F2
100
AcDbEntity
  8
0
100
AcDbLine
 62
7
  6
CONTINUOUS
 10
178.7243638594
 20
119.4056356016
 11
117.3803935224
 21
154.8248752537
  0
LINE
  5
2F3
100
AcDbEntity
  8
ASSI
100
AcDbLine
 62
7
  6
CONTINUOUS
 10
178.7243638594
 20
119.4056356016
 11
117.3803935224
 21
154.8248752537
  0
LINE
  5
2F4
100
AcDbEntity
  8
0
100
AcDbLine
 62
7
  6
CONTINUOUS
 10
179.734263007
 20
120.4835489363
 11
117.7838464364
 21
156.2529430431
  0
LINE
  5
2F5
100
AcDbEntity
  8
ASSI
100
AcDbLine
 62
7
  6
CONTINUOUS
 10
179.734263007
 20
120.4835489363
 11
117.7838464364
 21
156.2529430431
  0
LINE
  5
2F6
100
AcDbEntity
  8
CURVE
100
AcDbLine
 62
250
  6
CONTINUOUS
 10
182.367782419
 20
60.1754669941
 11
182.367782419
 21
59.9319960029
  0
LINE
  5
2F7
100
AcDbEntity
  8
CURVE
100
AcDbLine
 62
250
  6
CONTINUOUS
 10
182.6671959068
 20
60.1073334286
 11
182.6671959068
 21
60.3357596634
  0
LINE
  5
2F8
100
AcDbEntity
  8
CURVE
100
AcDbLine
 62
250
  6
CONTINUOUS
 10
182.7352632904
 20
58.5421516888
 11
182.7352632904
 21
58.9500439097
  0
LINE
  5
2F9
100
AcDbEntity
  8
CURVE
100
AcDbLine
 62
250
  6
CONTINUOUS
 10
183.017676985
 20
59.1872433243
 11
183.017676985
 21
58.607063628
  0
LINE
  5
2FA
100
AcDbEntity
  8
CURVE
100
AcDbLine
 62
250
  6
CONTINUOUS
 10
183.3826488108
 20
59.9431324919
 11
183.3826488108
 21
59.4941162961
  0
LINE
  5
2FB
100
AcDbEntity
  8
CURVE
100
AcDbLine
 62
250
  6
CONTINUOUS
 10
183.3826488108
 20
58.6860148396
 11
183.3826488108
 21
58.2646092192
  0
LINE
  5
2FC
100
AcDbEntity
  8
CURVE
100
AcDbLine
 62
250
  6
CONTINUOUS
 10
183.3826488108
 20
58.1977109106
 11
183.3826488108
 21
57.7809420249
  0
LINE
  5
2FD
100
AcDbEntity
  8
CURVE
100
AcDbLine
 62
250
  6
CONTINUOUS
 10
183.3826488108
 20
57.1868660044
 11
183.3826488108
 21
57.1271150766
  0
LINE
  5
2FE
100
AcDbEntity
  8
CURVE
100
AcDbLine
 62
250
  6
CONTINUOUS
 10
183.3826488108
 20
56.5353953894
 11
183.3826488108
 21
56.1278248578
  0
LINE
  5
2FF
100
AcDbEntity
  8
CURVE
100
AcDbLine
 62
250
  6
CONTINUOUS
 10
183.3826488108
 20
54.6583057289
 11
183.3826488108
 21
54.2828682016
  0
LINE
  5
300
100
AcDbEntity
  8
CURVE
100
AcDbLine
 62
250
  6
CONTINUOUS
 10
183.3826488108
 20
55.4724523313
 11
183.3826488108
 21
55.8984808065
  0
LINE
  5
301
100
AcDbEntity
  8
CURVE
100
AcDbLine
 62
250
  6
CONTINUOUS
 10
183.3826488229
 20
60.0682352267
 11
183.3826488229
 21
60.4925493932
  0
LINE
  5
302
100
AcDbEntity
  8
CURVE
100
AcDbLine
 62
250
  6
CONTINUOUS
 10
183.3826488229
 20
61.1449530857
 11
183.3826488229
 21
61.5547428638
  0
LINE
  5
303
100
AcDbEntity
  8
0
100
AcDbLine
 62
7
  6
CONTINUOUS
 10
184.5037332611
 20
49.754962121
 11
184.5037332611
 21
121.6033523411
  0
LINE
  5
304
100
AcDbEntity
  8
ASSI
100
AcDbLine
 62
7
  6
CONTINUOUS
 10
184.5037332611
 20
49.754962121
 11
184.5037332611
 21
121.6033523411
  0
LWPOLYLINE
  5
305
100
AcDbEntity
  8
CURVE
100
AcDbPolyline
 62
250
  6
CONTINUOUS
 90
48
 70
0
 10
182.6671959068
 20
60.3357596634
 10
182.6672705084
 20
60.3423594277
 10
182.6674951272
 20
60.3490516113
 10
182.6678709836
 20
60.3558301202
 10
182.6683992984
 20
60.3626888604
 10
182.669081292
 20
60.3696217379
 10
182.6699181852
 20
60.3766226587
 10
182.6709111985
 20
60.3836855288
 10
182.6720615526
 20
60.3908042542
 10
182.673370468
 20
60.397972741
 10
182.6748391655
 20
60.4051848951
 10
182.6764688654
 20
60.4124346225
 10
182.6782607886
 20
60.4197158293
 10
182.6802161556
 20
60.4270224214
 10
182.682336187
 20
60.4343483048
 10
182.6846221035
 20
60.4416873856
 10
182.6870751256
 20
60.4490335698
 10
182.6896964739
 20
60.4563807633
 10
182.6925595585
 20
60.4639101734
 10
182.6955954072
 20
60.4714298406
 10
182.698798488
 20
60.478935369
 10
182.7021632691
 20
60.4864223625
 10
182.7056842182
 20
60.4938864254
 10
182.7093558035
 20
60.5013231617
 10
182.713172493
 20
60.5087281755
 10
182.7171287545
 20
60.5160970709
 10
182.7212190561
 20
60.523425452
 10
182.7254378658
 20
60.5307089227
 10
182.7297796516
 20
60.5379430874
 10
182.7342388814
 20
60.5451235499
 10
182.7388100233
 20
60.5522459145
 10
182.7434875453
 20
60.5593057851
 10
182.7482659152
 20
60.5662987659
 10
182.7531396012
 20
60.573220461
 10
182.7581030712
 20
60.5800664744
 10
182.7631507931
 20
60.5868324103
 10
182.7682772351
 20
60.5935138726
 10
182.773476865
 20
60.6001064656
 10
182.7787441509
 20
60.6066057933
 10
182.7840735607
 20
60.6130074597
 10
182.7894595625
 20
60.619307069
 10
182.7948966241
 20
60.6255002252
 10
182.8003792137
 20
60.6315825325
 10
182.8059017992
 20
60.6375495949
 10
182.8114588486
 20
60.6433970164
 10
182.8170448299
 20
60.6491204013
 10
182.822654211
 20
60.6547153535
 10
182.82828146
 20
60.6601774772
  0
LINE
  5
306
100
AcDbEntity
  8
0
100
AcDbLine
 62
7
  6
CONTINUOUS
 10
183.7961959918
 20
122.8288428385
 11
121.5716602236
 21
158.7565099344
  0
LINE
  5
307
100
AcDbEntity
  8
ASSI
100
AcDbLine
 62
7
  6
CONTINUOUS
 10
183.7961959918
 20
122.8288428385
 11
121.5716602236
 21
158.7565099344
  0
LINE
  5
308
100
AcDbEntity
  8
0
100
AcDbLine
 62
7
  6
CONTINUOUS
 10
179.0033397935
 20
118.9224351101
 11
178.7243638594
 21
119.4056356016
  0
LINE
  5
309
100
AcDbEntity
  8
ASSI
100
AcDbLine
 62
7
  6
CONTINUOUS
 10
179.0033397935
 20
118.9224351101
 11
178.7243638594
 21
119.4056356016
  0
LINE
  5
30A
100
AcDbEntity
  8
0
100
AcDbLine
 62
7
  6
CONTINUOUS
 10
180.4202989244
 20
119.2700533863
 11
179.7339005768
 21
120.4589301974
  0
LINE
  5
30B
100
AcDbEntity
  8
ASSI
100
AcDbLine
 62
7
  6
CONTINUOUS
 10
180.4202989244
 20
119.2700533863
 11
179.7339005768
 21
120.4589301974
  0
LWPOLYLINE
  5
30C
100
AcDbEntity
  8
CURVE
100
AcDbPolyline
 62
250
  6
CONTINUOUS
 90
49
 70
0
 10
181.8551464964
 20
59.9897361102
 10
181.856052885
 20
59.9980321807
 10
181.857148329
 20
60.0064305752
 10
181.8584322972
 20
60.0149224076
 10
181.8599042579
 20
60.0234987916
 10
181.8615636798
 20
60.032150841
 10
181.8634100312
 20
60.0408696694
 10
181.8654427808
 20
60.0496463906
 10
181.8676613971
 20
60.0584721184
 10
181.8700653486
 20
60.0673379665
 10
181.8726541037
 20
60.0762350486
 10
181.8754271311
 20
60.0851544786
 10
181.8783838992
 20
60.09408737
 10
181.8815238766
 20
60.1030248368
 10
181.8848465317
 20
60.1119579926
 10
181.8883513332
 20
60.1208779511
 10
181.8920377495
 20
60.1297758262
 10
181.8959052491
 20
60.1386427315
 10
181.8999533006
 20
60.1474697809
 10
181.9041813725
 20
60.1562480879
 10
181.9085889332
 20
60.1649687665
 10
181.9131754514
 20
60.1736229303
 10
181.9179403955
 20
60.1822016931
 10
181.9228832341
 20
60.1906961686
 10
181.9280034357
 20
60.1990974705
 10
181.933270157
 20
60.2073525766
 10
181.9387035466
 20
60.2154998006
 10
181.9442953422
 20
60.2235322234
 10
181.9500372815
 20
60.2314429254
 10
181.9559211022
 20
60.2392249875
 10
181.961938542
 20
60.2468714902
 10
181.9680813388
 20
60.2543755143
 10
181.9743412301
 20
60.2617301402
 10
181.9807099538
 20
60.2689284488
 10
181.9871792476
 20
60.2759635207
 10
181.9937408491
 20
60.2828284365
 10
182.0003864961
 20
60.2895162769
 10
182.0071079263
 20
60.2960201226
 10
182.0138968775
 20
60.3023330541
 10
182.0207450874
 20
60.3084481522
 10
182.0276442936
 20
60.3143584975
 10
182.034586234
 20
60.3200571707
 10
182.0415626462
 20
60.3255372524
 10
182.048565268
 20
60.3307918233
 10
182.0555858371
 20
60.335813964
 10
182.0626160912
 20
60.3405967552
 10
182.069647768
 20
60.3451332776
 10
182.0766726053
 20
60.3494166118
 10
182.0836823408
 20
60.3534398384
  0
LINE
  5
30D
100
AcDbEntity
  8
0
100
AcDbLine
 62
7
  6
CONTINUOUS
 10
183.7961959918
 20
122.8288428385
 11
184.5037332611
 21
121.6033523411
  0
LINE
  5
30E
100
AcDbEntity
  8
ASSI
100
AcDbLine
 62
7
  6
CONTINUOUS
 10
183.7961959918
 20
122.8288428385
 11
184.5037332611
 21
121.6033523411
  0
LWPOLYLINE
  5
30F
100
AcDbEntity
  8
CURVE
100
AcDbPolyline
 62
250
  6
CONTINUOUS
 90
32
 70
0
 10
181.5950653024
 20
60.1571328743
 10
181.5874625892
 20
60.1283782699
 10
181.5805135618
 20
60.0997388583
 10
181.5741865098
 20
60.0712184772
 10
181.5684497231
 20
60.0428209641
 10
181.5632714914
 20
60.0145501568
 10
181.5586201045
 20
59.9864098929
 10
181.5544638521
 20
59.9584040101
 10
181.5507710239
 20
59.9305363459
 10
181.5475099096
 20
59.9028107382
 10
181.5446487991
 20
59.8752310244
 10
181.5421559821
 20
59.8478010424
 10
181.5399997484
 20
59.8205246297
 10
181.537334205
 20
59.7797946555
 10
181.535330687
 20
59.739410084
 10
181.5339615955
 20
59.6993602626
 10
181.5331993313
 20
59.6596345383
 10
181.5330162954
 20
59.6202222585
 10
181.5333848887
 20
59.5811127702
 10
181.5342775122
 20
59.5422954207
 10
181.5356665668
 20
59.5037595572
 10
181.5375244535
 20
59.465494527
 10
181.5398235733
 20
59.4274896771
 10
181.5425363269
 20
59.3897343548
 10
181.5456351155
 20
59.3522179073
 10
181.54909234
 20
59.3149296818
 10
181.5528804012
 20
59.2778590256
 10
181.5569717002
 20
59.2409952857
 10
181.5613386379
 20
59.2043278095
 10
181.5659536152
 20
59.1678459441
 10
181.5707890331
 20
59.1315390367
 10
181.5758172925
 20
59.0953964345
  0
LINE
  5
310
100
AcDbEntity
  8
CURVE
100
AcDbLine
 62
7
  6
CONTINUOUS
 10
181.7710123395
 20
60.4894272158
 11
181.9472426993
 21
60.6656575756
  0
LINE
  5
311
100
AcDbEntity
  8
CURVE
100
AcDbLine
 62
7
  6
CONTINUOUS
 10
181.5778373976
 20
60.0862415599
 11
182.3050772209
 21
60.8134813831
  0
LINE
  5
312
100
AcDbEntity
  8
CURVE
100
AcDbLine
 62
7
  6
CONTINUOUS
 10
181.5417943872
 20
59.8401878354
 11
182.4639274017
 21
60.7623208499
  0
LINE
  5
313
100
AcDbEntity
  8
CURVE
100
AcDbLine
 62
7
  6
CONTINUOUS
 10
181.5336981305
 20
59.6220808647
 11
181.851133499
 21
59.9395162331
  0
LINE
  5
314
100
AcDbEntity
  8
CURVE
100
AcDbLine
 62
7
  6
CONTINUOUS
 10
182.2927687748
 20
60.381151509
 11
183.3826488229
 21
61.471031557
  0
LINE
  5
315
100
AcDbEntity
  8
CURVE
100
AcDbLine
 62
7
  6
CONTINUOUS
 10
181.5407504964
 20
59.4191225166
 11
181.8557455998
 21
59.73411762
  0
LINE
  5
316
100
AcDbEntity
  8
CURVE
100
AcDbLine
 62
7
  6
CONTINUOUS
 10
182.3628709883
 20
60.2412430085
 11
183.3826488229
 21
61.261020843
  0
LWPOLYLINE
  5
317
100
AcDbEntity
  8
CURVE
100
AcDbPolyline
 62
250
  6
CONTINUOUS
 90
59
 70
0
 10
182.0836823408
 20
60.3534398384
 10
182.0916200574
 20
60.3577371032
 10
182.099619156
 20
60.3618419007
 10
182.1076686811
 20
60.3657482324
 10
182.1157576769
 20
60.3694500997
 10
182.1238751881
 20
60.3729415042
 10
182.132010259
 20
60.3762164473
 10
182.1401519339
 20
60.3792689304
 10
182.1482892575
 20
60.3820929551
 10
182.156411274
 20
60.3846825228
 10
182.164507028
 20
60.387031635
 10
182.1725655637
 20
60.3891342932
 10
182.1805759258
 20
60.3909844987
 10
182.1885271585
 20
60.3925762532
 10
182.1964083064
 20
60.393903558
 10
182.2042084138
 20
60.3949604147
 10
182.2119165252
 20
60.3957408246
 10
182.219521685
 20
60.3962387893
 10
182.2270129376
 20
60.3964483103
 10
182.2343793275
 20
60.396363389
 10
182.2416098991
 20
60.3959780268
 10
182.2486936968
 20
60.3952862253
 10
182.255619765
 20
60.3942819859
 10
182.2623771482
 20
60.3929593102
 10
182.2689548909
 20
60.3913121994
 10
182.2753420373
 20
60.3893346553
 10
182.281527632
 20
60.3870206791
 10
182.2875007193
 20
60.3843642723
 10
182.2932503438
 20
60.3813594366
 10
182.2987655498
 20
60.3780001732
 10
182.3040353818
 20
60.3742804837
 10
182.3089858597
 20
60.3702549508
 10
182.3136921747
 20
60.3658861117
 10
182.3181596463
 20
60.361187297
 10
182.3223935944
 20
60.3561718374
 10
182.3263993385
 20
60.3508530635
 10
182.3301821984
 20
60.3452443059
 10
182.3337474937
 20
60.3393588954
 10
182.3371005441
 20
60.3332101624
 10
182.3402466692
 20
60.3268114378
 10
182.3431911888
 20
60.320176052
 10
182.3459394225
 20
60.3133173359
 10
182.34849669
 20
60.3062486199
 10
182.350868311
 20
60.2989832347
 10
182.353059605
 20
60.2915345111
 10
182.3550758919
 20
60.2839157795
 10
182.3569224913
 20
60.2761403708
 10
182.3586047228
 20
60.2682216154
 10
182.3601279062
 20
60.260172844
 10
182.3614973611
 20
60.2520073874
 10
182.3627184071
 20
60.2437385761
 10
182.363796364
 20
60.2353797407
 10
182.3647365515
 20
60.226944212
 10
182.3655442891
 20
60.2184453205
 10
182.3662248966
 20
60.2098963969
 10
182.3667836937
 20
60.2013107718
 10
182.367226
 20
60.1927017759
 10
182.3675571352
 20
60.1840827398
 10
182.367782419
 20
60.1754669941
  0
LINE
  5
318
100
AcDbEntity
  8
CURVE
100
AcDbLine
 62
250
  6
CONTINUOUS
 10
182.529265545
 20
60.7040525053
 11
182.5184625309
 21
60.6982359192
  0
LINE
  5
319
100
AcDbEntity
  8
CURVE
100
AcDbLine
 62
7
  6
CONTINUOUS
 10
181.5587784636
 20
59.2271397697
 11
182.1421480942
 21
59.8105094004
  0
LINE
  5
31A
100
AcDbEntity
  8
CURVE
100
AcDbLine
 62
7
  6
CONTINUOUS
 10
182.367782419
 20
60.0361437251
 11
182.6671959068
 21
60.3355572129
  0
LINE
  5
31B
100
AcDbEntity
  8
CURVE
100
AcDbLine
 62
7
  6
CONTINUOUS
 10
181.7084679372
 20
59.1668185293
 11
182.6671959068
 21
60.1255464989
  0
LINE
  5
31C
100
AcDbEntity
  8
CURVE
100
AcDbLine
 62
7
  6
CONTINUOUS
 10
182.16345269
 20
59.4117925681
 11
183.0827223427
 21
60.3310622208
  0
LINE
  5
31D
100
AcDbEntity
  8
CURVE
100
AcDbLine
 62
7
  6
CONTINUOUS
 10
182.6184374428
 20
59.6567666069
 11
183.3826488229
 21
60.420977987
  0
LINE
  5
31E
100
AcDbEntity
  8
CURVE
100
AcDbLine
 62
7
  6
CONTINUOUS
 10
183.0734221956
 20
59.9017406457
 11
183.3826488229
 21
60.210967273
  0
LINE
  5
31F
100
AcDbEntity
  8
CURVE
100
AcDbLine
 62
7
  6
CONTINUOUS
 10
181.5544576341
 20
58.1727653702
 11
182.8969108437
 21
59.5152185798
  0
LINE
  5
320
100
AcDbEntity
  8
CURVE
100
AcDbLine
 62
7
  6
CONTINUOUS
 10
181.5544576341
 20
57.9627546562
 11
183.3826488108
 21
59.7909458329
  0
LINE
  5
321
100
AcDbEntity
  8
CURVE
100
AcDbLine
 62
7
  6
CONTINUOUS
 10
181.7610502725
 20
57.9593365805
 11
182.2297338575
 21
58.4280201655
  0
LINE
  5
322
100
AcDbEntity
  8
CURVE
100
AcDbLine
 62
7
  6
CONTINUOUS
 10
182.7352632904
 20
58.9335495984
 11
183.3826488108
 21
59.5809351189
  0
LINE
  5
323
100
AcDbEntity
  8
CURVE
100
AcDbLine
 62
7
  6
CONTINUOUS
 10
182.0197651294
 20
58.0080407235
 11
182.5009836382
 21
58.4892592323
  0
LINE
  5
324
100
AcDbEntity
  8
CURVE
100
AcDbLine
 62
7
  6
CONTINUOUS
 10
182.7352632904
 20
58.7235388844
 11
183.017676985
 21
59.005952579
  0
LINE
  5
325
100
AcDbEntity
  8
CURVE
100
AcDbLine
 62
7
  6
CONTINUOUS
 10
182.2784799864
 20
58.0567448665
 11
183.017676985
 21
58.795941865
  0
LINE
  5
326
100
AcDbEntity
  8
CURVE
100
AcDbLine
 62
7
  6
CONTINUOUS
 10
182.5371948434
 20
58.1054490094
 11
183.0446427291
 21
58.6128968952
  0
LINE
  5
327
100
AcDbEntity
  8
CURVE
100
AcDbLine
 62
7
  6
CONTINUOUS
 10
181.5544576341
 20
56.9127010862
 11
181.8619135485
 21
57.2201570005
  0
LINE
  5
328
100
AcDbEntity
  8
CURVE
100
AcDbLine
 62
7
  6
CONTINUOUS
 10
182.7959097004
 20
58.1541531524
 11
183.3126233918
 21
58.6708668439
  0
LINE
  5
329
100
AcDbEntity
  8
CURVE
100
AcDbLine
 62
7
  6
CONTINUOUS
 10
181.5544576341
 20
56.7026903721
 11
182.4498768446
 21
57.5981095827
  0
LINE
  5
32A
100
AcDbEntity
  8
CURVE
100
AcDbLine
 62
7
  6
CONTINUOUS
 10
183.0546245574
 20
58.2028572954
 11
183.3826488108
 21
58.5308815488
  0
LINE
  5
32B
100
AcDbEntity
  8
CURVE
100
AcDbLine
 62
7
  6
CONTINUOUS
 10
181.6773735855
 20
56.6155956095
 11
183.0378401408
 21
57.9760621648
  0
LINE
  5
32C
100
AcDbEntity
  8
CURVE
100
AcDbLine
 62
7
  6
CONTINUOUS
 10
183.3133394144
 20
58.2515614384
 11
183.3826488108
 21
58.3208708348
  0
LINE
  5
32D
100
AcDbEntity
  8
CURVE
100
AcDbLine
 62
7
  6
CONTINUOUS
 10
181.9156693331
 20
56.6438806431
 11
182.3417371897
 21
57.0699484997
  0
LINE
  5
32E
100
AcDbEntity
  8
CURVE
100
AcDbLine
 62
7
  6
CONTINUOUS
 10
182.5322335763
 20
57.2604448863
 11
183.3826488108
 21
58.1108601208
  0
LINE
  5
32F
100
AcDbEntity
  8
CURVE
100
AcDbLine
 62
7
  6
CONTINUOUS
 10
182.1539650806
 20
56.6721656766
 11
182.5783215888
 21
57.0965221848
  0
LINE
  5
330
100
AcDbEntity
  8
CURVE
100
AcDbLine
 62
7
  6
CONTINUOUS
 10
183.0735688738
 20
57.5917694698
 11
183.3826488108
 21
57.9008494068
  0
LINE
  5
331
100
AcDbEntity
  8
CURVE
100
AcDbLine
 62
7
  6
CONTINUOUS
 10
182.3922608282
 20
56.7004507102
 11
182.8149059879
 21
57.1230958698
  0
LINE
  5
332
100
AcDbEntity
  8
CURVE
100
AcDbLine
 62
7
  6
CONTINUOUS
 10
181.5544576341
 20
55.6526368021
 11
183.0514903869
 21
57.1496695549
  0
LINE
  5
333
100
AcDbEntity
  8
CURVE
100
AcDbLine
 62
7
  6
CONTINUOUS
 10
181.5544576341
 20
55.4426260881
 11
183.288074786
 21
57.1762432399
  0
LINE
  5
334
100
AcDbEntity
  8
CURVE
100
AcDbLine
 62
7
  6
CONTINUOUS
 10
181.7236621521
 20
55.401819892
 11
182.4071201634
 21
56.0852779033
  0
LINE
  5
335
100
AcDbEntity
  8
CURVE
100
AcDbLine
 62
7
  6
CONTINUOUS
 10
182.0970938875
 20
55.5652409135
 11
182.7970461544
 21
56.2651931803
  0
LINE
  5
336
100
AcDbEntity
  8
CURVE
100
AcDbLine
 62
7
  6
CONTINUOUS
 10
181.5543486624
 20
54.8124849743
 11
181.7744587362
 21
55.0325950481
  0
LINE
  5
337
100
AcDbEntity
  8
CURVE
100
AcDbLine
 62
7
  6
CONTINUOUS
 10
182.470525623
 20
55.7286619349
 11
183.1869721455
 21
56.4451084574
  0
LINE
  5
338
100
AcDbEntity
  8
CURVE
100
AcDbLine
 62
7
  6
CONTINUOUS
 10
181.5543486624
 20
54.6024742603
 11
182.229443489
 21
55.2775690869
  0
LINE
  5
339
100
AcDbEntity
  8
CURVE
100
AcDbLine
 62
7
  6
CONTINUOUS
 10
182.8439573584
 20
55.8920829563
 11
183.3826488108
 21
56.4307744087
  0
LINE
  5
33A
100
AcDbEntity
  8
CURVE
100
AcDbLine
 62
7
  6
CONTINUOUS
 10
181.7614445676
 20
54.5995594515
 11
182.6844282418
 21
55.5225431257
  0
LINE
  5
33B
100
AcDbEntity
  8
CURVE
100
AcDbLine
 62
7
  6
CONTINUOUS
 10
183.2173890939
 20
56.0555039778
 11
183.3826488108
 21
56.2207636947
  0
LINE
  5
33C
100
AcDbEntity
  8
CURVE
100
AcDbLine
 62
7
  6
CONTINUOUS
 10
181.5544576341
 20
54.182561804
 11
181.7341819427
 21
54.3622861125
  0
LINE
  5
33D
100
AcDbEntity
  8
CURVE
100
AcDbLine
 62
7
  6
CONTINUOUS
 10
182.2164293204
 20
54.8445334903
 11
183.1394129946
 21
55.7675171645
  0
LINE
  5
33E
100
AcDbEntity
  8
CURVE
100
AcDbLine
 62
7
  6
CONTINUOUS
 10
181.5544576341
 20
53.97255109
 11
181.9901591747
 21
54.4082526306
  0
LINE
  5
33F
100
AcDbEntity
  8
CURVE
100
AcDbLine
 62
7
  6
CONTINUOUS
 10
182.6714140732
 20
55.089507529
 11
183.3826488108
 21
55.8007422667
  0
LINE
  5
340
100
AcDbEntity
  8
CURVE
100
AcDbLine
 62
7
  6
CONTINUOUS
 10
181.73612767
 20
53.9442104119
 11
182.2461364068
 21
54.4542191486
  0
LINE
  5
341
100
AcDbEntity
  8
CURVE
100
AcDbLine
 62
7
  6
CONTINUOUS
 10
183.126398826
 20
55.3344815678
 11
183.3826488108
 21
55.5907315526
  0
LINE
  5
342
100
AcDbEntity
  8
CURVE
100
AcDbLine
 62
7
  6
CONTINUOUS
 10
182.0053103664
 20
54.0033823942
 11
182.5021136389
 21
54.5001856667
  0
LINE
  5
343
100
AcDbEntity
  8
CURVE
100
AcDbLine
 62
7
  6
CONTINUOUS
 10
182.2744930627
 20
54.0625543765
 11
182.7580908709
 21
54.5461521847
  0
LINE
  5
344
100
AcDbEntity
  8
CURVE
100
AcDbLine
 62
250
  6
CONTINUOUS
 10
183.3826488108
 20
57.1271150766
 11
182.1888747907
 21
55.9845775715
  0
LINE
  5
345
100
AcDbEntity
  8
CURVE
100
AcDbLine
 62
250
  6
CONTINUOUS
 10
181.5544576341
 20
55.75344845
 11
182.5694749138
 21
56.7214855226
  0
LWPOLYLINE
  5
346
100
AcDbEntity
  8
CURVE
100
AcDbPolyline
 62
250
  6
CONTINUOUS
 90
7
 70
0
 10
182.82828146
 20
60.6601774772
 10
182.8535811258
 20
60.6841546202
 10
182.8790110811
 20
60.707779816
 10
182.9045569264
 20
60.731091207
 10
182.9302042623
 20
60.7541269358
 10
182.9559386893
 20
60.7769251448
 10
182.9817458078
 20
60.7995239767
  0
LINE
  5
347
100
AcDbEntity
  8
CURVE
100
AcDbLine
 62
250
  6
CONTINUOUS
 10
181.5544576341
 20
58.3325759956
 11
183.3826488108
 21
59.9431324919
  0
LINE
  5
348
100
AcDbEntity
  8
CURVE
100
AcDbLine
 62
250
  6
CONTINUOUS
 10
182.9817458078
 20
60.7995239767
 11
183.0335205216
 21
60.844276079
  0
LINE
  5
349
100
AcDbEntity
  8
CURVE
100
AcDbLine
 62
250
  6
CONTINUOUS
 10
183.1373086707
 20
60.9330660284
 11
183.3826488229
 21
61.1449530857
  0
LWPOLYLINE
  5
34A
100
AcDbEntity
  8
CURVE
100
AcDbPolyline
 62
250
  6
CONTINUOUS
 90
44
 70
0
 10
182.8312241219
 20
61.0949517328
 10
182.8170549578
 20
61.0827776171
 10
182.8028203823
 20
61.0703528989
 10
182.788490972
 20
61.0576005762
 10
182.780616102
 20
61.0504721102
 10
182.7727121084
 20
61.0432253601
 10
182.7647869351
 20
61.0358627401
 10
182.7568485261
 20
61.0283866643
 10
182.7489048252
 20
61.020799547
 10
182.7409637763
 20
61.0131038023
 10
182.7330333234
 20
61.0053018444
 10
182.7251214103
 20
60.9973960875
 10
182.717235981
 20
60.9893889458
 10
182.7093849793
 20
60.9812828335
 10
182.7015763492
 20
60.9730801648
 10
182.6938180345
 20
60.9647833538
 10
182.6861179792
 20
60.9563948148
 10
182.6784841272
 20
60.9479169619
 10
182.6709244223
 20
60.9393522094
 10
182.6634468085
 20
60.9307029713
 10
182.6560592296
 20
60.921971662
 10
182.6487696297
 20
60.9131606956
 10
182.6415859525
 20
60.9042724862
 10
182.634516142
 20
60.8953094482
 10
182.627568142
 20
60.8862739956
 10
182.6207498966
 20
60.8771685426
 10
182.6140693496
 20
60.8679955035
 10
182.6075344448
 20
60.8587572924
 10
182.6011531262
 20
60.8494563235
 10
182.5949333378
 20
60.8400950111
 10
182.5888830233
 20
60.8306757692
 10
182.5830101267
 20
60.8212010121
 10
182.577322592
 20
60.811673154
 10
182.5718283629
 20
60.8020946091
 10
182.5665353835
 20
60.7924677915
 10
182.5614515975
 20
60.7827951155
 10
182.556584949
 20
60.7730789951
 10
182.5519433818
 20
60.7633218448
 10
182.5475348399
 20
60.7535260785
 10
182.543367267
 20
60.7436941105
 10
182.5394486072
 20
60.733828355
 10
182.5357868044
 20
60.7239312262
 10
182.5323898023
 20
60.7140051382
 10
182.529265545
 20
60.7040525053
  0
LINE
  5
34B
100
AcDbEntity
  8
CURVE
100
AcDbLine
 62
250
  6
CONTINUOUS
 10
183.0335205216
 20
60.844276079
 11
183.1373086707
 21
60.9330660284
  0
LINE
  5
34C
100
AcDbEntity
  8
CURVE
100
AcDbLine
 62
250
  6
CONTINUOUS
 10
182.8594839093
 20
61.1188561656
 11
182.8312241219
 21
61.0949517328
  0
LINE
  5
34D
100
AcDbEntity
  8
CURVE
100
AcDbLine
 62
250
  6
CONTINUOUS
 10
183.3826488108
 20
59.4941162961
 11
183.017676985
 21
59.1872433243
  0
LINE
  5
34E
100
AcDbEntity
  8
CURVE
100
AcDbLine
 62
250
  6
CONTINUOUS
 10
183.0199763216
 20
61.2533323374
 11
182.8594839093
 21
61.1188561656
  0
LINE
  5
34F
100
AcDbEntity
  8
CURVE
100
AcDbLine
 62
250
  6
CONTINUOUS
 10
183.3826488229
 20
61.5547428638
 11
183.3173790942
 21
61.5001628909
  0
LINE
  5
350
100
AcDbEntity
  8
CURVE
100
AcDbLine
 62
250
  6
CONTINUOUS
 10
183.3173790942
 20
61.5001628909
 11
183.0199763216
 21
61.2533323374
  0
LINE
  5
351
100
AcDbEntity
  8
CURVE
100
AcDbLine
 62
250
  6
CONTINUOUS
 10
182.7352632904
 20
58.9500439097
 11
182.056798163
 21
58.388977109
  0
LINE
  5
352
100
AcDbEntity
  8
CURVE
100
AcDbLine
 62
250
  6
CONTINUOUS
 10
181.5544576341
 20
57.0225192271
 11
183.3826488108
 21
58.1977109106
  0
LINE
  5
353
100
AcDbEntity
  8
CURVE
100
AcDbLine
 62
250
  6
CONTINUOUS
 10
183.3826488108
 20
57.7809420249
 11
182.1938509213
 21
57.0533375856
  0
LINE
  5
354
100
AcDbEntity
  8
CURVE
100
AcDbLine
 62
250
  6
CONTINUOUS
 10
183.3826488229
 20
60.4925493932
 11
182.6671959068
 21
60.1073334286
  0
LINE
  5
355
100
AcDbEntity
  8
CURVE
100
AcDbLine
 62
250
  6
CONTINUOUS
 10
182.367782419
 20
59.9319960029
 11
181.8659083823
 21
59.6617757176
  0
LINE
  5
356
100
AcDbEntity
  8
CURVE
100
AcDbLine
 62
250
  6
CONTINUOUS
 10
181.5758172925
 20
59.0953964345
 11
183.3826488229
 21
60.0682352267
  0
LINE
  5
357
100
AcDbEntity
  8
CURVE
100
AcDbLine
 62
250
  6
CONTINUOUS
 10
183.3826488108
 20
55.8984808065
 11
181.5543486624
 21
54.9140828267
  0
LINE
  5
358
100
AcDbEntity
  8
CURVE
100
AcDbLine
 62
250
  6
CONTINUOUS
 10
182.1888747907
 20
55.9845775715
 11
183.3826488108
 21
56.5353953894
  0
LINE
  5
359
100
AcDbEntity
  8
CURVE
100
AcDbLine
 62
250
  6
CONTINUOUS
 10
183.3826488108
 20
56.1278248578
 11
181.5544576341
 21
55.32777269
  0
LINE
  5
35A
100
AcDbEntity
  8
CURVE
100
AcDbLine
 62
7
  6
CONTINUOUS
 10
182.5436757591
 20
54.1217263589
 11
183.014068103
 21
54.5921187028
  0
LINE
  5
35B
100
AcDbEntity
  8
CURVE
100
AcDbLine
 62
7
  6
CONTINUOUS
 10
181.5544576341
 20
52.9224975199
 11
183.270045335
 21
54.6380852208
  0
LINE
  5
35C
100
AcDbEntity
  8
CURVE
100
AcDbLine
 62
7
  6
CONTINUOUS
 10
181.5544576341
 20
52.7124868059
 11
183.3826488108
 21
54.5406779826
  0
LINE
  5
35D
100
AcDbEntity
  8
CURVE
100
AcDbLine
 62
7
  6
CONTINUOUS
 10
182.9386777156
 20
53.8866961734
 11
183.3826488108
 21
54.3306672686
  0
LINE
  5
35E
100
AcDbEntity
  8
CURVE
100
AcDbLine
 62
250
  6
CONTINUOUS
 10
183.3826488108
 20
54.2828682016
 11
181.5544576341
 21
52.6515047767
  0
LINE
  5
35F
100
AcDbEntity
  8
CURVE
100
AcDbLine
 62
250
  6
CONTINUOUS
 10
181.5544576341
 20
53.1143029908
 11
182.8128584554
 21
54.1808983412
  0
LINE
  5
360
100
AcDbEntity
  8
0
100
AcDbLine
 62
7
  6
CONTINUOUS
 10
178.7243638594
 20
47.9297554352
 11
179.0033397935
 21
48.0908015108
  0
LINE
  5
361
100
AcDbEntity
  8
ASSI
100
AcDbLine
 62
7
  6
CONTINUOUS
 10
178.7243638594
 20
47.9297554352
 11
179.0033397935
 21
48.0908015108
  0
LINE
  5
362
100
AcDbEntity
  8
0
100
AcDbLine
 62
7
  6
CONTINUOUS
 10
179.7339005768
 20
47.3183808505
 11
180.4202989244
 21
47.714622055
  0
LINE
  5
363
100
AcDbEntity
  8
ASSI
100
AcDbLine
 62
7
  6
CONTINUOUS
 10
179.7339005768
 20
47.3183808505
 11
180.4202989244
 21
47.714622055
  0
LINE
  5
364
100
AcDbEntity
  8
0
100
AcDbLine
 62
7
  6
CONTINUOUS
 10
184.5037332611
 20
49.754962121
 11
183.7961959918
 21
49.3465179271
  0
LINE
  5
365
100
AcDbEntity
  8
ASSI
100
AcDbLine
 62
7
  6
CONTINUOUS
 10
184.5037332611
 20
49.754962121
 11
183.7961959918
 21
49.3465179271
  0
LINE
  5
366
100
AcDbEntity
  8
CURVE
100
AcDbLine
 62
250
  6
CONTINUOUS
 10
181.5543486624
 20
54.4880543516
 11
183.3826488108
 21
55.4724523313
  0
LINE
  5
367
100
AcDbEntity
  8
0
100
AcDbLine
 62
7
  6
CONTINUOUS
 10
180.4418002763
 20
47.7261836067
 11
180.4202989244
 21
47.714622055
  0
LINE
  5
368
100
AcDbEntity
  8
ASSI
100
AcDbLine
 62
7
  6
CONTINUOUS
 10
180.4418002763
 20
47.7261836067
 11
180.4202989244
 21
47.714622055
  0
LINE
  5
369
100
AcDbEntity
  8
0
100
AcDbLine
 62
7
  6
CONTINUOUS
 10
180.4418002763
 20
47.7261836067
 11
184.5037332611
 21
49.754962121
  0
LINE
  5
36A
100
AcDbEntity
  8
ASSI
100
AcDbLine
 62
7
  6
CONTINUOUS
 10
180.4418002763
 20
47.7261836067
 11
184.5037332611
 21
49.754962121
  0
LINE
  5
36B
100
AcDbEntity
  8
0
100
AcDbLine
 62
7
  6
CONTINUOUS
 10
179.734263007
 20
47.3177394128
 11
183.7961959918
 21
49.3465179271
  0
LINE
  5
36C
100
AcDbEntity
  8
ASSI
100
AcDbLine
 62
7
  6
CONTINUOUS
 10
179.734263007
 20
47.3177394128
 11
183.7961959918
 21
49.3465179271
  0
ENDSEC
  0
SECTION
  2
OBJECTS
  0
DICTIONARY
  5
C
100
AcDbDictionary
280
0
281
1
  3
ACAD_GROUP
350
D
  3
ACAD_MLINESTYLE
350
17
  3
ACAD_LAYOUT
350
1A
  3
ACAD_PLOTSETTINGS
350
19
  3
ACAD_PLOTSTYLENAME
350
E
  0
DICTIONARY
  5
D
102
{ACAD_REACTORS
330
C
102
}
100
AcDbDictionary
280
0
281
1
  0
ACDBDICTIONARYWDFLT
  5
E
102
{ACAD_REACTORS
330
C
102
}
100
AcDbDictionary
281
1
  3
Normal
350
F
100
AcDbDictionaryWithDefault
340
F
  0
DICTIONARY
  5
17
102
{ACAD_REACTORS
330
C
102
}
100
AcDbDictionary
280
0
281
1
  3
Standard
350
18
  0
DICTIONARY
  5
19
102
{ACAD_REACTORS
330
C
102
}
100
AcDbDictionary
281
1
  0
DICTIONARY
  5
1A
102
{ACAD_REACTORS
330
C
102
}
100
AcDbDictionary
281
1
  3
Model
350
36D
  3
Layout1
350
36E
  0
ACDBPLACEHOLDER
  5
F
102
{ACAD_REACTORS
330
E
102
}
  0
MLINESTYLE
  5
18
102
{ACAD_REACTORS
330
17
102
}
100
AcDbMlineStyle
  2
STANDARD
 70
0
  3

 62
256
 51
90.0
 52
90.0
 71
2
 49
0.5
 62
256
  6
BYLAYER
 49
-0.5
 62
256
  6
BYLAYER
  0
LAYOUT
  5
36D
102
{ACAD_REACTORS
330
1A
102
}
100
AcDbPlotSettings
  1

  2
none_device
  4
ISO_A4_(297.00_x_210.00_MM)
  6

 40
0.0
 41
0.0
 42
0.0
 43
0.0
 44
297.0
 45
210.0
 46
0.0
 47
0.0
 48
0.0
 49
0.0
140
0.0
141
0.0
142
1.0
143
1.0
 70
1024
 72
1
 73
0
 74
0
  7

 75
0
147
1.0
148
0.0
149
0.0
100
AcDbLayout
  1
Model
 70
0
 71
0
 10
0.0
 20
0.0
 11
297.0
 21
210.0
 12
0.0
 22
0.0
 32
0.0
 14
0.0
 24
0.0
 34
0.0
 15
0.0
 25
0.0
 35
0.0
146
0.0
 13
0.0
 23
0.0
 33
0.0
 16
1.0
 26
0.0
 36
0.0
 17
0.0
 27
1.0
 37
0.0
 76
0
330
21E
345
0
346
0
  0
LAYOUT
  5
36E
102
{ACAD_REACTORS
330
1A
102
}
100
AcDbPlotSettings
  1

  2
none_device
  4
ISO_A4_(297.00_x_210.00_MM)
  6

 40
0.0
 41
0.0
 42
0.0
 43
0.0
 44
297.0
 45
210.0
 46
0.0
 47
0.0
 48
0.0
 49
0.0
140
0.0
141
0.0
142
1.0
143
1.0
 70
0
 72
1
 73
0
 74
0
  7

 75
0
147
1.0
148
0.0
149
0.0
100
AcDbLayout
  1
Layout1
 70
0
 71
1
 10
0.0
 20
0.0
 11
297.0
 21
210.0
 12
0.0
 22
0.0
 32
0.0
 14
0.0
 24
0.0
 34
0.0
 15
0.0
 25
0.0
 35
0.0
146
0.0
 13
0.0
 23
0.0
 33
0.0
 16
1.0
 26
0.0
 36
0.0
 17
0.0
 27
1.0
 37
0.0
 76
0
330
21F
345
0
346
0
  0
ENDSEC
  0
EOF
